  0
SECTION
  2
HEADER
  9
$ACADVER
  1
AC1009
  9
$INSBASE
 10
0.0
 20
0.0
 30
0.0
  9
$LIMMIN
 10
0.0
 20
0.0
  9
$LIMMAX
 10
430.0000
 20
307.0000
  9
$EXTMIN
 10
99999999999999998000000000000000000000.0000
 20
99999999999999998000000000000000000000.0000
  9
$EXTMAX
 10
99999999999999998000000000000000000000.0000
 20
99999999999999998000000000000000000000.0000
  9
$VIEWCTR
 10
376.9129
 20
549.2392
  9
$VIEWSIZE
 40
826.4134
  9
$DIMLFAC
 40
0.6667
  9
$MEASUREMENT
 70
     1
  9
$DWGCODEPAGE
 3
ANSI_1250
  9
$CLAYER
  8
OBRYS
  9
$CELTYPE
  6
BYLAYER
  9
$CECOLOR
 62
  256
  9
$ORTHOMODE
 70
     0
  9
$REGENMODE
 70
     1
  9
$FILLMODE
 70
     1
  9
$QTEXTMODE
 70
     0
  9
$MIRRTEXT
 70
     1
  9
$DRAGMODE
 70
     2
  9
$LTSCALE
 40
1.0
  9
$OSMODE
 70
    37
  9
$ATTMODE
 70
     1
  9
$TEXTSIZE
 40
2.5
  9
$TRACEWID
 40
1.0
  9
$TEXTSTYLE
  7
STANDARD
  9
$CLAYER
  8
0
  9
$CELTYPE
  6
BYLAYER
  9
$CECOLOR
 62
   256
  9
$DIMSCALE
 40
1.0
  9
$DIMASZ
 40
2.5
  9
$DIMEXO
 40
0.625
  9
$DIMDLI
 40
3.75
  9
$DIMRND
 40
0.0
  9
$DIMDLE
 40
0.0
  9
$DIMEXE
 40
1.25
  9
$DIMTP
 40
0.0
  9
$DIMTM
 40
0.0
  9
$DIMTXT
 40
2.5
  9
$DIMCEN
 40
2.5
  9
$DIMTSZ
 40
0.0
  9
$DIMTOL
 70
     0
  9
$DIMLIM
 70
     0
  9
$DIMTIH
 70
     0
  9
$DIMTOH
 70
     0
  9
$DIMSE1
 70
     0
  9
$DIMSE2
 70
     0
  9
$DIMTAD
 70
     1
  9
$DIMZIN
 70
     8
  9
$DIMBLK
  1

  9
$DIMASO
 70
     1
  9
$DIMSHO
 70
     1
  9
$DIMPOST
  1

  9
$DIMAPOST
  1

  9
$DIMALT
 70
     0
  9
$DIMALTD
 70
     3
  9
$DIMALTF
 40
0.03937007874016
  9
$DIMTOFL
 70
     1
  9
$DIMTVP
 40
0.0
  9
$DIMTIX
 70
     0
  9
$DIMSOXD
 70
     0
  9
$DIMSAH
 70
     0
  9
$DIMBLK1
  1

  9
$DIMBLK2
  1

  9
$DIMSTYLE
  2
ISO-25
  9
$DIMCLRD
 70
     0
  9
$DIMCLRE
 70
     0
  9
$DIMCLRT
 70
     0
  9
$DIMTFAC
 40
1.0
  9
$DIMGAP
 40
0.625
  9
$LUNITS
 70
     2
  9
$LUPREC
 70
     4
  9
$SKETCHINC
 40
1.0
  9
$FILLETRAD
 40
10.0
  9
$AUNITS
 70
     0
  9
$AUPREC
 70
     0
  9
$MENU
  1
.
  9
$ELEVATION
 40
0.0
  9
$PELEVATION
 40
0.0
  9
$THICKNESS
 40
0.0
  9
$LIMCHECK
 70
     0
  9
$BLIPMODE
 70
     0
  9
$CHAMFERA
 40
10.0
  9
$CHAMFERB
 40
10.0
  9
$SKPOLY
 70
     0
  9
$TDCREATE
 40
2451579.5163292708
  9
$TDUPDATE
 40
2451579.6904035881
  9
$TDINDWG
 40
0.0082924769
  9
$TDUSRTIMER
 40
0.0082825116
  9
$USRTIMER
 70
     1
  9
$ANGBASE
 50
0.0
  9
$ANGDIR
 70
     0
  9
$PDMODE
 70
     0
  9
$PDSIZE
 40
0.0
  9
$PLINEWID
 40
0.0
  9
$COORDS
 70
     1
  9
$SPLFRAME
 70
     0
  9
$SPLINETYPE
 70
     6
  9
$SPLINESEGS
 70
     8
  9
$ATTDIA
 70
     0
  9
$ATTREQ
 70
     1
  9
$SURFTAB1
 70
     6
  9
$SURFTAB2
 70
     6
  9
$SURFTYPE
 70
     6
  9
$SURFU
 70
     6
  9
$SURFV
 70
     6
  9
$UCSNAME
  2

  9
$UCSORG
 10
0.0
 20
0.0
 30
0.0
  9
$UCSXDIR
 10
1.0
 20
0.0
 30
0.0
  9
$UCSYDIR
 10
0.0
 20
1.0
 30
0.0
  9
$PUCSNAME
  2

  9
$PUCSORG
 10
0.0
 20
0.0
 30
0.0
  9
$PUCSXDIR
 10
1.0
 20
0.0
 30
0.0
  9
$PUCSYDIR
 10
0.0
 20
1.0
 30
0.0
  9
$USERI1
 70
     0
  9
$USERI2
 70
     0
  9
$USERI3
 70
     0
  9
$USERI4
 70
     0
  9
$USERI5
 70
     0
  9
$USERR1
 40
0.0
  9
$USERR2
 40
0.0
  9
$USERR3
 40
0.0
  9
$USERR4
 40
0.0
  9
$USERR5
 40
0.0
  9
$WORLDVIEW
 70
     1
  9
$SHADEDGE
 70
     3
  9
$SHADEDIF
 70
    70
  9
$TILEMODE
 70
     1
  9
$MAXACTVP
 70
    64
  9
$PLIMCHECK
 70
     0
  9
$PEXTMIN
 10
1.0000000000000000E+020
 20
1.0000000000000000E+020
 30
1.0000000000000000E+020
  9
$PEXTMAX
 10
-1.0000000000000000E+020
 20
-1.0000000000000000E+020
 30
-1.0000000000000000E+020
  9
$PLIMMIN
 10
0.0
 20
0.0
  9
$PLIMMAX
 10
420.0
 20
297.0
  9
$UNITMODE
 70
     0
  9
$VISRETAIN
 70
     1
  9
$PLINEGEN
 70
     0
  9
$PSLTSCALE
 70
     1
  0
ENDSEC
  0
SECTION
  2
TABLES
  0
TABLE
  2
VPORT
 70
     2
  0
VPORT
  2
*ACTIVE
 70
     0
 10
0.0
 20
0.0
 11
1.0
 21
1.0
 12
376.9129
 22
549.2392
 13
0.0
 23
0.0
 14
10.0
 24
10.0
 15
10.0
 25
10.0
 16
0.0
 26
0.0
 36
1.0
 17
0.0
 27
0.0
 37
0.0
 40
826.4134
 41
1.6916
 42
50.0
 43
0.0
 44
0.0
 50
0.0
 51
0.0
 71
     0
 72
   100
 73
     1
 74
     3
 75
     0
 76
     0
 77
     0
 78
     0
  0
ENDTAB
  0
TABLE
  2
LTYPE
 70
     7
  0
LTYPE
  2
CONTINUOUS
 70
     0
  3
Solid line
 72
    65
 73
     0
 40
0.0
  0
LTYPE
  2
HIDDEN2
 70
     0
  3
Hidden (.5x) _ _ _ _ _ _ _ _ _ _ _ _ _ _ _ _ _
 72
    65
 73
     2
 40
5.1
 49
3.5
 49
-1.6
  0
LTYPE
  2
DASHDOT
 70
     0
  3
Dash dot __ . __ . __ . __ . __ . __ . __ . __
 72
    65
 73
     4
 40
10.4
 49
6.2
 49
-2.1
 49
0.0
 49
-2.1
  0
LTYPE
  2
DOT
 70
     0
  3
Dot . . . . . . . . . . . . . . . . . . . . . .
 72
    65
 73
     2
 40
2.2
 49
1.1
 49
-1.1
  0
LTYPE
  2
DASHED
 70
     0
  3
Dashed __ __ __ __ __ __ __ __ __ __ __ __ __ _
 72
    65
 73
     2
 40
11.049999999999979
 49
8.699999999999999
 49
-2.3499999999999979
  0
LTYPE
  2
PHANTOM2
 70
     0
  3
Phantom (.5x) ___ _ _ ___ _ _ ___ _ _ ___ _ _
 72
    65
 73
     6
 40
18.3
 49
7.8
 49
-2.1
 49
2.1
 49
-2.1
 49
2.1
 49
-2.1
  0
LTYPE
  2
CENTER
 70
     0
  3
Center ____ _ ____ _ ____ _ ____ _ ____ _ ____
 72
    65
 73
     4
 40
14.1
 49
7.8
 49
-2.1
 49
2.1
 49
-2.1
  0
ENDTAB
  0
TABLE
  2
LAYER
 70
     7
  0
LAYER
  2
0
 70
    64
 62
     7
  6
CONTINUOUS
  0
LAYER
  2
OBRYS
 70
    64
 62
     2
  6
CONTINUOUS
  0
LAYER
  2
OSA
 70
    64
 62
     7
  6
DASHDOT
  0
LAYER
  2
KOTA
 70
    64
 62
     3
  6
CONTINUOUS
  0
LAYER
  2
SRAFY
 70
    64
 62
     7
  6
CONTINUOUS
  0
LAYER
  2
POMOC
 70
    64
 62
     1
  6
DOT
  0
LAYER
  2
NEVIDITELNA
 70
    64
 62
     4
  6
HIDDEN2
  0
ENDTAB
  0
TABLE
  2
STYLE
 70
     1
  0
STYLE
  2
STANDARD
 70
     0
 40
0.0
 41
1.0
 50
0.0
 71
     0
 42
2.5
  3
txt
  4

  0
ENDTAB
  0
TABLE
  2
VIEW
 70
     0
  0
ENDTAB
  0
TABLE
  2
UCS
 70
     0
  0
ENDTAB
  0
TABLE
  2
APPID
 70
     1
  0
APPID
  2
ACAD
 70
     0
  0
ENDTAB
  0
TABLE
  2
DIMSTYLE
 70
     1
  0
DIMSTYLE
  2
ISO-25
 70
     0
  3

  4

  5

  6

  7

 40
1.0
 41
2.5
 42
0.625
 43
3.75
 44
1.25
 45
0.0
 46
0.0
 47
0.0
 48
0.0
140
2.5
141
2.5
142
0.0
143
0.03937007874016
144
1.0
145
0.0
146
1.0
147
0.625
 71
     0
 72
     0
 73
     0
 74
     0
 75
     0
 76
     0
 77
     1
 78
     8
170
     0
171
     3
172
     1
173
     0
174
     0
175
     0
176
     0
177
     0
178
     0
  0
ENDTAB
  0
ENDSEC
  0
SECTION
  2
BLOCKS
  0
BLOCK
  8
0
  2
$MODEL_SPACE
 70
     0
 10
0.0
 20
0.0
 30
0.0
  3
$MODEL_SPACE
  1

  0
ENDBLK
  8
0
  0
BLOCK
 67
     1
  8
0
  2
$PAPER_SPACE
 70
     0
 10
0.0
 20
0.0
 30
0.0
  3
$PAPER_SPACE
  1

  0
ENDBLK
 67
     1
  8
0
  0
BLOCK
  8
OBRYS
  2
_0
 70
   64
 10
587.024263
 20
464.555631
  0
LINE
  8
OBRYS
 10
595.024263
 20
420.989289
 11
595.024263
 21
424.749233
  0
LINE
  8
OBRYS
 10
586.024263
 20
403.555628
 11
586.024263
 21
417.801315
  0
LINE
  8
OBRYS
 10
582.024263
 20
393.555631
 11
582.024263
 21
415.489628
  0
LINE
  8
OBRYS
 10
594.647331
 20
419.820680
 11
591.407008
 21
415.320231
  0
ARC
  8
OBRYS
 10
593.024263
 20
420.989289
 40
2.000000
 50
324.246113
 51
360.000000
  0
LINE
  8
OBRYS
 10
594.647331
 20
421.532116
 11
590.743826
 21
416.110580
  0
ARC
  8
OBRYS
 10
588.024263
 20
413.003500
 40
2.000000
 50
140.449366
 51
180.000000
  0
LINE
  8
OBRYS
 10
586.482138
 20
414.277020
 11
590.419251
 21
419.044529
  0
ARC
  8
OBRYS
 10
591.961375
 20
417.771009
 40
2.000000
 50
140.449366
 51
220.000000
  0
LINE
  8
OBRYS
 10
603.556352
 20
400.841207
 11
590.429286
 21
416.485434
  0
ARC
  8
OBRYS
 10
593.024263
 20
422.700725
 40
2.000000
 50
324.246113
 51
360.000000
  0
LINE
  8
OBRYS
 62
     4
  6
HIDDEN2
 10
599.674263
 20
393.555631
 11
599.674263
 21
401.555631
  0
LINE
  8
OBRYS
 62
     4
  6
HIDDEN2
 10
592.374263
 20
401.555631
 11
592.374263
 21
393.555631
  0
LINE
  8
OBRYS
 62
     7
  6
DASHDOT
 10
596.024263
 20
388.555631
 11
596.024263
 21
406.555631
  0
ARC
  8
OBRYS
 10
602.024263
 20
399.555631
 40
2.000000
 50
0.000000
 51
40.000000
  0
ARC
  8
OBRYS
 10
602.024263
 20
399.555631
 40
2.000000
 50
40.000000
 51
90.000000
  0
ARC
  8
OBRYS
 10
588.024263
 20
403.555631
 40
2.000000
 50
180.000000
 51
270.000000
  0
LINE
  8
OBRYS
 10
588.024263
 20
401.555631
 11
602.024263
 21
401.555631
  0
LINE
  8
OBRYS
 10
604.024263
 20
393.555631
 11
582.024263
 21
393.555631
  0
LINE
  8
OBRYS
 62
     7
  6
DOT
 10
604.024263
 20
392.055631
 11
604.024263
 21
393.555631
  0
LINE
  8
OBRYS
 10
604.024263
 20
393.555631
 11
604.024263
 21
399.555631
  0
LINE
  8
OBRYS
 62
     7
  6
DOT
 10
582.024263
 20
392.055631
 11
582.024263
 21
393.555631
  0
ENDBLK
  8
OBRYS
  0
BLOCK
  8
OBRYS
  2
_1
 70
   64
 10
521.024263
 20
464.555631
  0
LINE
  8
OBRYS
 10
513.024263
 20
420.989289
 11
513.024263
 21
424.749233
  0
LINE
  8
OBRYS
 10
522.024263
 20
403.555628
 11
522.024263
 21
417.801315
  0
LINE
  8
OBRYS
 10
526.024263
 20
393.555631
 11
526.024263
 21
415.489628
  0
LINE
  8
OBRYS
 10
513.401194
 20
419.820680
 11
516.641518
 21
415.320231
  0
ARC
  8
OBRYS
 10
515.024263
 20
420.989289
 40
2.000000
 50
180.000000
 51
215.753887
  0
LINE
  8
OBRYS
 10
513.401194
 20
421.532116
 11
517.304700
 21
416.110580
  0
ARC
  8
OBRYS
 10
520.024263
 20
413.003500
 40
2.000000
 50
0.000000
 51
39.550634
  0
LINE
  8
OBRYS
 10
521.566387
 20
414.277020
 11
517.629275
 21
419.044529
  0
ARC
  8
OBRYS
 10
516.087150
 20
417.771009
 40
2.000000
 50
320.000000
 51
39.550634
  0
LINE
  8
OBRYS
 10
504.492174
 20
400.841207
 11
517.619239
 21
416.485434
  0
ARC
  8
OBRYS
 10
515.024263
 20
422.700725
 40
2.000000
 50
180.000000
 51
215.753887
  0
LINE
  8
OBRYS
 62
     4
  6
HIDDEN2
 10
508.374263
 20
393.555631
 11
508.374263
 21
401.555631
  0
LINE
  8
OBRYS
 62
     4
  6
HIDDEN2
 10
515.674263
 20
401.555631
 11
515.674263
 21
393.555631
  0
LINE
  8
OBRYS
 62
     7
  6
DASHDOT
 10
512.024263
 20
388.555631
 11
512.024263
 21
406.555631
  0
ARC
  8
OBRYS
 10
506.024263
 20
399.555631
 40
2.000000
 50
140.000000
 51
180.000000
  0
ARC
  8
OBRYS
 10
506.024263
 20
399.555631
 40
2.000000
 50
90.000000
 51
140.000000
  0
ARC
  8
OBRYS
 10
520.024263
 20
403.555631
 40
2.000000
 50
270.000000
 51
360.000000
  0
LINE
  8
OBRYS
 10
520.024263
 20
401.555631
 11
506.024263
 21
401.555631
  0
LINE
  8
OBRYS
 10
504.024263
 20
393.555631
 11
526.024263
 21
393.555631
  0
LINE
  8
OBRYS
 62
     7
  6
DOT
 10
504.024263
 20
392.055631
 11
504.024263
 21
393.555631
  0
LINE
  8
OBRYS
 10
504.024263
 20
393.555631
 11
504.024263
 21
399.555631
  0
LINE
  8
OBRYS
 62
     7
  6
DOT
 10
526.024263
 20
392.055631
 11
526.024263
 21
393.555631
  0
ENDBLK
  8
OBRYS
  0
BLOCK
  8
OSA
  2
_2
 70
   64
 10
554.024263
 20
504.555625
  0
CIRCLE
  8
OBRYS
 10
554.024263
 20
468.555625
 40
10.000000
  0
ARC
  8
OBRYS
 10
554.024263
 20
468.555625
 40
4.500000
 50
109.471221
 51
70.528779
  0
LINE
  8
OBRYS
 10
552.524263
 20
472.798266
 11
552.524263
 21
474.355625
  0
LINE
  8
OBRYS
 10
552.524263
 20
474.355625
 11
555.524263
 21
474.355625
  0
LINE
  8
OBRYS
 10
555.524263
 20
474.355625
 11
555.524263
 21
472.798266
  0
LINE
  8
OSA
 10
554.024263
 20
468.555625
 11
560.190929
 21
468.555625
  0
LINE
  8
OSA
 10
554.024263
 20
468.555625
 11
547.857596
 21
468.555625
  0
LINE
  8
OSA
 10
554.024263
 20
468.555625
 11
554.024263
 21
474.722292
  0
LINE
  8
OSA
 10
554.024263
 20
468.555625
 11
554.024263
 21
462.388958
  0
INSERT
  8
OSA
  2
Srouby_s_valcovou_hlavou___1
  6
CONTINUOUS
 10
554.024263
 20
440.555625
  0
INSERT
  8
OSA
  2
Srouby_s_valcovou_hlavou___2
  6
CONTINUOUS
 10
527.507758
 20
478.039121
  0
INSERT
  8
OSA
  2
Srouby_s_valcovou_hlavou___3
  6
CONTINUOUS
 10
580.540767
 20
478.039121
  0
LINE
  8
OSA
 10
527.507758
 20
478.039121
 11
534.117131
 21
478.039121
  0
LINE
  8
OSA
 10
527.507758
 20
478.039121
 11
520.898385
 21
478.039121
  0
LINE
  8
OSA
 10
527.507758
 20
478.039121
 11
527.507758
 21
484.648494
  0
LINE
  8
OSA
 10
527.507758
 20
478.039121
 11
527.507758
 21
471.429748
  0
LINE
  8
OSA
 10
580.540767
 20
478.039121
 11
587.150140
 21
478.039121
  0
LINE
  8
OSA
 10
580.540767
 20
478.039121
 11
573.931394
 21
478.039121
  0
LINE
  8
OSA
 10
580.540767
 20
478.039121
 11
580.540767
 21
484.648494
  0
LINE
  8
OSA
 10
580.540767
 20
478.039121
 11
580.540767
 21
471.429748
  0
LINE
  8
OSA
 10
527.507758
 20
531.072129
 11
534.117131
 21
531.072129
  0
LINE
  8
OSA
 10
527.507758
 20
531.072129
 11
520.898385
 21
531.072129
  0
LINE
  8
OSA
 10
527.507758
 20
531.072129
 11
527.507758
 21
537.681502
  0
LINE
  8
OSA
 10
527.507758
 20
531.072129
 11
527.507758
 21
524.462756
  0
LINE
  8
OSA
 10
580.540767
 20
531.072129
 11
580.540767
 21
524.462756
  0
LINE
  8
OSA
 10
580.540767
 20
531.072129
 11
580.540767
 21
537.681502
  0
LINE
  8
OSA
 10
580.540767
 20
531.072129
 11
573.931394
 21
531.072129
  0
LINE
  8
OSA
 10
580.540767
 20
531.072129
 11
587.150140
 21
531.072129
  0
INSERT
  8
OSA
  2
Srouby_s_valcovou_hlavou___4
  6
CONTINUOUS
 10
527.507758
 20
531.072129
  0
INSERT
  8
OSA
  2
Srouby_s_valcovou_hlavou___5
  6
CONTINUOUS
 10
580.540767
 20
531.072129
  0
LINE
  8
0
 62
     2
 10
517.543501
 20
516.191263
 11
517.543501
 21
519.555625
  0
LINE
  8
0
 62
     2
 10
590.505025
 20
516.191263
 11
590.505025
 21
519.555625
  0
ARC
  8
OBRYS
 10
554.024263
 20
468.555625
 40
55.000000
 50
90.000000
 51
270.000000
  0
ARC
  8
OBRYS
 10
529.303001
 20
429.763110
 40
2.000000
 50
57.491906
 51
145.000000
  0
LINE
  8
OBRYS
 10
527.664697
 20
430.910263
 11
523.646364
 21
425.171489
  0
ARC
  8
OBRYS
 10
525.284668
 20
424.024336
 40
2.000000
 50
145.000000
 51
237.162618
  0
ARC
  8
OBRYS
 10
554.024263
 20
468.555625
 40
44.000000
 50
90.000000
 51
270.000000
  0
ARC
  8
OBRYS
 10
509.492974
 20
439.816030
 40
2.000000
 50
212.837382
 51
305.000000
  0
LINE
  8
OBRYS
 10
516.378901
 20
442.196059
 11
510.640127
 21
438.177726
  0
ARC
  8
OBRYS
 10
515.231748
 20
443.834363
 40
2.000000
 50
305.000000
 51
32.508094
  0
LINE
  8
OBRYS
 10
494.863465
 20
458.555625
 11
499.793531
 21
459.388958
  0
LINE
  8
OBRYS
 10
494.863465
 20
478.555625
 11
499.793531
 21
477.722292
  0
ARC
  8
OBRYS
 10
515.231748
 20
493.276887
 40
2.000000
 50
327.491906
 51
55.000000
  0
LINE
  8
OBRYS
 10
516.378901
 20
494.915191
 11
510.640127
 21
498.933524
  0
ARC
  8
OBRYS
 10
509.492974
 20
497.295220
 40
2.000000
 50
55.000000
 51
147.162618
  0
ARC
  8
OBRYS
 10
525.284668
 20
513.086914
 40
2.000000
 50
122.837382
 51
215.000000
  0
LINE
  8
OBRYS
 10
527.664697
 20
506.200987
 11
523.646364
 21
511.939761
  0
ARC
  8
OBRYS
 10
529.303001
 20
507.348140
 40
2.000000
 50
215.000000
 51
302.508094
  0
ARC
  8
OBRYS
 10
578.745525
 20
507.348140
 40
2.000000
 50
237.491906
 51
325.000000
  0
LINE
  8
OBRYS
 10
580.383829
 20
506.200987
 11
584.402162
 21
511.939761
  0
ARC
  8
OBRYS
 10
582.763858
 20
513.086914
 40
2.000000
 50
325.000000
 51
57.162618
  0
ARC
  8
OBRYS
 10
598.555552
 20
497.295220
 40
2.000000
 50
32.837382
 51
125.000000
  0
LINE
  8
OBRYS
 10
591.669625
 20
494.915191
 11
597.408399
 21
498.933524
  0
ARC
  8
OBRYS
 10
592.816778
 20
493.276887
 40
2.000000
 50
125.000000
 51
212.508094
  0
LINE
  8
OBRYS
 10
613.185061
 20
478.555625
 11
608.254994
 21
477.722292
  0
LINE
  8
OBRYS
 10
613.185061
 20
458.555625
 11
608.254994
 21
459.388958
  0
ARC
  8
OBRYS
 10
592.816778
 20
443.834363
 40
2.000000
 50
147.491906
 51
235.000000
  0
LINE
  8
OBRYS
 10
591.669625
 20
442.196059
 11
597.408399
 21
438.177726
  0
ARC
  8
OBRYS
 10
598.555552
 20
439.816030
 40
2.000000
 50
235.000000
 51
327.162618
  0
ARC
  8
OBRYS
 10
554.024263
 20
468.555625
 40
44.000000
 50
270.000000
 51
90.000000
  0
ARC
  8
OBRYS
 10
582.763858
 20
424.024336
 40
2.000000
 50
302.837382
 51
35.000000
  0
LINE
  8
OBRYS
 10
580.383829
 20
430.910263
 11
584.402162
 21
425.171489
  0
ARC
  8
OBRYS
 10
578.745525
 20
429.763110
 40
2.000000
 50
35.000000
 51
122.508094
  0
ARC
  8
OBRYS
 10
554.024263
 20
468.555625
 40
55.000000
 50
270.000000
 51
90.000000
  0
CIRCLE
  8
OBRYS
 10
554.024263
 20
468.555625
 40
17.480000
  0
ARC
  8
OBRYS
 10
554.024263
 20
468.555625
 40
24.000000
 50
90.000000
 51
154.208906
  0
ARC
  8
OSA
 10
554.024263
 20
468.555625
 40
50.000000
 50
90.000000
 51
270.000000
  0
ARC
  8
OBRYS
 10
554.024263
 20
468.555625
 40
40.000000
 50
90.000000
 51
270.000000
  0
ARC
  8
OBRYS
 10
554.024263
 20
468.555625
 40
60.000000
 50
90.000000
 51
270.000000
  0
ARC
  8
OBRYS
 10
554.024263
 20
468.555625
 40
21.000000
 50
90.000000
 51
270.000000
  0
LINE
  8
OSA
 10
554.024263
 20
440.555625
 11
544.024250
 21
440.555625
  0
ARC
  8
OBRYS
 10
554.024246
 20
440.555625
 40
5.000000
 50
90.000000
 51
270.000000
  0
LINE
  8
OSA
 10
554.024263
 20
504.555625
 11
514.024266
 21
504.555625
  0
LINE
  8
OSA
 10
554.024263
 20
468.555625
 11
494.024263
 21
468.555625
  0
ARC
  8
OBRYS
 10
528.043501
 20
519.555625
 40
10.500000
 50
154.169919
 51
179.999994
  0
LINE
  8
0
 62
     2
 10
518.592554
 20
524.130514
 11
523.007308
 21
533.250648
  0
CIRCLE
  8
OBRYS
 10
527.507758
 20
478.039121
 40
5.000000
  0
ARC
  8
OBRYS
 10
527.507758
 20
531.072129
 40
5.000000
 50
269.999964
 51
360.000000
  0
ARC
  8
OBRYS
 10
520.786292
 20
524.072129
 40
2.000000
 50
90.000000
 51
154.169919
  0
LINE
  8
OBRYS
 10
527.507758
 20
526.072129
 11
520.786292
 21
526.072129
  0
CIRCLE
  8
OBRYS
 10
518.668924
 20
503.910964
 40
3.500000
  0
LINE
  8
OSA
 10
554.024263
 20
468.555625
 11
511.597856
 21
426.129218
  0
LINE
  8
OSA
 10
554.024263
 20
468.555625
 11
511.597856
 21
510.982032
  0
CIRCLE
  8
OBRYS
 10
518.668924
 20
433.200286
 40
3.500000
  0
ARC
  8
OBRYS
 10
527.507758
 20
478.039121
 40
5.000000
 50
356.832544
 51
45.000000
  0
ARC
  8
OBRYS
 10
554.024263
 20
468.555625
 40
24.000000
 50
166.432420
 51
263.365562
  0
ARC
  8
OBRYS
 10
554.024263
 20
468.555625
 40
24.000000
 50
276.634438
 51
13.567580
  0
ARC
  8
OBRYS
 10
580.540767
 20
478.039121
 40
5.000000
 50
135.000000
 51
183.167456
  0
CIRCLE
  8
OBRYS
 10
589.379602
 20
433.200286
 40
3.500000
  0
LINE
  8
OSA
 10
554.024263
 20
468.555625
 11
596.450670
 21
510.982032
  0
LINE
  8
OSA
 10
554.024263
 20
468.555625
 11
596.450670
 21
426.129218
  0
CIRCLE
  8
OBRYS
 10
589.379602
 20
503.910964
 40
3.500000
  0
LINE
  8
OBRYS
 10
580.540767
 20
526.072129
 11
587.262234
 21
526.072129
  0
ARC
  8
OBRYS
 10
587.262234
 20
524.072129
 40
2.000000
 50
25.830081
 51
90.000000
  0
ARC
  8
OBRYS
 10
580.540767
 20
531.072129
 40
5.000000
 50
180.000000
 51
270.000036
  0
CIRCLE
  8
OBRYS
 10
580.540767
 20
478.039121
 40
5.000000
  0
LINE
  8
0
 62
     2
 10
589.455971
 20
524.130514
 11
585.041218
 21
533.250648
  0
ARC
  8
OBRYS
 10
580.005025
 20
519.555625
 40
10.500000
 50
0.000006
 51
25.830081
  0
LINE
  8
OSA
 10
554.024263
 20
550.199672
 11
554.024263
 21
408.555625
  0
LINE
  8
OSA
 10
554.024263
 20
468.555625
 11
614.024263
 21
468.555625
  0
LINE
  8
OSA
 10
554.024263
 20
504.555625
 11
594.024259
 21
504.555625
  0
ARC
  8
OBRYS
 10
554.024279
 20
440.555625
 40
5.000000
 50
270.000000
 51
90.000000
  0
LINE
  8
OSA
 10
554.024263
 20
440.555625
 11
564.024276
 21
440.555625
  0
ARC
  8
OBRYS
 10
554.024263
 20
468.555625
 40
21.000000
 50
270.000000
 51
90.000000
  0
ARC
  8
OBRYS
 10
554.024263
 20
468.555625
 40
60.000000
 50
270.000000
 51
90.000000
  0
ARC
  8
OBRYS
 10
554.024263
 20
468.555625
 40
40.000000
 50
270.000000
 51
90.000000
  0
ARC
  8
OSA
 10
554.024263
 20
468.555625
 40
50.000000
 50
270.000000
 51
90.000000
  0
ARC
  8
OBRYS
 10
554.024263
 20
468.555625
 40
24.000000
 50
25.791094
 51
90.000000
  0
ARC
  8
OBRYS
 10
527.507758
 20
531.072129
 40
5.000000
 50
123.511664
 51
154.169919
  0
ARC
  8
OBRYS
 10
580.540767
 20
531.072129
 40
5.000000
 50
25.830081
 51
56.488335
  0
ARC
  8
OBRYS
 10
554.024263
 20
491.027717
 40
53.027909
 50
56.488379
 51
123.511629
  0
LINE
  8
OBRYS
 10
575.540767
 20
531.072129
 11
575.540767
 21
538.175924
  0
ARC
  8
OBRYS
 10
573.540767
 20
538.175924
 40
2.000000
 50
0.000000
 51
67.513406
  0
LINE
  8
OBRYS
 10
532.507758
 20
531.072129
 11
532.507758
 21
538.175924
  0
ARC
  8
OBRYS
 10
534.507758
 20
538.175924
 40
2.000000
 50
112.486594
 51
180.000000
  0
ENDBLK
  8
OSA
  0
BLOCK
  8
OSA
  2
Srouby_s_valcovou_hlavou___1
 70
   66
 10
554.024263
 20
440.555625
  0
LINE
  8
OSA
 62
     2
  6
CONTINUOUS
 10
552.024263
 20
439.400917
 11
552.024263
 21
441.710333
  0
LINE
  8
OSA
 62
     2
  6
CONTINUOUS
 10
552.024263
 20
441.710333
 11
554.024263
 21
442.865041
  0
LINE
  8
OSA
 62
     2
  6
CONTINUOUS
 10
554.024263
 20
442.865041
 11
556.024263
 21
441.710333
  0
LINE
  8
OSA
 62
     2
  6
CONTINUOUS
 10
556.024263
 20
441.710333
 11
556.024263
 21
439.400917
  0
LINE
  8
OSA
 62
     2
  6
CONTINUOUS
 10
556.024263
 20
439.400917
 11
554.024263
 21
438.246210
  0
LINE
  8
OSA
 62
     2
  6
CONTINUOUS
 10
554.024263
 20
438.246210
 11
552.024263
 21
439.400917
  0
CIRCLE
  8
OSA
 62
     2
  6
CONTINUOUS
 10
554.024263
 20
440.555625
 40
2.309415
  0
CIRCLE
  8
OSA
 62
     2
  6
CONTINUOUS
 10
554.024263
 20
440.555625
 40
4.250000
  0
ENDBLK
  8
OSA
  0
BLOCK
  8
OSA
  2
Srouby_s_valcovou_hlavou___2
 70
   66
 10
527.507758
 20
478.039121
  0
LINE
  8
OSA
 62
     2
  6
CONTINUOUS
 10
525.507758
 20
476.884413
 11
525.507758
 21
479.193829
  0
LINE
  8
OSA
 62
     2
  6
CONTINUOUS
 10
525.507758
 20
479.193829
 11
527.507758
 21
480.348536
  0
LINE
  8
OSA
 62
     2
  6
CONTINUOUS
 10
527.507758
 20
480.348536
 11
529.507758
 21
479.193829
  0
LINE
  8
OSA
 62
     2
  6
CONTINUOUS
 10
529.507758
 20
479.193829
 11
529.507758
 21
476.884413
  0
LINE
  8
OSA
 62
     2
  6
CONTINUOUS
 10
529.507758
 20
476.884413
 11
527.507758
 21
475.729705
  0
LINE
  8
OSA
 62
     2
  6
CONTINUOUS
 10
527.507758
 20
475.729705
 11
525.507758
 21
476.884413
  0
CIRCLE
  8
OSA
 62
     2
  6
CONTINUOUS
 10
527.507758
 20
478.039121
 40
2.309415
  0
CIRCLE
  8
OSA
 62
     2
  6
CONTINUOUS
 10
527.507758
 20
478.039121
 40
4.250000
  0
ENDBLK
  8
OSA
  0
BLOCK
  8
OSA
  2
Srouby_s_valcovou_hlavou___3
 70
   66
 10
580.540767
 20
478.039121
  0
LINE
  8
OSA
 62
     2
  6
CONTINUOUS
 10
578.540767
 20
476.884413
 11
578.540767
 21
479.193829
  0
LINE
  8
OSA
 62
     2
  6
CONTINUOUS
 10
578.540767
 20
479.193829
 11
580.540767
 21
480.348536
  0
LINE
  8
OSA
 62
     2
  6
CONTINUOUS
 10
580.540767
 20
480.348536
 11
582.540767
 21
479.193829
  0
LINE
  8
OSA
 62
     2
  6
CONTINUOUS
 10
582.540767
 20
479.193829
 11
582.540767
 21
476.884413
  0
LINE
  8
OSA
 62
     2
  6
CONTINUOUS
 10
582.540767
 20
476.884413
 11
580.540767
 21
475.729705
  0
LINE
  8
OSA
 62
     2
  6
CONTINUOUS
 10
580.540767
 20
475.729705
 11
578.540767
 21
476.884413
  0
CIRCLE
  8
OSA
 62
     2
  6
CONTINUOUS
 10
580.540767
 20
478.039121
 40
2.309415
  0
CIRCLE
  8
OSA
 62
     2
  6
CONTINUOUS
 10
580.540767
 20
478.039121
 40
4.250000
  0
ENDBLK
  8
OSA
  0
BLOCK
  8
OSA
  2
Srouby_s_valcovou_hlavou___4
 70
   66
 10
527.507758
 20
531.072129
  0
LINE
  8
OSA
 62
     2
  6
CONTINUOUS
 10
525.507758
 20
529.917422
 11
525.507758
 21
532.226837
  0
LINE
  8
OSA
 62
     2
  6
CONTINUOUS
 10
525.507758
 20
532.226837
 11
527.507758
 21
533.381545
  0
LINE
  8
OSA
 62
     2
  6
CONTINUOUS
 10
527.507758
 20
533.381545
 11
529.507758
 21
532.226837
  0
LINE
  8
OSA
 62
     2
  6
CONTINUOUS
 10
529.507758
 20
532.226837
 11
529.507758
 21
529.917422
  0
LINE
  8
OSA
 62
     2
  6
CONTINUOUS
 10
529.507758
 20
529.917422
 11
527.507758
 21
528.762714
  0
LINE
  8
OSA
 62
     2
  6
CONTINUOUS
 10
527.507758
 20
528.762714
 11
525.507758
 21
529.917422
  0
CIRCLE
  8
OSA
 62
     2
  6
CONTINUOUS
 10
527.507758
 20
531.072129
 40
2.309415
  0
CIRCLE
  8
OSA
 62
     2
  6
CONTINUOUS
 10
527.507758
 20
531.072129
 40
4.250000
  0
ENDBLK
  8
OSA
  0
BLOCK
  8
OSA
  2
Srouby_s_valcovou_hlavou___5
 70
   66
 10
580.540767
 20
531.072129
  0
LINE
  8
OSA
 62
     2
  6
CONTINUOUS
 10
578.540767
 20
529.917422
 11
578.540767
 21
532.226837
  0
LINE
  8
OSA
 62
     2
  6
CONTINUOUS
 10
578.540767
 20
532.226837
 11
580.540767
 21
533.381545
  0
LINE
  8
OSA
 62
     2
  6
CONTINUOUS
 10
580.540767
 20
533.381545
 11
582.540767
 21
532.226837
  0
LINE
  8
OSA
 62
     2
  6
CONTINUOUS
 10
582.540767
 20
532.226837
 11
582.540767
 21
529.917422
  0
LINE
  8
OSA
 62
     2
  6
CONTINUOUS
 10
582.540767
 20
529.917422
 11
580.540767
 21
528.762714
  0
LINE
  8
OSA
 62
     2
  6
CONTINUOUS
 10
580.540767
 20
528.762714
 11
578.540767
 21
529.917422
  0
CIRCLE
  8
OSA
 62
     2
  6
CONTINUOUS
 10
580.540767
 20
531.072129
 40
2.309415
  0
CIRCLE
  8
OSA
 62
     2
  6
CONTINUOUS
 10
580.540767
 20
531.072129
 40
4.250000
  0
ENDBLK
  8
OSA
  0
BLOCK
  8
OBRYS
  2
_3
 70
   64
 10
764.834956
 20
504.555625
  0
LINE
  8
OBRYS
 10
787.834967
 20
487.704889
 11
769.834966
 21
487.704889
  0
LINE
  8
OBRYS
 10
787.834967
 20
534.451580
 11
769.834966
 21
534.451580
  0
LINE
  8
OBRYS
 10
787.834967
 20
521.963347
 11
769.834966
 21
521.963347
  0
LINE
  8
OBRYS
 10
765.834967
 20
504.555625
 11
765.834967
 21
540.473396
  0
LINE
  8
OBRYS
 10
765.834967
 20
439.555625
 11
765.834967
 21
504.555625
  0
LINE
  8
OBRYS
 10
764.834956
 20
534.536013
 11
764.834956
 21
504.555625
  0
LINE
  8
OBRYS
 10
764.834956
 20
504.555625
 11
764.834945
 21
474.574863
  0
LINE
  8
OBRYS
 10
787.834967
 20
451.075625
 11
787.834967
 21
435.555625
  0
ARC
  8
OBRYS
 10
769.834967
 20
439.555625
 40
4.000000
 50
180.000000
 51
270.000000
  0
ARC
  8
OBRYS
 10
764.862312
 20
535.536013
 40
1.000000
 50
270.000000
 51
354.004934
  0
ARC
  8
OBRYS
 10
769.834967
 20
540.055625
 40
4.000000
 50
90.000000
 51
174.004934
  0
ARC
  8
OBRYS
 10
764.834956
 20
473.574863
 40
1.000000
 50
0.000000
 51
90.000000
  0
LINE
  8
OBRYS
 10
764.834956
 20
534.536013
 11
764.862312
 21
534.536013
  0
LINE
  8
OSA
 10
754.334970
 20
504.555625
 11
795.334963
 21
504.555625
  0
LINE
  8
OBRYS
 10
787.834967
 20
544.055625
 11
769.834967
 21
544.055625
  0
LINE
  8
OBRYS
 10
787.834967
 20
504.555625
 11
787.834967
 21
544.055625
  0
LINE
  8
OBRYS
 10
787.834967
 20
451.075625
 11
787.834967
 21
504.555625
  0
LINE
  8
OBRYS
 10
769.834967
 20
435.555625
 11
787.834967
 21
435.555625
  0
LINE
  8
OBRYS
 10
787.834967
 20
451.075625
 11
787.834967
 21
435.555625
  0
LINE
  8
OBRYS
 10
787.834967
 20
451.075625
 11
787.834967
 21
468.555625
  0
LINE
  8
OSA
 10
785.993248
 20
440.555625
 11
820.054595
 21
440.555625
  0
LINE
  8
OSA
 10
786.163009
 20
504.555625
 11
815.554598
 21
504.555625
  0
LINE
  8
OBRYS
 10
813.334967
 20
476.555625
 11
813.334967
 21
460.555625
  0
LINE
  8
OBRYS
 10
814.334967
 20
459.388958
 11
816.834967
 21
459.388958
  0
ARC
  8
OBRYS
 10
814.334967
 20
460.388958
 40
1.000000
 50
180.000000
 51
270.000000
  0
LINE
  8
OBRYS
 10
815.334967
 20
458.555625
 11
816.834967
 21
458.555625
  0
ARC
  8
OBRYS
 10
815.334967
 20
460.555625
 40
2.000000
 50
180.000000
 51
270.000000
  0
ARC
  8
OBRYS
 10
815.334967
 20
476.555625
 40
2.000000
 50
90.000000
 51
180.000000
  0
LINE
  8
OBRYS
 10
815.334967
 20
478.555625
 11
816.834967
 21
478.555625
  0
ARC
  8
OBRYS
 10
814.334967
 20
476.722292
 40
1.000000
 50
90.000000
 51
180.000000
  0
LINE
  8
OBRYS
 10
814.334967
 20
477.722292
 11
816.834967
 21
477.722292
  0
LINE
  8
OSA
 10
783.834967
 20
531.072129
 11
800.834967
 21
531.072129
  0
LINE
  8
OBRYS
 10
796.834967
 20
479.497570
 11
796.834967
 21
540.055625
  0
LINE
  8
OBRYS
 10
807.834967
 20
526.555625
 11
807.834967
 21
468.555625
  0
LINE
  8
OBRYS
 10
807.834967
 20
410.555625
 11
807.834967
 21
468.555625
  0
ARC
  8
OBRYS
 10
792.834967
 20
540.055625
 40
4.000000
 50
0.000000
 51
90.000000
  0
ARC
  8
OBRYS
 10
798.834967
 20
497.555625
 40
2.000000
 50
180.000000
 51
270.000000
  0
LINE
  8
OSA
 10
801.054602
 20
418.555625
 11
824.054595
 21
418.555625
  0
LINE
  8
OBRYS
 10
792.834967
 20
544.055625
 11
787.834967
 21
544.055625
  0
LINE
  8
OBRYS
 10
787.834967
 20
468.555625
 11
787.834967
 21
544.055625
  0
LINE
  8
OSA
 10
786.067518
 20
468.555625
 11
815.554598
 21
468.555625
  0
LINE
  8
OBRYS
 10
792.834967
 20
528.072129
 11
792.834967
 21
542.055625
  0
ARC
  8
OBRYS
 10
790.834967
 20
542.055625
 40
2.000000
 50
0.000000
 51
90.000000
  0
LINE
  8
OBRYS
 10
816.834967
 20
528.555625
 11
809.834967
 21
528.555625
  0
ARC
  8
OBRYS
 10
809.834967
 20
526.555625
 40
2.000000
 50
90.000000
 51
180.000000
  0
LINE
  8
OBRYS
 10
816.834967
 20
408.555625
 11
809.834967
 21
408.555625
  0
ARC
  8
OBRYS
 10
809.834967
 20
410.555625
 40
2.000000
 50
180.000000
 51
270.000000
  0
ARC
  8
OBRYS
 10
805.834967
 20
433.555625
 40
2.000000
 50
0.000000
 51
90.000000
  0
ARC
  8
OBRYS
 10
805.834967
 20
497.555625
 40
2.000000
 50
270.000000
 51
360.000000
  0
LINE
  8
OBRYS
 10
798.834967
 20
495.555625
 11
805.834967
 21
495.555625
  0
LINE
  8
OBRYS
 10
805.834967
 20
435.555625
 11
787.834967
 21
435.555625
  0
LINE
  8
OBRYS
 10
815.834967
 20
477.722292
 11
815.834967
 21
459.388958
  0
LINE
  8
OBRYS
 10
816.834967
 20
528.555625
 11
816.834967
 21
477.722292
  0
LINE
  8
OBRYS
 10
816.834967
 20
459.388958
 11
816.834967
 21
408.555625
  0
INSERT
  8
OBRYS
  2
Srouby_s_valcovou_hlavou___7
 62
     7
 10
255.340353
 20
531.072129
  0
ARC
  8
OBRYS
 10
794.834967
 20
526.822129
 40
2.000000
 50
180.000000
 51
270.000000
  0
ARC
  8
OBRYS
 10
794.834967
 20
522.822129
 40
2.000000
 50
0.000000
 51
90.000000
  0
ENDBLK
  8
OBRYS
  0
BLOCK
  8
OBRYS
  2
Srouby_s_valcovou_hlavou___7
 70
   66
 10
255.340353
 20
531.072129
  0
LINE
  8
OBRYS
 10
796.334967
 20
527.322129
 11
796.334967
 21
534.822129
  0
LINE
  8
OBRYS
 10
795.834967
 20
526.822129
 11
792.834967
 21
526.822129
  0
LINE
  8
OBRYS
 10
792.834967
 20
526.822129
 11
792.834967
 21
535.322129
  0
LINE
  8
OBRYS
 10
792.834967
 20
535.322129
 11
795.834967
 21
535.322129
  0
ARC
  8
OBRYS
 10
795.834967
 20
527.322129
 40
0.500000
 50
270.000000
 51
360.000000
  0
ARC
  8
OBRYS
 10
795.834967
 20
534.822129
 40
0.500000
 50
0.000000
 51
90.000000
  0
LINE
  8
OBRYS
 62
     7
  6
DOT
 10
796.334967
 20
528.762714
 11
794.668300
 21
528.762714
  0
LINE
  8
OBRYS
 62
     7
  6
DOT
 10
796.334967
 20
529.917422
 11
794.668300
 21
529.917422
  0
LINE
  8
OBRYS
 62
     7
  6
DOT
 10
796.334967
 20
532.226837
 11
794.668300
 21
532.226837
  0
LINE
  8
OBRYS
 62
     7
  6
DOT
 10
796.334967
 20
533.381545
 11
794.668300
 21
533.381545
  0
ARC
  8
OBRYS
 62
     7
  6
DOT
 10
796.668306
 20
529.340068
 40
0.666673
 50
120.000310
 51
239.999690
  0
ARC
  8
OBRYS
 62
     7
  6
DOT
 10
798.168325
 20
531.072129
 40
2.166692
 50
147.795963
 51
212.204037
  0
ARC
  8
OBRYS
 62
     7
  6
DOT
 10
796.668306
 20
532.804191
 40
0.666673
 50
120.000310
 51
239.999690
  0
ARC
  8
OBRYS
 62
     7
  6
DOT
 10
795.001640
 20
529.340068
 40
0.666673
 50
120.000310
 51
239.999690
  0
ARC
  8
OBRYS
 62
     7
  6
DOT
 10
796.501658
 20
531.072129
 40
2.166692
 50
147.795963
 51
212.204037
  0
ARC
  8
OBRYS
 62
     7
  6
DOT
 10
795.001640
 20
532.804191
 40
0.666673
 50
120.000310
 51
239.999690
  0
LINE
  8
OBRYS
 62
     7
  6
DOT
 10
794.334967
 20
529.340068
 11
793.180259
 21
531.072129
  0
LINE
  8
OBRYS
 62
     7
  6
DOT
 10
793.180259
 20
531.072129
 11
794.334967
 21
532.804191
  0
ENDBLK
  8
OBRYS
  0
BLOCK
  8
OBRYS
  2
_4
 70
   64
 10
313.276967
 20
302.592443
  0
LINE
  8
OBRYS
 10
290.276956
 20
266.111680
 11
290.276956
 21
339.073205
  0
ARC
  8
OBRYS
 10
268.276956
 20
244.592443
 40
2.000000
 50
270.000000
 51
360.000000
  0
LINE
  8
OBRYS
 10
261.276956
 20
242.592443
 11
268.276956
 21
242.592443
  0
ARC
  8
OBRYS
 10
268.276956
 20
360.592443
 40
2.000000
 50
0.000000
 51
90.000000
  0
LINE
  8
OBRYS
 10
261.276956
 20
362.592443
 11
268.276956
 21
362.592443
  0
LINE
  8
OSA
 10
292.044404
 20
302.592443
 11
262.557324
 21
302.592443
  0
LINE
  8
OBRYS
 10
270.276956
 20
244.592443
 11
270.276956
 21
302.592443
  0
LINE
  8
OBRYS
 10
270.276956
 20
360.592443
 11
270.276956
 21
302.592443
  0
LINE
  8
OBRYS
 10
261.276956
 20
302.592443
 11
261.276956
 21
242.592443
  0
LINE
  8
OBRYS
 10
261.276956
 20
362.592443
 11
261.276956
 21
302.592443
  0
LINE
  8
OBRYS
 10
290.276956
 20
333.028066
 11
286.210413
 21
333.028066
  0
ARC
  8
OBRYS
 10
283.276956
 20
326.108947
 40
2.000000
 50
270.000000
 51
360.000000
  0
ARC
  8
OBRYS
 10
283.276956
 20
322.108947
 40
2.000000
 50
90.000000
 51
180.000000
  0
ARC
  8
OBRYS
 10
287.276956
 20
337.073205
 40
2.000000
 50
90.000000
 51
180.000000
  0
LINE
  8
OBRYS
 10
285.276956
 20
337.073205
 11
285.276956
 21
268.111680
  0
ARC
  8
OBRYS
 10
287.276956
 20
268.111680
 40
2.000000
 50
180.000000
 51
270.000000
  0
ARC
  8
OBRYS
 10
283.276956
 20
283.075938
 40
2.000000
 50
180.000000
 51
270.000000
  0
ARC
  8
OBRYS
 10
283.276956
 20
279.075938
 40
2.000000
 50
0.000000
 51
90.000000
  0
LINE
  8
OBRYS
 10
290.276956
 20
272.156819
 11
286.210413
 21
272.156819
  0
LINE
  8
OSA
 10
287.680520
 20
276.075938
 11
277.276956
 21
276.075938
  0
INSERT
  8
OBRYS
  2
Srouby_s_valcovou_hlavou___9
 62
     7
 10
285.276956
 20
276.075938
  0
INSERT
  8
OBRYS
  2
Srouby_s_valcovou_hlavou___10
 62
     7
 10
285.276956
 20
329.108947
  0
LINE
  8
OSA
 10
287.680520
 20
329.108947
 11
277.276956
 21
329.108947
  0
ARC
  8
OBRYS
 10
279.776956
 20
267.356652
 40
1.500000
 50
4.876572
 51
90.000000
  0
ARC
  8
OBRYS
 10
282.766096
 20
267.611680
 40
1.500000
 50
184.876572
 51
270.000000
  0
LINE
  8
OBRYS
 10
271.776956
 20
268.856652
 11
279.776956
 21
268.856652
  0
ARC
  8
OBRYS
 10
271.776956
 20
267.356652
 40
1.500000
 50
90.000000
 51
180.000000
  0
ARC
  8
OBRYS
 10
271.776956
 20
337.828233
 40
1.500000
 50
180.000000
 51
270.000000
  0
LINE
  8
OBRYS
 10
271.776956
 20
336.328233
 11
279.776956
 21
336.328233
  0
ARC
  8
OBRYS
 10
282.766096
 20
337.573205
 40
1.500000
 50
90.000000
 51
175.123428
  0
ARC
  8
OBRYS
 10
279.776956
 20
337.828233
 40
1.500000
 50
270.000000
 51
355.123428
  0
LINE
  8
OBRYS
 10
281.276956
 20
337.393036
 11
281.276956
 21
267.791849
  0
LINE
  8
OBRYS
 10
282.766079
 20
266.111680
 11
290.276956
 21
266.111680
  0
LINE
  8
OBRYS
 10
282.766081
 20
339.073205
 11
290.276956
 21
339.073205
  0
LINE
  8
OBRYS
 10
290.276956
 20
272.156819
 11
308.276957
 21
272.156819
  0
LINE
  8
OBRYS
 10
290.276956
 20
333.028066
 11
308.276957
 21
333.028066
  0
LINE
  8
OBRYS
 10
312.276956
 20
302.592443
 11
312.276956
 21
335.490976
  0
LINE
  8
OBRYS
 10
312.276956
 20
270.111680
 11
312.276956
 21
302.592443
  0
LINE
  8
OBRYS
 10
313.276967
 20
329.092068
 11
313.276967
 21
302.592443
  0
LINE
  8
OBRYS
 10
313.276967
 20
302.592443
 11
313.276978
 21
276.092443
  0
ARC
  8
OBRYS
 10
308.276956
 20
270.111680
 40
4.000000
 50
270.000000
 51
360.000000
  0
ARC
  8
OBRYS
 10
313.249610
 20
330.092068
 40
1.000000
 50
185.995066
 51
270.000000
  0
ARC
  8
OBRYS
 10
308.276956
 20
335.073205
 40
4.000000
 50
5.995066
 51
90.000000
  0
ARC
  8
OBRYS
 10
313.276967
 20
275.092443
 40
1.000000
 50
90.000000
 51
180.000000
  0
LINE
  8
OBRYS
 10
313.276967
 20
329.092068
 11
313.249610
 21
329.092068
  0
LINE
  8
OSA
 10
323.776952
 20
302.592443
 11
282.776959
 21
302.592443
  0
LINE
  8
OBRYS
 10
290.276956
 20
339.073205
 11
308.276956
 21
339.073205
  0
LINE
  8
OBRYS
 10
290.276956
 20
302.592443
 11
290.276956
 21
339.073205
  0
LINE
  8
OBRYS
 10
290.276956
 20
266.111680
 11
290.276956
 21
302.592443
  0
LINE
  8
OBRYS
 10
308.276956
 20
266.111680
 11
290.276956
 21
266.111680
  0
ENDBLK
  8
OBRYS
  0
BLOCK
  8
OBRYS
  2
Srouby_s_valcovou_hlavou___9
 70
   66
 10
285.276956
 20
276.075938
  0
LINE
  8
OBRYS
 10
281.776956
 20
272.325938
 11
281.776956
 21
279.825938
  0
LINE
  8
OBRYS
 10
282.276956
 20
271.825938
 11
285.276956
 21
271.825938
  0
LINE
  8
OBRYS
 10
285.276956
 20
271.825938
 11
285.276956
 21
280.325938
  0
LINE
  8
OBRYS
 10
285.276956
 20
280.325938
 11
282.276956
 21
280.325938
  0
ARC
  8
OBRYS
 10
282.276956
 20
272.325938
 40
0.500000
 50
180.000000
 51
270.000000
  0
ARC
  8
OBRYS
 10
282.276956
 20
279.825938
 40
0.500000
 50
90.000000
 51
180.000000
  0
LINE
  8
OBRYS
 62
     7
  6
DOT
 10
281.776956
 20
273.766523
 11
283.443622
 21
273.766523
  0
LINE
  8
OBRYS
 62
     7
  6
DOT
 10
281.776956
 20
274.921230
 11
283.443622
 21
274.921230
  0
LINE
  8
OBRYS
 62
     7
  6
DOT
 10
281.776956
 20
277.230646
 11
283.443622
 21
277.230646
  0
LINE
  8
OBRYS
 62
     7
  6
DOT
 10
281.776956
 20
278.385354
 11
283.443622
 21
278.385354
  0
ARC
  8
OBRYS
 62
     7
  6
DOT
 10
281.443616
 20
274.343877
 40
0.666673
 50
300.000310
 51
59.999690
  0
ARC
  8
OBRYS
 62
     7
  6
DOT
 10
279.943597
 20
276.075938
 40
2.166692
 50
327.795963
 51
32.204037
  0
ARC
  8
OBRYS
 62
     7
  6
DOT
 10
281.443616
 20
277.808000
 40
0.666673
 50
300.000310
 51
59.999690
  0
ARC
  8
OBRYS
 62
     7
  6
DOT
 10
283.110283
 20
274.343877
 40
0.666673
 50
300.000310
 51
59.999690
  0
ARC
  8
OBRYS
 62
     7
  6
DOT
 10
281.610264
 20
276.075938
 40
2.166692
 50
327.795963
 51
32.204037
  0
ARC
  8
OBRYS
 62
     7
  6
DOT
 10
283.110283
 20
277.808000
 40
0.666673
 50
300.000310
 51
59.999690
  0
LINE
  8
OBRYS
 62
     7
  6
DOT
 10
283.776956
 20
274.343877
 11
284.931664
 21
276.075938
  0
LINE
  8
OBRYS
 62
     7
  6
DOT
 10
284.931664
 20
276.075938
 11
283.776956
 21
277.808000
  0
ENDBLK
  8
OBRYS
  0
BLOCK
  8
OBRYS
  2
Srouby_s_valcovou_hlavou___10
 70
   66
 10
285.276956
 20
329.108947
  0
LINE
  8
OBRYS
 10
281.776956
 20
332.858947
 11
281.776956
 21
325.358947
  0
LINE
  8
OBRYS
 10
282.276956
 20
333.358947
 11
285.276956
 21
333.358947
  0
LINE
  8
OBRYS
 10
285.276956
 20
333.358947
 11
285.276956
 21
324.858947
  0
LINE
  8
OBRYS
 10
285.276956
 20
324.858947
 11
282.276956
 21
324.858947
  0
ARC
  8
OBRYS
 10
282.276956
 20
332.858947
 40
0.500000
 50
90.000000
 51
180.000000
  0
ARC
  8
OBRYS
 10
282.276956
 20
325.358947
 40
0.500000
 50
180.000000
 51
270.000000
  0
LINE
  8
OBRYS
 62
     7
  6
DOT
 10
281.776956
 20
331.418362
 11
283.443622
 21
331.418362
  0
LINE
  8
OBRYS
 62
     7
  6
DOT
 10
281.776956
 20
330.263655
 11
283.443622
 21
330.263655
  0
LINE
  8
OBRYS
 62
     7
  6
DOT
 10
281.776956
 20
327.954239
 11
283.443622
 21
327.954239
  0
LINE
  8
OBRYS
 62
     7
  6
DOT
 10
281.776956
 20
326.799531
 11
283.443622
 21
326.799531
  0
ARC
  8
OBRYS
 62
     7
  6
DOT
 10
281.443616
 20
330.841008
 40
0.666673
 50
300.000310
 51
59.999690
  0
ARC
  8
OBRYS
 62
     7
  6
DOT
 10
279.943597
 20
329.108947
 40
2.166692
 50
327.795963
 51
32.204037
  0
ARC
  8
OBRYS
 62
     7
  6
DOT
 10
281.443616
 20
327.376885
 40
0.666673
 50
300.000310
 51
59.999690
  0
ARC
  8
OBRYS
 62
     7
  6
DOT
 10
283.110283
 20
330.841008
 40
0.666673
 50
300.000310
 51
59.999690
  0
ARC
  8
OBRYS
 62
     7
  6
DOT
 10
281.610264
 20
329.108947
 40
2.166692
 50
327.795963
 51
32.204037
  0
ARC
  8
OBRYS
 62
     7
  6
DOT
 10
283.110283
 20
327.376885
 40
0.666673
 50
300.000310
 51
59.999690
  0
LINE
  8
OBRYS
 62
     7
  6
DOT
 10
283.776956
 20
330.841008
 11
284.931664
 21
329.108947
  0
LINE
  8
OBRYS
 62
     7
  6
DOT
 10
284.931664
 20
329.108947
 11
283.776956
 21
327.376885
  0
ENDBLK
  8
OBRYS
  0
BLOCK
  8
OBRYS
  2
_5
 70
   64
 10
313.276967
 20
654.302921
  0
LINE
  8
OBRYS
 10
261.276956
 20
594.302921
 11
261.276956
 21
654.302921
  0
LINE
  8
OBRYS
 10
261.276956
 20
654.302921
 11
261.276956
 21
714.302921
  0
LINE
  8
OBRYS
 10
270.276956
 20
596.302921
 11
270.276956
 21
654.302921
  0
LINE
  8
OBRYS
 10
270.276956
 20
712.302921
 11
270.276956
 21
654.302921
  0
LINE
  8
OSA
 10
292.044404
 20
654.302921
 11
262.557324
 21
654.302921
  0
LINE
  8
OBRYS
 10
261.276956
 20
594.302921
 11
268.276956
 21
594.302921
  0
ARC
  8
OBRYS
 10
268.276956
 20
596.302921
 40
2.000000
 50
270.000000
 51
360.000000
  0
LINE
  8
OBRYS
 10
261.276956
 20
714.302921
 11
268.276956
 21
714.302921
  0
ARC
  8
OBRYS
 10
268.276956
 20
712.302921
 40
2.000000
 50
0.000000
 51
90.000000
  0
LINE
  8
OBRYS
 10
290.276956
 20
690.783683
 11
290.276956
 21
617.822159
  0
ARC
  8
OBRYS
 10
279.776956
 20
619.067130
 40
1.500000
 50
4.876572
 51
90.000000
  0
ARC
  8
OBRYS
 10
282.766096
 20
619.322159
 40
1.500000
 50
184.876572
 51
270.000000
  0
LINE
  8
OBRYS
 10
271.776956
 20
620.567130
 11
279.776956
 21
620.567130
  0
ARC
  8
OBRYS
 10
271.776956
 20
619.067130
 40
1.500000
 50
90.000000
 51
180.000000
  0
ARC
  8
OBRYS
 10
271.776956
 20
689.538712
 40
1.500000
 50
180.000000
 51
270.000000
  0
LINE
  8
OBRYS
 10
271.776956
 20
688.038712
 11
279.776956
 21
688.038712
  0
ARC
  8
OBRYS
 10
282.766096
 20
689.283683
 40
1.500000
 50
90.000000
 51
175.123428
  0
ARC
  8
OBRYS
 10
279.776956
 20
689.538712
 40
1.500000
 50
270.000000
 51
355.123428
  0
LINE
  8
OBRYS
 10
282.766111
 20
617.822159
 11
290.276956
 21
617.822159
  0
LINE
  8
OBRYS
 10
282.766111
 20
690.783683
 11
290.276956
 21
690.783683
  0
LINE
  8
OBRYS
 10
308.276956
 20
690.783683
 11
290.276956
 21
690.783683
  0
LINE
  8
OBRYS
 10
290.276956
 20
690.783683
 11
290.276956
 21
654.302921
  0
LINE
  8
OBRYS
 10
290.276956
 20
654.302921
 11
290.276956
 21
617.822159
  0
LINE
  8
OBRYS
 10
290.276956
 20
617.822159
 11
308.276956
 21
617.822159
  0
LINE
  8
OSA
 10
323.776952
 20
654.302921
 11
282.776959
 21
654.302921
  0
LINE
  8
OBRYS
 10
313.304323
 20
627.802921
 11
313.276967
 21
627.802921
  0
ARC
  8
OBRYS
 10
313.276967
 20
681.802921
 40
1.000000
 50
180.000000
 51
270.000000
  0
ARC
  8
OBRYS
 10
308.276956
 20
621.822159
 40
4.000000
 50
270.000000
 51
354.004934
  0
ARC
  8
OBRYS
 10
313.276967
 20
626.802921
 40
1.000000
 50
90.000000
 51
174.004934
  0
ARC
  8
OBRYS
 10
308.276956
 20
686.783683
 40
4.000000
 50
0.000000
 51
90.000000
  0
LINE
  8
OBRYS
 10
313.276967
 20
654.302921
 11
313.276978
 21
680.802921
  0
LINE
  8
OBRYS
 10
313.304323
 20
627.802921
 11
313.276967
 21
654.302921
  0
LINE
  8
OBRYS
 10
312.276956
 20
686.783683
 11
312.276956
 21
654.302921
  0
LINE
  8
OBRYS
 10
312.276956
 20
654.302921
 11
312.276956
 21
621.404388
  0
ENDBLK
  8
OBRYS
  0
BLOCK
  8
OBRYS
  2
_6
 70
   64
 10
313.276967
 20
504.555625
  0
LINE
  8
OBRYS
 10
290.276956
 20
487.704889
 11
308.276957
 21
487.704889
  0
LINE
  8
OBRYS
 10
290.276956
 20
534.451580
 11
308.276957
 21
534.451580
  0
LINE
  8
OBRYS
 10
290.276956
 20
521.963347
 11
308.276957
 21
521.963347
  0
LINE
  8
OBRYS
 10
312.276956
 20
504.555625
 11
312.276956
 21
540.473396
  0
LINE
  8
OBRYS
 10
312.276956
 20
439.555625
 11
312.276956
 21
504.555625
  0
LINE
  8
OBRYS
 10
313.276967
 20
534.536013
 11
313.276967
 21
504.555625
  0
LINE
  8
OBRYS
 10
313.276967
 20
504.555625
 11
313.276978
 21
474.574863
  0
LINE
  8
OBRYS
 10
290.276956
 20
451.075625
 11
290.276956
 21
435.555625
  0
ARC
  8
OBRYS
 10
308.276956
 20
439.555625
 40
4.000000
 50
270.000000
 51
360.000000
  0
ARC
  8
OBRYS
 10
313.249610
 20
535.536013
 40
1.000000
 50
185.995066
 51
270.000000
  0
ARC
  8
OBRYS
 10
308.276956
 20
540.055625
 40
4.000000
 50
5.995066
 51
90.000000
  0
ARC
  8
OBRYS
 10
313.276967
 20
473.574863
 40
1.000000
 50
90.000000
 51
180.000000
  0
LINE
  8
OBRYS
 10
313.276967
 20
534.536013
 11
313.249610
 21
534.536013
  0
LINE
  8
OSA
 10
323.776952
 20
504.555625
 11
282.776959
 21
504.555625
  0
LINE
  8
OBRYS
 10
290.276956
 20
544.055625
 11
308.276956
 21
544.055625
  0
LINE
  8
OBRYS
 10
290.276956
 20
504.555625
 11
290.276956
 21
544.055625
  0
LINE
  8
OBRYS
 10
290.276956
 20
451.075625
 11
290.276956
 21
504.555625
  0
LINE
  8
OBRYS
 10
308.276956
 20
435.555625
 11
290.276956
 21
435.555625
  0
LINE
  8
OBRYS
 10
290.276956
 20
451.075625
 11
290.276956
 21
435.555625
  0
LINE
  8
OBRYS
 10
290.276956
 20
451.075625
 11
290.276956
 21
468.555625
  0
LINE
  8
OSA
 10
292.118675
 20
440.555625
 11
258.057328
 21
440.555625
  0
LINE
  8
OSA
 10
291.948914
 20
504.555625
 11
262.557324
 21
504.555625
  0
LINE
  8
OBRYS
 10
264.776956
 20
476.555625
 11
264.776956
 21
460.555625
  0
LINE
  8
OBRYS
 10
263.776956
 20
459.388958
 11
261.276956
 21
459.388958
  0
ARC
  8
OBRYS
 10
263.776956
 20
460.388958
 40
1.000000
 50
270.000000
 51
360.000000
  0
LINE
  8
OBRYS
 10
262.776956
 20
458.555625
 11
261.276956
 21
458.555625
  0
ARC
  8
OBRYS
 10
262.776956
 20
460.555625
 40
2.000000
 50
270.000000
 51
360.000000
  0
ARC
  8
OBRYS
 10
262.776956
 20
476.555625
 40
2.000000
 50
0.000000
 51
90.000000
  0
LINE
  8
OBRYS
 10
262.776956
 20
478.555625
 11
261.276956
 21
478.555625
  0
ARC
  8
OBRYS
 10
263.776956
 20
476.722292
 40
1.000000
 50
0.000000
 51
90.000000
  0
LINE
  8
OBRYS
 10
263.776956
 20
477.722292
 11
261.276956
 21
477.722292
  0
LINE
  8
OSA
 10
294.276956
 20
531.072129
 11
277.276956
 21
531.072129
  0
LINE
  8
OBRYS
 10
281.276956
 20
479.497570
 11
281.276956
 21
540.055625
  0
LINE
  8
OBRYS
 10
270.276956
 20
526.555625
 11
270.276956
 21
468.555625
  0
LINE
  8
OBRYS
 10
270.276956
 20
410.555625
 11
270.276956
 21
468.555625
  0
ARC
  8
OBRYS
 10
285.276956
 20
540.055625
 40
4.000000
 50
90.000000
 51
180.000000
  0
ARC
  8
OBRYS
 10
279.276956
 20
497.555625
 40
2.000000
 50
270.000000
 51
360.000000
  0
LINE
  8
OSA
 10
277.057321
 20
418.555625
 11
254.057328
 21
418.555625
  0
LINE
  8
OBRYS
 10
285.276956
 20
544.055625
 11
290.276956
 21
544.055625
  0
LINE
  8
OBRYS
 10
290.276956
 20
468.555625
 11
290.276956
 21
544.055625
  0
LINE
  8
OSA
 10
292.044404
 20
468.555625
 11
262.557324
 21
468.555625
  0
LINE
  8
OBRYS
 10
285.276956
 20
528.072129
 11
285.276956
 21
542.055625
  0
ARC
  8
OBRYS
 10
287.276956
 20
542.055625
 40
2.000000
 50
90.000000
 51
180.000000
  0
LINE
  8
OBRYS
 10
261.276956
 20
528.555625
 11
268.276956
 21
528.555625
  0
ARC
  8
OBRYS
 10
268.276956
 20
526.555625
 40
2.000000
 50
0.000000
 51
90.000000
  0
LINE
  8
OBRYS
 10
261.276956
 20
408.555625
 11
268.276956
 21
408.555625
  0
ARC
  8
OBRYS
 10
268.276956
 20
410.555625
 40
2.000000
 50
270.000000
 51
360.000000
  0
ARC
  8
OBRYS
 10
272.276956
 20
433.555625
 40
2.000000
 50
90.000000
 51
180.000000
  0
ARC
  8
OBRYS
 10
272.276956
 20
497.555625
 40
2.000000
 50
180.000000
 51
270.000000
  0
LINE
  8
OBRYS
 10
279.276956
 20
495.555625
 11
272.276956
 21
495.555625
  0
LINE
  8
OBRYS
 10
272.276956
 20
435.555625
 11
290.276956
 21
435.555625
  0
LINE
  8
OBRYS
 10
262.276956
 20
477.722292
 11
262.276956
 21
459.388958
  0
LINE
  8
OBRYS
 10
261.276956
 20
528.555625
 11
261.276956
 21
477.722292
  0
LINE
  8
OBRYS
 10
261.276956
 20
459.388958
 11
261.276956
 21
408.555625
  0
INSERT
  8
OBRYS
  2
Srouby_s_valcovou_hlavou___12
 62
     7
 10
285.276956
 20
531.072129
  0
ARC
  8
OBRYS
 10
283.276956
 20
526.822129
 40
2.000000
 50
270.000000
 51
360.000000
  0
ARC
  8
OBRYS
 10
283.276956
 20
522.822129
 40
2.000000
 50
90.000000
 51
180.000000
  0
ENDBLK
  8
OBRYS
  0
BLOCK
  8
OBRYS
  2
Srouby_s_valcovou_hlavou___12
 70
   66
 10
285.276956
 20
531.072129
  0
LINE
  8
OBRYS
 10
281.776956
 20
527.322129
 11
281.776956
 21
534.822129
  0
LINE
  8
OBRYS
 10
282.276956
 20
526.822129
 11
285.276956
 21
526.822129
  0
LINE
  8
OBRYS
 10
285.276956
 20
526.822129
 11
285.276956
 21
535.322129
  0
LINE
  8
OBRYS
 10
285.276956
 20
535.322129
 11
282.276956
 21
535.322129
  0
ARC
  8
OBRYS
 10
282.276956
 20
527.322129
 40
0.500000
 50
180.000000
 51
270.000000
  0
ARC
  8
OBRYS
 10
282.276956
 20
534.822129
 40
0.500000
 50
90.000000
 51
180.000000
  0
LINE
  8
OBRYS
 62
     7
  6
DOT
 10
281.776956
 20
528.762714
 11
283.443622
 21
528.762714
  0
LINE
  8
OBRYS
 62
     7
  6
DOT
 10
281.776956
 20
529.917422
 11
283.443622
 21
529.917422
  0
LINE
  8
OBRYS
 62
     7
  6
DOT
 10
281.776956
 20
532.226837
 11
283.443622
 21
532.226837
  0
LINE
  8
OBRYS
 62
     7
  6
DOT
 10
281.776956
 20
533.381545
 11
283.443622
 21
533.381545
  0
ARC
  8
OBRYS
 62
     7
  6
DOT
 10
281.443616
 20
529.340068
 40
0.666673
 50
300.000310
 51
59.999690
  0
ARC
  8
OBRYS
 62
     7
  6
DOT
 10
279.943597
 20
531.072129
 40
2.166692
 50
327.795963
 51
32.204037
  0
ARC
  8
OBRYS
 62
     7
  6
DOT
 10
281.443616
 20
532.804191
 40
0.666673
 50
300.000310
 51
59.999690
  0
ARC
  8
OBRYS
 62
     7
  6
DOT
 10
283.110283
 20
529.340068
 40
0.666673
 50
300.000310
 51
59.999690
  0
ARC
  8
OBRYS
 62
     7
  6
DOT
 10
281.610264
 20
531.072129
 40
2.166692
 50
327.795963
 51
32.204037
  0
ARC
  8
OBRYS
 62
     7
  6
DOT
 10
283.110283
 20
532.804191
 40
0.666673
 50
300.000310
 51
59.999690
  0
LINE
  8
OBRYS
 62
     7
  6
DOT
 10
283.776956
 20
529.340068
 11
284.931664
 21
531.072129
  0
LINE
  8
OBRYS
 62
     7
  6
DOT
 10
284.931664
 20
531.072129
 11
283.776956
 21
532.804191
  0
ENDBLK
  8
OBRYS
  0
BLOCK
  8
OBRYS
  2
_7
 70
   64
 10
364.276967
 20
626.302921
  0
ARC
  8
OBRYS
 10
383.276967
 20
606.302921
 40
2.000000
 50
180.000000
 51
270.000000
  0
LINE
  8
OBRYS
 10
381.276967
 20
606.302921
 11
381.276967
 21
626.302921
  0
LINE
  8
OBRYS
 10
408.276967
 20
604.302921
 11
383.276967
 21
604.302921
  0
LINE
  8
OBRYS
 10
412.276967
 20
626.302921
 11
364.276967
 21
626.302921
  0
LINE
  8
OBRYS
 10
381.276967
 20
621.302921
 11
364.276967
 21
621.302921
  0
LINE
  8
OBRYS
 62
     7
  6
DASHDOT
 10
399.276967
 20
612.302921
 11
399.276967
 21
620.952921
  0
LINE
  8
OBRYS
 62
     7
  6
DASHDOT
 10
399.276967
 20
612.302921
 11
399.276967
 21
603.652921
  0
LINE
  8
OBRYS
 62
     7
  6
DASHDOT
 10
399.276967
 20
612.302921
 11
407.926967
 21
612.302921
  0
LINE
  8
OBRYS
 62
     7
  6
DASHDOT
 10
399.276967
 20
612.302921
 11
390.626967
 21
612.302921
  0
CIRCLE
  8
OBRYS
 10
399.276967
 20
612.302921
 40
3.650000
  0
ARC
  8
OBRYS
 10
408.276967
 20
608.302921
 40
4.000000
 50
270.000000
 51
360.000000
  0
LINE
  8
OBRYS
 10
412.276967
 20
626.302921
 11
412.276967
 21
608.302921
  0
LINE
  8
OBRYS
 10
381.276967
 20
613.302921
 11
364.276967
 21
613.302921
  0
LINE
  8
OBRYS
 10
347.276967
 20
613.302921
 11
364.276967
 21
613.302921
  0
LINE
  8
OBRYS
 10
316.276967
 20
626.302921
 11
316.276967
 21
608.302921
  0
ARC
  8
OBRYS
 10
320.276967
 20
608.302921
 40
4.000000
 50
180.000000
 51
270.000000
  0
CIRCLE
  8
OBRYS
 10
329.276967
 20
612.302921
 40
3.650000
  0
LINE
  8
OBRYS
 62
     7
  6
DASHDOT
 10
329.276967
 20
612.302921
 11
337.926967
 21
612.302921
  0
LINE
  8
OBRYS
 62
     7
  6
DASHDOT
 10
329.276967
 20
612.302921
 11
320.626967
 21
612.302921
  0
LINE
  8
OBRYS
 62
     7
  6
DASHDOT
 10
329.276967
 20
612.302921
 11
329.276967
 21
603.652921
  0
LINE
  8
OBRYS
 62
     7
  6
DASHDOT
 10
329.276967
 20
612.302921
 11
329.276967
 21
620.952921
  0
LINE
  8
OBRYS
 10
347.276967
 20
621.302921
 11
364.276967
 21
621.302921
  0
LINE
  8
OBRYS
 10
316.276967
 20
626.302921
 11
364.276967
 21
626.302921
  0
LINE
  8
OBRYS
 62
     7
  6
DASHDOT
 10
364.276967
 20
631.302921
 11
364.276967
 21
605.927405
  0
LINE
  8
OBRYS
 10
320.276967
 20
604.302921
 11
345.276967
 21
604.302921
  0
LINE
  8
OBRYS
 10
347.276967
 20
606.302921
 11
347.276967
 21
626.302921
  0
ARC
  8
OBRYS
 10
345.276967
 20
606.302921
 40
2.000000
 50
270.000000
 51
360.000000
  0
ENDBLK
  8
OBRYS
  0
BLOCK
  8
OBRYS
  2
_8
 70
   64
 10
364.276967
 20
682.302921
  0
ARC
  8
OBRYS
 10
383.276967
 20
702.302921
 40
2.000000
 50
90.000000
 51
180.000000
  0
LINE
  8
OBRYS
 10
381.276967
 20
702.302921
 11
381.276967
 21
682.302921
  0
LINE
  8
OBRYS
 10
408.276967
 20
704.302921
 11
383.276967
 21
704.302921
  0
LINE
  8
OBRYS
 10
412.276967
 20
682.302921
 11
364.276967
 21
682.302921
  0
LINE
  8
OBRYS
 10
381.276967
 20
687.302921
 11
364.276967
 21
687.302921
  0
LINE
  8
OBRYS
 62
     7
  6
DASHDOT
 10
399.276967
 20
696.302921
 11
399.276967
 21
687.652921
  0
LINE
  8
OBRYS
 62
     7
  6
DASHDOT
 10
399.276967
 20
696.302921
 11
399.276967
 21
704.952921
  0
LINE
  8
OBRYS
 62
     7
  6
DASHDOT
 10
399.276967
 20
696.302921
 11
407.926967
 21
696.302921
  0
LINE
  8
OBRYS
 62
     7
  6
DASHDOT
 10
399.276967
 20
696.302921
 11
390.626967
 21
696.302921
  0
CIRCLE
  8
OBRYS
 10
399.276967
 20
696.302921
 40
3.650000
  0
ARC
  8
OBRYS
 10
408.276967
 20
700.302921
 40
4.000000
 50
0.000000
 51
90.000000
  0
LINE
  8
OBRYS
 10
412.276967
 20
682.302921
 11
412.276967
 21
700.302921
  0
LINE
  8
OBRYS
 10
381.276967
 20
695.302921
 11
364.276967
 21
695.302921
  0
LINE
  8
OBRYS
 10
347.276967
 20
695.302921
 11
364.276967
 21
695.302921
  0
LINE
  8
OBRYS
 10
316.276967
 20
682.302921
 11
316.276967
 21
700.302921
  0
ARC
  8
OBRYS
 10
320.276967
 20
700.302921
 40
4.000000
 50
90.000000
 51
180.000000
  0
CIRCLE
  8
OBRYS
 10
329.276967
 20
696.302921
 40
3.650000
  0
LINE
  8
OBRYS
 62
     7
  6
DASHDOT
 10
329.276967
 20
696.302921
 11
337.926967
 21
696.302921
  0
LINE
  8
OBRYS
 62
     7
  6
DASHDOT
 10
329.276967
 20
696.302921
 11
320.626967
 21
696.302921
  0
LINE
  8
OBRYS
 62
     7
  6
DASHDOT
 10
329.276967
 20
696.302921
 11
329.276967
 21
704.952921
  0
LINE
  8
OBRYS
 62
     7
  6
DASHDOT
 10
329.276967
 20
696.302921
 11
329.276967
 21
687.652921
  0
LINE
  8
OBRYS
 10
347.276967
 20
687.302921
 11
364.276967
 21
687.302921
  0
LINE
  8
OBRYS
 10
316.276967
 20
682.302921
 11
364.276967
 21
682.302921
  0
LINE
  8
OBRYS
 62
     7
  6
DASHDOT
 10
364.276967
 20
677.302921
 11
364.276967
 21
702.678437
  0
LINE
  8
OBRYS
 10
320.276967
 20
704.302921
 11
345.276967
 21
704.302921
  0
LINE
  8
OBRYS
 10
347.276967
 20
702.302921
 11
347.276967
 21
682.302921
  0
ARC
  8
OBRYS
 10
345.276967
 20
702.302921
 40
2.000000
 50
0.000000
 51
90.000000
  0
ENDBLK
  8
OBRYS
  0
BLOCK
  8
OBRYS
  2
_9
 70
   64
 10
364.276967
 20
269.592443
  0
ARC
  8
OBRYS
 10
387.276967
 20
254.592443
 40
2.000000
 50
180.000000
 51
270.000000
  0
LINE
  8
OBRYS
 10
385.276967
 20
254.592443
 11
385.276967
 21
261.592443
  0
ARC
  8
OBRYS
 10
341.276967
 20
254.592443
 40
2.000000
 50
270.000000
 51
360.000000
  0
LINE
  8
OBRYS
 10
343.276967
 20
254.592443
 11
343.276967
 21
261.592443
  0
LINE
  8
OBRYS
 10
316.276967
 20
256.592443
 11
316.276967
 21
268.592440
  0
LINE
  8
OBRYS
 10
412.276967
 20
256.592443
 11
412.276967
 21
268.592440
  0
LINE
  8
OBRYS
 10
347.276967
 20
254.592443
 11
347.276967
 21
261.592443
  0
LINE
  8
OBRYS
 10
381.276967
 20
254.592443
 11
381.276967
 21
261.592443
  0
ARC
  8
OBRYS
 10
383.276967
 20
254.592443
 40
2.000000
 50
180.000000
 51
270.000000
  0
LINE
  8
OBRYS
 10
408.276967
 20
252.592443
 11
383.276967
 21
252.592443
  0
LINE
  8
OBRYS
 62
     7
  6
DASHDOT
 10
399.276967
 20
260.592443
 11
399.276967
 21
264.242443
  0
LINE
  8
OBRYS
 62
     7
  6
DASHDOT
 10
399.276967
 20
260.592443
 11
399.276967
 21
251.942443
  0
LINE
  8
OBRYS
 62
     7
  6
DASHDOT
 10
399.276967
 20
260.592443
 11
407.926967
 21
260.592443
  0
LINE
  8
OBRYS
 62
     7
  6
DASHDOT
 10
399.276967
 20
260.592443
 11
390.626967
 21
260.592443
  0
ARC
  8
OBRYS
 10
408.276967
 20
256.592443
 40
4.000000
 50
270.000000
 51
360.000000
  0
ARC
  8
OBRYS
 10
320.276967
 20
256.592443
 40
4.000000
 50
180.000000
 51
270.000000
  0
LINE
  8
OBRYS
 62
     7
  6
DASHDOT
 10
329.276967
 20
260.592443
 11
337.926967
 21
260.592443
  0
LINE
  8
OBRYS
 62
     7
  6
DASHDOT
 10
329.276967
 20
260.592443
 11
320.626967
 21
260.592443
  0
LINE
  8
OBRYS
 62
     7
  6
DASHDOT
 10
329.276967
 20
260.592443
 11
329.276967
 21
251.942443
  0
LINE
  8
OBRYS
 62
     7
  6
DASHDOT
 10
329.276967
 20
260.592443
 11
329.276967
 21
264.242443
  0
LINE
  8
OBRYS
 10
320.276967
 20
252.592443
 11
345.276967
 21
252.592443
  0
ARC
  8
OBRYS
 10
345.276967
 20
254.592443
 40
2.000000
 50
270.000000
 51
360.000000
  0
ARC
  8
OBRYS
 10
335.747139
 20
265.624684
 40
3.000000
 50
181.379849
 51
227.001233
  0
LINE
  8
OBRYS
 10
332.748009
 20
265.552443
 11
361.474245
 21
265.552443
  0
ARC
  8
OBRYS
 10
333.747139
 20
265.687509
 40
1.000000
 50
187.762453
 51
227.001233
  0
ARC
  8
OBRYS
 10
332.918712
 20
265.624684
 40
3.000000
 50
181.379849
 51
227.001233
  0
LINE
  8
OBRYS
 10
317.254019
 20
265.552443
 11
329.919582
 21
265.552443
  0
LINE
  8
OBRYS
 10
336.096267
 20
262.129706
 11
333.065156
 21
264.956140
  0
LINE
  8
OBRYS
 10
330.559947
 20
264.320209
 11
332.747139
 21
264.320209
  0
LINE
  8
OBRYS
 10
335.096267
 20
262.129706
 11
333.701191
 21
263.430579
  0
LINE
  8
OBRYS
 10
332.267840
 20
262.129706
 11
330.872764
 21
263.430579
  0
ARC
  8
OBRYS
 10
337.460232
 20
263.592443
 40
2.000000
 50
227.001233
 51
270.000000
  0
ARC
  8
OBRYS
 10
336.460232
 20
263.592443
 40
2.000000
 50
227.001233
 51
270.000000
  0
ARC
  8
OBRYS
 10
333.631805
 20
263.592443
 40
2.000000
 50
227.001233
 51
270.000000
  0
ARC
  8
OBRYS
 10
320.710625
 20
263.592443
 40
2.000000
 50
234.246113
 51
270.000000
  0
LINE
  8
OBRYS
 10
320.710625
 20
261.592443
 11
364.276967
 21
261.592443
  0
LINE
  8
OBRYS
 10
319.542015
 20
261.969374
 11
317.108357
 21
263.721608
  0
ARC
  8
OBRYS
 10
318.276967
 20
265.344676
 40
2.000000
 50
180.000000
 51
234.246113
  0
ARC
  8
OBRYS
 10
322.422061
 20
263.592443
 40
2.000000
 50
234.246113
 51
270.000000
  0
LINE
  8
OBRYS
 10
321.253451
 20
261.969374
 11
317.108357
 21
264.953841
  0
ARC
  8
OBRYS
 10
318.276967
 20
266.576910
 40
2.000000
 50
180.000000
 51
234.246113
  0
ARC
  8
OBRYS
 10
317.276967
 20
268.592443
 40
1.000000
 50
90.000000
 51
180.000000
  0
LINE
  8
OBRYS
 10
364.276967
 20
269.592443
 11
317.276967
 21
269.592443
  0
LINE
  8
OBRYS
 62
     7
  6
DASHDOT
 10
364.276967
 20
259.283504
 11
364.276967
 21
276.112443
  0
LINE
  8
OBRYS
 62
     7
  6
DASHDOT
 10
364.276967
 20
259.283504
 11
364.276967
 21
276.112443
  0
LINE
  8
OBRYS
 10
364.276967
 20
269.592443
 11
411.276967
 21
269.592443
  0
ARC
  8
OBRYS
 10
411.276967
 20
268.592443
 40
1.000000
 50
0.000000
 51
90.000000
  0
ARC
  8
OBRYS
 10
410.276967
 20
266.576910
 40
2.000000
 50
305.753887
 51
360.000000
  0
LINE
  8
OBRYS
 10
407.300483
 20
261.969374
 11
411.445576
 21
264.953841
  0
ARC
  8
OBRYS
 10
406.131873
 20
263.592443
 40
2.000000
 50
270.000000
 51
305.753887
  0
ARC
  8
OBRYS
 10
410.276967
 20
265.344676
 40
2.000000
 50
305.753887
 51
360.000000
  0
LINE
  8
OBRYS
 10
409.011918
 20
261.969374
 11
411.445576
 21
263.721608
  0
LINE
  8
OBRYS
 10
407.843309
 20
261.592443
 11
364.276967
 21
261.592443
  0
ARC
  8
OBRYS
 10
407.843309
 20
263.592443
 40
2.000000
 50
270.000000
 51
305.753887
  0
ARC
  8
OBRYS
 10
394.922128
 20
263.592443
 40
2.000000
 50
270.000000
 51
312.998767
  0
ARC
  8
OBRYS
 10
392.093701
 20
263.592443
 40
2.000000
 50
270.000000
 51
312.998767
  0
ARC
  8
OBRYS
 10
391.093701
 20
263.592443
 40
2.000000
 50
270.000000
 51
312.998767
  0
LINE
  8
OBRYS
 10
366.276962
 20
265.552443
 11
366.276962
 21
261.592443
  0
LINE
  8
OBRYS
 10
362.276962
 20
265.552443
 11
362.276962
 21
261.592443
  0
LINE
  8
OBRYS
 10
396.286094
 20
262.129706
 11
397.681170
 21
263.430579
  0
LINE
  8
OBRYS
 10
393.457667
 20
262.129706
 11
394.852743
 21
263.430579
  0
LINE
  8
OBRYS
 10
397.993986
 20
264.320209
 11
395.806795
 21
264.320209
  0
LINE
  8
OBRYS
 10
392.457667
 20
262.129706
 11
395.488777
 21
264.956140
  0
LINE
  8
OBRYS
 10
411.299914
 20
265.552443
 11
398.634352
 21
265.552443
  0
ARC
  8
OBRYS
 10
395.635222
 20
265.624684
 40
3.000000
 50
312.998767
 51
358.620151
  0
ARC
  8
OBRYS
 10
394.806795
 20
265.687509
 40
1.000000
 50
312.998767
 51
352.237547
  0
LINE
  8
OBRYS
 10
395.805925
 20
265.552443
 11
367.079689
 21
265.552443
  0
ARC
  8
OBRYS
 10
392.806795
 20
265.624684
 40
3.000000
 50
312.998767
 51
358.620151
  0
LINE
  8
OBRYS
 10
365.894083
 20
264.320209
 11
362.656290
 21
264.320209
  0
ARC
  8
OBRYS
 10
329.276967
 20
260.592443
 40
3.650000
 50
164.099203
 51
15.900797
  0
ARC
  8
OBRYS
 10
399.276967
 20
260.592443
 40
3.650000
 50
164.099203
 51
15.900797
  0
ENDBLK
  8
OBRYS
  0
BLOCK
  8
OBRYS
  2
_10
 70
   64
 10
364.276967
 20
335.592443
  0
ARC
  8
OBRYS
 10
387.276967
 20
350.592443
 40
2.000000
 50
90.000000
 51
180.000000
  0
LINE
  8
OBRYS
 10
385.276967
 20
350.592443
 11
385.276967
 21
343.592443
  0
ARC
  8
OBRYS
 10
341.276967
 20
350.592443
 40
2.000000
 50
0.000000
 51
90.000000
  0
LINE
  8
OBRYS
 10
343.276967
 20
350.592443
 11
343.276967
 21
343.592443
  0
LINE
  8
OBRYS
 10
316.276967
 20
348.592443
 11
316.276967
 21
336.592445
  0
LINE
  8
OBRYS
 10
412.276967
 20
348.592443
 11
412.276967
 21
336.592445
  0
LINE
  8
OBRYS
 10
347.276967
 20
350.592443
 11
347.276967
 21
343.592443
  0
LINE
  8
OBRYS
 10
381.276967
 20
350.592443
 11
381.276967
 21
343.592443
  0
ARC
  8
OBRYS
 10
383.276967
 20
350.592443
 40
2.000000
 50
90.000000
 51
180.000000
  0
LINE
  8
OBRYS
 10
408.276967
 20
352.592443
 11
383.276967
 21
352.592443
  0
LINE
  8
OBRYS
 62
     7
  6
DASHDOT
 10
399.276967
 20
344.592443
 11
399.276967
 21
340.942443
  0
LINE
  8
OBRYS
 62
     7
  6
DASHDOT
 10
399.276967
 20
344.592443
 11
399.276967
 21
353.242443
  0
LINE
  8
OBRYS
 62
     7
  6
DASHDOT
 10
399.276967
 20
344.592443
 11
407.926967
 21
344.592443
  0
LINE
  8
OBRYS
 62
     7
  6
DASHDOT
 10
399.276967
 20
344.592443
 11
390.626967
 21
344.592443
  0
ARC
  8
OBRYS
 10
408.276967
 20
348.592443
 40
4.000000
 50
0.000000
 51
90.000000
  0
ARC
  8
OBRYS
 10
320.276967
 20
348.592443
 40
4.000000
 50
90.000000
 51
180.000000
  0
LINE
  8
OBRYS
 62
     7
  6
DASHDOT
 10
329.276967
 20
344.592443
 11
337.926967
 21
344.592443
  0
LINE
  8
OBRYS
 62
     7
  6
DASHDOT
 10
329.276967
 20
344.592443
 11
320.626967
 21
344.592443
  0
LINE
  8
OBRYS
 62
     7
  6
DASHDOT
 10
329.276967
 20
344.592443
 11
329.276967
 21
353.242443
  0
LINE
  8
OBRYS
 62
     7
  6
DASHDOT
 10
329.276967
 20
344.592443
 11
329.276967
 21
340.942443
  0
LINE
  8
OBRYS
 10
320.276967
 20
352.592443
 11
345.276967
 21
352.592443
  0
ARC
  8
OBRYS
 10
345.276967
 20
350.592443
 40
2.000000
 50
0.000000
 51
90.000000
  0
ARC
  8
OBRYS
 10
335.747139
 20
339.560201
 40
3.000000
 50
132.998767
 51
178.620151
  0
LINE
  8
OBRYS
 10
332.748009
 20
339.632443
 11
361.474245
 21
339.632443
  0
ARC
  8
OBRYS
 10
333.747139
 20
339.497376
 40
1.000000
 50
132.998767
 51
172.237547
  0
ARC
  8
OBRYS
 10
332.918712
 20
339.560201
 40
3.000000
 50
132.998767
 51
178.620151
  0
LINE
  8
OBRYS
 10
317.254019
 20
339.632443
 11
329.919582
 21
339.632443
  0
LINE
  8
OBRYS
 10
336.096267
 20
343.055179
 11
333.065156
 21
340.228745
  0
LINE
  8
OBRYS
 10
330.559947
 20
340.864676
 11
332.747139
 21
340.864676
  0
LINE
  8
OBRYS
 10
335.096267
 20
343.055179
 11
333.701191
 21
341.754306
  0
LINE
  8
OBRYS
 10
332.267840
 20
343.055179
 11
330.872764
 21
341.754306
  0
ARC
  8
OBRYS
 10
337.460232
 20
341.592443
 40
2.000000
 50
90.000000
 51
132.998767
  0
ARC
  8
OBRYS
 10
336.460232
 20
341.592443
 40
2.000000
 50
90.000000
 51
132.998767
  0
ARC
  8
OBRYS
 10
333.631805
 20
341.592443
 40
2.000000
 50
90.000000
 51
132.998767
  0
ARC
  8
OBRYS
 10
320.710625
 20
341.592443
 40
2.000000
 50
90.000000
 51
125.753887
  0
LINE
  8
OBRYS
 10
320.710625
 20
343.592443
 11
364.276967
 21
343.592443
  0
LINE
  8
OBRYS
 10
319.542015
 20
343.215511
 11
317.108357
 21
341.463277
  0
ARC
  8
OBRYS
 10
318.276967
 20
339.840209
 40
2.000000
 50
125.753887
 51
180.000000
  0
ARC
  8
OBRYS
 10
322.422061
 20
341.592443
 40
2.000000
 50
90.000000
 51
125.753887
  0
LINE
  8
OBRYS
 10
321.253451
 20
343.215511
 11
317.108357
 21
340.231044
  0
ARC
  8
OBRYS
 10
318.276967
 20
338.607975
 40
2.000000
 50
125.753887
 51
180.000000
  0
ARC
  8
OBRYS
 10
317.276967
 20
336.592443
 40
1.000000
 50
180.000000
 51
270.000000
  0
LINE
  8
OBRYS
 10
364.276967
 20
335.592443
 11
317.276967
 21
335.592443
  0
LINE
  8
OBRYS
 62
     7
  6
DASHDOT
 10
364.276967
 20
345.901381
 11
364.276967
 21
329.072443
  0
LINE
  8
OBRYS
 62
     7
  6
DASHDOT
 10
364.276967
 20
345.901381
 11
364.276967
 21
329.072443
  0
LINE
  8
OBRYS
 10
364.276967
 20
335.592443
 11
411.276967
 21
335.592443
  0
ARC
  8
OBRYS
 10
411.276967
 20
336.592443
 40
1.000000
 50
270.000000
 51
360.000000
  0
ARC
  8
OBRYS
 10
410.276967
 20
338.607975
 40
2.000000
 50
0.000000
 51
54.246113
  0
LINE
  8
OBRYS
 10
407.300483
 20
343.215511
 11
411.445576
 21
340.231044
  0
ARC
  8
OBRYS
 10
406.131873
 20
341.592443
 40
2.000000
 50
54.246113
 51
90.000000
  0
ARC
  8
OBRYS
 10
410.276967
 20
339.840209
 40
2.000000
 50
0.000000
 51
54.246113
  0
LINE
  8
OBRYS
 10
409.011918
 20
343.215511
 11
411.445576
 21
341.463277
  0
LINE
  8
OBRYS
 10
407.843309
 20
343.592443
 11
364.276967
 21
343.592443
  0
ARC
  8
OBRYS
 10
407.843309
 20
341.592443
 40
2.000000
 50
54.246113
 51
90.000000
  0
ARC
  8
OBRYS
 10
394.922128
 20
341.592443
 40
2.000000
 50
47.001233
 51
90.000000
  0
ARC
  8
OBRYS
 10
392.093701
 20
341.592443
 40
2.000000
 50
47.001233
 51
90.000000
  0
ARC
  8
OBRYS
 10
391.093701
 20
341.592443
 40
2.000000
 50
47.001233
 51
90.000000
  0
LINE
  8
OBRYS
 10
366.276962
 20
339.632443
 11
366.276962
 21
343.592443
  0
LINE
  8
OBRYS
 10
362.276962
 20
339.632443
 11
362.276962
 21
343.592443
  0
LINE
  8
OBRYS
 10
396.286094
 20
343.055179
 11
397.681170
 21
341.754306
  0
LINE
  8
OBRYS
 10
393.457667
 20
343.055179
 11
394.852743
 21
341.754306
  0
LINE
  8
OBRYS
 10
397.993986
 20
340.864676
 11
395.806795
 21
340.864676
  0
LINE
  8
OBRYS
 10
392.457667
 20
343.055179
 11
395.488777
 21
340.228745
  0
LINE
  8
OBRYS
 10
411.299914
 20
339.632443
 11
398.634352
 21
339.632443
  0
ARC
  8
OBRYS
 10
395.635222
 20
339.560201
 40
3.000000
 50
1.379849
 51
47.001233
  0
ARC
  8
OBRYS
 10
394.806795
 20
339.497376
 40
1.000000
 50
7.762453
 51
47.001233
  0
LINE
  8
OBRYS
 10
395.805925
 20
339.632443
 11
367.079689
 21
339.632443
  0
ARC
  8
OBRYS
 10
392.806795
 20
339.560201
 40
3.000000
 50
1.379849
 51
47.001233
  0
LINE
  8
OBRYS
 10
365.894083
 20
340.864676
 11
362.656290
 21
340.864676
  0
ARC
  8
OBRYS
 10
329.276967
 20
344.592443
 40
3.650000
 50
344.099203
 51
195.900797
  0
ARC
  8
OBRYS
 10
399.276967
 20
344.592443
 40
3.650000
 50
344.099203
 51
195.900797
  0
ENDBLK
  8
OBRYS
  0
BLOCK
  8
OBRYS
  2
_11
 70
   64
 10
150.529671
 20
464.555625
  0
LINE
  8
OBRYS
 10
141.529671
 20
493.344922
 11
142.529671
 21
494.350098
  0
LINE
  8
OBRYS
 10
141.529671
 20
497.829885
 11
142.529671
 21
498.232877
  0
ARC
  8
OBRYS
 10
144.529671
 20
511.055625
 40
2.000000
 50
90.000000
 51
180.000000
  0
LINE
  8
OBRYS
 10
141.529671
 20
503.358376
 11
142.396235
 21
508.208875
  0
ARC
  8
OBRYS
 10
140.529671
 20
508.927164
 40
2.000000
 50
338.952328
 51
360.000000
  0
LINE
  8
OBRYS
 10
142.529671
 20
464.555625
 11
142.529671
 21
510.555625
  0
LINE
  8
OBRYS
 10
141.529671
 20
497.829885
 11
141.529671
 21
503.358376
  0
LINE
  8
OBRYS
 10
141.529671
 20
470.068923
 11
141.529671
 21
476.174764
  0
LINE
  8
OBRYS
 10
142.529671
 20
467.726973
 11
141.529671
 21
470.068923
  0
LINE
  8
OBRYS
 10
142.529671
 20
461.384277
 11
141.529671
 21
459.042327
  0
LINE
  8
OBRYS
 10
141.529671
 20
459.042327
 11
141.529671
 21
452.936486
  0
LINE
  8
OBRYS
 10
141.529671
 20
459.042327
 11
141.529671
 21
470.068923
  0
LINE
  8
OBRYS
 62
     7
  6
DASHDOT
 10
130.793394
 20
464.555625
 11
162.980532
 21
464.555625
  0
ARC
  8
OBRYS
 10
149.529671
 20
417.055625
 40
1.000000
 50
269.999761
 51
360.000000
  0
LINE
  8
OBRYS
 10
148.029671
 20
513.055625
 11
144.529671
 21
513.055625
  0
LINE
  8
OBRYS
 10
142.529671
 20
464.555625
 11
142.529671
 21
446.416889
  0
LINE
  8
OBRYS
 10
149.529671
 20
416.055625
 11
146.529671
 21
416.055625
  0
ENDBLK
  8
OBRYS
  0
BLOCK
  8
OBRYS
  2
_12
 70
   64
 10
141.529671
 20
464.555625
  0
LINE
  8
OBRYS
 10
146.529671
 20
393.555625
 11
146.529671
 21
440.756635
  0
LINE
  8
0
  6
DOT
 10
146.529671
 20
392.055625
 11
146.529671
 21
393.555625
  0
LINE
  8
OBRYS
 10
124.529671
 20
393.555625
 11
124.529671
 21
399.555625
  0
LINE
  8
0
  6
DOT
 10
124.529671
 20
392.055625
 11
124.529671
 21
393.555625
  0
LINE
  8
OBRYS
 10
137.281905
 20
512.555625
 11
140.529668
 21
512.555625
  0
LINE
  8
OSA
 10
131.220733
 20
464.555625
 11
148.049671
 21
464.555625
  0
LINE
  8
OSA
 10
131.220733
 20
464.555625
 11
148.049671
 21
464.555625
  0
LINE
  8
OBRYS
 10
124.529671
 20
393.555625
 11
146.529671
 21
393.555625
  0
LINE
  8
OBRYS
 10
140.529671
 20
401.555625
 11
126.529671
 21
401.555625
  0
ARC
  8
OBRYS
 10
140.529671
 20
403.555625
 40
2.000000
 50
270.000000
 51
360.000000
  0
ARC
  8
OBRYS
 10
126.529671
 20
399.555625
 40
2.000000
 50
90.000000
 51
140.000000
  0
ARC
  8
OBRYS
 10
126.529671
 20
399.555625
 40
2.000000
 50
140.000000
 51
180.000000
  0
LINE
  8
OSA
 10
132.529671
 20
388.555625
 11
132.529671
 21
406.555625
  0
LINE
  8
NEVIDITELNA
 10
136.179671
 20
401.555625
 11
136.179671
 21
393.555625
  0
LINE
  8
NEVIDITELNA
 10
128.879671
 20
393.555625
 11
128.879671
 21
401.555625
  0
LINE
  8
OBRYS
 10
141.529671
 20
464.555625
 11
141.529671
 21
511.555625
  0
ARC
  8
OBRYS
 10
140.529671
 20
511.555625
 40
1.000000
 50
0.000000
 51
90.000000
  0
ARC
  8
OBRYS
 10
135.529671
 20
422.700719
 40
2.000000
 50
180.000000
 51
215.753887
  0
ARC
  8
OBRYS
 10
138.514138
 20
510.555625
 40
2.000000
 50
90.000000
 51
144.246113
  0
LINE
  8
OBRYS
 10
133.906602
 20
507.579141
 11
136.891070
 21
511.724235
  0
ARC
  8
OBRYS
 10
135.529671
 20
506.410531
 40
2.000000
 50
144.246113
 51
180.000000
  0
ARC
  8
OBRYS
 10
137.281905
 20
510.555625
 40
2.000000
 50
90.000000
 51
144.246113
  0
LINE
  8
OBRYS
 10
133.906602
 20
509.290577
 11
135.658836
 21
511.724235
  0
LINE
  8
OBRYS
 10
133.529671
 20
508.121967
 11
133.529671
 21
464.555625
  0
ARC
  8
OBRYS
 10
135.529671
 20
508.121967
 40
2.000000
 50
144.246113
 51
180.000000
  0
ARC
  8
OBRYS
 10
135.529671
 20
495.200787
 40
2.000000
 50
137.001233
 51
180.000000
  0
ARC
  8
OBRYS
 10
135.529671
 20
492.372360
 40
2.000000
 50
137.001233
 51
180.000000
  0
ARC
  8
OBRYS
 10
135.529671
 20
491.372360
 40
2.000000
 50
137.001233
 51
180.000000
  0
LINE
  8
OBRYS
 10
137.489671
 20
466.555621
 11
133.529671
 21
466.555621
  0
LINE
  8
OBRYS
 10
137.489671
 20
462.555621
 11
133.529671
 21
462.555621
  0
LINE
  8
OBRYS
 10
134.066934
 20
496.564752
 11
135.367807
 21
497.959828
  0
LINE
  8
OBRYS
 10
134.066934
 20
493.736325
 11
135.367807
 21
495.131401
  0
LINE
  8
OBRYS
 10
136.257437
 20
498.272645
 11
136.257437
 21
496.085453
  0
LINE
  8
OBRYS
 10
134.066934
 20
492.736325
 11
136.893369
 21
495.767436
  0
LINE
  8
OBRYS
 10
137.489671
 20
511.578572
 11
137.489671
 21
498.913010
  0
ARC
  8
OBRYS
 10
137.561913
 20
495.913880
 40
3.000000
 50
91.379849
 51
137.001233
  0
ARC
  8
OBRYS
 10
137.624737
 20
495.085453
 40
1.000000
 50
97.762453
 51
137.001233
  0
LINE
  8
OBRYS
 10
137.489671
 20
496.084583
 11
137.489671
 21
467.358347
  0
ARC
  8
OBRYS
 10
137.561913
 20
493.085453
 40
3.000000
 50
91.379849
 51
137.001233
  0
LINE
  8
OBRYS
 10
136.257437
 20
466.172741
 11
136.257437
 21
462.934949
  0
ARC
  8
OBRYS
 10
135.529671
 20
437.738891
 40
2.000000
 50
180.000000
 51
222.998767
  0
ARC
  8
OBRYS
 10
135.529671
 20
436.738891
 40
2.000000
 50
180.000000
 51
222.998767
  0
ARC
  8
OBRYS
 10
135.529671
 20
433.910463
 40
2.000000
 50
180.000000
 51
222.998767
  0
ARC
  8
OBRYS
 10
206.750742
 20
464.555625
 40
69.261071
 50
180.000000
 51
200.542417
  0
ARC
  8
OBRYS
 10
132.529671
 20
436.742858
 40
10.000000
 50
0.000000
 51
20.542417
  0
LINE
  8
OBRYS
 10
141.529671
 20
464.555625
 11
141.529671
 21
449.416889
  0
ARC
  8
OBRYS
 10
141.529671
 20
440.756635
 40
5.000000
 50
0.000000
 51
60.000000
  0
ARC
  8
OBRYS
 10
146.529671
 20
449.416889
 40
5.000000
 50
180.000000
 51
240.000000
  0
LINE
  8
OBRYS
 10
134.066934
 20
432.546498
 11
141.992408
 21
424.047102
  0
ARC
  8
OBRYS
 10
140.529671
 20
422.683137
 40
2.000000
 50
0.000000
 51
42.998767
  0
LINE
  8
OBRYS
 10
142.529671
 20
403.555621
 11
142.529671
 21
436.742858
  0
LINE
  8
OBRYS
 10
134.066934
 20
435.374925
 11
141.992408
 21
426.875529
  0
ARC
  8
OBRYS
 10
140.529671
 20
425.511564
 40
2.000000
 50
0.000000
 51
42.998767
  0
LINE
  8
OBRYS
 10
134.066934
 20
436.374925
 11
141.992408
 21
427.875529
  0
ARC
  8
OBRYS
 10
140.529671
 20
426.511564
 40
2.000000
 50
0.000000
 51
42.998767
  0
LINE
  8
OBRYS
 10
124.997582
 20
400.841200
 11
138.124647
 21
416.485428
  0
ARC
  8
OBRYS
 10
136.592558
 20
417.771003
 40
2.000000
 50
320.000000
 51
39.550634
  0
LINE
  8
OBRYS
 10
142.071795
 20
414.277014
 11
138.134683
 21
419.044523
  0
ARC
  8
OBRYS
 10
140.529671
 20
413.003494
 40
2.000000
 50
0.000000
 51
39.550634
  0
LINE
  8
OBRYS
 10
133.906602
 20
421.532109
 11
137.810108
 21
416.110574
  0
ARC
  8
OBRYS
 10
135.529671
 20
420.989283
 40
2.000000
 50
180.000000
 51
215.753887
  0
LINE
  8
OBRYS
 10
133.906602
 20
419.820674
 11
137.146926
 21
415.320224
  0
LINE
  8
OBRYS
 10
133.529671
 20
420.989283
 11
133.529671
 21
464.555625
  0
ENDBLK
  8
OBRYS
  0
BLOCK
  8
OBRYS
  2
_13
 70
   64
 10
207.529671
 20
464.555625
  0
LINE
  8
OBRYS
 10
202.529671
 20
393.555625
 11
202.529671
 21
440.756635
  0
LINE
  8
0
  6
DOT
 10
202.529671
 20
392.055625
 11
202.529671
 21
393.555625
  0
LINE
  8
OBRYS
 10
224.529671
 20
393.555625
 11
224.529671
 21
399.555625
  0
LINE
  8
0
  6
DOT
 10
224.529671
 20
392.055625
 11
224.529671
 21
393.555625
  0
LINE
  8
OBRYS
 10
211.777437
 20
512.555625
 11
208.529673
 21
512.555625
  0
LINE
  8
OSA
 10
217.838609
 20
464.555625
 11
201.009671
 21
464.555625
  0
LINE
  8
OSA
 10
217.838609
 20
464.555625
 11
201.009671
 21
464.555625
  0
LINE
  8
OBRYS
 10
224.529671
 20
393.555625
 11
202.529671
 21
393.555625
  0
LINE
  8
OBRYS
 10
208.529671
 20
401.555625
 11
222.529671
 21
401.555625
  0
ARC
  8
OBRYS
 10
208.529671
 20
403.555625
 40
2.000000
 50
180.000000
 51
270.000000
  0
ARC
  8
OBRYS
 10
222.529671
 20
399.555625
 40
2.000000
 50
40.000000
 51
90.000000
  0
ARC
  8
OBRYS
 10
222.529671
 20
399.555625
 40
2.000000
 50
0.000000
 51
40.000000
  0
LINE
  8
OSA
 10
216.529671
 20
388.555625
 11
216.529671
 21
406.555625
  0
LINE
  8
NEVIDITELNA
 10
212.879671
 20
401.555625
 11
212.879671
 21
393.555625
  0
LINE
  8
NEVIDITELNA
 10
220.179671
 20
393.555625
 11
220.179671
 21
401.555625
  0
LINE
  8
OBRYS
 10
207.529671
 20
464.555625
 11
207.529671
 21
511.555625
  0
ARC
  8
OBRYS
 10
208.529671
 20
511.555625
 40
1.000000
 50
90.000000
 51
180.000000
  0
ARC
  8
OBRYS
 10
213.529671
 20
422.700719
 40
2.000000
 50
324.246113
 51
360.000000
  0
ARC
  8
OBRYS
 10
210.545203
 20
510.555625
 40
2.000000
 50
35.753887
 51
90.000000
  0
LINE
  8
OBRYS
 10
215.152740
 20
507.579141
 11
212.168272
 21
511.724235
  0
ARC
  8
OBRYS
 10
213.529671
 20
506.410531
 40
2.000000
 50
0.000000
 51
35.753887
  0
ARC
  8
OBRYS
 10
211.777437
 20
510.555625
 40
2.000000
 50
35.753887
 51
90.000000
  0
LINE
  8
OBRYS
 10
215.152740
 20
509.290577
 11
213.400506
 21
511.724235
  0
LINE
  8
OBRYS
 10
215.529671
 20
508.121967
 11
215.529671
 21
464.555625
  0
ARC
  8
OBRYS
 10
213.529671
 20
508.121967
 40
2.000000
 50
0.000000
 51
35.753887
  0
ARC
  8
OBRYS
 10
213.529671
 20
495.200787
 40
2.000000
 50
0.000000
 51
42.998767
  0
ARC
  8
OBRYS
 10
213.529671
 20
492.372360
 40
2.000000
 50
0.000000
 51
42.998767
  0
ARC
  8
OBRYS
 10
213.529671
 20
491.372360
 40
2.000000
 50
0.000000
 51
42.998767
  0
LINE
  8
OBRYS
 10
211.569671
 20
466.555621
 11
215.529671
 21
466.555621
  0
LINE
  8
OBRYS
 10
211.569671
 20
462.555621
 11
215.529671
 21
462.555621
  0
LINE
  8
OBRYS
 10
214.992408
 20
496.564752
 11
213.691534
 21
497.959828
  0
LINE
  8
OBRYS
 10
214.992408
 20
493.736325
 11
213.691534
 21
495.131401
  0
LINE
  8
OBRYS
 10
212.801905
 20
498.272645
 11
212.801905
 21
496.085453
  0
LINE
  8
OBRYS
 10
214.992408
 20
492.736325
 11
212.165973
 21
495.767436
  0
LINE
  8
OBRYS
 10
211.569671
 20
511.578572
 11
211.569671
 21
498.913010
  0
ARC
  8
OBRYS
 10
211.497429
 20
495.913880
 40
3.000000
 50
42.998767
 51
88.620151
  0
ARC
  8
OBRYS
 10
211.434605
 20
495.085453
 40
1.000000
 50
42.998767
 51
82.237547
  0
LINE
  8
OBRYS
 10
211.569671
 20
496.084583
 11
211.569671
 21
467.358347
  0
ARC
  8
OBRYS
 10
211.497429
 20
493.085453
 40
3.000000
 50
42.998767
 51
88.620151
  0
LINE
  8
OBRYS
 10
212.801905
 20
466.172741
 11
212.801905
 21
462.934949
  0
ARC
  8
OBRYS
 10
213.529671
 20
437.738891
 40
2.000000
 50
317.001233
 51
360.000000
  0
ARC
  8
OBRYS
 10
213.529671
 20
436.738891
 40
2.000000
 50
317.001233
 51
360.000000
  0
ARC
  8
OBRYS
 10
213.529671
 20
433.910463
 40
2.000000
 50
317.001233
 51
360.000000
  0
ARC
  8
OBRYS
 10
142.308599
 20
464.555625
 40
69.261071
 50
339.457583
 51
360.000000
  0
ARC
  8
OBRYS
 10
216.529671
 20
436.742858
 40
10.000000
 50
159.457583
 51
180.000000
  0
LINE
  8
OBRYS
 10
207.529671
 20
464.555625
 11
207.529671
 21
449.416889
  0
ARC
  8
OBRYS
 10
207.529671
 20
440.756635
 40
5.000000
 50
120.000000
 51
180.000000
  0
ARC
  8
OBRYS
 10
202.529671
 20
449.416889
 40
5.000000
 50
300.000000
 51
360.000000
  0
LINE
  8
OBRYS
 10
214.992408
 20
432.546498
 11
207.066934
 21
424.047102
  0
ARC
  8
OBRYS
 10
208.529671
 20
422.683137
 40
2.000000
 50
137.001233
 51
180.000000
  0
LINE
  8
OBRYS
 10
206.529671
 20
403.555621
 11
206.529671
 21
436.742858
  0
LINE
  8
OBRYS
 10
214.992408
 20
435.374925
 11
207.066934
 21
426.875529
  0
ARC
  8
OBRYS
 10
208.529671
 20
425.511564
 40
2.000000
 50
137.001233
 51
180.000000
  0
LINE
  8
OBRYS
 10
214.992408
 20
436.374925
 11
207.066934
 21
427.875529
  0
ARC
  8
OBRYS
 10
208.529671
 20
426.511564
 40
2.000000
 50
137.001233
 51
180.000000
  0
LINE
  8
OBRYS
 10
224.061760
 20
400.841200
 11
210.934694
 21
416.485428
  0
ARC
  8
OBRYS
 10
212.466783
 20
417.771003
 40
2.000000
 50
140.449366
 51
220.000000
  0
LINE
  8
OBRYS
 10
206.987547
 20
414.277014
 11
210.924659
 21
419.044523
  0
ARC
  8
OBRYS
 10
208.529671
 20
413.003494
 40
2.000000
 50
140.449366
 51
180.000000
  0
LINE
  8
OBRYS
 10
215.152740
 20
421.532109
 11
211.249234
 21
416.110574
  0
ARC
  8
OBRYS
 10
213.529671
 20
420.989283
 40
2.000000
 50
324.246113
 51
360.000000
  0
LINE
  8
OBRYS
 10
215.152740
 20
419.820674
 11
211.912416
 21
415.320224
  0
LINE
  8
OBRYS
 10
215.529671
 20
420.989283
 11
215.529671
 21
464.555625
  0
ENDBLK
  8
OBRYS
  0
BLOCK
  8
OBRYS
  2
_14
 70
   64
 10
364.276967
 20
464.555625
  0
LINE
  8
OSA
 10
364.276967
 20
464.555625
 11
414.484840
 21
464.555625
  0
ARC
  8
OBRYS
 10
364.276967
 20
464.555625
 40
55.000000
 50
251.995547
 51
288.004453
  0
INSERT
  8
OBRYS
  2
__14
 62
     7
 10
362.742691
 20
411.055625
  0
ARC
  8
OBRYS
 10
277.277084
 20
464.422344
 40
60.000000
 50
354.868303
 51
5.387322
  0
ARC
  8
OBRYS
 10
451.276850
 20
464.688906
 40
60.000000
 50
174.868303
 51
185.387322
  0
ARC
  8
OBRYS
 10
364.410248
 20
377.555742
 40
60.000000
 50
84.868303
 51
95.387322
  0
ARC
  8
OBRYS
 10
364.143686
 20
551.555508
 40
60.000000
 50
264.868303
 51
275.387322
  0
LINE
  8
OSA
 10
364.276967
 20
464.555625
 11
364.276967
 21
516.564729
  0
LINE
  8
OSA
 10
364.276967
 20
464.555625
 11
314.069093
 21
464.555625
  0
ARC
  8
OBRYS
 10
399.276967
 20
414.055625
 40
5.500000
 50
0.000496
 51
180.000496
  0
LINE
  8
OBRYS
 10
404.776967
 20
414.055673
 11
404.776967
 21
401.555625
  0
LINE
  8
OBRYS
 10
393.776967
 20
414.055578
 11
393.776967
 21
401.555625
  0
LINE
  8
OBRYS
 10
334.776967
 20
414.055578
 11
334.776967
 21
401.555625
  0
LINE
  8
OBRYS
 10
323.776967
 20
414.055673
 11
323.776967
 21
401.555625
  0
ARC
  8
OBRYS
 10
329.276967
 20
414.055625
 40
5.500000
 50
359.999504
 51
179.999504
  0
LINE
  8
OSA
 10
364.276967
 20
464.555625
 11
364.276967
 21
391.109901
  0
ARC
  8
OBRYS
 10
380.276967
 20
394.555625
 40
1.000000
 50
0.000000
 51
90.000000
  0
LINE
  8
OBRYS
 10
380.276967
 20
395.555625
 11
364.276967
 21
395.555625
  0
ARC
  8
OBRYS
 10
348.276967
 20
394.555625
 40
1.000000
 50
90.000000
 51
180.000000
  0
LINE
  8
OBRYS
 10
348.276967
 20
395.555625
 11
364.276967
 21
395.555625
  0
LINE
  8
OBRYS
 62
     7
  6
DASHDOT
 10
329.276967
 20
419.555625
 11
329.276967
 21
393.555625
  0
LINE
  8
OBRYS
 62
     4
  6
HIDDEN2
 10
402.776967
 20
401.555625
 11
402.776967
 21
393.555625
  0
LINE
  8
OBRYS
 62
     4
  6
HIDDEN2
 10
395.776967
 20
401.555625
 11
395.776967
 21
393.555625
  0
LINE
  8
OBRYS
 62
     4
  6
HIDDEN2
 10
325.776967
 20
401.555625
 11
325.776967
 21
393.555625
  0
LINE
  8
OBRYS
 62
     4
  6
HIDDEN2
 10
332.776967
 20
401.555625
 11
332.776967
 21
393.555625
  0
ARC
  8
OBRYS
 10
390.214392
 20
457.055625
 40
2.000000
 50
90.000000
 51
163.872380
  0
LINE
  8
OBRYS
 10
396.776973
 20
459.055625
 11
390.214392
 21
459.055625
  0
ARC
  8
OBRYS
 10
371.776967
 20
438.618200
 40
2.000000
 50
106.127620
 51
180.000000
  0
LINE
  8
OBRYS
 10
369.776967
 20
432.055619
 11
369.776967
 21
438.618200
  0
ARC
  8
OBRYS
 10
356.776967
 20
438.618200
 40
2.000000
 50
0.000000
 51
73.872380
  0
LINE
  8
OBRYS
 10
358.776967
 20
432.055619
 11
358.776967
 21
438.618200
  0
ARC
  8
OBRYS
 10
338.339542
 20
457.055625
 40
2.000000
 50
16.127620
 51
90.000000
  0
LINE
  8
OBRYS
 10
331.776961
 20
459.055625
 11
338.339542
 21
459.055625
  0
ARC
  8
OBRYS
 10
338.339542
 20
472.055625
 40
2.000000
 50
270.000000
 51
343.872380
  0
LINE
  8
OBRYS
 10
331.776961
 20
470.055625
 11
338.339542
 21
470.055625
  0
ARC
  8
OBRYS
 10
356.776967
 20
490.493050
 40
2.000000
 50
286.127620
 51
360.000000
  0
LINE
  8
OBRYS
 10
358.776967
 20
497.055631
 11
358.776967
 21
490.493050
  0
ARC
  8
OBRYS
 10
390.214392
 20
472.055625
 40
2.000000
 50
196.127620
 51
270.000000
  0
LINE
  8
OBRYS
 10
396.776973
 20
470.055625
 11
390.214392
 21
470.055625
  0
ARC
  8
OBRYS
 10
371.776967
 20
490.493050
 40
2.000000
 50
180.000000
 51
253.872380
  0
LINE
  8
OBRYS
 10
369.776967
 20
497.055631
 11
369.776967
 21
490.493050
  0
LINE
  8
OBRYS
 10
381.276967
 20
399.555625
 11
347.276967
 21
399.555625
  0
LINE
  8
OBRYS
 10
384.846772
 20
401.555625
 11
382.282898
 21
401.555625
  0
LINE
  8
OBRYS
 10
343.707162
 20
401.555625
 11
346.271035
 21
401.555625
  0
ARC
  8
OBRYS
 10
387.276967
 20
403.555625
 40
2.000000
 50
180.000000
 51
270.000000
  0
ARC
  8
OBRYS
 10
341.276967
 20
403.555625
 40
2.000000
 50
270.000000
 51
360.000000
  0
ARC
  8
OBRYS
 10
364.276967
 20
432.055625
 40
5.500000
 50
180.000000
 51
360.000000
  0
ARC
  8
OBRYS
 10
396.776967
 20
464.555625
 40
5.500000
 50
270.000000
 51
90.000000
  0
ARC
  8
OBRYS
 10
331.776967
 20
464.555625
 40
5.500000
 50
90.000000
 51
270.000000
  0
ARC
  8
OBRYS
 10
364.276967
 20
497.055625
 40
5.500000
 50
0.000000
 51
180.000000
  0
LINE
  8
OBRYS
 62
     7
  6
DASHDOT
 10
399.276967
 20
419.555625
 11
399.276967
 21
393.555625
  0
CIRCLE
  8
OSA
 10
364.276967
 20
464.555625
 40
32.500000
  0
CIRCLE
  8
OBRYS
 10
364.276967
 20
464.555625
 40
42.500000
  0
ARC
  8
OBRYS
 10
364.123177
 20
464.555625
 40
51.408811
 50
290.284353
 51
293.402256
  0
ARC
  8
OBRYS
 10
364.430757
 20
464.555625
 40
51.408811
 50
246.597744
 51
249.715647
  0
LINE
  8
OBRYS
 10
385.276967
 20
418.476888
 11
385.276967
 21
403.555625
  0
ARC
  8
OBRYS
 10
387.276967
 20
418.476888
 40
2.000000
 50
116.525876
 51
180.000000
  0
LINE
  8
OBRYS
 10
381.276967
 20
415.288496
 11
381.276967
 21
393.555625
  0
ARC
  8
OBRYS
 10
379.276967
 20
415.288496
 40
2.000000
 50
0.000000
 51
106.933533
  0
ARC
  8
OBRYS
 10
349.276967
 20
415.288496
 40
2.000000
 50
73.066467
 51
180.000000
  0
LINE
  8
OBRYS
 10
347.276967
 20
415.288496
 11
347.276967
 21
393.555625
  0
ARC
  8
OBRYS
 10
341.276967
 20
418.476888
 40
2.000000
 50
0.000000
 51
63.474124
  0
LINE
  8
OBRYS
 10
343.276967
 20
418.476888
 11
343.276967
 21
403.555625
  0
LINE
  8
OBRYS
 10
395.709925
 20
435.951095
 11
401.935209
 21
429.725810
  0
LINE
  8
OBRYS
 10
392.881497
 20
433.122667
 11
399.112770
 21
426.891395
  0
LINE
  8
OBRYS
 10
335.672436
 20
433.122667
 11
329.441164
 21
426.891395
  0
LINE
  8
OBRYS
 10
332.844009
 20
435.951095
 11
326.618724
 21
429.725810
  0
LINE
  8
OBRYS
 10
366.276967
 20
507.008540
 11
366.276967
 21
512.513940
  0
LINE
  8
OBRYS
 10
362.276967
 20
507.008540
 11
362.276967
 21
512.513940
  0
LINE
  8
OBRYS
 10
335.672436
 20
495.988583
 11
331.779530
 21
499.881489
  0
LINE
  8
OBRYS
 10
332.844009
 20
493.160156
 11
328.951103
 21
497.053061
  0
LINE
  8
OBRYS
 10
321.824052
 20
466.555621
 11
316.318651
 21
466.555620
  0
LINE
  8
OBRYS
 10
321.824052
 20
462.555621
 11
316.318652
 21
462.555620
  0
LINE
  8
OBRYS
 10
392.881497
 20
495.988583
 11
396.774403
 21
499.881489
  0
LINE
  8
OBRYS
 10
395.709925
 20
493.160156
 11
399.602830
 21
497.053061
  0
LINE
  8
OBRYS
 10
406.729882
 20
466.555629
 11
412.235282
 21
466.555630
  0
LINE
  8
OBRYS
 10
406.729882
 20
462.555629
 11
412.235282
 21
462.555630
  0
ARC
  8
OBRYS
 10
364.276967
 20
464.555625
 40
48.500000
 50
0.000000
 51
180.000000
  0
ARC
  8
OBRYS
 10
364.276967
 20
464.555625
 40
55.000000
 50
292.446351
 51
331.862473
  0
ARC
  8
OBRYS
 10
364.276967
 20
464.555625
 40
55.000000
 50
208.137527
 51
247.553649
  0
LINE
  8
OSA
 62
     2
  6
CONTINUOUS
 10
315.776967
 20
393.555625
 11
347.276967
 21
393.555625
  0
LINE
  8
OBRYS
 10
315.776967
 20
464.555625
 11
315.776967
 21
393.555625
  0
LINE
  8
OSA
 62
     2
  6
CONTINUOUS
 10
381.276967
 20
393.555625
 11
412.776967
 21
393.555625
  0
LINE
  8
OBRYS
 10
412.776967
 20
464.555625
 11
412.776967
 21
393.555625
  0
LINE
  8
OBRYS
 10
387.276967
 20
401.555625
 11
410.776967
 21
401.555625
  0
ARC
  8
OBRYS
 10
410.776967
 20
399.555625
 40
2.000000
 50
0.000000
 51
90.000000
  0
LINE
  8
OBRYS
 10
317.776967
 20
401.555625
 11
341.276967
 21
401.555625
  0
ARC
  8
OBRYS
 10
317.776967
 20
399.555625
 40
2.000000
 50
90.000000
 51
180.000000
  0
INSERT
  8
OBRYS
  2
Srouby_s_valcovou_hlavou___15
 62
     7
 10
364.276967
 20
432.055625
  0
INSERT
  8
OBRYS
  2
Srouby_s_valcovou_hlavou___16
 62
     7
 10
396.776967
 20
464.555625
  0
INSERT
  8
OBRYS
  2
Srouby_s_valcovou_hlavou___17
 62
     7
 10
364.276967
 20
497.055625
  0
INSERT
  8
OBRYS
  2
Srouby_s_valcovou_hlavou___18
 62
     7
 10
331.776967
 20
464.555625
  0
ARC
  8
OBRYS
 10
361.476967
 20
476.355625
 40
0.200000
 50
90.000000
 51
180.000000
  0
LINE
  8
OBRYS
 10
361.476967
 20
476.555625
 11
367.076967
 21
476.555625
  0
LINE
  8
OBRYS
 10
361.276967
 20
473.569503
 11
361.276967
 21
476.355625
  0
ARC
  8
OBRYS
 10
367.076967
 20
476.355625
 40
0.200000
 50
0.000000
 51
90.000000
  0
LINE
  8
OBRYS
 10
367.276967
 20
476.355625
 11
367.276967
 21
473.569503
  0
ARC
  8
OBRYS
 10
364.276967
 20
464.555625
 40
9.500000
 50
108.408480
 51
71.591520
  0
CIRCLE
  8
OBRYS
 10
364.276967
 20
464.555625
 40
15.000000
  0
CIRCLE
  8
OBRYS
 10
364.276967
 20
464.555625
 40
23.500000
  0
CIRCLE
  8
OBRYS
 10
364.276967
 20
464.555625
 40
25.000000
  0
ENDBLK
  8
OBRYS
  0
BLOCK
  8
OBRYS
  2
__14
 70
   64
 10
362.742691
 20
411.055625
  0
INSERT
  8
OBRYS
  2
*X__19
 10
0.000000
 20
0.000000
  0
INSERT
  8
OBRYS
  2
*X__20
 10
0.000000
 20
0.000000
  0
LINE
  8
OBRYS
 10
368.888166
 20
411.055625
 11
368.888166
 21
421.055625
  0
LINE
  8
OBRYS
 10
368.118935
 20
421.055625
 11
368.118935
 21
411.055625
  0
ARC
  8
OBRYS
 10
368.118935
 20
417.978702
 40
3.076923
 50
90.000000
 51
180.000000
  0
LINE
  8
OBRYS
 10
365.042012
 20
417.978702
 11
365.042012
 21
414.132548
  0
ARC
  8
OBRYS
 10
368.118935
 20
414.132548
 40
3.076923
 50
180.000000
 51
270.000000
  0
ARC
  8
OBRYS
 10
368.888166
 20
417.978702
 40
3.076923
 50
0.000000
 51
90.000000
  0
LINE
  8
OBRYS
 10
371.965089
 20
414.132548
 11
371.965089
 21
417.978702
  0
ARC
  8
OBRYS
 10
368.888166
 20
414.132548
 40
3.076923
 50
270.000000
 51
360.000000
  0
LINE
  8
OBRYS
 10
359.665768
 20
421.055625
 11
359.665768
 21
411.055625
  0
LINE
  8
OBRYS
 10
363.511921
 20
414.901779
 11
363.511921
 21
413.363317
  0
LINE
  8
OBRYS
 10
363.511921
 20
414.901779
 11
362.742691
 21
414.901779
  0
LINE
  8
OBRYS
 10
363.511921
 20
413.363317
 11
362.742691
 21
413.363317
  0
LINE
  8
OBRYS
 10
362.742691
 20
413.363317
 11
362.742691
 21
411.055625
  0
LINE
  8
OBRYS
 10
362.742691
 20
421.055625
 11
362.742691
 21
414.901779
  0
LINE
  8
OBRYS
 10
359.665768
 20
421.055625
 11
362.742691
 21
421.055625
  0
LINE
  8
OBRYS
 10
362.742691
 20
411.055625
 11
359.665768
 21
411.055625
  0
LINE
  8
OBRYS
 10
358.896537
 20
421.055625
 11
358.896537
 21
413.363317
  0
LINE
  8
OBRYS
 10
358.896537
 20
413.363317
 11
355.819614
 21
413.363317
  0
LINE
  8
OBRYS
 10
355.819614
 20
413.363317
 11
358.896537
 21
421.055625
  0
INSERT
  8
OBRYS
  2
*X__21
 10
0.000000
 20
0.000000
  0
INSERT
  8
OBRYS
  2
*X__22
 10
0.000000
 20
0.000000
  0
ENDBLK
  8
OBRYS
  0
BLOCK
  8
OBRYS
  2
Srouby_s_valcovou_hlavou___15
 70
   66
 10
364.276967
 20
432.055625
  0
LINE
  8
OBRYS
 10
361.776967
 20
430.612240
 11
361.776967
 21
433.499010
  0
LINE
  8
OBRYS
 10
361.776967
 20
433.499010
 11
364.276967
 21
434.942394
  0
LINE
  8
OBRYS
 10
364.276967
 20
434.942394
 11
366.776967
 21
433.499010
  0
LINE
  8
OBRYS
 10
366.776967
 20
433.499010
 11
366.776967
 21
430.612240
  0
LINE
  8
OBRYS
 10
366.776967
 20
430.612240
 11
364.276967
 21
429.168856
  0
LINE
  8
OBRYS
 10
364.276967
 20
429.168856
 11
361.776967
 21
430.612240
  0
CIRCLE
  8
OBRYS
 10
364.276967
 20
432.055625
 40
2.886769
  0
CIRCLE
  8
OBRYS
 10
364.276967
 20
432.055625
 40
5.000000
  0
ENDBLK
  8
OBRYS
  0
BLOCK
  8
OBRYS
  2
Srouby_s_valcovou_hlavou___16
 70
   66
 10
396.776967
 20
464.555625
  0
LINE
  8
OBRYS
 10
394.276967
 20
463.112240
 11
394.276967
 21
465.999010
  0
LINE
  8
OBRYS
 10
394.276967
 20
465.999010
 11
396.776967
 21
467.442394
  0
LINE
  8
OBRYS
 10
396.776967
 20
467.442394
 11
399.276967
 21
465.999010
  0
LINE
  8
OBRYS
 10
399.276967
 20
465.999010
 11
399.276967
 21
463.112240
  0
LINE
  8
OBRYS
 10
399.276967
 20
463.112240
 11
396.776967
 21
461.668856
  0
LINE
  8
OBRYS
 10
396.776967
 20
461.668856
 11
394.276967
 21
463.112240
  0
CIRCLE
  8
OBRYS
 10
396.776967
 20
464.555625
 40
2.886769
  0
CIRCLE
  8
OBRYS
 10
396.776967
 20
464.555625
 40
5.000000
  0
ENDBLK
  8
OBRYS
  0
BLOCK
  8
OBRYS
  2
Srouby_s_valcovou_hlavou___17
 70
   66
 10
364.276967
 20
497.055625
  0
LINE
  8
OBRYS
 10
361.776967
 20
495.612240
 11
361.776967
 21
498.499010
  0
LINE
  8
OBRYS
 10
361.776967
 20
498.499010
 11
364.276967
 21
499.942394
  0
LINE
  8
OBRYS
 10
364.276967
 20
499.942394
 11
366.776967
 21
498.499010
  0
LINE
  8
OBRYS
 10
366.776967
 20
498.499010
 11
366.776967
 21
495.612240
  0
LINE
  8
OBRYS
 10
366.776967
 20
495.612240
 11
364.276967
 21
494.168856
  0
LINE
  8
OBRYS
 10
364.276967
 20
494.168856
 11
361.776967
 21
495.612240
  0
CIRCLE
  8
OBRYS
 10
364.276967
 20
497.055625
 40
2.886769
  0
CIRCLE
  8
OBRYS
 10
364.276967
 20
497.055625
 40
5.000000
  0
ENDBLK
  8
OBRYS
  0
BLOCK
  8
OBRYS
  2
Srouby_s_valcovou_hlavou___18
 70
   66
 10
331.776967
 20
464.555625
  0
LINE
  8
OBRYS
 10
329.276967
 20
463.112240
 11
329.276967
 21
465.999010
  0
LINE
  8
OBRYS
 10
329.276967
 20
465.999010
 11
331.776967
 21
467.442394
  0
LINE
  8
OBRYS
 10
331.776967
 20
467.442394
 11
334.276967
 21
465.999010
  0
LINE
  8
OBRYS
 10
334.276967
 20
465.999010
 11
334.276967
 21
463.112240
  0
LINE
  8
OBRYS
 10
334.276967
 20
463.112240
 11
331.776967
 21
461.668856
  0
LINE
  8
OBRYS
 10
331.776967
 20
461.668856
 11
329.276967
 21
463.112240
  0
CIRCLE
  8
OBRYS
 10
331.776967
 20
464.555625
 40
2.886769
  0
CIRCLE
  8
OBRYS
 10
331.776967
 20
464.555625
 40
5.000000
  0
ENDBLK
  8
OBRYS
  0
BLOCK
  8
OBRYS
  2
*X__19
 70
   65
 10
0.0
 20
0.0
  0
LINE
  8
OBRYS
 62
     0
 10
368.118134
 20
411.176117
 11
367.999359
 21
411.057312
  0
LINE
  8
OBRYS
 62
     0
 10
367.723602
 20
411.081360
 11
368.116730
 21
411.474518
  0
LINE
  8
OBRYS
 62
     0
 10
368.118134
 20
411.772919
 11
367.469025
 21
411.123779
  0
LINE
  8
OBRYS
 62
     0
 10
367.231415
 20
411.186005
 11
368.116730
 21
412.071320
  0
LINE
  8
OBRYS
 62
     0
 10
368.118134
 20
412.369720
 11
367.009430
 21
411.260956
  0
LINE
  8
OBRYS
 62
     0
 10
366.800079
 20
411.351471
 11
368.116730
 21
412.668121
  0
LINE
  8
OBRYS
 62
     0
 10
368.118134
 20
412.966522
 11
366.604950
 21
411.453308
  0
LINE
  8
OBRYS
 62
     0
 10
366.418243
 20
411.566437
 11
368.118134
 21
413.266327
  0
LINE
  8
OBRYS
 62
     0
 10
368.116730
 20
413.564728
 11
366.244293
 21
411.692291
  0
LINE
  8
OBRYS
 62
     0
 10
366.081696
 20
411.826660
 11
368.118134
 21
413.863129
  0
LINE
  8
OBRYS
 62
     0
 10
368.116730
 20
414.161530
 11
365.927521
 21
411.972321
  0
LINE
  8
OBRYS
 62
     0
 10
365.784698
 20
412.126465
 11
368.118134
 21
414.459930
  0
LINE
  8
OBRYS
 62
     0
 10
368.116730
 20
414.758331
 11
365.651764
 21
412.293335
  0
LINE
  8
OBRYS
 62
     0
 10
365.530121
 20
412.468719
 11
368.118134
 21
415.056732
  0
LINE
  8
OBRYS
 62
     0
 10
368.116730
 20
415.355103
 11
365.418427
 21
412.656799
  0
LINE
  8
OBRYS
 62
     0
 10
365.319427
 20
412.854797
 11
368.118134
 21
415.653503
  0
LINE
  8
OBRYS
 62
     0
 10
368.118134
 20
415.953339
 11
365.231720
 21
413.066925
  0
LINE
  8
OBRYS
 62
     0
 10
365.156769
 20
413.291779
 11
368.116730
 21
416.251740
  0
LINE
  8
OBRYS
 62
     0
 10
368.118134
 20
416.550140
 11
365.100189
 21
413.532196
  0
LINE
  8
OBRYS
 62
     0
 10
365.059174
 20
413.790985
 11
368.116730
 21
416.848511
  0
LINE
  8
OBRYS
 62
     0
 10
368.118134
 20
417.146912
 11
365.040802
 21
414.069611
  0
LINE
  8
OBRYS
 62
     0
 10
365.040802
 20
414.369415
 11
368.116730
 21
417.445313
  0
LINE
  8
OBRYS
 62
     0
 10
368.118134
 20
417.743713
 11
365.040802
 21
414.666382
  0
LINE
  8
OBRYS
 62
     0
 10
365.040802
 20
414.966217
 11
368.116730
 21
418.042114
  0
LINE
  8
OBRYS
 62
     0
 10
368.118134
 20
418.340515
 11
365.040802
 21
415.263184
  0
LINE
  8
OBRYS
 62
     0
 10
365.040802
 20
415.563019
 11
368.116730
 21
418.638916
  0
LINE
  8
OBRYS
 62
     0
 10
368.118134
 20
418.937317
 11
365.040802
 21
415.859985
  0
LINE
  8
OBRYS
 62
     0
 10
365.040802
 20
416.159790
 11
368.118134
 21
419.237122
  0
LINE
  8
OBRYS
 62
     0
 10
368.116730
 20
419.535522
 11
365.039398
 21
416.458191
  0
LINE
  8
OBRYS
 62
     0
 10
365.040802
 20
416.756592
 11
368.118134
 21
419.833923
  0
LINE
  8
OBRYS
 62
     0
 10
368.116730
 20
420.132324
 11
365.040802
 21
417.056427
  0
LINE
  8
OBRYS
 62
     0
 10
365.040802
 20
417.353394
 11
368.118134
 21
420.430725
  0
LINE
  8
OBRYS
 62
     0
 10
368.116730
 20
420.729126
 11
365.040802
 21
417.653198
  0
LINE
  8
OBRYS
 62
     0
 10
365.040802
 20
417.950195
 11
368.118134
 21
421.027527
  0
LINE
  8
OBRYS
 62
     0
 10
367.833893
 20
421.043091
 11
365.053558
 21
418.262726
  0
LINE
  8
OBRYS
 62
     0
 10
365.107269
 20
418.613464
 11
367.481720
 21
420.987915
  0
LINE
  8
OBRYS
 62
     0
 10
367.063141
 20
420.869141
 11
365.227509
 21
419.033478
  0
LINE
  8
OBRYS
 62
     0
 10
365.513153
 20
419.618958
 11
366.476227
 21
420.582062
  0
LINE
  8
OBRYS
 62
     0
 10
366.213226
 20
411.714935
 11
365.699860
 21
412.228302
  0
LINE
  8
OBRYS
 62
     0
 10
365.277008
 20
412.950958
 11
366.935883
 21
411.292084
  0
LINE
  8
OBRYS
 62
     0
 10
367.379913
 20
411.144989
 11
365.129913
 21
413.395020
  0
LINE
  8
OBRYS
 62
     0
 10
365.063446
 20
413.761292
 11
367.746185
 21
411.078522
  0
LINE
  8
OBRYS
 62
     0
 10
368.067230
 20
411.057312
 11
365.042206
 21
414.082336
  0
LINE
  8
OBRYS
 62
     0
 10
365.040802
 20
414.380737
 11
368.116730
 21
411.304810
  0
LINE
  8
OBRYS
 62
     0
 10
368.118134
 20
411.603210
 11
365.040802
 21
414.680542
  0
LINE
  8
OBRYS
 62
     0
 10
365.040802
 20
414.977509
 11
368.116730
 21
411.901611
  0
LINE
  8
OBRYS
 62
     0
 10
368.118134
 20
412.200012
 11
365.040802
 21
415.277344
  0
LINE
  8
OBRYS
 62
     0
 10
365.040802
 20
415.574310
 11
368.116730
 21
412.498413
  0
LINE
  8
OBRYS
 62
     0
 10
368.118134
 20
412.796814
 11
365.040802
 21
415.874146
  0
LINE
  8
OBRYS
 62
     0
 10
365.039398
 20
416.172546
 11
368.116730
 21
413.095215
  0
LINE
  8
OBRYS
 62
     0
 10
368.118134
 20
413.393616
 11
365.040802
 21
416.470917
  0
LINE
  8
OBRYS
 62
     0
 10
365.039398
 20
416.769318
 11
368.116730
 21
413.691986
  0
LINE
  8
OBRYS
 62
     0
 10
368.116730
 20
413.991821
 11
365.040802
 21
417.067719
  0
LINE
  8
OBRYS
 62
     0
 10
365.040802
 20
417.367554
 11
368.118134
 21
414.290222
  0
LINE
  8
OBRYS
 62
     0
 10
368.116730
 20
414.588623
 11
365.040802
 21
417.664520
  0
LINE
  8
OBRYS
 62
     0
 10
365.040802
 20
417.964355
 11
368.118134
 21
414.887024
  0
LINE
  8
OBRYS
 62
     0
 10
368.116730
 20
415.185425
 11
365.052155
 21
418.250000
  0
LINE
  8
OBRYS
 62
     0
 10
365.087494
 20
418.514465
 11
368.118134
 21
415.483795
  0
LINE
  8
OBRYS
 62
     0
 10
368.116730
 20
415.782196
 11
365.141205
 21
418.757721
  0
LINE
  8
OBRYS
 62
     0
 10
365.210541
 20
418.988220
 11
368.118134
 21
416.080597
  0
LINE
  8
OBRYS
 62
     0
 10
368.116730
 20
416.378998
 11
365.293976
 21
419.201782
  0
LINE
  8
OBRYS
 62
     0
 10
365.391510
 20
419.404022
 11
368.118134
 21
416.677399
  0
LINE
  8
OBRYS
 62
     0
 10
368.118134
 20
416.977234
 11
365.500458
 21
419.594940
  0
LINE
  8
OBRYS
 62
     0
 10
365.617828
 20
419.774536
 11
368.116730
 21
417.275604
  0
LINE
  8
OBRYS
 62
     0
 10
368.118134
 20
417.574005
 11
365.749359
 21
419.942810
  0
LINE
  8
OBRYS
 62
     0
 10
365.889313
 20
420.099792
 11
368.116730
 21
417.872406
  0
LINE
  8
OBRYS
 62
     0
 10
368.118134
 20
418.170807
 11
366.040680
 21
420.248291
  0
LINE
  8
OBRYS
 62
     0
 10
366.200470
 20
420.385468
 11
368.116730
 21
418.469208
  0
LINE
  8
OBRYS
 62
     0
 10
368.118134
 20
418.767609
 11
366.373016
 21
420.512756
  0
LINE
  8
OBRYS
 62
     0
 10
366.554047
 20
420.628723
 11
368.116730
 21
419.066010
  0
LINE
  8
OBRYS
 62
     0
 10
368.118134
 20
419.364410
 11
366.747772
 21
420.734772
  0
LINE
  8
OBRYS
 62
     0
 10
366.954254
 20
420.828125
 11
368.118134
 21
419.664215
  0
LINE
  8
OBRYS
 62
     0
 10
368.116730
 20
419.962616
 11
367.172028
 21
420.907318
  0
LINE
  8
OBRYS
 62
     0
 10
367.406769
 20
420.972382
 11
368.118134
 21
420.261017
  0
LINE
  8
OBRYS
 62
     0
 10
368.116730
 20
420.559418
 11
367.655670
 21
421.020447
  0
LINE
  8
OBRYS
 62
     0
 10
367.925812
 20
421.050140
 11
368.118134
 21
420.857819
  0
ENDBLK
  8
OBRYS
  0
BLOCK
  8
OBRYS
  2
*X__20
 70
   65
 10
0.0
 20
0.0
  0
LINE
  8
OBRYS
 62
     0
 10
371.425995
 20
412.393768
 11
370.625519
 21
411.593323
  0
LINE
  8
OBRYS
 62
     0
 10
369.994781
 20
411.262390
 11
371.756927
 21
413.024506
  0
LINE
  8
OBRYS
 62
     0
 10
371.888458
 20
413.453003
 11
369.566315
 21
411.130859
  0
LINE
  8
OBRYS
 62
     0
 10
369.208527
 20
411.072876
 11
371.946442
 21
413.810791
  0
LINE
  8
OBRYS
 62
     0
 10
371.964813
 20
414.126160
 11
368.893158
 21
411.054504
  0
LINE
  8
OBRYS
 62
     0
 10
368.886078
 20
411.347229
 11
371.963409
 21
414.424561
  0
LINE
  8
OBRYS
 62
     0
 10
371.963409
 20
414.724365
 11
368.886078
 21
411.647034
  0
LINE
  8
OBRYS
 62
     0
 10
368.887482
 20
411.945435
 11
371.963409
 21
415.021362
  0
LINE
  8
OBRYS
 62
     0
 10
371.963409
 20
415.321167
 11
368.886078
 21
412.243835
  0
LINE
  8
OBRYS
 62
     0
 10
368.887482
 20
412.542236
 11
371.963409
 21
415.618164
  0
LINE
  8
OBRYS
 62
     0
 10
371.963409
 20
415.917969
 11
368.886078
 21
412.840637
  0
LINE
  8
OBRYS
 62
     0
 10
368.887482
 20
413.139038
 11
371.964813
 21
416.216370
  0
LINE
  8
OBRYS
 62
     0
 10
371.963409
 20
416.514771
 11
368.886078
 21
413.437439
  0
LINE
  8
OBRYS
 62
     0
 10
368.887482
 20
413.735840
 11
371.964813
 21
416.813171
  0
LINE
  8
OBRYS
 62
     0
 10
371.963409
 20
417.111572
 11
368.886078
 21
414.034241
  0
LINE
  8
OBRYS
 62
     0
 10
368.886078
 20
414.334045
 11
371.963409
 21
417.411377
  0
LINE
  8
OBRYS
 62
     0
 10
371.963409
 20
417.708374
 11
368.887482
 21
414.632446
  0
LINE
  8
OBRYS
 62
     0
 10
368.886078
 20
414.930847
 11
371.963409
 21
418.008179
  0
LINE
  8
OBRYS
 62
     0
 10
371.947845
 20
418.289612
 11
368.887482
 21
415.229248
  0
LINE
  8
OBRYS
 62
     0
 10
368.886078
 20
415.527649
 11
371.909637
 21
418.551239
  0
LINE
  8
OBRYS
 62
     0
 10
371.854523
 20
418.793060
 11
368.887482
 21
415.826050
  0
LINE
  8
OBRYS
 62
     0
 10
368.886078
 20
416.124451
 11
371.782379
 21
419.020752
  0
LINE
  8
OBRYS
 62
     0
 10
371.697540
 20
419.232880
 11
368.887482
 21
416.422852
  0
LINE
  8
OBRYS
 62
     0
 10
368.886078
 20
416.721252
 11
371.598541
 21
419.433716
  0
LINE
  8
OBRYS
 62
     0
 10
371.486786
 20
419.621796
 11
368.886078
 21
417.021057
  0
LINE
  8
OBRYS
 62
     0
 10
368.887482
 20
417.319458
 11
371.366608
 21
419.798584
  0
LINE
  8
OBRYS
 62
     0
 10
371.235077
 20
419.966858
 11
368.886078
 21
417.617859
  0
LINE
  8
OBRYS
 62
     0
 10
368.887482
 20
417.916260
 11
371.093658
 21
420.122437
  0
LINE
  8
OBRYS
 62
     0
 10
370.940887
 20
420.269501
 11
368.886078
 21
418.214661
  0
LINE
  8
OBRYS
 62
     0
 10
368.887482
 20
418.513062
 11
370.779694
 21
420.405273
  0
LINE
  8
OBRYS
 62
     0
 10
370.605743
 20
420.531128
 11
368.886078
 21
418.811462
  0
LINE
  8
OBRYS
 62
     0
 10
368.887482
 20
419.109863
 11
370.421906
 21
420.644287
  0
LINE
  8
OBRYS
 62
     0
 10
370.226715
 20
420.748932
 11
368.886078
 21
419.408264
  0
LINE
  8
OBRYS
 62
     0
 10
368.887482
 20
419.706665
 11
370.020233
 21
420.839447
  0
LINE
  8
OBRYS
 62
     0
 10
369.798248
 20
420.917206
 11
368.887482
 21
420.006470
  0
LINE
  8
OBRYS
 62
     0
 10
368.886078
 20
420.304871
 11
369.562042
 21
420.980865
  0
LINE
  8
OBRYS
 62
     0
 10
369.310333
 20
421.026123
 11
368.887482
 21
420.603271
  0
LINE
  8
OBRYS
 62
     0
 10
368.886078
 20
420.901672
 11
369.037384
 21
421.052979
  0
LINE
  8
OBRYS
 62
     0
 10
368.962433
 20
411.055908
 11
368.886078
 21
411.132263
  0
LINE
  8
OBRYS
 62
     0
 10
368.887482
 20
411.430664
 11
369.241058
 21
411.077118
  0
LINE
  8
OBRYS
 62
     0
 10
369.498444
 20
411.116730
 11
368.886078
 21
411.729065
  0
LINE
  8
OBRYS
 62
     0
 10
368.887482
 20
412.027466
 11
369.738861
 21
411.176117
  0
LINE
  8
OBRYS
 62
     0
 10
369.962250
 20
411.249664
 11
368.886078
 21
412.325867
  0
LINE
  8
OBRYS
 62
     0
 10
368.887482
 20
412.624268
 11
370.174408
 21
411.337341
  0
LINE
  8
OBRYS
 62
     0
 10
370.371002
 20
411.437744
 11
368.886078
 21
412.922668
  0
LINE
  8
OBRYS
 62
     0
 10
368.886078
 20
413.222473
 11
370.559052
 21
411.549469
  0
LINE
  8
OBRYS
 62
     0
 10
370.735870
 20
411.672516
 11
368.887482
 21
413.520874
  0
LINE
  8
OBRYS
 62
     0
 10
368.886078
 20
413.819275
 11
370.899872
 21
411.805450
  0
LINE
  8
OBRYS
 62
     0
 10
371.055450
 20
411.949677
 11
368.887482
 21
414.117676
  0
LINE
  8
OBRYS
 62
     0
 10
368.886078
 20
414.416077
 11
371.199738
 21
412.102417
  0
LINE
  8
OBRYS
 62
     0
 10
371.334076
 20
412.267883
 11
368.887482
 21
414.714478
  0
LINE
  8
OBRYS
 62
     0
 10
368.886078
 20
415.012878
 11
371.457123
 21
412.441833
  0
LINE
  8
OBRYS
 62
     0
 10
371.570221
 20
412.628510
 11
368.887482
 21
415.311279
  0
LINE
  8
OBRYS
 62
     0
 10
368.886078
 20
415.609680
 11
371.672089
 21
412.823669
  0
LINE
  8
OBRYS
 62
     0
 10
371.761139
 20
413.034393
 11
368.886078
 21
415.909485
  0
LINE
  8
OBRYS
 62
     0
 10
368.887482
 20
416.207886
 11
371.837555
 21
413.257843
  0
LINE
  8
OBRYS
 62
     0
 10
371.896942
 20
413.495422
 11
368.886078
 21
416.506287
  0
LINE
  8
OBRYS
 62
     0
 10
368.887482
 20
416.804688
 11
371.940765
 21
413.751404
  0
LINE
  8
OBRYS
 62
     0
 10
371.962006
 20
414.027161
 11
368.886078
 21
417.103088
  0
LINE
  8
OBRYS
 62
     0
 10
368.887482
 20
417.401489
 11
371.963409
 21
414.325562
  0
LINE
  8
OBRYS
 62
     0
 10
371.963409
 20
414.622559
 11
368.886078
 21
417.699890
  0
LINE
  8
OBRYS
 62
     0
 10
368.887482
 20
417.998291
 11
371.963409
 21
414.922363
  0
LINE
  8
OBRYS
 62
     0
 10
371.963409
 20
415.219360
 11
368.886078
 21
418.296692
  0
LINE
  8
OBRYS
 62
     0
 10
368.886078
 20
418.596497
 11
371.963409
 21
415.519165
  0
LINE
  8
OBRYS
 62
     0
 10
371.964813
 20
415.817566
 11
368.887482
 21
418.894897
  0
LINE
  8
OBRYS
 62
     0
 10
368.886078
 20
419.193298
 11
371.963409
 21
416.115967
  0
LINE
  8
OBRYS
 62
     0
 10
371.964813
 20
416.414368
 11
368.887482
 21
419.491699
  0
LINE
  8
OBRYS
 62
     0
 10
368.886078
 20
419.790100
 11
371.963409
 21
416.712769
  0
LINE
  8
OBRYS
 62
     0
 10
371.963409
 20
417.012573
 11
368.887482
 21
420.088501
  0
LINE
  8
OBRYS
 62
     0
 10
368.886078
 20
420.386902
 11
371.963409
 21
417.309570
  0
LINE
  8
OBRYS
 62
     0
 10
371.963409
 20
417.609375
 11
368.887482
 21
420.685272
  0
LINE
  8
OBRYS
 62
     0
 10
368.886078
 20
420.983673
 11
371.963409
 21
417.906372
  0
LINE
  8
OBRYS
 62
     0
 10
371.954926
 20
418.214661
 11
369.123627
 21
421.045898
  0
LINE
  8
OBRYS
 62
     0
 10
369.468719
 20
421.000671
 11
371.908234
 21
418.561127
  0
LINE
  8
OBRYS
 62
     0
 10
371.800751
 20
418.965607
 11
369.873199
 21
420.893188
  0
LINE
  8
OBRYS
 62
     0
 10
370.417633
 20
420.648529
 11
371.556122
 21
419.510071
  0
ENDBLK
  8
OBRYS
  0
BLOCK
  8
OBRYS
  2
*X__21
 70
   65
 10
0.0
 20
0.0
  0
LINE
  8
OBRYS
 62
     0
 10
362.743317
 20
411.235962
 11
362.562286
 21
411.054932
  0
LINE
  8
OBRYS
 62
     0
 10
362.262482
 20
411.054932
 11
362.741913
 21
411.534363
  0
LINE
  8
OBRYS
 62
     0
 10
362.743317
 20
411.832764
 11
361.964081
 21
411.053528
  0
LINE
  8
OBRYS
 62
     0
 10
361.665680
 20
411.054932
 11
362.741913
 21
412.131165
  0
LINE
  8
OBRYS
 62
     0
 10
362.743317
 20
412.429565
 11
361.367279
 21
411.053528
  0
LINE
  8
OBRYS
 62
     0
 10
361.068878
 20
411.054932
 11
362.741913
 21
412.727966
  0
LINE
  8
OBRYS
 62
     0
 10
363.376862
 20
413.362946
 11
363.511200
 21
413.497284
  0
LINE
  8
OBRYS
 62
     0
 10
363.512604
 20
413.795685
 11
363.078461
 21
413.361511
  0
LINE
  8
OBRYS
 62
     0
 10
362.743317
 20
413.026367
 11
360.770477
 21
411.053528
  0
LINE
  8
OBRYS
 62
     0
 10
360.472076
 20
411.054932
 11
362.741913
 21
413.324768
  0
LINE
  8
OBRYS
 62
     0
 10
362.778656
 20
413.361511
 11
363.511200
 21
414.094086
  0
LINE
  8
OBRYS
 62
     0
 10
363.512604
 20
414.392487
 11
360.173676
 21
411.053528
  0
LINE
  8
OBRYS
 62
     0
 10
359.875275
 20
411.054932
 11
363.511200
 21
414.690887
  0
LINE
  8
OBRYS
 62
     0
 10
363.423553
 20
414.900177
 11
359.665985
 21
411.142609
  0
LINE
  8
OBRYS
 62
     0
 10
359.665985
 20
411.442444
 11
363.123749
 21
414.900177
  0
LINE
  8
OBRYS
 62
     0
 10
362.825348
 20
414.901611
 11
359.664581
 21
411.740845
  0
LINE
  8
OBRYS
 62
     0
 10
359.665985
 20
412.039246
 11
362.743317
 21
415.116547
  0
LINE
  8
OBRYS
 62
     0
 10
362.741913
 20
415.414948
 11
359.665985
 21
412.339050
  0
LINE
  8
OBRYS
 62
     0
 10
359.665985
 20
412.636017
 11
362.743317
 21
415.713348
  0
LINE
  8
OBRYS
 62
     0
 10
362.741913
 20
416.011749
 11
359.665985
 21
412.935852
  0
LINE
  8
OBRYS
 62
     0
 10
359.665985
 20
413.232819
 11
362.743317
 21
416.310150
  0
LINE
  8
OBRYS
 62
     0
 10
362.741913
 20
416.608551
 11
359.665985
 21
413.532654
  0
LINE
  8
OBRYS
 62
     0
 10
359.665985
 20
413.829620
 11
362.743317
 21
416.906952
  0
LINE
  8
OBRYS
 62
     0
 10
362.743317
 20
417.206757
 11
359.665985
 21
414.129456
  0
LINE
  8
OBRYS
 62
     0
 10
359.664581
 20
414.427826
 11
362.741913
 21
417.505157
  0
LINE
  8
OBRYS
 62
     0
 10
362.743317
 20
417.803558
 11
359.665985
 21
414.726227
  0
LINE
  8
OBRYS
 62
     0
 10
359.665985
 20
415.026062
 11
362.741913
 21
418.101959
  0
LINE
  8
OBRYS
 62
     0
 10
362.743317
 20
418.400360
 11
359.665985
 21
415.323029
  0
LINE
  8
OBRYS
 62
     0
 10
359.665985
 20
415.622864
 11
362.741913
 21
418.698761
  0
LINE
  8
OBRYS
 62
     0
 10
362.743317
 20
418.997162
 11
359.665985
 21
415.919830
  0
LINE
  8
OBRYS
 62
     0
 10
359.665985
 20
416.219635
 11
362.741913
 21
419.295563
  0
LINE
  8
OBRYS
 62
     0
 10
362.743317
 20
419.593964
 11
359.665985
 21
416.516632
  0
LINE
  8
OBRYS
 62
     0
 10
359.665985
 20
416.816437
 11
362.743317
 21
419.893768
  0
LINE
  8
OBRYS
 62
     0
 10
362.741913
 20
420.192169
 11
359.664581
 21
417.114838
  0
LINE
  8
OBRYS
 62
     0
 10
359.665985
 20
417.413239
 11
362.743317
 21
420.490570
  0
LINE
  8
OBRYS
 62
     0
 10
362.741913
 20
420.788971
 11
359.665985
 21
417.713043
  0
LINE
  8
OBRYS
 62
     0
 10
359.665985
 20
418.010040
 11
362.709381
 21
421.053436
  0
LINE
  8
OBRYS
 62
     0
 10
362.410980
 20
421.054840
 11
359.665985
 21
418.309845
  0
LINE
  8
OBRYS
 62
     0
 10
359.665985
 20
418.606842
 11
362.112579
 21
421.053436
  0
LINE
  8
OBRYS
 62
     0
 10
361.814178
 20
421.054840
 11
359.665985
 21
418.906647
  0
LINE
  8
OBRYS
 62
     0
 10
359.665985
 20
419.203644
 11
361.515778
 21
421.053436
  0
LINE
  8
OBRYS
 62
     0
 10
361.217377
 20
421.054840
 11
359.665985
 21
419.503448
  0
LINE
  8
OBRYS
 62
     0
 10
359.664581
 20
419.801849
 11
360.917572
 21
421.054840
  0
LINE
  8
OBRYS
 62
     0
 10
360.619171
 20
421.053436
 11
359.665985
 21
420.100250
  0
LINE
  8
OBRYS
 62
     0
 10
359.664581
 20
420.398651
 11
360.320770
 21
421.054840
  0
LINE
  8
OBRYS
 62
     0
 10
360.022369
 20
421.053436
 11
359.665985
 21
420.697052
  0
LINE
  8
OBRYS
 62
     0
 10
359.665985
 20
420.996857
 11
359.723969
 21
421.054840
  0
LINE
  8
OBRYS
 62
     0
 10
359.790436
 20
411.054932
 11
359.665985
 21
411.179382
  0
LINE
  8
OBRYS
 62
     0
 10
359.664581
 20
411.477783
 11
360.088837
 21
411.053528
  0
LINE
  8
OBRYS
 62
     0
 10
360.387238
 20
411.054932
 11
359.665985
 21
411.776184
  0
LINE
  8
OBRYS
 62
     0
 10
359.665985
 20
412.075989
 11
360.687042
 21
411.054932
  0
LINE
  8
OBRYS
 62
     0
 10
360.985443
 20
411.053528
 11
359.665985
 21
412.372986
  0
LINE
  8
OBRYS
 62
     0
 10
359.665985
 20
412.672791
 11
361.283844
 21
411.054932
  0
LINE
  8
OBRYS
 62
     0
 10
361.582245
 20
411.053528
 11
359.665985
 21
412.969788
  0
LINE
  8
OBRYS
 62
     0
 10
359.665985
 20
413.269592
 11
361.880646
 21
411.054932
  0
LINE
  8
OBRYS
 62
     0
 10
362.179047
 20
411.053528
 11
359.665985
 21
413.566589
  0
LINE
  8
OBRYS
 62
     0
 10
359.665985
 20
413.866394
 11
362.477448
 21
411.054932
  0
LINE
  8
OBRYS
 62
     0
 10
362.741913
 20
411.087463
 11
359.664581
 21
414.164795
  0
LINE
  8
OBRYS
 62
     0
 10
359.665985
 20
414.463196
 11
362.743317
 21
411.385864
  0
LINE
  8
OBRYS
 62
     0
 10
362.741913
 20
411.684265
 11
359.664581
 21
414.761597
  0
LINE
  8
OBRYS
 62
     0
 10
359.665985
 20
415.059998
 11
362.743317
 21
411.982666
  0
LINE
  8
OBRYS
 62
     0
 10
362.743317
 20
412.282471
 11
359.665985
 21
415.359802
  0
LINE
  8
OBRYS
 62
     0
 10
359.665985
 20
415.656799
 11
362.741913
 21
412.580872
  0
LINE
  8
OBRYS
 62
     0
 10
362.743317
 20
412.879272
 11
359.665985
 21
415.956604
  0
LINE
  8
OBRYS
 62
     0
 10
359.665985
 20
416.253601
 11
362.741913
 21
413.177673
  0
LINE
  8
OBRYS
 62
     0
 10
362.857880
 20
413.361511
 11
359.665985
 21
416.553406
  0
LINE
  8
OBRYS
 62
     0
 10
359.664581
 20
416.851807
 11
363.154816
 21
413.361511
  0
LINE
  8
OBRYS
 62
     0
 10
363.454620
 20
413.361511
 11
359.665985
 21
417.150208
  0
LINE
  8
OBRYS
 62
     0
 10
359.664581
 20
417.448608
 11
363.511200
 21
413.601929
  0
LINE
  8
OBRYS
 62
     0
 10
363.511200
 20
413.901764
 11
359.665985
 21
417.747009
  0
LINE
  8
OBRYS
 62
     0
 10
359.665985
 20
418.046814
 11
362.743317
 21
414.969482
  0
LINE
  8
OBRYS
 62
     0
 10
362.811188
 20
414.901611
 11
363.512604
 21
414.200165
  0
LINE
  8
OBRYS
 62
     0
 10
363.511200
 20
414.498535
 11
363.109589
 21
414.900177
  0
LINE
  8
OBRYS
 62
     0
 10
362.741913
 20
415.267883
 11
359.665985
 21
418.343811
  0
LINE
  8
OBRYS
 62
     0
 10
359.665985
 20
418.643616
 11
362.743317
 21
415.566284
  0
LINE
  8
OBRYS
 62
     0
 10
363.409393
 20
414.900177
 11
363.512604
 21
414.796936
  0
LINE
  8
OBRYS
 62
     0
 10
362.741913
 20
415.864685
 11
359.665985
 21
418.940582
  0
LINE
  8
OBRYS
 62
     0
 10
359.665985
 20
419.240417
 11
362.743317
 21
416.163086
  0
LINE
  8
OBRYS
 62
     0
 10
362.741913
 20
416.461487
 11
359.665985
 21
419.537384
  0
LINE
  8
OBRYS
 62
     0
 10
359.665985
 20
419.837219
 11
362.743317
 21
416.759888
  0
LINE
  8
OBRYS
 62
     0
 10
362.741913
 20
417.058289
 11
359.664581
 21
420.135620
  0
LINE
  8
OBRYS
 62
     0
 10
359.665985
 20
420.433990
 11
362.743317
 21
417.356689
  0
LINE
  8
OBRYS
 62
     0
 10
362.743317
 20
417.656494
 11
359.665985
 21
420.733826
  0
LINE
  8
OBRYS
 62
     0
 10
359.665985
 20
421.030792
 11
362.741913
 21
417.954895
  0
LINE
  8
OBRYS
 62
     0
 10
362.743317
 20
418.253296
 11
359.941742
 21
421.054840
  0
LINE
  8
OBRYS
 62
     0
 10
360.240143
 20
421.053436
 11
362.741913
 21
418.551697
  0
LINE
  8
OBRYS
 62
     0
 10
362.743317
 20
418.850098
 11
360.538544
 21
421.054840
  0
LINE
  8
OBRYS
 62
     0
 10
360.836945
 20
421.053436
 11
362.741913
 21
419.148499
  0
LINE
  8
OBRYS
 62
     0
 10
362.743317
 20
419.446869
 11
361.135345
 21
421.054840
  0
LINE
  8
OBRYS
 62
     0
 10
361.433746
 20
421.053436
 11
362.741913
 21
419.745270
  0
LINE
  8
OBRYS
 62
     0
 10
362.743317
 20
420.043671
 11
361.732147
 21
421.054840
  0
LINE
  8
OBRYS
 62
     0
 10
362.031952
 20
421.054840
 11
362.743317
 21
420.343506
  0
LINE
  8
OBRYS
 62
     0
 10
362.741913
 20
420.641907
 11
362.330353
 21
421.053436
  0
LINE
  8
OBRYS
 62
     0
 10
362.628754
 20
421.054840
 11
362.743317
 21
420.940308
  0
ENDBLK
  8
OBRYS
  0
BLOCK
  8
OBRYS
  2
*X__22
 70
   65
 10
0.0
 20
0.0
  0
LINE
  8
OBRYS
 62
     0
 10
358.896637
 20
413.659912
 11
358.599640
 21
413.362946
  0
LINE
  8
OBRYS
 62
     0
 10
358.301239
 20
413.361511
 11
358.896637
 21
413.956909
  0
LINE
  8
OBRYS
 62
     0
 10
358.896637
 20
414.256714
 11
358.002838
 21
413.362946
  0
LINE
  8
OBRYS
 62
     0
 10
357.704437
 20
413.361511
 11
358.896637
 21
414.553711
  0
LINE
  8
OBRYS
 62
     0
 10
358.896637
 20
414.853516
 11
357.404633
 21
413.361511
  0
LINE
  8
OBRYS
 62
     0
 10
357.107635
 20
413.361511
 11
358.896637
 21
415.150513
  0
LINE
  8
OBRYS
 62
     0
 10
358.896637
 20
415.450317
 11
356.807831
 21
413.361511
  0
LINE
  8
OBRYS
 62
     0
 10
356.510834
 20
413.361511
 11
358.896637
 21
415.747314
  0
LINE
  8
OBRYS
 62
     0
 10
358.896637
 20
416.047119
 11
356.211029
 21
413.361511
  0
LINE
  8
OBRYS
 62
     0
 10
355.912628
 20
413.362946
 11
358.895233
 21
416.345520
  0
LINE
  8
OBRYS
 62
     0
 10
358.896637
 20
416.643921
 11
355.956512
 21
413.703766
  0
LINE
  8
OBRYS
 62
     0
 10
356.154449
 20
414.201569
 11
358.896637
 21
416.943726
  0
LINE
  8
OBRYS
 62
     0
 10
358.896637
 20
417.240723
 11
356.355316
 21
414.699371
  0
LINE
  8
OBRYS
 62
     0
 10
356.553314
 20
415.197174
 11
358.896637
 21
417.540527
  0
LINE
  8
OBRYS
 62
     0
 10
358.896637
 20
417.837494
 11
356.752716
 21
415.693573
  0
LINE
  8
OBRYS
 62
     0
 10
356.952118
 20
416.192780
 11
358.896637
 21
418.137329
  0
LINE
  8
OBRYS
 62
     0
 10
358.896637
 20
418.434296
 11
357.151520
 21
416.689178
  0
LINE
  8
OBRYS
 62
     0
 10
357.349518
 20
417.186981
 11
358.896637
 21
418.734131
  0
LINE
  8
OBRYS
 62
     0
 10
358.895233
 20
419.032532
 11
357.547455
 21
417.684784
  0
LINE
  8
OBRYS
 62
     0
 10
357.748322
 20
418.182587
 11
358.896637
 21
419.330933
  0
LINE
  8
OBRYS
 62
     0
 10
358.896637
 20
419.630737
 11
357.946259
 21
418.680389
  0
LINE
  8
OBRYS
 62
     0
 10
358.145721
 20
419.176758
 11
358.896637
 21
419.927704
  0
LINE
  8
OBRYS
 62
     0
 10
358.896637
 20
420.227539
 11
358.345123
 21
419.675995
  0
LINE
  8
OBRYS
 62
     0
 10
358.544525
 20
420.172363
 11
358.896637
 21
420.524506
  0
LINE
  8
OBRYS
 62
     0
 10
358.896637
 20
420.824341
 11
358.742462
 21
420.670166
  0
LINE
  8
OBRYS
 62
     0
 10
355.990448
 20
413.361511
 11
355.868805
 21
413.483154
  0
LINE
  8
OBRYS
 62
     0
 10
355.953644
 20
413.698120
 11
356.288849
 21
413.362946
  0
LINE
  8
OBRYS
 62
     0
 10
356.587250
 20
413.361511
 11
356.038483
 21
413.910248
  0
LINE
  8
OBRYS
 62
     0
 10
356.124786
 20
414.123779
 11
356.885651
 21
413.362946
  0
LINE
  8
OBRYS
 62
     0
 10
357.184052
 20
413.361511
 11
356.209625
 21
414.335907
  0
LINE
  8
OBRYS
 62
     0
 10
356.294464
 20
414.550873
 11
357.483856
 21
413.361511
  0
LINE
  8
OBRYS
 62
     0
 10
357.780853
 20
413.361511
 11
356.379364
 21
414.763000
  0
LINE
  8
OBRYS
 62
     0
 10
356.465607
 20
414.976563
 11
358.080658
 21
413.361511
  0
LINE
  8
OBRYS
 62
     0
 10
358.379059
 20
413.362946
 11
356.551849
 21
415.190094
  0
LINE
  8
OBRYS
 62
     0
 10
356.635284
 20
415.403656
 11
358.677460
 21
413.361511
  0
LINE
  8
OBRYS
 62
     0
 10
358.896637
 20
413.442139
 11
356.721588
 21
415.617188
  0
LINE
  8
OBRYS
 62
     0
 10
356.806427
 20
415.829315
 11
358.896637
 21
413.739105
  0
LINE
  8
OBRYS
 62
     0
 10
358.896637
 20
414.038940
 11
356.892670
 21
416.042877
  0
LINE
  8
OBRYS
 62
     0
 10
356.977570
 20
416.255005
 11
358.896637
 21
414.335907
  0
LINE
  8
OBRYS
 62
     0
 10
358.896637
 20
414.635742
 11
357.062408
 21
416.469971
  0
LINE
  8
OBRYS
 62
     0
 10
357.147247
 20
416.682098
 11
358.896637
 21
414.932709
  0
LINE
  8
OBRYS
 62
     0
 10
358.896637
 20
415.232513
 11
357.233551
 21
416.895630
  0
LINE
  8
OBRYS
 62
     0
 10
357.318390
 20
417.107788
 11
358.895233
 21
415.530914
  0
LINE
  8
OBRYS
 62
     0
 10
358.896637
 20
415.829315
 11
357.403229
 21
417.322723
  0
LINE
  8
OBRYS
 62
     0
 10
357.489471
 20
417.536285
 11
358.896637
 21
416.129150
  0
LINE
  8
OBRYS
 62
     0
 10
358.896637
 20
416.426117
 11
357.574371
 21
417.748413
  0
LINE
  8
OBRYS
 62
     0
 10
357.660614
 20
417.961945
 11
358.896637
 21
416.725922
  0
LINE
  8
OBRYS
 62
     0
 10
358.896637
 20
417.022919
 11
357.744049
 21
418.175507
  0
LINE
  8
OBRYS
 62
     0
 10
357.830292
 20
418.389038
 11
358.896637
 21
417.322723
  0
LINE
  8
OBRYS
 62
     0
 10
358.896637
 20
417.619720
 11
357.915192
 21
418.601196
  0
LINE
  8
OBRYS
 62
     0
 10
358.001434
 20
418.814728
 11
358.896637
 21
417.919525
  0
LINE
  8
OBRYS
 62
     0
 10
358.895233
 20
418.217926
 11
358.084869
 21
419.028290
  0
LINE
  8
OBRYS
 62
     0
 10
358.171173
 20
419.241821
 11
358.896637
 21
418.516327
  0
LINE
  8
OBRYS
 62
     0
 10
358.896637
 20
418.816132
 11
358.257416
 21
419.455383
  0
LINE
  8
OBRYS
 62
     0
 10
358.342255
 20
419.667511
 11
358.896637
 21
419.113129
  0
LINE
  8
OBRYS
 62
     0
 10
358.896637
 20
419.412933
 11
358.427094
 21
419.882446
  0
LINE
  8
OBRYS
 62
     0
 10
358.511993
 20
420.094604
 11
358.896637
 21
419.709930
  0
LINE
  8
OBRYS
 62
     0
 10
358.896637
 20
420.009735
 11
358.598236
 21
420.308136
  0
LINE
  8
OBRYS
 62
     0
 10
358.683075
 20
420.520264
 11
358.896637
 21
420.306732
  0
LINE
  8
OBRYS
 62
     0
 10
358.896637
 20
420.606537
 11
358.769379
 21
420.733826
  0
LINE
  8
OBRYS
 62
     0
 10
358.852814
 20
420.947357
 11
358.895233
 21
420.904938
  0
ENDBLK
  8
OBRYS
  0
BLOCK
  8
OBRYS
  2
_15
 70
   64
 10
713.834956
 20
464.555625
  0
LINE
  8
OSA
 10
713.834956
 20
464.555625
 11
764.042829
 21
464.555625
  0
ARC
  8
OBRYS
 10
713.834956
 20
464.555625
 40
55.000000
 50
251.995547
 51
288.004453
  0
INSERT
  8
OBRYS
  2
__24
 62
     7
 10
712.300680
 20
411.055625
  0
ARC
  8
OBRYS
 10
626.835073
 20
464.422344
 40
60.000000
 50
354.868303
 51
5.387322
  0
ARC
  8
OBRYS
 10
800.834839
 20
464.688906
 40
60.000000
 50
174.868303
 51
185.387322
  0
ARC
  8
OBRYS
 10
713.968237
 20
377.555742
 40
60.000000
 50
84.868303
 51
95.387322
  0
ARC
  8
OBRYS
 10
713.701675
 20
551.555508
 40
60.000000
 50
264.868303
 51
275.387322
  0
LINE
  8
OSA
 10
713.834956
 20
464.555625
 11
713.834956
 21
516.564729
  0
LINE
  8
OSA
 10
713.834956
 20
464.555625
 11
663.627082
 21
464.555625
  0
ARC
  8
OBRYS
 10
748.834956
 20
414.055625
 40
5.500000
 50
0.000496
 51
180.000496
  0
LINE
  8
OBRYS
 10
754.334956
 20
414.055673
 11
754.334956
 21
401.555625
  0
LINE
  8
OBRYS
 10
743.334956
 20
414.055578
 11
743.334956
 21
401.555625
  0
LINE
  8
OBRYS
 10
684.334956
 20
414.055578
 11
684.334956
 21
401.555625
  0
LINE
  8
OBRYS
 10
673.334956
 20
414.055673
 11
673.334956
 21
401.555625
  0
ARC
  8
OBRYS
 10
678.834956
 20
414.055625
 40
5.500000
 50
359.999504
 51
179.999504
  0
LINE
  8
OSA
 10
713.834956
 20
464.555625
 11
713.834956
 21
391.109901
  0
ARC
  8
OBRYS
 10
729.834956
 20
394.555625
 40
1.000000
 50
0.000000
 51
90.000000
  0
LINE
  8
OBRYS
 10
729.834956
 20
395.555625
 11
713.834956
 21
395.555625
  0
ARC
  8
OBRYS
 10
697.834956
 20
394.555625
 40
1.000000
 50
90.000000
 51
180.000000
  0
LINE
  8
OBRYS
 10
697.834956
 20
395.555625
 11
713.834956
 21
395.555625
  0
LINE
  8
OBRYS
 62
     7
  6
DASHDOT
 10
678.834956
 20
419.555625
 11
678.834956
 21
393.555625
  0
LINE
  8
OBRYS
 62
     4
  6
HIDDEN2
 10
752.334956
 20
401.555625
 11
752.334956
 21
393.555625
  0
LINE
  8
OBRYS
 62
     4
  6
HIDDEN2
 10
745.334956
 20
401.555625
 11
745.334956
 21
393.555625
  0
LINE
  8
OBRYS
 62
     4
  6
HIDDEN2
 10
675.334956
 20
401.555625
 11
675.334956
 21
393.555625
  0
LINE
  8
OBRYS
 62
     4
  6
HIDDEN2
 10
682.334956
 20
401.555625
 11
682.334956
 21
393.555625
  0
ARC
  8
OBRYS
 10
739.772380
 20
457.055625
 40
2.000000
 50
90.000000
 51
163.872380
  0
LINE
  8
OBRYS
 10
746.334962
 20
459.055625
 11
739.772380
 21
459.055625
  0
ARC
  8
OBRYS
 10
721.334956
 20
438.618200
 40
2.000000
 50
106.127620
 51
180.000000
  0
LINE
  8
OBRYS
 10
719.334956
 20
432.055619
 11
719.334956
 21
438.618200
  0
ARC
  8
OBRYS
 10
706.334956
 20
438.618200
 40
2.000000
 50
0.000000
 51
73.872380
  0
LINE
  8
OBRYS
 10
708.334956
 20
432.055619
 11
708.334956
 21
438.618200
  0
ARC
  8
OBRYS
 10
687.897531
 20
457.055625
 40
2.000000
 50
16.127620
 51
90.000000
  0
LINE
  8
OBRYS
 10
681.334950
 20
459.055625
 11
687.897531
 21
459.055625
  0
ARC
  8
OBRYS
 10
687.897531
 20
472.055625
 40
2.000000
 50
270.000000
 51
343.872380
  0
LINE
  8
OBRYS
 10
681.334950
 20
470.055625
 11
687.897531
 21
470.055625
  0
ARC
  8
OBRYS
 10
706.334956
 20
490.493050
 40
2.000000
 50
286.127620
 51
360.000000
  0
LINE
  8
OBRYS
 10
708.334956
 20
497.055631
 11
708.334956
 21
490.493050
  0
ARC
  8
OBRYS
 10
739.772380
 20
472.055625
 40
2.000000
 50
196.127620
 51
270.000000
  0
LINE
  8
OBRYS
 10
746.334962
 20
470.055625
 11
739.772380
 21
470.055625
  0
ARC
  8
OBRYS
 10
721.334956
 20
490.493050
 40
2.000000
 50
180.000000
 51
253.872380
  0
LINE
  8
OBRYS
 10
719.334956
 20
497.055631
 11
719.334956
 21
490.493050
  0
LINE
  8
OBRYS
 10
730.834956
 20
399.555625
 11
696.834956
 21
399.555625
  0
LINE
  8
OBRYS
 10
734.404760
 20
401.555625
 11
731.840887
 21
401.555625
  0
LINE
  8
OBRYS
 10
693.265151
 20
401.555625
 11
695.829024
 21
401.555625
  0
ARC
  8
OBRYS
 10
736.834956
 20
403.555625
 40
2.000000
 50
180.000000
 51
270.000000
  0
ARC
  8
OBRYS
 10
690.834956
 20
403.555625
 40
2.000000
 50
270.000000
 51
360.000000
  0
ARC
  8
OBRYS
 10
713.834956
 20
432.055625
 40
5.500000
 50
180.000000
 51
360.000000
  0
ARC
  8
OBRYS
 10
746.334956
 20
464.555625
 40
5.500000
 50
270.000000
 51
90.000000
  0
ARC
  8
OBRYS
 10
681.334956
 20
464.555625
 40
5.500000
 50
90.000000
 51
270.000000
  0
ARC
  8
OBRYS
 10
713.834956
 20
497.055625
 40
5.500000
 50
0.000000
 51
180.000000
  0
LINE
  8
OBRYS
 62
     7
  6
DASHDOT
 10
748.834956
 20
419.555625
 11
748.834956
 21
393.555625
  0
CIRCLE
  8
OSA
 10
713.834956
 20
464.555625
 40
32.500000
  0
CIRCLE
  8
OBRYS
 10
713.834956
 20
464.555625
 40
42.500000
  0
ARC
  8
OBRYS
 10
713.681166
 20
464.555625
 40
51.408811
 50
290.284353
 51
293.402256
  0
ARC
  8
OBRYS
 10
713.988746
 20
464.555625
 40
51.408811
 50
246.597744
 51
249.715647
  0
LINE
  8
OBRYS
 10
734.834956
 20
418.476888
 11
734.834956
 21
403.555625
  0
ARC
  8
OBRYS
 10
736.834956
 20
418.476888
 40
2.000000
 50
116.525876
 51
180.000000
  0
LINE
  8
OBRYS
 10
730.834956
 20
415.288496
 11
730.834956
 21
393.555625
  0
ARC
  8
OBRYS
 10
728.834956
 20
415.288496
 40
2.000000
 50
0.000000
 51
106.933533
  0
ARC
  8
OBRYS
 10
698.834956
 20
415.288496
 40
2.000000
 50
73.066467
 51
180.000000
  0
LINE
  8
OBRYS
 10
696.834956
 20
415.288496
 11
696.834956
 21
393.555625
  0
ARC
  8
OBRYS
 10
690.834956
 20
418.476888
 40
2.000000
 50
0.000000
 51
63.474124
  0
LINE
  8
OBRYS
 10
692.834956
 20
418.476888
 11
692.834956
 21
403.555625
  0
LINE
  8
OBRYS
 10
745.267913
 20
435.951095
 11
751.493198
 21
429.725810
  0
LINE
  8
OBRYS
 10
742.439486
 20
433.122667
 11
748.670759
 21
426.891395
  0
LINE
  8
OBRYS
 10
685.230425
 20
433.122667
 11
678.999153
 21
426.891395
  0
LINE
  8
OBRYS
 10
682.401998
 20
435.951095
 11
676.176713
 21
429.725810
  0
LINE
  8
OBRYS
 10
715.834956
 20
507.008540
 11
715.834956
 21
512.513940
  0
LINE
  8
OBRYS
 10
711.834956
 20
507.008540
 11
711.834956
 21
512.513940
  0
LINE
  8
OBRYS
 10
685.230425
 20
495.988583
 11
681.337519
 21
499.881489
  0
LINE
  8
OBRYS
 10
682.401998
 20
493.160156
 11
678.509092
 21
497.053061
  0
LINE
  8
OBRYS
 10
671.382040
 20
466.555621
 11
665.876640
 21
466.555620
  0
LINE
  8
OBRYS
 10
671.382041
 20
462.555621
 11
665.876641
 21
462.555620
  0
LINE
  8
OBRYS
 10
742.439486
 20
495.988583
 11
746.332392
 21
499.881489
  0
LINE
  8
OBRYS
 10
745.267913
 20
493.160156
 11
749.160819
 21
497.053061
  0
LINE
  8
OBRYS
 10
756.287871
 20
466.555629
 11
761.793271
 21
466.555630
  0
LINE
  8
OBRYS
 10
756.287871
 20
462.555629
 11
761.793271
 21
462.555630
  0
ARC
  8
OBRYS
 10
713.834956
 20
464.555625
 40
48.500000
 50
0.000000
 51
180.000000
  0
ARC
  8
OBRYS
 10
713.834956
 20
464.555625
 40
55.000000
 50
292.446351
 51
331.862473
  0
ARC
  8
OBRYS
 10
713.834956
 20
464.555625
 40
55.000000
 50
208.137527
 51
247.553649
  0
LINE
  8
OSA
 62
     2
  6
CONTINUOUS
 10
665.334956
 20
393.555625
 11
696.834956
 21
393.555625
  0
LINE
  8
OBRYS
 10
665.334956
 20
464.555625
 11
665.334956
 21
393.555625
  0
LINE
  8
OSA
 62
     2
  6
CONTINUOUS
 10
730.834956
 20
393.555625
 11
762.334956
 21
393.555625
  0
LINE
  8
OBRYS
 10
762.334956
 20
464.555625
 11
762.334956
 21
393.555625
  0
LINE
  8
OBRYS
 10
736.834956
 20
401.555625
 11
760.334956
 21
401.555625
  0
ARC
  8
OBRYS
 10
760.334956
 20
399.555625
 40
2.000000
 50
0.000000
 51
90.000000
  0
LINE
  8
OBRYS
 10
667.334956
 20
401.555625
 11
690.834956
 21
401.555625
  0
ARC
  8
OBRYS
 10
667.334956
 20
399.555625
 40
2.000000
 50
90.000000
 51
180.000000
  0
INSERT
  8
OBRYS
  2
Srouby_s_valcovou_hlavou___25
 62
     7
 10
713.834956
 20
432.055625
  0
INSERT
  8
OBRYS
  2
Srouby_s_valcovou_hlavou___26
 62
     7
 10
746.334956
 20
464.555625
  0
INSERT
  8
OBRYS
  2
Srouby_s_valcovou_hlavou___27
 62
     7
 10
713.834956
 20
497.055625
  0
INSERT
  8
OBRYS
  2
Srouby_s_valcovou_hlavou___28
 62
     7
 10
681.334956
 20
464.555625
  0
ARC
  8
OBRYS
 10
711.034956
 20
476.355625
 40
0.200000
 50
90.000000
 51
180.000000
  0
LINE
  8
OBRYS
 10
711.034956
 20
476.555625
 11
716.634956
 21
476.555625
  0
LINE
  8
OBRYS
 10
710.834956
 20
473.569503
 11
710.834956
 21
476.355625
  0
ARC
  8
OBRYS
 10
716.634956
 20
476.355625
 40
0.200000
 50
0.000000
 51
90.000000
  0
LINE
  8
OBRYS
 10
716.834956
 20
476.355625
 11
716.834956
 21
473.569503
  0
ARC
  8
OBRYS
 10
713.834956
 20
464.555625
 40
9.500000
 50
108.408480
 51
71.591520
  0
CIRCLE
  8
OBRYS
 10
713.834956
 20
464.555625
 40
15.000000
  0
CIRCLE
  8
OBRYS
 10
713.834956
 20
464.555625
 40
23.500000
  0
CIRCLE
  8
OBRYS
 10
713.834956
 20
464.555625
 40
25.000000
  0
ENDBLK
  8
OBRYS
  0
BLOCK
  8
OBRYS
  2
__24
 70
   64
 10
712.300680
 20
411.055625
  0
INSERT
  8
OBRYS
  2
*X__29
 10
0.000000
 20
0.000000
  0
INSERT
  8
OBRYS
  2
*X__30
 10
0.000000
 20
0.000000
  0
LINE
  8
OBRYS
 10
718.446155
 20
411.055625
 11
718.446155
 21
421.055625
  0
LINE
  8
OBRYS
 10
717.676924
 20
421.055625
 11
717.676924
 21
411.055625
  0
ARC
  8
OBRYS
 10
717.676924
 20
417.978702
 40
3.076923
 50
90.000000
 51
180.000000
  0
LINE
  8
OBRYS
 10
714.600001
 20
417.978702
 11
714.600001
 21
414.132548
  0
ARC
  8
OBRYS
 10
717.676924
 20
414.132548
 40
3.076923
 50
180.000000
 51
270.000000
  0
ARC
  8
OBRYS
 10
718.446155
 20
417.978702
 40
3.076923
 50
0.000000
 51
90.000000
  0
LINE
  8
OBRYS
 10
721.523078
 20
414.132548
 11
721.523078
 21
417.978702
  0
ARC
  8
OBRYS
 10
718.446155
 20
414.132548
 40
3.076923
 50
270.000000
 51
360.000000
  0
LINE
  8
OBRYS
 10
709.223757
 20
421.055625
 11
709.223757
 21
411.055625
  0
LINE
  8
OBRYS
 10
713.069910
 20
414.901779
 11
713.069910
 21
413.363317
  0
LINE
  8
OBRYS
 10
713.069910
 20
414.901779
 11
712.300680
 21
414.901779
  0
LINE
  8
OBRYS
 10
713.069910
 20
413.363317
 11
712.300680
 21
413.363317
  0
LINE
  8
OBRYS
 10
712.300680
 20
413.363317
 11
712.300680
 21
411.055625
  0
LINE
  8
OBRYS
 10
712.300680
 20
421.055625
 11
712.300680
 21
414.901779
  0
LINE
  8
OBRYS
 10
709.223757
 20
421.055625
 11
712.300680
 21
421.055625
  0
LINE
  8
OBRYS
 10
712.300680
 20
411.055625
 11
709.223757
 21
411.055625
  0
LINE
  8
OBRYS
 10
708.454526
 20
421.055625
 11
708.454526
 21
413.363317
  0
LINE
  8
OBRYS
 10
708.454526
 20
413.363317
 11
705.377603
 21
413.363317
  0
LINE
  8
OBRYS
 10
705.377603
 20
413.363317
 11
708.454526
 21
421.055625
  0
INSERT
  8
OBRYS
  2
*X__31
 10
0.000000
 20
0.000000
  0
INSERT
  8
OBRYS
  2
*X__32
 10
0.000000
 20
0.000000
  0
ENDBLK
  8
OBRYS
  0
BLOCK
  8
OBRYS
  2
Srouby_s_valcovou_hlavou___25
 70
   66
 10
713.834956
 20
432.055625
  0
LINE
  8
OBRYS
 10
711.334956
 20
430.612240
 11
711.334956
 21
433.499010
  0
LINE
  8
OBRYS
 10
711.334956
 20
433.499010
 11
713.834956
 21
434.942394
  0
LINE
  8
OBRYS
 10
713.834956
 20
434.942394
 11
716.334956
 21
433.499010
  0
LINE
  8
OBRYS
 10
716.334956
 20
433.499010
 11
716.334956
 21
430.612240
  0
LINE
  8
OBRYS
 10
716.334956
 20
430.612240
 11
713.834956
 21
429.168856
  0
LINE
  8
OBRYS
 10
713.834956
 20
429.168856
 11
711.334956
 21
430.612240
  0
CIRCLE
  8
OBRYS
 10
713.834956
 20
432.055625
 40
2.886769
  0
CIRCLE
  8
OBRYS
 10
713.834956
 20
432.055625
 40
5.000000
  0
ENDBLK
  8
OBRYS
  0
BLOCK
  8
OBRYS
  2
Srouby_s_valcovou_hlavou___26
 70
   66
 10
746.334956
 20
464.555625
  0
LINE
  8
OBRYS
 10
743.834956
 20
463.112240
 11
743.834956
 21
465.999010
  0
LINE
  8
OBRYS
 10
743.834956
 20
465.999010
 11
746.334956
 21
467.442394
  0
LINE
  8
OBRYS
 10
746.334956
 20
467.442394
 11
748.834956
 21
465.999010
  0
LINE
  8
OBRYS
 10
748.834956
 20
465.999010
 11
748.834956
 21
463.112240
  0
LINE
  8
OBRYS
 10
748.834956
 20
463.112240
 11
746.334956
 21
461.668856
  0
LINE
  8
OBRYS
 10
746.334956
 20
461.668856
 11
743.834956
 21
463.112240
  0
CIRCLE
  8
OBRYS
 10
746.334956
 20
464.555625
 40
2.886769
  0
CIRCLE
  8
OBRYS
 10
746.334956
 20
464.555625
 40
5.000000
  0
ENDBLK
  8
OBRYS
  0
BLOCK
  8
OBRYS
  2
Srouby_s_valcovou_hlavou___27
 70
   66
 10
713.834956
 20
497.055625
  0
LINE
  8
OBRYS
 10
711.334956
 20
495.612240
 11
711.334956
 21
498.499010
  0
LINE
  8
OBRYS
 10
711.334956
 20
498.499010
 11
713.834956
 21
499.942394
  0
LINE
  8
OBRYS
 10
713.834956
 20
499.942394
 11
716.334956
 21
498.499010
  0
LINE
  8
OBRYS
 10
716.334956
 20
498.499010
 11
716.334956
 21
495.612240
  0
LINE
  8
OBRYS
 10
716.334956
 20
495.612240
 11
713.834956
 21
494.168856
  0
LINE
  8
OBRYS
 10
713.834956
 20
494.168856
 11
711.334956
 21
495.612240
  0
CIRCLE
  8
OBRYS
 10
713.834956
 20
497.055625
 40
2.886769
  0
CIRCLE
  8
OBRYS
 10
713.834956
 20
497.055625
 40
5.000000
  0
ENDBLK
  8
OBRYS
  0
BLOCK
  8
OBRYS
  2
Srouby_s_valcovou_hlavou___28
 70
   66
 10
681.334956
 20
464.555625
  0
LINE
  8
OBRYS
 10
678.834956
 20
463.112240
 11
678.834956
 21
465.999010
  0
LINE
  8
OBRYS
 10
678.834956
 20
465.999010
 11
681.334956
 21
467.442394
  0
LINE
  8
OBRYS
 10
681.334956
 20
467.442394
 11
683.834956
 21
465.999010
  0
LINE
  8
OBRYS
 10
683.834956
 20
465.999010
 11
683.834956
 21
463.112240
  0
LINE
  8
OBRYS
 10
683.834956
 20
463.112240
 11
681.334956
 21
461.668856
  0
LINE
  8
OBRYS
 10
681.334956
 20
461.668856
 11
678.834956
 21
463.112240
  0
CIRCLE
  8
OBRYS
 10
681.334956
 20
464.555625
 40
2.886769
  0
CIRCLE
  8
OBRYS
 10
681.334956
 20
464.555625
 40
5.000000
  0
ENDBLK
  8
OBRYS
  0
BLOCK
  8
OBRYS
  2
*X__29
 70
   65
 10
0.0
 20
0.0
  0
LINE
  8
OBRYS
 62
     0
 10
717.676147
 20
411.176117
 11
717.557373
 21
411.057312
  0
LINE
  8
OBRYS
 62
     0
 10
717.281616
 20
411.081360
 11
717.674744
 21
411.474518
  0
LINE
  8
OBRYS
 62
     0
 10
717.676147
 20
411.772919
 11
717.027039
 21
411.123779
  0
LINE
  8
OBRYS
 62
     0
 10
716.789429
 20
411.186005
 11
717.674744
 21
412.071320
  0
LINE
  8
OBRYS
 62
     0
 10
717.676147
 20
412.369720
 11
716.567444
 21
411.260956
  0
LINE
  8
OBRYS
 62
     0
 10
716.358093
 20
411.351471
 11
717.674744
 21
412.668121
  0
LINE
  8
OBRYS
 62
     0
 10
717.676147
 20
412.966522
 11
716.162964
 21
411.453308
  0
LINE
  8
OBRYS
 62
     0
 10
715.976257
 20
411.566437
 11
717.676147
 21
413.266327
  0
LINE
  8
OBRYS
 62
     0
 10
717.674744
 20
413.564728
 11
715.802307
 21
411.692291
  0
LINE
  8
OBRYS
 62
     0
 10
715.639709
 20
411.826660
 11
717.676147
 21
413.863129
  0
LINE
  8
OBRYS
 62
     0
 10
717.674744
 20
414.161530
 11
715.485535
 21
411.972321
  0
LINE
  8
OBRYS
 62
     0
 10
715.342712
 20
412.126465
 11
717.676147
 21
414.459930
  0
LINE
  8
OBRYS
 62
     0
 10
717.674744
 20
414.758331
 11
715.209778
 21
412.293335
  0
LINE
  8
OBRYS
 62
     0
 10
715.088135
 20
412.468719
 11
717.676147
 21
415.056732
  0
LINE
  8
OBRYS
 62
     0
 10
717.674744
 20
415.355103
 11
714.976440
 21
412.656799
  0
LINE
  8
OBRYS
 62
     0
 10
714.877441
 20
412.854797
 11
717.676147
 21
415.653503
  0
LINE
  8
OBRYS
 62
     0
 10
717.676147
 20
415.953339
 11
714.789734
 21
413.066925
  0
LINE
  8
OBRYS
 62
     0
 10
714.714783
 20
413.291779
 11
717.674744
 21
416.251740
  0
LINE
  8
OBRYS
 62
     0
 10
717.676147
 20
416.550140
 11
714.658203
 21
413.532196
  0
LINE
  8
OBRYS
 62
     0
 10
714.617188
 20
413.790985
 11
717.674744
 21
416.848511
  0
LINE
  8
OBRYS
 62
     0
 10
717.676147
 20
417.146912
 11
714.598816
 21
414.069611
  0
LINE
  8
OBRYS
 62
     0
 10
714.598816
 20
414.369415
 11
717.674744
 21
417.445313
  0
LINE
  8
OBRYS
 62
     0
 10
717.676147
 20
417.743713
 11
714.598816
 21
414.666382
  0
LINE
  8
OBRYS
 62
     0
 10
714.598816
 20
414.966217
 11
717.674744
 21
418.042114
  0
LINE
  8
OBRYS
 62
     0
 10
717.676147
 20
418.340515
 11
714.598816
 21
415.263184
  0
LINE
  8
OBRYS
 62
     0
 10
714.598816
 20
415.563019
 11
717.674744
 21
418.638916
  0
LINE
  8
OBRYS
 62
     0
 10
717.676147
 20
418.937317
 11
714.598816
 21
415.859985
  0
LINE
  8
OBRYS
 62
     0
 10
714.598816
 20
416.159790
 11
717.676147
 21
419.237122
  0
LINE
  8
OBRYS
 62
     0
 10
717.674744
 20
419.535522
 11
714.597412
 21
416.458191
  0
LINE
  8
OBRYS
 62
     0
 10
714.598816
 20
416.756592
 11
717.676147
 21
419.833923
  0
LINE
  8
OBRYS
 62
     0
 10
717.674744
 20
420.132324
 11
714.598816
 21
417.056427
  0
LINE
  8
OBRYS
 62
     0
 10
714.598816
 20
417.353394
 11
717.676147
 21
420.430725
  0
LINE
  8
OBRYS
 62
     0
 10
717.674744
 20
420.729126
 11
714.598816
 21
417.653198
  0
LINE
  8
OBRYS
 62
     0
 10
714.598816
 20
417.950195
 11
717.676147
 21
421.027527
  0
LINE
  8
OBRYS
 62
     0
 10
717.391907
 20
421.043091
 11
714.611572
 21
418.262726
  0
LINE
  8
OBRYS
 62
     0
 10
714.665283
 20
418.613464
 11
717.039734
 21
420.987915
  0
LINE
  8
OBRYS
 62
     0
 10
716.621155
 20
420.869141
 11
714.785522
 21
419.033478
  0
LINE
  8
OBRYS
 62
     0
 10
715.071167
 20
419.618958
 11
716.034241
 21
420.582062
  0
LINE
  8
OBRYS
 62
     0
 10
715.771240
 20
411.714935
 11
715.257874
 21
412.228302
  0
LINE
  8
OBRYS
 62
     0
 10
714.835022
 20
412.950958
 11
716.493896
 21
411.292084
  0
LINE
  8
OBRYS
 62
     0
 10
716.937927
 20
411.144989
 11
714.687927
 21
413.395020
  0
LINE
  8
OBRYS
 62
     0
 10
714.621460
 20
413.761292
 11
717.304199
 21
411.078522
  0
LINE
  8
OBRYS
 62
     0
 10
717.625244
 20
411.057312
 11
714.600220
 21
414.082336
  0
LINE
  8
OBRYS
 62
     0
 10
714.598816
 20
414.380737
 11
717.674744
 21
411.304810
  0
LINE
  8
OBRYS
 62
     0
 10
717.676147
 20
411.603210
 11
714.598816
 21
414.680542
  0
LINE
  8
OBRYS
 62
     0
 10
714.598816
 20
414.977509
 11
717.674744
 21
411.901611
  0
LINE
  8
OBRYS
 62
     0
 10
717.676147
 20
412.200012
 11
714.598816
 21
415.277344
  0
LINE
  8
OBRYS
 62
     0
 10
714.598816
 20
415.574310
 11
717.674744
 21
412.498413
  0
LINE
  8
OBRYS
 62
     0
 10
717.676147
 20
412.796814
 11
714.598816
 21
415.874146
  0
LINE
  8
OBRYS
 62
     0
 10
714.597412
 20
416.172546
 11
717.674744
 21
413.095215
  0
LINE
  8
OBRYS
 62
     0
 10
717.676147
 20
413.393616
 11
714.598816
 21
416.470917
  0
LINE
  8
OBRYS
 62
     0
 10
714.597412
 20
416.769318
 11
717.674744
 21
413.691986
  0
LINE
  8
OBRYS
 62
     0
 10
717.674744
 20
413.991821
 11
714.598816
 21
417.067719
  0
LINE
  8
OBRYS
 62
     0
 10
714.598816
 20
417.367554
 11
717.676147
 21
414.290222
  0
LINE
  8
OBRYS
 62
     0
 10
717.674744
 20
414.588623
 11
714.598816
 21
417.664520
  0
LINE
  8
OBRYS
 62
     0
 10
714.598816
 20
417.964355
 11
717.676147
 21
414.887024
  0
LINE
  8
OBRYS
 62
     0
 10
717.674744
 20
415.185425
 11
714.610168
 21
418.250000
  0
LINE
  8
OBRYS
 62
     0
 10
714.645508
 20
418.514465
 11
717.676147
 21
415.483795
  0
LINE
  8
OBRYS
 62
     0
 10
717.674744
 20
415.782196
 11
714.699219
 21
418.757721
  0
LINE
  8
OBRYS
 62
     0
 10
714.768555
 20
418.988220
 11
717.676147
 21
416.080597
  0
LINE
  8
OBRYS
 62
     0
 10
717.674744
 20
416.378998
 11
714.851990
 21
419.201782
  0
LINE
  8
OBRYS
 62
     0
 10
714.949524
 20
419.404022
 11
717.676147
 21
416.677399
  0
LINE
  8
OBRYS
 62
     0
 10
717.676147
 20
416.977234
 11
715.058472
 21
419.594940
  0
LINE
  8
OBRYS
 62
     0
 10
715.175842
 20
419.774536
 11
717.674744
 21
417.275604
  0
LINE
  8
OBRYS
 62
     0
 10
717.676147
 20
417.574005
 11
715.307373
 21
419.942810
  0
LINE
  8
OBRYS
 62
     0
 10
715.447327
 20
420.099792
 11
717.674744
 21
417.872406
  0
LINE
  8
OBRYS
 62
     0
 10
717.676147
 20
418.170807
 11
715.598694
 21
420.248291
  0
LINE
  8
OBRYS
 62
     0
 10
715.758484
 20
420.385468
 11
717.674744
 21
418.469208
  0
LINE
  8
OBRYS
 62
     0
 10
717.676147
 20
418.767609
 11
715.931030
 21
420.512756
  0
LINE
  8
OBRYS
 62
     0
 10
716.112061
 20
420.628723
 11
717.674744
 21
419.066010
  0
LINE
  8
OBRYS
 62
     0
 10
717.676147
 20
419.364410
 11
716.305786
 21
420.734772
  0
LINE
  8
OBRYS
 62
     0
 10
716.512268
 20
420.828125
 11
717.676147
 21
419.664215
  0
LINE
  8
OBRYS
 62
     0
 10
717.674744
 20
419.962616
 11
716.730042
 21
420.907318
  0
LINE
  8
OBRYS
 62
     0
 10
716.964783
 20
420.972382
 11
717.676147
 21
420.261017
  0
LINE
  8
OBRYS
 62
     0
 10
717.674744
 20
420.559418
 11
717.213684
 21
421.020447
  0
LINE
  8
OBRYS
 62
     0
 10
717.483826
 20
421.050140
 11
717.676147
 21
420.857819
  0
ENDBLK
  8
OBRYS
  0
BLOCK
  8
OBRYS
  2
*X__30
 70
   65
 10
0.0
 20
0.0
  0
LINE
  8
OBRYS
 62
     0
 10
720.984009
 20
412.393768
 11
720.183533
 21
411.593323
  0
LINE
  8
OBRYS
 62
     0
 10
719.552795
 20
411.262390
 11
721.314941
 21
413.024506
  0
LINE
  8
OBRYS
 62
     0
 10
721.446472
 20
413.453003
 11
719.124329
 21
411.130859
  0
LINE
  8
OBRYS
 62
     0
 10
718.766541
 20
411.072876
 11
721.504456
 21
413.810791
  0
LINE
  8
OBRYS
 62
     0
 10
721.522827
 20
414.126160
 11
718.451172
 21
411.054504
  0
LINE
  8
OBRYS
 62
     0
 10
718.444092
 20
411.347229
 11
721.521423
 21
414.424561
  0
LINE
  8
OBRYS
 62
     0
 10
721.521423
 20
414.724365
 11
718.444092
 21
411.647034
  0
LINE
  8
OBRYS
 62
     0
 10
718.445496
 20
411.945435
 11
721.521423
 21
415.021362
  0
LINE
  8
OBRYS
 62
     0
 10
721.521423
 20
415.321167
 11
718.444092
 21
412.243835
  0
LINE
  8
OBRYS
 62
     0
 10
718.445496
 20
412.542236
 11
721.521423
 21
415.618164
  0
LINE
  8
OBRYS
 62
     0
 10
721.521423
 20
415.917969
 11
718.444092
 21
412.840637
  0
LINE
  8
OBRYS
 62
     0
 10
718.445496
 20
413.139038
 11
721.522827
 21
416.216370
  0
LINE
  8
OBRYS
 62
     0
 10
721.521423
 20
416.514771
 11
718.444092
 21
413.437439
  0
LINE
  8
OBRYS
 62
     0
 10
718.445496
 20
413.735840
 11
721.522827
 21
416.813171
  0
LINE
  8
OBRYS
 62
     0
 10
721.521423
 20
417.111572
 11
718.444092
 21
414.034241
  0
LINE
  8
OBRYS
 62
     0
 10
718.444092
 20
414.334045
 11
721.521423
 21
417.411377
  0
LINE
  8
OBRYS
 62
     0
 10
721.521423
 20
417.708374
 11
718.445496
 21
414.632446
  0
LINE
  8
OBRYS
 62
     0
 10
718.444092
 20
414.930847
 11
721.521423
 21
418.008179
  0
LINE
  8
OBRYS
 62
     0
 10
721.505859
 20
418.289612
 11
718.445496
 21
415.229248
  0
LINE
  8
OBRYS
 62
     0
 10
718.444092
 20
415.527649
 11
721.467651
 21
418.551239
  0
LINE
  8
OBRYS
 62
     0
 10
721.412537
 20
418.793060
 11
718.445496
 21
415.826050
  0
LINE
  8
OBRYS
 62
     0
 10
718.444092
 20
416.124451
 11
721.340393
 21
419.020752
  0
LINE
  8
OBRYS
 62
     0
 10
721.255554
 20
419.232880
 11
718.445496
 21
416.422852
  0
LINE
  8
OBRYS
 62
     0
 10
718.444092
 20
416.721252
 11
721.156555
 21
419.433716
  0
LINE
  8
OBRYS
 62
     0
 10
721.044800
 20
419.621796
 11
718.444092
 21
417.021057
  0
LINE
  8
OBRYS
 62
     0
 10
718.445496
 20
417.319458
 11
720.924622
 21
419.798584
  0
LINE
  8
OBRYS
 62
     0
 10
720.793091
 20
419.966858
 11
718.444092
 21
417.617859
  0
LINE
  8
OBRYS
 62
     0
 10
718.445496
 20
417.916260
 11
720.651672
 21
420.122437
  0
LINE
  8
OBRYS
 62
     0
 10
720.498901
 20
420.269501
 11
718.444092
 21
418.214661
  0
LINE
  8
OBRYS
 62
     0
 10
718.445496
 20
418.513062
 11
720.337708
 21
420.405273
  0
LINE
  8
OBRYS
 62
     0
 10
720.163757
 20
420.531128
 11
718.444092
 21
418.811462
  0
LINE
  8
OBRYS
 62
     0
 10
718.445496
 20
419.109863
 11
719.979919
 21
420.644287
  0
LINE
  8
OBRYS
 62
     0
 10
719.784729
 20
420.748932
 11
718.444092
 21
419.408264
  0
LINE
  8
OBRYS
 62
     0
 10
718.445496
 20
419.706665
 11
719.578247
 21
420.839447
  0
LINE
  8
OBRYS
 62
     0
 10
719.356262
 20
420.917206
 11
718.445496
 21
420.006470
  0
LINE
  8
OBRYS
 62
     0
 10
718.444092
 20
420.304871
 11
719.120056
 21
420.980865
  0
LINE
  8
OBRYS
 62
     0
 10
718.868347
 20
421.026123
 11
718.445496
 21
420.603271
  0
LINE
  8
OBRYS
 62
     0
 10
718.444092
 20
420.901672
 11
718.595398
 21
421.052979
  0
LINE
  8
OBRYS
 62
     0
 10
718.520447
 20
411.055908
 11
718.444092
 21
411.132263
  0
LINE
  8
OBRYS
 62
     0
 10
718.445496
 20
411.430664
 11
718.799072
 21
411.077118
  0
LINE
  8
OBRYS
 62
     0
 10
719.056458
 20
411.116730
 11
718.444092
 21
411.729065
  0
LINE
  8
OBRYS
 62
     0
 10
718.445496
 20
412.027466
 11
719.296875
 21
411.176117
  0
LINE
  8
OBRYS
 62
     0
 10
719.520264
 20
411.249664
 11
718.444092
 21
412.325867
  0
LINE
  8
OBRYS
 62
     0
 10
718.445496
 20
412.624268
 11
719.732422
 21
411.337341
  0
LINE
  8
OBRYS
 62
     0
 10
719.929016
 20
411.437744
 11
718.444092
 21
412.922668
  0
LINE
  8
OBRYS
 62
     0
 10
718.444092
 20
413.222473
 11
720.117065
 21
411.549469
  0
LINE
  8
OBRYS
 62
     0
 10
720.293884
 20
411.672516
 11
718.445496
 21
413.520874
  0
LINE
  8
OBRYS
 62
     0
 10
718.444092
 20
413.819275
 11
720.457886
 21
411.805450
  0
LINE
  8
OBRYS
 62
     0
 10
720.613464
 20
411.949677
 11
718.445496
 21
414.117676
  0
LINE
  8
OBRYS
 62
     0
 10
718.444092
 20
414.416077
 11
720.757751
 21
412.102417
  0
LINE
  8
OBRYS
 62
     0
 10
720.892090
 20
412.267883
 11
718.445496
 21
414.714478
  0
LINE
  8
OBRYS
 62
     0
 10
718.444092
 20
415.012878
 11
721.015137
 21
412.441833
  0
LINE
  8
OBRYS
 62
     0
 10
721.128235
 20
412.628510
 11
718.445496
 21
415.311279
  0
LINE
  8
OBRYS
 62
     0
 10
718.444092
 20
415.609680
 11
721.230103
 21
412.823669
  0
LINE
  8
OBRYS
 62
     0
 10
721.319153
 20
413.034393
 11
718.444092
 21
415.909485
  0
LINE
  8
OBRYS
 62
     0
 10
718.445496
 20
416.207886
 11
721.395569
 21
413.257843
  0
LINE
  8
OBRYS
 62
     0
 10
721.454956
 20
413.495422
 11
718.444092
 21
416.506287
  0
LINE
  8
OBRYS
 62
     0
 10
718.445496
 20
416.804688
 11
721.498779
 21
413.751404
  0
LINE
  8
OBRYS
 62
     0
 10
721.520020
 20
414.027161
 11
718.444092
 21
417.103088
  0
LINE
  8
OBRYS
 62
     0
 10
718.445496
 20
417.401489
 11
721.521423
 21
414.325562
  0
LINE
  8
OBRYS
 62
     0
 10
721.521423
 20
414.622559
 11
718.444092
 21
417.699890
  0
LINE
  8
OBRYS
 62
     0
 10
718.445496
 20
417.998291
 11
721.521423
 21
414.922363
  0
LINE
  8
OBRYS
 62
     0
 10
721.521423
 20
415.219360
 11
718.444092
 21
418.296692
  0
LINE
  8
OBRYS
 62
     0
 10
718.444092
 20
418.596497
 11
721.521423
 21
415.519165
  0
LINE
  8
OBRYS
 62
     0
 10
721.522827
 20
415.817566
 11
718.445496
 21
418.894897
  0
LINE
  8
OBRYS
 62
     0
 10
718.444092
 20
419.193298
 11
721.521423
 21
416.115967
  0
LINE
  8
OBRYS
 62
     0
 10
721.522827
 20
416.414368
 11
718.445496
 21
419.491699
  0
LINE
  8
OBRYS
 62
     0
 10
718.444092
 20
419.790100
 11
721.521423
 21
416.712769
  0
LINE
  8
OBRYS
 62
     0
 10
721.521423
 20
417.012573
 11
718.445496
 21
420.088501
  0
LINE
  8
OBRYS
 62
     0
 10
718.444092
 20
420.386902
 11
721.521423
 21
417.309570
  0
LINE
  8
OBRYS
 62
     0
 10
721.521423
 20
417.609375
 11
718.445496
 21
420.685272
  0
LINE
  8
OBRYS
 62
     0
 10
718.444092
 20
420.983673
 11
721.521423
 21
417.906372
  0
LINE
  8
OBRYS
 62
     0
 10
721.512939
 20
418.214661
 11
718.681641
 21
421.045898
  0
LINE
  8
OBRYS
 62
     0
 10
719.026733
 20
421.000671
 11
721.466248
 21
418.561127
  0
LINE
  8
OBRYS
 62
     0
 10
721.358765
 20
418.965607
 11
719.431213
 21
420.893188
  0
LINE
  8
OBRYS
 62
     0
 10
719.975647
 20
420.648529
 11
721.114136
 21
419.510071
  0
ENDBLK
  8
OBRYS
  0
BLOCK
  8
OBRYS
  2
*X__31
 70
   65
 10
0.0
 20
0.0
  0
LINE
  8
OBRYS
 62
     0
 10
712.301331
 20
411.235962
 11
712.120300
 21
411.054932
  0
LINE
  8
OBRYS
 62
     0
 10
711.820496
 20
411.054932
 11
712.299927
 21
411.534363
  0
LINE
  8
OBRYS
 62
     0
 10
712.301331
 20
411.832764
 11
711.522095
 21
411.053528
  0
LINE
  8
OBRYS
 62
     0
 10
711.223694
 20
411.054932
 11
712.299927
 21
412.131165
  0
LINE
  8
OBRYS
 62
     0
 10
712.301331
 20
412.429565
 11
710.925293
 21
411.053528
  0
LINE
  8
OBRYS
 62
     0
 10
710.626892
 20
411.054932
 11
712.299927
 21
412.727966
  0
LINE
  8
OBRYS
 62
     0
 10
712.934875
 20
413.362946
 11
713.069214
 21
413.497284
  0
LINE
  8
OBRYS
 62
     0
 10
713.070618
 20
413.795685
 11
712.636475
 21
413.361511
  0
LINE
  8
OBRYS
 62
     0
 10
712.301331
 20
413.026367
 11
710.328491
 21
411.053528
  0
LINE
  8
OBRYS
 62
     0
 10
710.030090
 20
411.054932
 11
712.299927
 21
413.324768
  0
LINE
  8
OBRYS
 62
     0
 10
712.336670
 20
413.361511
 11
713.069214
 21
414.094086
  0
LINE
  8
OBRYS
 62
     0
 10
713.070618
 20
414.392487
 11
709.731689
 21
411.053528
  0
LINE
  8
OBRYS
 62
     0
 10
709.433289
 20
411.054932
 11
713.069214
 21
414.690887
  0
LINE
  8
OBRYS
 62
     0
 10
712.981567
 20
414.900177
 11
709.223999
 21
411.142609
  0
LINE
  8
OBRYS
 62
     0
 10
709.223999
 20
411.442444
 11
712.681763
 21
414.900177
  0
LINE
  8
OBRYS
 62
     0
 10
712.383362
 20
414.901611
 11
709.222595
 21
411.740845
  0
LINE
  8
OBRYS
 62
     0
 10
709.223999
 20
412.039246
 11
712.301331
 21
415.116547
  0
LINE
  8
OBRYS
 62
     0
 10
712.299927
 20
415.414948
 11
709.223999
 21
412.339050
  0
LINE
  8
OBRYS
 62
     0
 10
709.223999
 20
412.636017
 11
712.301331
 21
415.713348
  0
LINE
  8
OBRYS
 62
     0
 10
712.299927
 20
416.011749
 11
709.223999
 21
412.935852
  0
LINE
  8
OBRYS
 62
     0
 10
709.223999
 20
413.232819
 11
712.301331
 21
416.310150
  0
LINE
  8
OBRYS
 62
     0
 10
712.299927
 20
416.608551
 11
709.223999
 21
413.532654
  0
LINE
  8
OBRYS
 62
     0
 10
709.223999
 20
413.829620
 11
712.301331
 21
416.906952
  0
LINE
  8
OBRYS
 62
     0
 10
712.301331
 20
417.206757
 11
709.223999
 21
414.129456
  0
LINE
  8
OBRYS
 62
     0
 10
709.222595
 20
414.427826
 11
712.299927
 21
417.505157
  0
LINE
  8
OBRYS
 62
     0
 10
712.301331
 20
417.803558
 11
709.223999
 21
414.726227
  0
LINE
  8
OBRYS
 62
     0
 10
709.223999
 20
415.026062
 11
712.299927
 21
418.101959
  0
LINE
  8
OBRYS
 62
     0
 10
712.301331
 20
418.400360
 11
709.223999
 21
415.323029
  0
LINE
  8
OBRYS
 62
     0
 10
709.223999
 20
415.622864
 11
712.299927
 21
418.698761
  0
LINE
  8
OBRYS
 62
     0
 10
712.301331
 20
418.997162
 11
709.223999
 21
415.919830
  0
LINE
  8
OBRYS
 62
     0
 10
709.223999
 20
416.219635
 11
712.299927
 21
419.295563
  0
LINE
  8
OBRYS
 62
     0
 10
712.301331
 20
419.593964
 11
709.223999
 21
416.516632
  0
LINE
  8
OBRYS
 62
     0
 10
709.223999
 20
416.816437
 11
712.301331
 21
419.893768
  0
LINE
  8
OBRYS
 62
     0
 10
712.299927
 20
420.192169
 11
709.222595
 21
417.114838
  0
LINE
  8
OBRYS
 62
     0
 10
709.223999
 20
417.413239
 11
712.301331
 21
420.490570
  0
LINE
  8
OBRYS
 62
     0
 10
712.299927
 20
420.788971
 11
709.223999
 21
417.713043
  0
LINE
  8
OBRYS
 62
     0
 10
709.223999
 20
418.010040
 11
712.267395
 21
421.053436
  0
LINE
  8
OBRYS
 62
     0
 10
711.968994
 20
421.054840
 11
709.223999
 21
418.309845
  0
LINE
  8
OBRYS
 62
     0
 10
709.223999
 20
418.606842
 11
711.670593
 21
421.053436
  0
LINE
  8
OBRYS
 62
     0
 10
711.372192
 20
421.054840
 11
709.223999
 21
418.906647
  0
LINE
  8
OBRYS
 62
     0
 10
709.223999
 20
419.203644
 11
711.073792
 21
421.053436
  0
LINE
  8
OBRYS
 62
     0
 10
710.775391
 20
421.054840
 11
709.223999
 21
419.503448
  0
LINE
  8
OBRYS
 62
     0
 10
709.222595
 20
419.801849
 11
710.475586
 21
421.054840
  0
LINE
  8
OBRYS
 62
     0
 10
710.177185
 20
421.053436
 11
709.223999
 21
420.100250
  0
LINE
  8
OBRYS
 62
     0
 10
709.222595
 20
420.398651
 11
709.878784
 21
421.054840
  0
LINE
  8
OBRYS
 62
     0
 10
709.580383
 20
421.053436
 11
709.223999
 21
420.697052
  0
LINE
  8
OBRYS
 62
     0
 10
709.223999
 20
420.996857
 11
709.281982
 21
421.054840
  0
LINE
  8
OBRYS
 62
     0
 10
709.348450
 20
411.054932
 11
709.223999
 21
411.179382
  0
LINE
  8
OBRYS
 62
     0
 10
709.222595
 20
411.477783
 11
709.646851
 21
411.053528
  0
LINE
  8
OBRYS
 62
     0
 10
709.945251
 20
411.054932
 11
709.223999
 21
411.776184
  0
LINE
  8
OBRYS
 62
     0
 10
709.223999
 20
412.075989
 11
710.245056
 21
411.054932
  0
LINE
  8
OBRYS
 62
     0
 10
710.543457
 20
411.053528
 11
709.223999
 21
412.372986
  0
LINE
  8
OBRYS
 62
     0
 10
709.223999
 20
412.672791
 11
710.841858
 21
411.054932
  0
LINE
  8
OBRYS
 62
     0
 10
711.140259
 20
411.053528
 11
709.223999
 21
412.969788
  0
LINE
  8
OBRYS
 62
     0
 10
709.223999
 20
413.269592
 11
711.438660
 21
411.054932
  0
LINE
  8
OBRYS
 62
     0
 10
711.737061
 20
411.053528
 11
709.223999
 21
413.566589
  0
LINE
  8
OBRYS
 62
     0
 10
709.223999
 20
413.866394
 11
712.035461
 21
411.054932
  0
LINE
  8
OBRYS
 62
     0
 10
712.299927
 20
411.087463
 11
709.222595
 21
414.164795
  0
LINE
  8
OBRYS
 62
     0
 10
709.223999
 20
414.463196
 11
712.301331
 21
411.385864
  0
LINE
  8
OBRYS
 62
     0
 10
712.299927
 20
411.684265
 11
709.222595
 21
414.761597
  0
LINE
  8
OBRYS
 62
     0
 10
709.223999
 20
415.059998
 11
712.301331
 21
411.982666
  0
LINE
  8
OBRYS
 62
     0
 10
712.301331
 20
412.282471
 11
709.223999
 21
415.359802
  0
LINE
  8
OBRYS
 62
     0
 10
709.223999
 20
415.656799
 11
712.299927
 21
412.580872
  0
LINE
  8
OBRYS
 62
     0
 10
712.301331
 20
412.879272
 11
709.223999
 21
415.956604
  0
LINE
  8
OBRYS
 62
     0
 10
709.223999
 20
416.253601
 11
712.299927
 21
413.177673
  0
LINE
  8
OBRYS
 62
     0
 10
712.415894
 20
413.361511
 11
709.223999
 21
416.553406
  0
LINE
  8
OBRYS
 62
     0
 10
709.222595
 20
416.851807
 11
712.712830
 21
413.361511
  0
LINE
  8
OBRYS
 62
     0
 10
713.012634
 20
413.361511
 11
709.223999
 21
417.150208
  0
LINE
  8
OBRYS
 62
     0
 10
709.222595
 20
417.448608
 11
713.069214
 21
413.601929
  0
LINE
  8
OBRYS
 62
     0
 10
713.069214
 20
413.901764
 11
709.223999
 21
417.747009
  0
LINE
  8
OBRYS
 62
     0
 10
709.223999
 20
418.046814
 11
712.301331
 21
414.969482
  0
LINE
  8
OBRYS
 62
     0
 10
712.369202
 20
414.901611
 11
713.070618
 21
414.200165
  0
LINE
  8
OBRYS
 62
     0
 10
713.069214
 20
414.498535
 11
712.667603
 21
414.900177
  0
LINE
  8
OBRYS
 62
     0
 10
712.299927
 20
415.267883
 11
709.223999
 21
418.343811
  0
LINE
  8
OBRYS
 62
     0
 10
709.223999
 20
418.643616
 11
712.301331
 21
415.566284
  0
LINE
  8
OBRYS
 62
     0
 10
712.967407
 20
414.900177
 11
713.070618
 21
414.796936
  0
LINE
  8
OBRYS
 62
     0
 10
712.299927
 20
415.864685
 11
709.223999
 21
418.940582
  0
LINE
  8
OBRYS
 62
     0
 10
709.223999
 20
419.240417
 11
712.301331
 21
416.163086
  0
LINE
  8
OBRYS
 62
     0
 10
712.299927
 20
416.461487
 11
709.223999
 21
419.537384
  0
LINE
  8
OBRYS
 62
     0
 10
709.223999
 20
419.837219
 11
712.301331
 21
416.759888
  0
LINE
  8
OBRYS
 62
     0
 10
712.299927
 20
417.058289
 11
709.222595
 21
420.135620
  0
LINE
  8
OBRYS
 62
     0
 10
709.223999
 20
420.433990
 11
712.301331
 21
417.356689
  0
LINE
  8
OBRYS
 62
     0
 10
712.301331
 20
417.656494
 11
709.223999
 21
420.733826
  0
LINE
  8
OBRYS
 62
     0
 10
709.223999
 20
421.030792
 11
712.299927
 21
417.954895
  0
LINE
  8
OBRYS
 62
     0
 10
712.301331
 20
418.253296
 11
709.499756
 21
421.054840
  0
LINE
  8
OBRYS
 62
     0
 10
709.798157
 20
421.053436
 11
712.299927
 21
418.551697
  0
LINE
  8
OBRYS
 62
     0
 10
712.301331
 20
418.850098
 11
710.096558
 21
421.054840
  0
LINE
  8
OBRYS
 62
     0
 10
710.394958
 20
421.053436
 11
712.299927
 21
419.148499
  0
LINE
  8
OBRYS
 62
     0
 10
712.301331
 20
419.446869
 11
710.693359
 21
421.054840
  0
LINE
  8
OBRYS
 62
     0
 10
710.991760
 20
421.053436
 11
712.299927
 21
419.745270
  0
LINE
  8
OBRYS
 62
     0
 10
712.301331
 20
420.043671
 11
711.290161
 21
421.054840
  0
LINE
  8
OBRYS
 62
     0
 10
711.589966
 20
421.054840
 11
712.301331
 21
420.343506
  0
LINE
  8
OBRYS
 62
     0
 10
712.299927
 20
420.641907
 11
711.888367
 21
421.053436
  0
LINE
  8
OBRYS
 62
     0
 10
712.186768
 20
421.054840
 11
712.301331
 21
420.940308
  0
ENDBLK
  8
OBRYS
  0
BLOCK
  8
OBRYS
  2
*X__32
 70
   65
 10
0.0
 20
0.0
  0
LINE
  8
OBRYS
 62
     0
 10
708.454651
 20
413.659912
 11
708.157654
 21
413.362946
  0
LINE
  8
OBRYS
 62
     0
 10
707.859253
 20
413.361511
 11
708.454651
 21
413.956909
  0
LINE
  8
OBRYS
 62
     0
 10
708.454651
 20
414.256714
 11
707.560852
 21
413.362946
  0
LINE
  8
OBRYS
 62
     0
 10
707.262451
 20
413.361511
 11
708.454651
 21
414.553711
  0
LINE
  8
OBRYS
 62
     0
 10
708.454651
 20
414.853516
 11
706.962646
 21
413.361511
  0
LINE
  8
OBRYS
 62
     0
 10
706.665649
 20
413.361511
 11
708.454651
 21
415.150513
  0
LINE
  8
OBRYS
 62
     0
 10
708.454651
 20
415.450317
 11
706.365845
 21
413.361511
  0
LINE
  8
OBRYS
 62
     0
 10
706.068848
 20
413.361511
 11
708.454651
 21
415.747314
  0
LINE
  8
OBRYS
 62
     0
 10
708.454651
 20
416.047119
 11
705.769043
 21
413.361511
  0
LINE
  8
OBRYS
 62
     0
 10
705.470642
 20
413.362946
 11
708.453247
 21
416.345520
  0
LINE
  8
OBRYS
 62
     0
 10
708.454651
 20
416.643921
 11
705.514526
 21
413.703766
  0
LINE
  8
OBRYS
 62
     0
 10
705.712463
 20
414.201569
 11
708.454651
 21
416.943726
  0
LINE
  8
OBRYS
 62
     0
 10
708.454651
 20
417.240723
 11
705.913330
 21
414.699371
  0
LINE
  8
OBRYS
 62
     0
 10
706.111328
 20
415.197174
 11
708.454651
 21
417.540527
  0
LINE
  8
OBRYS
 62
     0
 10
708.454651
 20
417.837494
 11
706.310730
 21
415.693573
  0
LINE
  8
OBRYS
 62
     0
 10
706.510132
 20
416.192780
 11
708.454651
 21
418.137329
  0
LINE
  8
OBRYS
 62
     0
 10
708.454651
 20
418.434296
 11
706.709534
 21
416.689178
  0
LINE
  8
OBRYS
 62
     0
 10
706.907532
 20
417.186981
 11
708.454651
 21
418.734131
  0
LINE
  8
OBRYS
 62
     0
 10
708.453247
 20
419.032532
 11
707.105469
 21
417.684784
  0
LINE
  8
OBRYS
 62
     0
 10
707.306335
 20
418.182587
 11
708.454651
 21
419.330933
  0
LINE
  8
OBRYS
 62
     0
 10
708.454651
 20
419.630737
 11
707.504272
 21
418.680389
  0
LINE
  8
OBRYS
 62
     0
 10
707.703735
 20
419.176758
 11
708.454651
 21
419.927704
  0
LINE
  8
OBRYS
 62
     0
 10
708.454651
 20
420.227539
 11
707.903137
 21
419.675995
  0
LINE
  8
OBRYS
 62
     0
 10
708.102539
 20
420.172363
 11
708.454651
 21
420.524506
  0
LINE
  8
OBRYS
 62
     0
 10
708.454651
 20
420.824341
 11
708.300476
 21
420.670166
  0
LINE
  8
OBRYS
 62
     0
 10
705.548462
 20
413.361511
 11
705.426819
 21
413.483154
  0
LINE
  8
OBRYS
 62
     0
 10
705.511658
 20
413.698120
 11
705.846863
 21
413.362946
  0
LINE
  8
OBRYS
 62
     0
 10
706.145264
 20
413.361511
 11
705.596497
 21
413.910248
  0
LINE
  8
OBRYS
 62
     0
 10
705.682800
 20
414.123779
 11
706.443665
 21
413.362946
  0
LINE
  8
OBRYS
 62
     0
 10
706.742065
 20
413.361511
 11
705.767639
 21
414.335907
  0
LINE
  8
OBRYS
 62
     0
 10
705.852478
 20
414.550873
 11
707.041870
 21
413.361511
  0
LINE
  8
OBRYS
 62
     0
 10
707.338867
 20
413.361511
 11
705.937378
 21
414.763000
  0
LINE
  8
OBRYS
 62
     0
 10
706.023621
 20
414.976563
 11
707.638672
 21
413.361511
  0
LINE
  8
OBRYS
 62
     0
 10
707.937073
 20
413.362946
 11
706.109863
 21
415.190094
  0
LINE
  8
OBRYS
 62
     0
 10
706.193298
 20
415.403656
 11
708.235474
 21
413.361511
  0
LINE
  8
OBRYS
 62
     0
 10
708.454651
 20
413.442139
 11
706.279602
 21
415.617188
  0
LINE
  8
OBRYS
 62
     0
 10
706.364441
 20
415.829315
 11
708.454651
 21
413.739105
  0
LINE
  8
OBRYS
 62
     0
 10
708.454651
 20
414.038940
 11
706.450684
 21
416.042877
  0
LINE
  8
OBRYS
 62
     0
 10
706.535583
 20
416.255005
 11
708.454651
 21
414.335907
  0
LINE
  8
OBRYS
 62
     0
 10
708.454651
 20
414.635742
 11
706.620422
 21
416.469971
  0
LINE
  8
OBRYS
 62
     0
 10
706.705261
 20
416.682098
 11
708.454651
 21
414.932709
  0
LINE
  8
OBRYS
 62
     0
 10
708.454651
 20
415.232513
 11
706.791565
 21
416.895630
  0
LINE
  8
OBRYS
 62
     0
 10
706.876404
 20
417.107788
 11
708.453247
 21
415.530914
  0
LINE
  8
OBRYS
 62
     0
 10
708.454651
 20
415.829315
 11
706.961243
 21
417.322723
  0
LINE
  8
OBRYS
 62
     0
 10
707.047485
 20
417.536285
 11
708.454651
 21
416.129150
  0
LINE
  8
OBRYS
 62
     0
 10
708.454651
 20
416.426117
 11
707.132385
 21
417.748413
  0
LINE
  8
OBRYS
 62
     0
 10
707.218628
 20
417.961945
 11
708.454651
 21
416.725922
  0
LINE
  8
OBRYS
 62
     0
 10
708.454651
 20
417.022919
 11
707.302063
 21
418.175507
  0
LINE
  8
OBRYS
 62
     0
 10
707.388306
 20
418.389038
 11
708.454651
 21
417.322723
  0
LINE
  8
OBRYS
 62
     0
 10
708.454651
 20
417.619720
 11
707.473206
 21
418.601196
  0
LINE
  8
OBRYS
 62
     0
 10
707.559448
 20
418.814728
 11
708.454651
 21
417.919525
  0
LINE
  8
OBRYS
 62
     0
 10
708.453247
 20
418.217926
 11
707.642883
 21
419.028290
  0
LINE
  8
OBRYS
 62
     0
 10
707.729187
 20
419.241821
 11
708.454651
 21
418.516327
  0
LINE
  8
OBRYS
 62
     0
 10
708.454651
 20
418.816132
 11
707.815430
 21
419.455383
  0
LINE
  8
OBRYS
 62
     0
 10
707.900269
 20
419.667511
 11
708.454651
 21
419.113129
  0
LINE
  8
OBRYS
 62
     0
 10
708.454651
 20
419.412933
 11
707.985107
 21
419.882446
  0
LINE
  8
OBRYS
 62
     0
 10
708.070007
 20
420.094604
 11
708.454651
 21
419.709930
  0
LINE
  8
OBRYS
 62
     0
 10
708.454651
 20
420.009735
 11
708.156250
 21
420.308136
  0
LINE
  8
OBRYS
 62
     0
 10
708.241089
 20
420.520264
 11
708.454651
 21
420.306732
  0
LINE
  8
OBRYS
 62
     0
 10
708.454651
 20
420.606537
 11
708.327393
 21
420.733826
  0
LINE
  8
OBRYS
 62
     0
 10
708.410828
 20
420.947357
 11
708.453247
 21
420.904938
  0
ENDBLK
  8
OBRYS
  0
BLOCK
  8
KOTA
  2
Vnitrni_metricky_zavit_M1_16
 70
   66
 10
364.276967
 20
654.302921
  0
CIRCLE
  8
KOTA
 62
     2
 10
364.276967
 20
654.302921
 40
4.458800
  0
ARC
  8
KOTA
 62
     7
 10
364.276967
 20
654.302921
 40
5.000000
 50
85.000000
 51
5.000000
  0
ENDBLK
  8
KOTA
  0
ENDSEC
  0
SECTION
  2
ENTITIES
  0
TEXT
  8
NEVIDITELNA
 62
     2
  6
CONTINUOUS
 10
259.797699
 20
791.606384
 40
15.000000
  1
MRP 40A - A
 50
0.00
 51
0.00
 41
0.80
  0
TEXT
  8
NEVIDITELNA
 62
     2
  6
CONTINUOUS
 10
261.958557
 20
760.613525
 40
15.000000
  1
MRP 40A - FT + 2x adaptér
 50
0.00
 51
0.00
 41
0.80
  0
INSERT
  8
OBRYS
  2
_0
 62
     7
 10
587.024263
 20
464.555631
  0
INSERT
  8
OBRYS
  2
_1
 62
     7
 10
521.024263
 20
464.555631
  0
INSERT
  8
OSA
  2
_2
  6
CONTINUOUS
 10
554.024263
 20
504.555625
  0
ARC
  8
OBRYS
 10
554.024263
 20
305.115870
 40
5.500000
 50
111.323686
 51
68.676314
  0
LINE
  8
OBRYS
 10
552.024263
 20
310.239345
 11
552.024263
 21
312.215870
  0
LINE
  8
OBRYS
 10
552.024263
 20
312.215870
 11
556.024263
 21
312.215870
  0
LINE
  8
OBRYS
 10
556.024263
 20
312.215870
 11
556.024263
 21
310.239345
  0
CIRCLE
  8
OBRYS
 10
554.024263
 20
305.115870
 40
10.000000
  0
LINE
  8
OSA
 10
554.024263
 20
305.115870
 11
554.024263
 21
291.990873
  0
LINE
  8
OSA
 10
554.024263
 20
305.115870
 11
554.024263
 21
318.240867
  0
LINE
  8
OSA
 10
554.024263
 20
305.115870
 11
540.899265
 21
305.115870
  0
LINE
  8
OSA
 10
554.024263
 20
305.115870
 11
567.149260
 21
305.115870
  0
LINE
  8
OSA
 10
554.024263
 20
331.365865
 11
567.149260
 21
331.365865
  0
LINE
  8
OSA
 10
554.024263
 20
331.365865
 11
540.899265
 21
331.365865
  0
LINE
  8
OSA
 10
554.024263
 20
331.365865
 11
554.024263
 21
344.490862
  0
LINE
  8
OSA
 10
554.024263
 20
331.365865
 11
554.024263
 21
318.240867
  0
LINE
  8
OBRYS
 10
552.524263
 20
335.608505
 11
552.524263
 21
337.165865
  0
LINE
  8
OBRYS
 10
552.524263
 20
337.165865
 11
555.524263
 21
337.165865
  0
LINE
  8
OBRYS
 10
555.524263
 20
337.165865
 11
555.524263
 21
335.608505
  0
ARC
  8
OBRYS
 10
554.024263
 20
331.365865
 40
4.500000
 50
109.471221
 51
70.528779
  0
CIRCLE
  8
OBRYS
 10
554.024263
 20
331.365865
 40
10.000000
  0
ARC
  8
OBRYS
 10
174.529671
 20
468.555625
 40
60.000000
 50
242.181861
 51
297.818139
  0
ARC
  8
OBRYS
 10
174.529671
 20
468.555625
 40
60.000000
 50
127.445947
 51
226.895326
  0
ARC
  8
OBRYS
 10
174.529671
 20
468.555625
 40
60.000000
 50
313.104674
 51
52.554053
  0
LINE
  8
0
 62
     2
 10
211.010433
 20
510.397170
 11
211.010433
 21
519.555625
  0
LINE
  8
0
 62
     2
 10
138.048909
 20
510.399153
 11
138.048909
 21
519.555625
  0
ARC
  8
OBRYS
 10
148.013167
 20
531.072129
 40
5.000000
 50
123.511664
 51
154.169919
  0
ARC
  8
OBRYS
 10
174.529671
 20
491.027717
 40
53.027909
 50
56.488379
 51
123.511629
  0
ARC
  8
OBRYS
 10
200.510433
 20
519.555625
 40
10.500000
 50
0.000006
 51
25.830081
  0
ARC
  8
OBRYS
 10
148.548909
 20
519.555625
 40
10.500000
 50
154.169919
 51
179.999994
  0
LINE
  8
0
 62
     2
 10
139.097962
 20
524.130514
 11
143.512716
 21
533.250648
  0
ARC
  8
OBRYS
 10
201.046175
 20
531.072129
 40
5.000000
 50
25.830081
 51
56.488335
  0
LINE
  8
0
 62
     2
 10
209.961379
 20
524.130514
 11
205.546626
 21
533.250648
  0
INSERT
  8
OBRYS
  2
_3
 62
     7
 10
764.834956
 20
504.555625
  0
INSERT
  8
OBRYS
  2
_4
 62
     7
 10
313.276967
 20
302.592443
  0
INSERT
  8
OBRYS
  2
_5
 62
     7
 10
313.276967
 20
654.302921
  0
INSERT
  8
OBRYS
  2
_6
 62
     7
 10
313.276967
 20
504.555625
  0
LINE
  8
OSA
 10
316.276967
 20
654.302921
 11
423.256072
 21
654.302921
  0
LINE
  8
OBRYS
 10
412.776967
 20
628.302921
 11
412.776967
 21
624.302921
  0
LINE
  8
OBRYS
 10
315.776967
 20
628.302921
 11
315.776967
 21
624.302921
  0
ARC
  8
OBRYS
 10
317.776967
 20
624.302921
 40
2.000000
 50
180.000000
 51
221.409622
  0
ARC
  8
OBRYS
 10
410.776967
 20
624.302921
 40
2.000000
 50
318.590378
 51
360.000000
  0
INSERT
  8
OBRYS
  2
_7
 62
     7
 10
364.276967
 20
626.302921
  0
INSERT
  8
OBRYS
  2
_8
 62
     7
 10
364.276967
 20
682.302921
  0
ARC
  8
OBRYS
 10
410.776967
 20
684.302921
 40
2.000000
 50
0.000000
 51
41.409622
  0
ARC
  8
OBRYS
 10
317.776967
 20
684.302921
 40
2.000000
 50
138.590378
 51
180.000000
  0
LINE
  8
OBRYS
 10
315.776967
 20
680.302921
 11
315.776967
 21
684.302921
  0
LINE
  8
OBRYS
 10
412.776967
 20
680.302921
 11
412.776967
 21
684.302921
  0
INSERT
  8
OBRYS
  2
_9
 62
     7
 10
364.276967
 20
269.592443
  0
INSERT
  8
OBRYS
  2
_10
 62
     7
 10
364.276967
 20
335.592443
  0
LINE
  8
OBRYS
 10
331.002707
 20
335.592443
 11
330.599715
 21
334.592443
  0
LINE
  8
OBRYS
 10
335.487670
 20
335.592443
 11
334.482494
 21
334.592443
  0
LINE
  8
OBRYS
 10
393.066264
 20
335.592443
 11
394.071440
 21
334.592443
  0
LINE
  8
OBRYS
 10
397.551227
 20
335.592443
 11
397.954218
 21
334.592443
  0
LINE
  8
OBRYS
 10
331.002707
 20
269.592443
 11
330.599715
 21
270.592443
  0
LINE
  8
OBRYS
 10
335.487670
 20
269.592443
 11
334.482494
 21
270.592443
  0
LINE
  8
OBRYS
 10
393.066264
 20
269.592443
 11
394.071440
 21
270.592443
  0
LINE
  8
OBRYS
 10
397.551227
 20
269.592443
 11
397.954218
 21
270.592443
  0
INSERT
  8
OBRYS
  2
_11
 62
     7
 10
150.529671
 20
464.555625
  0
INSERT
  8
OBRYS
  2
_12
 62
     7
 10
141.529671
 20
464.555625
  0
LINE
  8
OBRYS
 10
206.529671
 20
464.555625
 11
206.529671
 21
446.416889
  0
LINE
  8
OBRYS
 10
200.529671
 20
416.055625
 11
202.529671
 21
416.055625
  0
INSERT
  8
OBRYS
  2
_13
 62
     7
 10
207.529671
 20
464.555625
  0
LINE
  8
OBRYS
 10
207.529671
 20
493.344922
 11
206.529671
 21
494.350098
  0
LINE
  8
OBRYS
 10
207.529671
 20
497.829885
 11
206.529671
 21
498.232877
  0
INSERT
  8
OBRYS
  2
_14
 62
     7
 10
364.276967
 20
464.555625
  0
INSERT
  8
OBRYS
  2
_15
 62
     7
 10
713.834956
 20
464.555625
  0
LINE
  8
OBRYS
 10
764.834956
 20
504.555625
 11
764.834956
 21
474.574863
  0
LINE
  8
OBRYS
 10
764.834956
 20
504.555625
 11
764.834956
 21
534.536387
  0
LINE
  8
0
 62
     2
 10
764.834956
 20
534.000489
 11
743.247937
 21
534.000489
  0
LINE
  8
0
 62
     2
 10
764.834956
 20
517.546006
 11
743.239972
 21
517.546006
  0
LINE
  8
0
 62
     2
 10
764.834956
 20
521.010108
 11
743.036050
 21
521.010108
  0
LINE
  8
0
 62
     2
 10
743.834956
 20
520.184522
 11
743.834956
 21
518.523250
  0
POLYLINE
  8
0
 62
     2
 66
    1
  0
VERTEX
  8
0
 62
     2
 10
743.834961
 20
534.478577
  0
VERTEX
  8
0
 62
     2
 10
743.706787
 20
534.340637
  0
VERTEX
  8
0
 62
     2
 10
743.247925
 20
534.000488
  0
VERTEX
  8
0
 62
     2
 10
740.378540
 20
532.003052
  0
VERTEX
  8
0
 62
     2
 10
738.202148
 20
529.249695
  0
VERTEX
  8
0
 62
     2
 10
737.904541
 20
526.636841
  0
VERTEX
  8
0
 62
     2
 10
739.425293
 20
523.954956
  0
VERTEX
  8
0
 62
     2
 10
743.036011
 20
521.010132
  0
VERTEX
  8
0
 62
     2
 10
743.068848
 20
520.966309
  0
VERTEX
  8
0
 62
     2
 10
743.647339
 20
520.518616
  0
VERTEX
  8
0
 62
     2
 10
743.834961
 20
520.184509
  0
SEQEND
  8
0
  0
LINE
  8
0
 62
     2
 10
743.834956
 20
520.184522
 11
743.834956
 21
518.523250
  0
LINE
  8
0
 62
     2
 10
656.834956
 20
534.000489
 11
684.421975
 21
534.000489
  0
LINE
  8
0
 62
     2
 10
656.834956
 20
517.546006
 11
684.429939
 21
517.546006
  0
LINE
  8
0
 62
     2
 10
656.834956
 20
521.010108
 11
684.633861
 21
521.010108
  0
LINE
  8
0
 62
     2
 10
689.863813
 20
531.055625
 11
683.872909
 21
534.514475
  0
LINE
  8
0
 62
     2
 10
683.834956
 20
534.514475
 11
683.834956
 21
534.478569
  0
LINE
  8
0
 62
     2
 10
683.834956
 20
520.184522
 11
683.834956
 21
518.523250
  0
POLYLINE
  8
0
 62
     2
 66
    1
  0
VERTEX
  8
0
 62
     2
 10
683.834961
 20
534.478577
  0
VERTEX
  8
0
 62
     2
 10
683.963135
 20
534.340637
  0
VERTEX
  8
0
 62
     2
 10
684.421997
 20
534.000488
  0
VERTEX
  8
0
 62
     2
 10
687.291382
 20
532.003052
  0
VERTEX
  8
0
 62
     2
 10
689.467773
 20
529.249695
  0
VERTEX
  8
0
 62
     2
 10
689.765381
 20
526.636841
  0
VERTEX
  8
0
 62
     2
 10
688.244629
 20
523.954956
  0
VERTEX
  8
0
 62
     2
 10
684.633911
 20
521.010132
  0
VERTEX
  8
0
 62
     2
 10
684.601074
 20
520.966309
  0
VERTEX
  8
0
 62
     2
 10
684.022583
 20
520.518616
  0
VERTEX
  8
0
 62
     2
 10
683.834961
 20
520.184509
  0
SEQEND
  8
0
  0
LINE
  8
0
 62
     2
 10
683.872909
 20
534.514475
 11
683.834956
 21
534.514475
  0
LINE
  8
0
 62
     2
 10
683.834956
 20
534.514475
 11
683.834956
 21
534.478569
  0
LINE
  8
0
 62
     2
 10
683.834956
 20
520.184522
 11
683.834956
 21
518.523250
  0
LINE
  8
OBRYS
 10
743.834956
 20
534.536387
 11
764.834956
 21
534.536387
  0
LINE
  8
OBRYS
 10
656.834956
 20
534.536387
 11
683.834956
 21
534.536387
  0
LINE
  8
OBRYS
 10
743.834956
 20
534.536387
 11
737.806099
 21
531.055625
  0
LINE
  8
OBRYS
 10
737.806099
 20
531.055625
 11
689.863813
 21
531.055625
  0
LINE
  8
OBRYS
 10
683.834956
 20
534.536387
 11
689.863813
 21
531.055625
  0
LINE
  8
OSA
 62
     2
  6
CONTINUOUS
 10
656.834956
 20
534.536387
 11
656.834956
 21
474.574863
  0
LINE
  8
OSA
 62
     2
  6
CONTINUOUS
 10
764.834956
 20
534.536387
 11
764.834956
 21
474.574863
  0
LINE
  8
OSA
 62
     2
  6
CONTINUOUS
 10
764.834956
 20
533.536387
 11
764.834956
 21
475.574863
  0
LINE
  8
OSA
 62
     2
  6
CONTINUOUS
 10
656.834956
 20
533.536387
 11
656.834956
 21
475.574863
  0
LINE
  8
OSA
 10
713.834956
 20
504.555625
 11
656.834956
 21
504.555625
  0
LINE
  8
OSA
 10
713.834956
 20
504.555625
 11
764.834956
 21
504.555625
  0
LINE
  8
OSA
 10
713.834956
 20
464.555625
 11
713.834956
 21
534.302921
  0
LINE
  8
OSA
 10
364.276967
 20
464.555625
 11
364.276967
 21
534.302921
  0
LINE
  8
OSA
 10
364.276967
 20
504.555625
 11
313.276967
 21
504.555625
  0
LINE
  8
OSA
 10
364.276967
 20
504.555625
 11
421.276967
 21
504.555625
  0
LINE
  8
OSA
 62
     2
  6
CONTINUOUS
 10
421.276967
 20
533.536387
 11
421.276967
 21
475.574863
  0
LINE
  8
OSA
 62
     2
  6
CONTINUOUS
 10
421.276967
 20
534.536387
 11
421.276967
 21
474.574863
  0
LINE
  8
OBRYS
 10
394.276967
 20
534.536387
 11
388.248110
 21
531.055625
  0
LINE
  8
OBRYS
 10
340.305824
 20
531.055625
 11
388.248110
 21
531.055625
  0
LINE
  8
OBRYS
 10
334.276967
 20
534.536387
 11
340.305824
 21
531.055625
  0
LINE
  8
OBRYS
 10
421.276967
 20
534.536387
 11
394.276967
 21
534.536387
  0
LINE
  8
OBRYS
 10
334.276967
 20
534.536387
 11
313.276967
 21
534.536387
  0
LINE
  8
0
 62
     2
 10
394.276967
 20
520.184522
 11
394.276967
 21
518.523250
  0
LINE
  8
0
 62
     2
 10
394.276967
 20
534.514475
 11
394.276967
 21
534.478569
  0
LINE
  8
0
 62
     2
 10
394.239013
 20
534.514475
 11
394.276967
 21
534.514475
  0
POLYLINE
  8
0
 62
     2
 66
    1
  0
VERTEX
  8
0
 62
     2
 10
394.276947
 20
534.478577
  0
VERTEX
  8
0
 62
     2
 10
394.148773
 20
534.340637
  0
VERTEX
  8
0
 62
     2
 10
393.689911
 20
534.000488
  0
VERTEX
  8
0
 62
     2
 10
390.820526
 20
532.003052
  0
VERTEX
  8
0
 62
     2
 10
388.644135
 20
529.249695
  0
VERTEX
  8
0
 62
     2
 10
388.346527
 20
526.636841
  0
VERTEX
  8
0
 62
     2
 10
389.867279
 20
523.954956
  0
VERTEX
  8
0
 62
     2
 10
393.477997
 20
521.010132
  0
VERTEX
  8
0
 62
     2
 10
393.510834
 20
520.966309
  0
VERTEX
  8
0
 62
     2
 10
394.089325
 20
520.518616
  0
VERTEX
  8
0
 62
     2
 10
394.276947
 20
520.184509
  0
SEQEND
  8
0
  0
LINE
  8
0
 62
     2
 10
394.276967
 20
520.184522
 11
394.276967
 21
518.523250
  0
LINE
  8
0
 62
     2
 10
394.276967
 20
534.514475
 11
394.276967
 21
534.478569
  0
LINE
  8
0
 62
     2
 10
388.248110
 20
531.055625
 11
394.239013
 21
534.514475
  0
LINE
  8
0
 62
     2
 10
421.276967
 20
521.010108
 11
393.478062
 21
521.010108
  0
LINE
  8
0
 62
     2
 10
421.276967
 20
517.546006
 11
393.681983
 21
517.546006
  0
LINE
  8
0
 62
     2
 10
421.276967
 20
534.000489
 11
393.689948
 21
534.000489
  0
LINE
  8
0
 62
     2
 10
334.276967
 20
520.184522
 11
334.276967
 21
518.523250
  0
POLYLINE
  8
0
 62
     2
 66
    1
  0
VERTEX
  8
0
 62
     2
 10
334.276947
 20
534.478577
  0
VERTEX
  8
0
 62
     2
 10
334.405121
 20
534.340637
  0
VERTEX
  8
0
 62
     2
 10
334.863983
 20
534.000488
  0
VERTEX
  8
0
 62
     2
 10
337.733368
 20
532.003052
  0
VERTEX
  8
0
 62
     2
 10
339.909760
 20
529.249695
  0
VERTEX
  8
0
 62
     2
 10
340.207367
 20
526.636841
  0
VERTEX
  8
0
 62
     2
 10
338.686615
 20
523.954956
  0
VERTEX
  8
0
 62
     2
 10
335.075897
 20
521.010132
  0
VERTEX
  8
0
 62
     2
 10
335.043060
 20
520.966309
  0
VERTEX
  8
0
 62
     2
 10
334.464569
 20
520.518616
  0
VERTEX
  8
0
 62
     2
 10
334.276947
 20
520.184509
  0
SEQEND
  8
0
  0
LINE
  8
0
 62
     2
 10
334.276967
 20
520.184522
 11
334.276967
 21
518.523250
  0
LINE
  8
0
 62
     2
 10
313.276967
 20
521.010108
 11
335.075872
 21
521.010108
  0
LINE
  8
0
 62
     2
 10
313.276967
 20
517.546006
 11
334.871950
 21
517.546006
  0
LINE
  8
0
 62
     2
 10
313.276967
 20
534.000489
 11
334.863986
 21
534.000489
  0
LINE
  8
OSA
 10
583.116349
 20
464.555625
 11
509.628481
 21
464.555625
  0
ARC
  8
OBRYS
 10
360.276967
 20
644.055970
 40
2.000000
 50
0.000000
 51
68.676314
  0
LINE
  8
OBRYS
 10
362.276967
 20
644.055970
 11
362.276967
 21
632.302921
  0
ARC
  8
OBRYS
 10
368.276967
 20
644.055970
 40
2.000000
 50
111.323686
 51
180.000000
  0
LINE
  8
OBRYS
 10
366.276967
 20
644.055970
 11
366.276967
 21
632.302921
  0
ARC
  8
OBRYS
 10
368.276967
 20
632.302921
 40
2.000000
 50
180.000000
 51
270.000000
  0
ARC
  8
OBRYS
 10
360.276967
 20
632.302921
 40
2.000000
 50
270.000000
 51
360.000000
  0
LINE
  8
OSA
 10
364.276967
 20
683.395008
 11
364.276967
 21
609.907139
  0
ARC
  8
OBRYS
 10
322.276967
 20
660.302921
 40
6.000000
 50
180.000000
 51
255.522488
  0
LINE
  8
OBRYS
 10
316.276967
 20
678.302921
 11
316.276967
 21
660.302921
  0
ARC
  8
OBRYS
 10
319.810078
 20
652.692766
 40
2.000000
 50
1.193489
 51
72.039507
  0
ARC
  8
OBRYS
 10
322.276967
 20
660.302921
 40
6.000000
 50
180.000000
 51
252.039507
  0
ARC
  8
OBRYS
 10
320.234866
 20
632.302921
 40
2.000000
 50
270.000000
 51
1.193489
  0
LINE
  8
OBRYS
 10
321.276967
 20
678.302921
 11
322.234432
 21
632.344579
  0
LINE
  8
OBRYS
 10
316.276967
 20
678.302921
 11
316.276967
 21
660.302921
  0
LINE
  8
OBRYS
 10
412.276967
 20
678.302921
 11
412.276967
 21
660.302921
  0
LINE
  8
OBRYS
 10
407.276967
 20
678.302921
 11
406.319501
 21
632.344579
  0
ARC
  8
OBRYS
 10
408.319067
 20
632.302921
 40
2.000000
 50
178.806511
 51
270.000000
  0
ARC
  8
OBRYS
 10
406.276967
 20
660.302921
 40
6.000000
 50
287.960493
 51
360.000000
  0
ARC
  8
OBRYS
 10
408.743856
 20
652.692766
 40
2.000000
 50
107.960493
 51
178.806511
  0
LINE
  8
OBRYS
 10
321.818634
 20
652.302911
 11
313.276967
 21
652.302911
  0
LINE
  8
OBRYS
 10
313.276967
 20
627.802921
 11
313.276967
 21
680.802921
  0
LINE
  8
OBRYS
 10
421.276967
 20
652.302911
 11
406.276967
 21
652.302911
  0
LINE
  8
OBRYS
 10
317.804831
 20
656.302921
 11
313.276967
 21
656.302921
  0
LINE
  8
OBRYS
 10
421.276967
 20
656.302921
 11
410.749103
 21
656.302921
  0
LINE
  8
OBRYS
 10
421.276967
 20
627.802921
 11
421.276967
 21
680.802921
  0
LINE
  8
OBRYS
 10
412.276967
 20
678.302921
 11
412.276967
 21
660.302921
  0
LINE
  8
OBRYS
 10
370.779858
 20
678.302921
 11
370.779858
 21
661.281519
  0
LINE
  8
OBRYS
 10
357.774075
 20
678.302921
 11
357.774075
 21
661.281519
  0
INSERT
  8
KOTA
 66
     1
  2
Vnitrni_metricky_zavit_M1_16
 62
     7
 10
364.276967
 20
654.302921
  0
ATTRIB
  8
KOTA
 10
0.000000
 20
0.000000
 40
2.500000
  1
CSN 02 1034
  2
norma roz.
 70
     1
  0
ATTRIB
  8
KOTA
 10
0.000000
 20
0.000000
 40
2.500000
  1
1
  2
roztec
 70
     1
  0
ATTRIB
  8
KOTA
 10
0.000000
 20
0.000000
 40
2.500000
  1
*NB
  2
puvod
 70
     1
  0
ATTRIB
  8
KOTA
 10
0.000000
 20
0.000000
 40
2.500000
  1
02 1034
  2
tridici znak
 70
     1
  0
SEQEND
  8
KOTA
  0
CIRCLE
  8
OBRYS
 10
364.276967
 20
654.302921
 40
9.000000
  0
ARC
  8
OBRYS
 10
372.779858
 20
661.281519
 40
2.000000
 50
180.000000
 51
219.376835
  0
ARC
  8
OBRYS
 10
355.774075
 20
661.281519
 40
2.000000
 50
320.623165
 51
360.000000
  0
ARC
  8
OBRYS
 10
406.276967
 20
660.302921
 40
6.000000
 50
284.477512
 51
360.000000
  0
LINE
  8
OSA
 10
554.024263
 20
410.305775
 11
554.024263
 21
536.207726
  0
LINE
  8
OBRYS
 10
410.776967
 20
630.302921
 11
364.276967
 21
630.302921
  0
ARC
  8
OBRYS
 10
410.776967
 20
628.302921
 40
2.000000
 50
0.000000
 51
90.000000
  0
LINE
  8
OBRYS
 10
421.276967
 20
627.802921
 11
412.776967
 21
627.802921
  0
LINE
  8
OBRYS
 10
315.776967
 20
627.802921
 11
313.276967
 21
627.802921
  0
LINE
  8
OBRYS
 10
317.776967
 20
630.302921
 11
364.276967
 21
630.302921
  0
ARC
  8
OBRYS
 10
317.776967
 20
628.302921
 40
2.000000
 50
90.000000
 51
180.000000
  0
ARC
  8
OBRYS
 10
198.593179
 20
414.555625
 40
2.000000
 50
61.044976
 51
90.000000
  0
LINE
  8
OBRYS
 10
198.593179
 20
416.555625
 11
174.529671
 21
416.555625
  0
ARC
  8
OBRYS
 10
200.529671
 20
418.055625
 40
2.000000
 50
180.000000
 51
270.000000
  0
LINE
  8
OBRYS
 10
198.529671
 20
418.055625
 11
198.529671
 21
464.555625
  0
ARC
  8
OBRYS
 10
204.529671
 20
511.055625
 40
2.000000
 50
0.000000
 51
90.000000
  0
LINE
  8
OBRYS
 10
206.529671
 20
464.555625
 11
206.529671
 21
511.055625
  0
LINE
  8
OSA
 10
174.529671
 20
410.305775
 11
174.529671
 21
536.207726
  0
ARC
  8
OBRYS
 10
180.529671
 20
414.555625
 40
1.000000
 50
270.000000
 51
360.000000
  0
LINE
  8
OBRYS
 10
180.529671
 20
413.555625
 11
168.529671
 21
413.555625
  0
ARC
  8
OBRYS
 10
168.529671
 20
414.555625
 40
1.000000
 50
180.000000
 51
270.000000
  0
LINE
  8
OBRYS
 10
181.529671
 20
416.555625
 11
181.529671
 21
414.555625
  0
LINE
  8
OBRYS
 10
167.529671
 20
416.555625
 11
167.529671
 21
414.555625
  0
LINE
  8
OBRYS
 10
165.529671
 20
419.689139
 11
165.529671
 21
416.555625
  0
LINE
  8
OBRYS
 10
165.529671
 20
416.555625
 11
174.529671
 21
416.555625
  0
LINE
  8
OBRYS
 10
183.529671
 20
419.689139
 11
183.529671
 21
416.555625
  0
ARC
  8
OBRYS
 10
168.026779
 20
464.555625
 40
6.502892
 50
270.000000
 51
90.000000
  0
LINE
  8
OSA
 10
145.437584
 20
464.555625
 11
218.925453
 21
464.555625
  0
LINE
  8
OBRYS
 10
150.529671
 20
416.555625
 11
168.529671
 21
416.555625
  0
LINE
  8
OBRYS
 10
150.529671
 20
421.555625
 11
196.488013
 21
422.513091
  0
ARC
  8
OBRYS
 10
196.529671
 20
420.513524
 40
2.000000
 50
0.000000
 51
91.193489
  0
LINE
  8
OBRYS
 10
150.529671
 20
416.555625
 11
168.529671
 21
416.555625
  0
LINE
  8
OBRYS
 10
150.529671
 20
458.052734
 11
167.551072
 21
458.052734
  0
LINE
  8
OBRYS
 10
150.529671
 20
471.058517
 11
167.551072
 21
471.058517
  0
LINE
  8
OBRYS
 10
207.529671
 20
503.358376
 11
206.663107
 21
508.208875
  0
ARC
  8
OBRYS
 10
208.529671
 20
508.927164
 40
2.000000
 50
180.000000
 51
201.047672
  0
LINE
  8
OBRYS
 10
207.529671
 20
497.829885
 11
207.529671
 21
503.358376
  0
LINE
  8
OBRYS
 10
207.529671
 20
470.068923
 11
207.529671
 21
476.174764
  0
LINE
  8
OBRYS
 10
206.529671
 20
467.726973
 11
207.529671
 21
470.068923
  0
LINE
  8
OBRYS
 10
206.529671
 20
461.384277
 11
207.529671
 21
459.042327
  0
LINE
  8
OBRYS
 10
207.529671
 20
459.042327
 11
207.529671
 21
452.936486
  0
LINE
  8
OBRYS
 10
207.529671
 20
459.042327
 11
207.529671
 21
470.068923
  0
LINE
  8
OBRYS
 10
201.029671
 20
517.546006
 11
201.029671
 21
491.565244
  0
ARC
  8
OBRYS
 10
197.029671
 20
491.565244
 40
4.000000
 50
300.000000
 51
360.000000
  0
LINE
  8
OBRYS
 10
199.029671
 20
488.101142
 11
176.529671
 21
475.110761
  0
ARC
  8
OBRYS
 10
174.529671
 20
478.574863
 40
4.000000
 50
240.000000
 51
300.000000
  0
LINE
  8
OBRYS
 10
172.529671
 20
475.110761
 11
150.029671
 21
488.101142
  0
ARC
  8
OBRYS
 10
152.029671
 20
491.565244
 40
4.000000
 50
180.000000
 51
240.000000
  0
LINE
  8
OBRYS
 10
148.029671
 20
517.546006
 11
148.029671
 21
491.565244
  0
ARC
  8
OBRYS
 10
197.029671
 20
517.546006
 40
4.000000
 50
0.000000
 51
60.000000
  0
LINE
  8
OBRYS
 10
199.029671
 20
521.010108
 11
176.529671
 21
534.000489
  0
ARC
  8
OBRYS
 10
174.529671
 20
530.536387
 40
4.000000
 50
60.000000
 51
120.000000
  0
ARC
  8
OSA
 62
     2
  6
CONTINUOUS
 10
152.029671
 20
517.546006
 40
4.000000
 50
120.000000
 51
180.000000
  0
LINE
  8
OSA
 62
     2
  6
CONTINUOUS
 10
172.529671
 20
534.000489
 11
150.029671
 21
521.010108
  0
CIRCLE
  8
OSA
 62
     2
  6
CONTINUOUS
 10
174.529671
 20
504.555625
 40
21.000000
  0
LINE
  8
OBRYS
 10
198.529671
 20
487.812467
 11
198.529671
 21
464.555625
  0
LINE
  8
OBRYS
 10
201.029671
 20
513.055625
 11
204.529671
 21
513.055625
  0
LINE
  8
OSA
 10
174.529671
 20
504.555625
 11
210.212171
 21
504.555625
  0
LINE
  8
OSA
 10
174.529671
 20
504.555625
 11
139.921520
 21
504.555625
  0
LINE
  8
OBRYS
 10
150.529671
 20
487.812467
 11
150.529671
 21
416.555625
  0
ARC
  8
OBRYS
 10
364.276967
 20
464.555625
 40
49.500000
 50
28.402788
 51
90.000000
  0
LINE
  8
0
 62
     2
 10
421.276967
 20
491.565244
 11
405.758655
 21
491.565244
  0
LINE
  8
0
 62
     2
 10
421.276967
 20
488.101142
 11
407.818425
 21
488.101142
  0
POLYLINE
  8
0
 62
     2
 66
    1
  0
VERTEX
  8
0
 62
     2
 10
394.276947
 20
518.523254
  0
VERTEX
  8
0
 62
     2
 10
394.230072
 20
518.377686
  0
VERTEX
  8
0
 62
     2
 10
393.681976
 20
517.546021
  0
VERTEX
  8
0
 62
     2
 10
392.029877
 20
515.532288
  0
VERTEX
  8
0
 62
     2
 10
389.147308
 20
509.826782
  0
VERTEX
  8
0
 62
     2
 10
388.763184
 20
507.575104
  0
SEQEND
  8
0
  0
LINE
  8
OBRYS
 10
388.248110
 20
531.055625
 11
388.248110
 21
507.864219
  0
ARC
  8
OBRYS
 10
364.276967
 20
464.555625
 40
49.500000
 50
90.000000
 51
151.597212
  0
POLYLINE
  8
0
 62
     2
 66
    1
  0
VERTEX
  8
0
 62
     2
 10
334.276947
 20
518.523254
  0
VERTEX
  8
0
 62
     2
 10
334.323822
 20
518.377686
  0
VERTEX
  8
0
 62
     2
 10
334.871918
 20
517.546021
  0
VERTEX
  8
0
 62
     2
 10
336.524017
 20
515.532288
  0
VERTEX
  8
0
 62
     2
 10
339.406586
 20
509.826782
  0
VERTEX
  8
0
 62
     2
 10
339.790741
 20
507.575073
  0
SEQEND
  8
0
  0
LINE
  8
OBRYS
 10
340.305824
 20
531.055625
 11
340.305824
 21
507.864219
  0
LINE
  8
0
 62
     2
 10
313.276967
 20
491.565244
 11
322.795278
 21
491.565244
  0
LINE
  8
0
 62
     2
 10
313.276967
 20
488.101142
 11
320.735508
 21
488.101142
  0
LINE
  8
OSA
 10
563.475101
 20
504.555625
 11
540.340568
 21
504.555625
  0
LINE
  8
OBRYS
 62
     7
  6
DASHDOT
 10
597.760540
 20
464.555625
 11
565.573402
 21
464.555625
  0
LINE
  8
OBRYS
 10
316.276967
 20
678.302921
 11
411.776967
 21
678.302921
  0
ARC
  8
OBRYS
 10
316.776967
 20
679.302921
 40
1.000000
 50
179.999761
 51
270.000000
  0
LINE
  8
OBRYS
 62
     7
  6
DASHDOT
 10
364.276967
 20
698.039198
 11
364.276967
 21
665.852060
  0
ARC
  8
OBRYS
 10
411.776967
 20
679.302921
 40
1.000000
 50
270.000000
 51
360.000000
  0
LINE
  8
OBRYS
 10
421.276967
 20
680.802921
 11
412.776967
 21
680.802921
  0
LINE
  8
OBRYS
 10
315.776967
 20
680.802921
 11
313.276967
 21
680.802921
  0
LINE
  8
OBRYS
 10
313.276967
 20
474.574863
 11
313.276967
 21
534.536387
  0
LINE
  8
0
 62
     2
 10
313.276967
 20
475.110761
 11
316.939465
 21
475.110761
  0
LINE
  8
OBRYS
 10
316.823149
 20
474.574863
 11
313.276967
 21
474.574863
  0
LINE
  8
0
 62
     2
 10
421.276967
 20
475.110761
 11
411.614469
 21
475.110761
  0
LINE
  8
OBRYS
 10
421.276967
 20
474.574863
 11
411.730785
 21
474.574863
  0
LINE
  8
OBRYS
 10
656.834956
 20
474.574863
 11
666.381137
 21
474.574863
  0
LINE
  8
OBRYS
 10
761.288774
 20
474.574863
 11
764.834956
 21
474.574863
  0
LINE
  8
OBRYS
 10
689.863813
 20
531.055625
 11
689.863813
 21
506.717626
  0
LINE
  8
OBRYS
 10
737.806099
 20
531.055625
 11
737.806099
 21
506.717626
  0
POLYLINE
  8
0
 62
     2
 66
    1
  0
VERTEX
  8
0
 62
     2
 10
683.834961
 20
518.523254
  0
VERTEX
  8
0
 62
     2
 10
683.881836
 20
518.377686
  0
VERTEX
  8
0
 62
     2
 10
684.429932
 20
517.546021
  0
VERTEX
  8
0
 62
     2
 10
686.082031
 20
515.532288
  0
VERTEX
  8
0
 62
     2
 10
688.964600
 20
509.826782
  0
VERTEX
  8
0
 62
     2
 10
689.527893
 20
506.524872
  0
SEQEND
  8
0
  0
LINE
  8
0
 62
     2
 10
656.834956
 20
488.101142
 11
671.433793
 21
488.101142
  0
LINE
  8
0
 62
     2
 10
656.834956
 20
491.565244
 11
673.551827
 21
491.565244
  0
POLYLINE
  8
0
 62
     2
 66
    1
  0
VERTEX
  8
0
 62
     2
 10
743.834961
 20
518.523254
  0
VERTEX
  8
0
 62
     2
 10
743.788086
 20
518.377686
  0
VERTEX
  8
0
 62
     2
 10
743.239990
 20
517.546021
  0
VERTEX
  8
0
 62
     2
 10
741.587891
 20
515.532288
  0
VERTEX
  8
0
 62
     2
 10
738.705322
 20
509.826782
  0
VERTEX
  8
0
 62
     2
 10
738.142029
 20
506.524841
  0
SEQEND
  8
0
  0
LINE
  8
0
 62
     2
 10
764.834956
 20
488.101142
 11
756.236119
 21
488.101142
  0
LINE
  8
0
 62
     2
 10
764.834956
 20
491.565244
 11
754.118085
 21
491.565244
  0
LINE
  8
0
 62
     2
 10
656.834956
 20
475.110761
 11
666.497454
 21
475.110761
  0
LINE
  8
0
 62
     2
 10
764.834956
 20
475.110761
 11
761.172458
 21
475.110761
  0
ARC
  8
OBRYS
 10
317.776967
 20
332.592443
 40
2.000000
 50
90.000000
 51
180.000000
  0
LINE
  8
OBRYS
 10
364.276967
 20
334.592443
 11
317.776967
 21
334.592443
  0
ARC
  8
OBRYS
 10
410.776967
 20
332.592443
 40
2.000000
 50
0.000000
 51
90.000000
  0
LINE
  8
OBRYS
 10
364.276967
 20
334.592443
 11
410.776967
 21
334.592443
  0
ARC
  8
OBRYS
 10
408.648506
 20
336.592443
 40
2.000000
 50
248.952328
 51
270.000000
  0
LINE
  8
OBRYS
 10
397.551227
 20
335.592443
 11
403.079718
 21
335.592443
  0
LINE
  8
OBRYS
 10
369.790265
 20
335.592443
 11
358.763668
 21
335.592443
  0
LINE
  8
OBRYS
 10
369.790265
 20
335.592443
 11
375.896106
 21
335.592443
  0
LINE
  8
OBRYS
 10
367.448315
 20
334.592443
 11
369.790265
 21
335.592443
  0
LINE
  8
OBRYS
 10
361.105619
 20
334.592443
 11
358.763668
 21
335.592443
  0
LINE
  8
OBRYS
 10
358.763668
 20
335.592443
 11
352.657828
 21
335.592443
  0
LINE
  8
OBRYS
 10
331.002707
 20
335.592443
 11
325.474216
 21
335.592443
  0
ARC
  8
OBRYS
 10
319.905428
 20
336.592443
 40
2.000000
 50
270.000000
 51
291.047672
  0
LINE
  8
OBRYS
 10
325.474216
 20
335.592443
 11
320.623717
 21
334.725879
  0
LINE
  8
OBRYS
 10
403.079718
 20
335.592443
 11
407.930216
 21
334.725879
  0
ARC
  8
OBRYS
 10
408.648506
 20
336.592443
 40
2.000000
 50
248.952328
 51
270.000000
  0
LINE
  8
OSA
 10
316.276967
 20
302.592443
 11
412.276967
 21
302.592443
  0
LINE
  8
OBRYS
 10
421.276967
 20
329.092443
 11
421.276967
 21
276.092443
  0
LINE
  8
OSA
 10
364.276967
 20
273.500356
 11
364.276967
 21
346.988224
  0
LINE
  8
0
 62
     2
 10
334.871950
 20
276.092443
 11
313.276967
 21
276.092443
  0
LINE
  8
0
 62
     2
 10
335.075872
 20
278.092443
 11
313.276967
 21
278.092443
  0
LINE
  8
0
 62
     2
 10
313.276967
 20
278.092443
 11
313.276967
 21
300.592443
  0
LINE
  8
0
 62
     2
 10
334.863986
 20
300.592443
 11
313.276967
 21
300.592443
  0
LINE
  8
0
 62
     2
 10
334.863986
 20
304.592443
 11
313.276967
 21
304.592443
  0
LINE
  8
0
 62
     2
 10
313.276967
 20
304.592443
 11
313.276967
 21
327.092443
  0
LINE
  8
0
 62
     2
 10
335.075872
 20
327.092443
 11
313.276967
 21
327.092443
  0
LINE
  8
0
 62
     2
 10
313.276967
 20
329.092443
 11
334.871950
 21
329.092443
  0
LINE
  8
0
 62
     2
 10
340.305824
 20
329.092443
 11
388.248110
 21
329.092443
  0
LINE
  8
0
 62
     2
 10
313.276967
 20
276.092443
 11
313.276967
 21
278.092443
  0
LINE
  8
0
 62
     2
 10
313.276967
 20
300.592443
 11
313.276967
 21
304.592443
  0
LINE
  8
0
 62
     2
 10
313.276967
 20
327.092443
 11
313.276967
 21
329.092443
  0
LINE
  8
0
 62
     2
 10
340.305824
 20
276.628964
 11
340.305824
 21
329.092443
  0
POLYLINE
  8
0
 62
     2
 66
    1
  0
VERTEX
  8
0
 62
     2
 10
389.192505
 20
276.092438
  0
VERTEX
  8
0
 62
     2
 10
388.248108
 20
276.628967
  0
VERTEX
  8
0
 62
     2
 10
383.763916
 20
277.170624
  0
VERTEX
  8
0
 62
     2
 10
374.079163
 20
277.848083
  0
VERTEX
  8
0
 62
     2
 10
364.276978
 20
278.072784
  0
VERTEX
  8
0
 62
     2
 10
354.474792
 20
277.848083
  0
VERTEX
  8
0
 62
     2
 10
344.790039
 20
277.170624
  0
VERTEX
  8
0
 62
     2
 10
340.305817
 20
276.628967
  0
VERTEX
  8
0
 62
     2
 10
339.361420
 20
276.092438
  0
SEQEND
  8
0
  0
POLYLINE
  8
0
 62
     2
 66
    1
  0
VERTEX
  8
0
 62
     2
 10
388.248108
 20
329.092438
  0
VERTEX
  8
0
 62
     2
 10
389.147339
 20
329.092438
  0
VERTEX
  8
0
 62
     2
 10
392.029846
 20
329.092438
  0
VERTEX
  8
0
 62
     2
 10
393.681976
 20
329.092438
  0
VERTEX
  8
0
 62
     2
 10
394.230133
 20
329.005035
  0
VERTEX
  8
0
 62
     2
 10
394.485992
 20
328.746643
  0
VERTEX
  8
0
 62
     2
 10
394.438354
 20
328.328522
  0
VERTEX
  8
0
 62
     2
 10
394.089355
 20
327.768982
  0
VERTEX
  8
0
 62
     2
 10
393.510803
 20
327.152740
  0
VERTEX
  8
0
 62
     2
 10
393.478058
 20
327.092438
  0
VERTEX
  8
0
 62
     2
 10
389.867249
 20
321.991791
  0
VERTEX
  8
0
 62
     2
 10
388.346588
 20
317.346649
  0
VERTEX
  8
0
 62
     2
 10
388.644165
 20
312.821075
  0
VERTEX
  8
0
 62
     2
 10
390.820496
 20
308.052094
  0
VERTEX
  8
0
 62
     2
 10
393.689941
 20
304.592438
  0
VERTEX
  8
0
 62
     2
 10
394.148743
 20
303.828522
  0
VERTEX
  8
0
 62
     2
 10
394.310333
 20
303.010559
  0
VERTEX
  8
0
 62
     2
 10
394.239014
 20
302.592438
  0
VERTEX
  8
0
 62
     2
 10
394.310333
 20
302.174347
  0
VERTEX
  8
0
 62
     2
 10
394.148743
 20
301.356384
  0
VERTEX
  8
0
 62
     2
 10
393.689941
 20
300.592438
  0
VERTEX
  8
0
 62
     2
 10
390.820496
 20
297.132813
  0
VERTEX
  8
0
 62
     2
 10
388.644165
 20
292.363831
  0
VERTEX
  8
0
 62
     2
 10
388.346588
 20
287.838257
  0
VERTEX
  8
0
 62
     2
 10
389.867249
 20
283.193115
  0
VERTEX
  8
0
 62
     2
 10
393.478058
 20
278.092438
  0
VERTEX
  8
0
 62
     2
 10
393.510803
 20
278.032135
  0
VERTEX
  8
0
 62
     2
 10
394.089355
 20
277.415924
  0
VERTEX
  8
0
 62
     2
 10
394.438354
 20
276.856384
  0
VERTEX
  8
0
 62
     2
 10
394.485992
 20
276.438263
  0
VERTEX
  8
0
 62
     2
 10
394.230133
 20
276.179871
  0
VERTEX
  8
0
 62
     2
 10
393.681976
 20
276.092438
  0
VERTEX
  8
0
 62
     2
 10
392.029846
 20
276.092438
  0
VERTEX
  8
0
 62
     2
 10
389.192505
 20
276.092438
  0
SEQEND
  8
0
  0
LINE
  8
0
 62
     2
 10
388.248110
 20
276.628964
 11
388.248110
 21
329.092443
  0
POLYLINE
  8
0
 62
     2
 66
    1
  0
VERTEX
  8
0
 62
     2
 10
340.305817
 20
329.092438
  0
VERTEX
  8
0
 62
     2
 10
339.406616
 20
329.092438
  0
VERTEX
  8
0
 62
     2
 10
336.524078
 20
329.092438
  0
VERTEX
  8
0
 62
     2
 10
334.871948
 20
329.092438
  0
VERTEX
  8
0
 62
     2
 10
334.323792
 20
329.005035
  0
VERTEX
  8
0
 62
     2
 10
334.067963
 20
328.746643
  0
VERTEX
  8
0
 62
     2
 10
334.115570
 20
328.328522
  0
VERTEX
  8
0
 62
     2
 10
334.464569
 20
327.768982
  0
VERTEX
  8
0
 62
     2
 10
335.043121
 20
327.152740
  0
VERTEX
  8
0
 62
     2
 10
335.075867
 20
327.092438
  0
VERTEX
  8
0
 62
     2
 10
338.686676
 20
321.991791
  0
VERTEX
  8
0
 62
     2
 10
340.207336
 20
317.346649
  0
VERTEX
  8
0
 62
     2
 10
339.909760
 20
312.821075
  0
VERTEX
  8
0
 62
     2
 10
337.733429
 20
308.052094
  0
VERTEX
  8
0
 62
     2
 10
334.863983
 20
304.592438
  0
VERTEX
  8
0
 62
     2
 10
334.405182
 20
303.828522
  0
VERTEX
  8
0
 62
     2
 10
334.243591
 20
303.010559
  0
VERTEX
  8
0
 62
     2
 10
334.314911
 20
302.592438
  0
VERTEX
  8
0
 62
     2
 10
334.243591
 20
302.174347
  0
VERTEX
  8
0
 62
     2
 10
334.405182
 20
301.356384
  0
VERTEX
  8
0
 62
     2
 10
334.863983
 20
300.592438
  0
VERTEX
  8
0
 62
     2
 10
337.733429
 20
297.132813
  0
VERTEX
  8
0
 62
     2
 10
339.909760
 20
292.363831
  0
VERTEX
  8
0
 62
     2
 10
340.207336
 20
287.838257
  0
VERTEX
  8
0
 62
     2
 10
338.686676
 20
283.193115
  0
VERTEX
  8
0
 62
     2
 10
335.075867
 20
278.092438
  0
VERTEX
  8
0
 62
     2
 10
335.043121
 20
278.032135
  0
VERTEX
  8
0
 62
     2
 10
334.464569
 20
277.415924
  0
VERTEX
  8
0
 62
     2
 10
334.115570
 20
276.856384
  0
VERTEX
  8
0
 62
     2
 10
334.067963
 20
276.438263
  0
VERTEX
  8
0
 62
     2
 10
334.323792
 20
276.179871
  0
VERTEX
  8
0
 62
     2
 10
334.871948
 20
276.092438
  0
VERTEX
  8
0
 62
     2
 10
336.524078
 20
276.092438
  0
VERTEX
  8
0
 62
     2
 10
339.361420
 20
276.092438
  0
SEQEND
  8
0
  0
LINE
  8
OSA
 10
422.776963
 20
302.592443
 11
305.776970
 21
302.592443
  0
LINE
  8
0
 62
     2
 10
421.276967
 20
329.092443
 11
393.681983
 21
329.092443
  0
LINE
  8
0
 62
     2
 10
393.478062
 20
327.092443
 11
421.276967
 21
327.092443
  0
LINE
  8
0
 62
     2
 10
393.689948
 20
304.592443
 11
421.276967
 21
304.592443
  0
LINE
  8
0
 62
     2
 10
393.689948
 20
300.592443
 11
421.276967
 21
300.592443
  0
LINE
  8
0
 62
     2
 10
393.478062
 20
278.092443
 11
421.276967
 21
278.092443
  0
LINE
  8
0
 62
     2
 10
393.681983
 20
276.092443
 11
421.276967
 21
276.092443
  0
LINE
  8
OBRYS
 10
412.776967
 20
329.092443
 11
412.776967
 21
332.592443
  0
LINE
  8
OBRYS
 10
315.776967
 20
329.092443
 11
315.776967
 21
332.592443
  0
ARC
  8
OBRYS
 10
410.776967
 20
272.592443
 40
2.000000
 50
270.000000
 51
360.000000
  0
ARC
  8
OBRYS
 10
317.776967
 20
272.592443
 40
2.000000
 50
180.000000
 51
270.000000
  0
LINE
  8
OBRYS
 10
364.276967
 20
270.592443
 11
317.776967
 21
270.592443
  0
ARC
  8
OBRYS
 10
319.905428
 20
268.592443
 40
2.000000
 50
68.952328
 51
90.000000
  0
LINE
  8
OBRYS
 10
325.474216
 20
269.592443
 11
320.623717
 21
270.459006
  0
LINE
  8
OBRYS
 10
403.079718
 20
269.592443
 11
407.930216
 21
270.459006
  0
ARC
  8
OBRYS
 10
408.648506
 20
268.592443
 40
2.000000
 50
90.000000
 51
111.047672
  0
LINE
  8
OBRYS
 10
364.276967
 20
270.592443
 11
410.276967
 21
270.592443
  0
LINE
  8
OBRYS
 10
397.551227
 20
269.592443
 11
403.079718
 21
269.592443
  0
LINE
  8
OBRYS
 10
369.790265
 20
269.592443
 11
375.896106
 21
269.592443
  0
LINE
  8
OBRYS
 10
367.448315
 20
270.592443
 11
369.790265
 21
269.592443
  0
LINE
  8
OBRYS
 10
361.105619
 20
270.592443
 11
358.763668
 21
269.592443
  0
LINE
  8
OBRYS
 10
358.763668
 20
269.592443
 11
352.657828
 21
269.592443
  0
LINE
  8
OBRYS
 10
358.763668
 20
269.592443
 11
369.790265
 21
269.592443
  0
LINE
  8
OBRYS
 10
331.002707
 20
269.592443
 11
325.474216
 21
269.592443
  0
ARC
  8
OBRYS
 10
319.905428
 20
268.592443
 40
2.000000
 50
68.952328
 51
90.000000
  0
LINE
  8
OBRYS
 62
     7
  6
DASHDOT
 10
364.276967
 20
258.856165
 11
364.276967
 21
291.043304
  0
LINE
  8
OBRYS
 10
412.776967
 20
276.092443
 11
412.776967
 21
272.592443
  0
LINE
  8
OBRYS
 10
315.776967
 20
276.092443
 11
315.776967
 21
272.592443
  0
ENDSEC
  0
EOF

