  0
SECTION
  2
HEADER
  9
$ACADVER
  1
AC1009
  9
$INSBASE
 10
0.0
 20
0.0
 30
0.0
  9
$LIMMIN
 10
0.0
 20
0.0
  9
$LIMMAX
 10
430.0000
 20
307.0000
  9
$EXTMIN
 10
99999999999999998000000000000000000000.0000
 20
99999999999999998000000000000000000000.0000
  9
$EXTMAX
 10
99999999999999998000000000000000000000.0000
 20
99999999999999998000000000000000000000.0000
  9
$VIEWCTR
 10
436.5229
 20
483.3514
  9
$VIEWSIZE
 40
761.4510
  9
$DIMLFAC
 40
0.6667
  9
$MEASUREMENT
 70
     1
  9
$DWGCODEPAGE
 3
ANSI_1250
  9
$CLAYER
  8
OBRYS
  9
$CELTYPE
  6
BYLAYER
  9
$CECOLOR
 62
  256
  9
$ORTHOMODE
 70
     0
  9
$REGENMODE
 70
     1
  9
$FILLMODE
 70
     1
  9
$QTEXTMODE
 70
     0
  9
$MIRRTEXT
 70
     1
  9
$DRAGMODE
 70
     2
  9
$LTSCALE
 40
1.0
  9
$OSMODE
 70
    37
  9
$ATTMODE
 70
     1
  9
$TEXTSIZE
 40
2.5
  9
$TRACEWID
 40
1.0
  9
$TEXTSTYLE
  7
STANDARD
  9
$CLAYER
  8
0
  9
$CELTYPE
  6
BYLAYER
  9
$CECOLOR
 62
   256
  9
$DIMSCALE
 40
1.0
  9
$DIMASZ
 40
2.5
  9
$DIMEXO
 40
0.625
  9
$DIMDLI
 40
3.75
  9
$DIMRND
 40
0.0
  9
$DIMDLE
 40
0.0
  9
$DIMEXE
 40
1.25
  9
$DIMTP
 40
0.0
  9
$DIMTM
 40
0.0
  9
$DIMTXT
 40
2.5
  9
$DIMCEN
 40
2.5
  9
$DIMTSZ
 40
0.0
  9
$DIMTOL
 70
     0
  9
$DIMLIM
 70
     0
  9
$DIMTIH
 70
     0
  9
$DIMTOH
 70
     0
  9
$DIMSE1
 70
     0
  9
$DIMSE2
 70
     0
  9
$DIMTAD
 70
     1
  9
$DIMZIN
 70
     8
  9
$DIMBLK
  1

  9
$DIMASO
 70
     1
  9
$DIMSHO
 70
     1
  9
$DIMPOST
  1

  9
$DIMAPOST
  1

  9
$DIMALT
 70
     0
  9
$DIMALTD
 70
     3
  9
$DIMALTF
 40
0.03937007874016
  9
$DIMTOFL
 70
     1
  9
$DIMTVP
 40
0.0
  9
$DIMTIX
 70
     0
  9
$DIMSOXD
 70
     0
  9
$DIMSAH
 70
     0
  9
$DIMBLK1
  1

  9
$DIMBLK2
  1

  9
$DIMSTYLE
  2
ISO-25
  9
$DIMCLRD
 70
     0
  9
$DIMCLRE
 70
     0
  9
$DIMCLRT
 70
     0
  9
$DIMTFAC
 40
1.0
  9
$DIMGAP
 40
0.625
  9
$LUNITS
 70
     2
  9
$LUPREC
 70
     4
  9
$SKETCHINC
 40
1.0
  9
$FILLETRAD
 40
10.0
  9
$AUNITS
 70
     0
  9
$AUPREC
 70
     0
  9
$MENU
  1
.
  9
$ELEVATION
 40
0.0
  9
$PELEVATION
 40
0.0
  9
$THICKNESS
 40
0.0
  9
$LIMCHECK
 70
     0
  9
$BLIPMODE
 70
     0
  9
$CHAMFERA
 40
10.0
  9
$CHAMFERB
 40
10.0
  9
$SKPOLY
 70
     0
  9
$TDCREATE
 40
2451579.5163292708
  9
$TDUPDATE
 40
2451579.6904035881
  9
$TDINDWG
 40
0.0082924769
  9
$TDUSRTIMER
 40
0.0082825116
  9
$USRTIMER
 70
     1
  9
$ANGBASE
 50
0.0
  9
$ANGDIR
 70
     0
  9
$PDMODE
 70
     0
  9
$PDSIZE
 40
0.0
  9
$PLINEWID
 40
0.0
  9
$COORDS
 70
     1
  9
$SPLFRAME
 70
     0
  9
$SPLINETYPE
 70
     6
  9
$SPLINESEGS
 70
     8
  9
$ATTDIA
 70
     0
  9
$ATTREQ
 70
     1
  9
$SURFTAB1
 70
     6
  9
$SURFTAB2
 70
     6
  9
$SURFTYPE
 70
     6
  9
$SURFU
 70
     6
  9
$SURFV
 70
     6
  9
$UCSNAME
  2

  9
$UCSORG
 10
0.0
 20
0.0
 30
0.0
  9
$UCSXDIR
 10
1.0
 20
0.0
 30
0.0
  9
$UCSYDIR
 10
0.0
 20
1.0
 30
0.0
  9
$PUCSNAME
  2

  9
$PUCSORG
 10
0.0
 20
0.0
 30
0.0
  9
$PUCSXDIR
 10
1.0
 20
0.0
 30
0.0
  9
$PUCSYDIR
 10
0.0
 20
1.0
 30
0.0
  9
$USERI1
 70
     0
  9
$USERI2
 70
     0
  9
$USERI3
 70
     0
  9
$USERI4
 70
     0
  9
$USERI5
 70
     0
  9
$USERR1
 40
0.0
  9
$USERR2
 40
0.0
  9
$USERR3
 40
0.0
  9
$USERR4
 40
0.0
  9
$USERR5
 40
0.0
  9
$WORLDVIEW
 70
     1
  9
$SHADEDGE
 70
     3
  9
$SHADEDIF
 70
    70
  9
$TILEMODE
 70
     1
  9
$MAXACTVP
 70
    64
  9
$PLIMCHECK
 70
     0
  9
$PEXTMIN
 10
1.0000000000000000E+020
 20
1.0000000000000000E+020
 30
1.0000000000000000E+020
  9
$PEXTMAX
 10
-1.0000000000000000E+020
 20
-1.0000000000000000E+020
 30
-1.0000000000000000E+020
  9
$PLIMMIN
 10
0.0
 20
0.0
  9
$PLIMMAX
 10
420.0
 20
297.0
  9
$UNITMODE
 70
     0
  9
$VISRETAIN
 70
     1
  9
$PLINEGEN
 70
     0
  9
$PSLTSCALE
 70
     1
  0
ENDSEC
  0
SECTION
  2
TABLES
  0
TABLE
  2
VPORT
 70
     2
  0
VPORT
  2
*ACTIVE
 70
     0
 10
0.0
 20
0.0
 11
1.0
 21
1.0
 12
436.5229
 22
483.3514
 13
0.0
 23
0.0
 14
10.0
 24
10.0
 15
10.0
 25
10.0
 16
0.0
 26
0.0
 36
1.0
 17
0.0
 27
0.0
 37
0.0
 40
761.4510
 41
1.6916
 42
50.0
 43
0.0
 44
0.0
 50
0.0
 51
0.0
 71
     0
 72
   100
 73
     1
 74
     3
 75
     0
 76
     0
 77
     0
 78
     0
  0
ENDTAB
  0
TABLE
  2
LTYPE
 70
     7
  0
LTYPE
  2
CONTINUOUS
 70
     0
  3
Solid line
 72
    65
 73
     0
 40
0.0
  0
LTYPE
  2
HIDDEN2
 70
     0
  3
Hidden (.5x) _ _ _ _ _ _ _ _ _ _ _ _ _ _ _ _ _
 72
    65
 73
     2
 40
5.1
 49
3.5
 49
-1.6
  0
LTYPE
  2
DASHDOT
 70
     0
  3
Dash dot __ . __ . __ . __ . __ . __ . __ . __
 72
    65
 73
     4
 40
10.4
 49
6.2
 49
-2.1
 49
0.0
 49
-2.1
  0
LTYPE
  2
DOT
 70
     0
  3
Dot . . . . . . . . . . . . . . . . . . . . . .
 72
    65
 73
     2
 40
2.2
 49
1.1
 49
-1.1
  0
LTYPE
  2
DASHED
 70
     0
  3
Dashed __ __ __ __ __ __ __ __ __ __ __ __ __ _
 72
    65
 73
     2
 40
11.049999999999979
 49
8.699999999999999
 49
-2.3499999999999979
  0
LTYPE
  2
PHANTOM2
 70
     0
  3
Phantom (.5x) ___ _ _ ___ _ _ ___ _ _ ___ _ _
 72
    65
 73
     6
 40
18.3
 49
7.8
 49
-2.1
 49
2.1
 49
-2.1
 49
2.1
 49
-2.1
  0
LTYPE
  2
CENTER
 70
     0
  3
Center ____ _ ____ _ ____ _ ____ _ ____ _ ____
 72
    65
 73
     4
 40
14.1
 49
7.8
 49
-2.1
 49
2.1
 49
-2.1
  0
ENDTAB
  0
TABLE
  2
LAYER
 70
     7
  0
LAYER
  2
0
 70
    64
 62
     7
  6
CONTINUOUS
  0
LAYER
  2
OBRYS
 70
    64
 62
     2
  6
CONTINUOUS
  0
LAYER
  2
OSA
 70
    64
 62
     7
  6
DASHDOT
  0
LAYER
  2
KOTA
 70
    64
 62
     3
  6
CONTINUOUS
  0
LAYER
  2
SRAFY
 70
    64
 62
     7
  6
CONTINUOUS
  0
LAYER
  2
POMOC
 70
    64
 62
     1
  6
DOT
  0
LAYER
  2
NEVIDITELNA
 70
    64
 62
     4
  6
HIDDEN2
  0
ENDTAB
  0
TABLE
  2
STYLE
 70
     1
  0
STYLE
  2
STANDARD
 70
     0
 40
0.0
 41
1.0
 50
0.0
 71
     0
 42
2.5
  3
txt
  4

  0
ENDTAB
  0
TABLE
  2
VIEW
 70
     0
  0
ENDTAB
  0
TABLE
  2
UCS
 70
     0
  0
ENDTAB
  0
TABLE
  2
APPID
 70
     1
  0
APPID
  2
ACAD
 70
     0
  0
ENDTAB
  0
TABLE
  2
DIMSTYLE
 70
     1
  0
DIMSTYLE
  2
ISO-25
 70
     0
  3

  4

  5

  6

  7

 40
1.0
 41
2.5
 42
0.625
 43
3.75
 44
1.25
 45
0.0
 46
0.0
 47
0.0
 48
0.0
140
2.5
141
2.5
142
0.0
143
0.03937007874016
144
1.0
145
0.0
146
1.0
147
0.625
 71
     0
 72
     0
 73
     0
 74
     0
 75
     0
 76
     0
 77
     1
 78
     8
170
     0
171
     3
172
     1
173
     0
174
     0
175
     0
176
     0
177
     0
178
     0
  0
ENDTAB
  0
ENDSEC
  0
SECTION
  2
BLOCKS
  0
BLOCK
  8
0
  2
$MODEL_SPACE
 70
     0
 10
0.0
 20
0.0
 30
0.0
  3
$MODEL_SPACE
  1

  0
ENDBLK
  8
0
  0
BLOCK
 67
     1
  8
0
  2
$PAPER_SPACE
 70
     0
 10
0.0
 20
0.0
 30
0.0
  3
$PAPER_SPACE
  1

  0
ENDBLK
 67
     1
  8
0
  0
BLOCK
  8
OBRYS
  2
_0
 70
   64
 10
521.024263
 20
463.055625
  0
ARC
  8
OBRYS
 10
515.024263
 20
506.621967
 40
2.000000
 50
144.246113
 51
180.000000
  0
LINE
  8
OBRYS
 10
513.401194
 20
507.790577
 11
515.153428
 21
510.224235
  0
ARC
  8
OBRYS
 10
516.776497
 20
509.055625
 40
2.000000
 50
90.000000
 51
144.246113
  0
ARC
  8
OBRYS
 10
515.024263
 20
504.910531
 40
2.000000
 50
144.246113
 51
180.000000
  0
LINE
  8
OBRYS
 10
513.401194
 20
506.079141
 11
516.385662
 21
510.224235
  0
ARC
  8
OBRYS
 10
518.008730
 20
509.055625
 40
2.000000
 50
90.000000
 51
144.246113
  0
LINE
  8
OBRYS
 62
     4
  6
HIDDEN2
 10
508.374263
 20
392.055625
 11
508.374263
 21
400.055625
  0
LINE
  8
OBRYS
 62
     4
  6
HIDDEN2
 10
515.674263
 20
400.055625
 11
515.674263
 21
392.055625
  0
LINE
  8
OBRYS
 62
     7
  6
DASHDOT
 10
512.024263
 20
387.055625
 11
512.024263
 21
405.055625
  0
ARC
  8
OBRYS
 10
506.024263
 20
398.055625
 40
2.000000
 50
140.000000
 51
180.000000
  0
ARC
  8
OBRYS
 10
506.024263
 20
398.055625
 40
2.000000
 50
90.000000
 51
140.000000
  0
LINE
  8
OBRYS
 10
520.024263
 20
400.055625
 11
506.024263
 21
400.055625
  0
LINE
  8
OBRYS
 10
504.024263
 20
392.055625
 11
526.024263
 21
392.055625
  0
LINE
  8
OBRYS
 10
516.776497
 20
511.055625
 11
520.024260
 21
511.055625
  0
LINE
  8
OBRYS
 62
     7
  6
DOT
 10
504.024263
 20
390.555625
 11
504.024263
 21
392.055625
  0
LINE
  8
OBRYS
 10
504.024263
 20
392.055625
 11
504.024263
 21
398.055625
  0
LINE
  8
OBRYS
 62
     7
  6
DOT
 10
526.024263
 20
390.555625
 11
526.024263
 21
392.055625
  0
LINE
  8
OBRYS
 10
513.024263
 20
506.621967
 11
513.024263
 21
504.362017
  0
LINE
  8
OBRYS
 10
516.984263
 20
510.078572
 11
516.984263
 21
507.757727
  0
ARC
  8
OBRYS
 10
520.024263
 20
510.055625
 40
1.000000
 50
31.023231
 51
90.000000
  0
LINE
  8
OBRYS
 10
504.492174
 20
399.341200
 11
516.543165
 21
413.703012
  0
ARC
  8
OBRYS
 10
520.024263
 20
402.055625
 40
2.000000
 50
270.000000
 51
295.423704
  0
LINE
  8
OBRYS
 10
526.024263
 20
392.055625
 11
526.024263
 21
393.050667
  0
ENDBLK
  8
OBRYS
  0
BLOCK
  8
OBRYS
  2
_1
 70
   64
 10
587.024263
 20
463.055625
  0
ARC
  8
OBRYS
 10
593.024263
 20
506.621967
 40
2.000000
 50
0.000000
 51
35.753887
  0
LINE
  8
OBRYS
 10
594.647331
 20
507.790577
 11
592.895098
 21
510.224235
  0
ARC
  8
OBRYS
 10
591.272029
 20
509.055625
 40
2.000000
 50
35.753887
 51
90.000000
  0
ARC
  8
OBRYS
 10
593.024263
 20
504.910531
 40
2.000000
 50
0.000000
 51
35.753887
  0
LINE
  8
OBRYS
 10
594.647331
 20
506.079141
 11
591.662864
 21
510.224235
  0
ARC
  8
OBRYS
 10
590.039795
 20
509.055625
 40
2.000000
 50
35.753887
 51
90.000000
  0
LINE
  8
OBRYS
 62
     4
  6
HIDDEN2
 10
599.674263
 20
392.055625
 11
599.674263
 21
400.055625
  0
LINE
  8
OBRYS
 62
     4
  6
HIDDEN2
 10
592.374263
 20
400.055625
 11
592.374263
 21
392.055625
  0
LINE
  8
OBRYS
 62
     7
  6
DASHDOT
 10
596.024263
 20
387.055625
 11
596.024263
 21
405.055625
  0
ARC
  8
OBRYS
 10
602.024263
 20
398.055625
 40
2.000000
 50
0.000000
 51
40.000000
  0
ARC
  8
OBRYS
 10
602.024263
 20
398.055625
 40
2.000000
 50
40.000000
 51
90.000000
  0
LINE
  8
OBRYS
 10
588.024263
 20
400.055625
 11
602.024263
 21
400.055625
  0
LINE
  8
OBRYS
 10
604.024263
 20
392.055625
 11
582.024263
 21
392.055625
  0
LINE
  8
OBRYS
 10
591.272029
 20
511.055625
 11
588.024265
 21
511.055625
  0
LINE
  8
OBRYS
 62
     7
  6
DOT
 10
604.024263
 20
390.555625
 11
604.024263
 21
392.055625
  0
LINE
  8
OBRYS
 10
604.024263
 20
392.055625
 11
604.024263
 21
398.055625
  0
LINE
  8
OBRYS
 62
     7
  6
DOT
 10
582.024263
 20
390.555625
 11
582.024263
 21
392.055625
  0
LINE
  8
OBRYS
 10
595.024263
 20
506.621967
 11
595.024263
 21
504.362017
  0
LINE
  8
OBRYS
 10
591.064263
 20
510.078572
 11
591.064263
 21
507.757727
  0
ARC
  8
OBRYS
 10
588.024263
 20
510.055625
 40
1.000000
 50
90.000000
 51
148.976769
  0
LINE
  8
OBRYS
 10
603.556352
 20
399.341200
 11
591.505360
 21
413.703012
  0
ARC
  8
OBRYS
 10
588.024263
 20
402.055625
 40
2.000000
 50
244.576296
 51
270.000000
  0
LINE
  8
OBRYS
 10
582.024263
 20
392.055625
 11
582.024263
 21
393.050667
  0
ENDBLK
  8
OBRYS
  0
BLOCK
  8
OSA
  2
_2
 70
   64
 10
554.024263
 20
424.555625
  0
CIRCLE
  8
OBRYS
 10
554.024263
 20
460.555625
 40
10.000000
  0
ARC
  8
OBRYS
 10
554.024263
 20
460.555625
 40
4.500000
 50
289.471221
 51
250.528779
  0
LINE
  8
OBRYS
 10
555.524263
 20
456.312984
 11
555.524263
 21
454.755625
  0
LINE
  8
OBRYS
 10
555.524263
 20
454.755625
 11
552.524263
 21
454.755625
  0
LINE
  8
OBRYS
 10
552.524263
 20
454.755625
 11
552.524263
 21
456.312984
  0
LINE
  8
OSA
 10
554.024263
 20
460.555625
 11
547.857596
 21
460.555625
  0
LINE
  8
OSA
 10
554.024263
 20
460.555625
 11
560.190929
 21
460.555625
  0
LINE
  8
OSA
 10
554.024263
 20
460.555625
 11
554.024263
 21
454.388958
  0
LINE
  8
OSA
 10
554.024263
 20
460.555625
 11
554.024263
 21
466.722292
  0
INSERT
  8
OSA
  2
Srouby_s_valcovou_hlavou___1
  6
CONTINUOUS
 10
554.024263
 20
488.555625
  0
INSERT
  8
OSA
  2
Srouby_s_valcovou_hlavou___2
  6
CONTINUOUS
 10
580.540767
 20
451.072129
  0
INSERT
  8
OSA
  2
Srouby_s_valcovou_hlavou___3
  6
CONTINUOUS
 10
527.507758
 20
451.072129
  0
LINE
  8
OSA
 10
580.540767
 20
451.072129
 11
573.931394
 21
451.072129
  0
LINE
  8
OSA
 10
580.540767
 20
451.072129
 11
587.150140
 21
451.072129
  0
LINE
  8
OSA
 10
580.540767
 20
451.072129
 11
580.540767
 21
444.462756
  0
LINE
  8
OSA
 10
580.540767
 20
451.072129
 11
580.540767
 21
457.681502
  0
LINE
  8
OSA
 10
527.507758
 20
451.072129
 11
520.898385
 21
451.072129
  0
LINE
  8
OSA
 10
527.507758
 20
451.072129
 11
534.117131
 21
451.072129
  0
LINE
  8
OSA
 10
527.507758
 20
451.072129
 11
527.507758
 21
444.462756
  0
LINE
  8
OSA
 10
527.507758
 20
451.072129
 11
527.507758
 21
457.681502
  0
LINE
  8
OSA
 10
580.540767
 20
398.039121
 11
573.931394
 21
398.039121
  0
LINE
  8
OSA
 10
580.540767
 20
398.039121
 11
587.150140
 21
398.039121
  0
LINE
  8
OSA
 10
580.540767
 20
398.039121
 11
580.540767
 21
391.429748
  0
LINE
  8
OSA
 10
580.540767
 20
398.039121
 11
580.540767
 21
404.648494
  0
LINE
  8
OSA
 10
527.507758
 20
398.039121
 11
527.507758
 21
404.648494
  0
LINE
  8
OSA
 10
527.507758
 20
398.039121
 11
527.507758
 21
391.429748
  0
LINE
  8
OSA
 10
527.507758
 20
398.039121
 11
534.117131
 21
398.039121
  0
LINE
  8
OSA
 10
527.507758
 20
398.039121
 11
520.898385
 21
398.039121
  0
INSERT
  8
OSA
  2
Srouby_s_valcovou_hlavou___4
  6
CONTINUOUS
 10
580.540767
 20
398.039121
  0
INSERT
  8
OSA
  2
Srouby_s_valcovou_hlavou___5
  6
CONTINUOUS
 10
527.507758
 20
398.039121
  0
LINE
  8
0
 62
     2
 10
590.505025
 20
412.919987
 11
590.505025
 21
409.555625
  0
LINE
  8
0
 62
     2
 10
517.543501
 20
412.919987
 11
517.543501
 21
409.555625
  0
ARC
  8
OBRYS
 10
554.024263
 20
460.555625
 40
55.000000
 50
270.000000
 51
90.000000
  0
ARC
  8
OBRYS
 10
578.745525
 20
499.348140
 40
2.000000
 50
237.491906
 51
325.000000
  0
LINE
  8
OBRYS
 10
580.383829
 20
498.200987
 11
584.402162
 21
503.939761
  0
ARC
  8
OBRYS
 10
582.763858
 20
505.086914
 40
2.000000
 50
325.000000
 51
57.162618
  0
ARC
  8
OBRYS
 10
554.024263
 20
460.555625
 40
44.000000
 50
270.000000
 51
90.000000
  0
ARC
  8
OBRYS
 10
598.555552
 20
489.295220
 40
2.000000
 50
32.837382
 51
125.000000
  0
LINE
  8
OBRYS
 10
591.669625
 20
486.915191
 11
597.408399
 21
490.933524
  0
ARC
  8
OBRYS
 10
592.816778
 20
485.276887
 40
2.000000
 50
125.000000
 51
212.508094
  0
LINE
  8
OBRYS
 10
613.185061
 20
470.555625
 11
608.254994
 21
469.722292
  0
LINE
  8
OBRYS
 10
613.185061
 20
450.555625
 11
608.254994
 21
451.388958
  0
ARC
  8
OBRYS
 10
592.816778
 20
435.834363
 40
2.000000
 50
147.491906
 51
235.000000
  0
LINE
  8
OBRYS
 10
591.669625
 20
434.196059
 11
597.408399
 21
430.177726
  0
ARC
  8
OBRYS
 10
598.555552
 20
431.816030
 40
2.000000
 50
235.000000
 51
327.162618
  0
ARC
  8
OBRYS
 10
582.763858
 20
416.024336
 40
2.000000
 50
302.837382
 51
35.000000
  0
LINE
  8
OBRYS
 10
580.383829
 20
422.910263
 11
584.402162
 21
417.171489
  0
ARC
  8
OBRYS
 10
578.745525
 20
421.763110
 40
2.000000
 50
35.000000
 51
122.508094
  0
ARC
  8
OBRYS
 10
529.303001
 20
421.763110
 40
2.000000
 50
57.491906
 51
145.000000
  0
LINE
  8
OBRYS
 10
527.664697
 20
422.910263
 11
523.646364
 21
417.171489
  0
ARC
  8
OBRYS
 10
525.284668
 20
416.024336
 40
2.000000
 50
145.000000
 51
237.162618
  0
ARC
  8
OBRYS
 10
509.492974
 20
431.816030
 40
2.000000
 50
212.837382
 51
305.000000
  0
LINE
  8
OBRYS
 10
516.378901
 20
434.196059
 11
510.640127
 21
430.177726
  0
ARC
  8
OBRYS
 10
515.231748
 20
435.834363
 40
2.000000
 50
305.000000
 51
32.508094
  0
LINE
  8
OBRYS
 10
494.863465
 20
450.555625
 11
499.793531
 21
451.388958
  0
LINE
  8
OBRYS
 10
494.863465
 20
470.555625
 11
499.793531
 21
469.722292
  0
ARC
  8
OBRYS
 10
515.231748
 20
485.276887
 40
2.000000
 50
327.491906
 51
55.000000
  0
LINE
  8
OBRYS
 10
516.378901
 20
486.915191
 11
510.640127
 21
490.933524
  0
ARC
  8
OBRYS
 10
509.492974
 20
489.295220
 40
2.000000
 50
55.000000
 51
147.162618
  0
ARC
  8
OBRYS
 10
554.024263
 20
460.555625
 40
44.000000
 50
90.000000
 51
270.000000
  0
ARC
  8
OBRYS
 10
525.284668
 20
505.086914
 40
2.000000
 50
122.837382
 51
215.000000
  0
LINE
  8
OBRYS
 10
527.664697
 20
498.200987
 11
523.646364
 21
503.939761
  0
ARC
  8
OBRYS
 10
529.303001
 20
499.348140
 40
2.000000
 50
215.000000
 51
302.508094
  0
ARC
  8
OBRYS
 10
554.024263
 20
460.555625
 40
55.000000
 50
90.000000
 51
270.000000
  0
CIRCLE
  8
OBRYS
 10
554.024263
 20
460.555625
 40
17.480000
  0
ARC
  8
OBRYS
 10
554.024263
 20
460.555625
 40
24.000000
 50
270.000000
 51
334.208906
  0
ARC
  8
OSA
 10
554.024263
 20
460.555625
 40
50.000000
 50
270.000000
 51
90.000000
  0
ARC
  8
OBRYS
 10
554.024263
 20
460.555625
 40
40.000000
 50
270.000000
 51
90.000000
  0
ARC
  8
OBRYS
 10
554.024263
 20
460.555625
 40
60.000000
 50
270.000000
 51
90.000000
  0
ARC
  8
OBRYS
 10
554.024263
 20
460.555625
 40
21.000000
 50
270.000000
 51
90.000000
  0
LINE
  8
OSA
 10
554.024263
 20
488.555625
 11
564.024276
 21
488.555625
  0
ARC
  8
OBRYS
 10
554.024279
 20
488.555625
 40
5.000000
 50
270.000000
 51
90.000000
  0
LINE
  8
OSA
 10
554.024263
 20
424.555625
 11
594.024259
 21
424.555625
  0
LINE
  8
OSA
 10
554.024263
 20
460.555625
 11
614.024263
 21
460.555625
  0
ARC
  8
OBRYS
 10
580.005025
 20
409.555625
 40
10.500000
 50
334.169919
 51
360.000000
  0
LINE
  8
0
 62
     2
 10
589.455971
 20
404.980736
 11
585.041218
 21
395.860602
  0
CIRCLE
  8
OBRYS
 10
580.540767
 20
451.072129
 40
5.000000
  0
ARC
  8
OBRYS
 10
580.540767
 20
398.039121
 40
5.000000
 50
89.999964
 51
180.000000
  0
ARC
  8
OBRYS
 10
587.262234
 20
405.039121
 40
2.000000
 50
270.000000
 51
334.169919
  0
LINE
  8
OBRYS
 10
580.540767
 20
403.039121
 11
587.262234
 21
403.039121
  0
CIRCLE
  8
OBRYS
 10
589.379602
 20
425.200286
 40
3.500000
  0
LINE
  8
OSA
 10
554.024263
 20
460.555625
 11
596.450670
 21
502.982032
  0
LINE
  8
OSA
 10
554.024263
 20
460.555625
 11
596.450670
 21
418.129218
  0
CIRCLE
  8
OBRYS
 10
589.379602
 20
495.910964
 40
3.500000
  0
ARC
  8
OBRYS
 10
580.540767
 20
451.072129
 40
5.000000
 50
176.832544
 51
225.000000
  0
ARC
  8
OBRYS
 10
554.024263
 20
460.555625
 40
24.000000
 50
346.432420
 51
83.365562
  0
ARC
  8
OBRYS
 10
554.024263
 20
460.555625
 40
24.000000
 50
96.634438
 51
193.567580
  0
ARC
  8
OBRYS
 10
527.507758
 20
451.072129
 40
5.000000
 50
315.000000
 51
3.167456
  0
CIRCLE
  8
OBRYS
 10
518.668924
 20
495.910964
 40
3.500000
  0
LINE
  8
OSA
 10
554.024263
 20
460.555625
 11
511.597856
 21
418.129218
  0
LINE
  8
OSA
 10
554.024263
 20
460.555625
 11
511.597856
 21
502.982032
  0
CIRCLE
  8
OBRYS
 10
518.668924
 20
425.200286
 40
3.500000
  0
LINE
  8
OBRYS
 10
527.507758
 20
403.039121
 11
520.786292
 21
403.039121
  0
ARC
  8
OBRYS
 10
520.786292
 20
405.039121
 40
2.000000
 50
205.830081
 51
270.000000
  0
ARC
  8
OBRYS
 10
527.507758
 20
398.039121
 40
5.000000
 50
0.000000
 51
90.000036
  0
CIRCLE
  8
OBRYS
 10
527.507758
 20
451.072129
 40
5.000000
  0
LINE
  8
0
 62
     2
 10
518.592554
 20
404.980736
 11
523.007308
 21
395.860602
  0
ARC
  8
OBRYS
 10
528.043501
 20
409.555625
 40
10.500000
 50
180.000006
 51
205.830081
  0
LINE
  8
OSA
 10
554.024263
 20
378.911578
 11
554.024263
 21
520.555625
  0
LINE
  8
OSA
 10
554.024263
 20
460.555625
 11
494.024263
 21
460.555625
  0
LINE
  8
OSA
 10
554.024263
 20
424.555625
 11
514.024266
 21
424.555625
  0
ARC
  8
OBRYS
 10
554.024246
 20
488.555625
 40
5.000000
 50
90.000000
 51
270.000000
  0
LINE
  8
OSA
 10
554.024263
 20
488.555625
 11
544.024250
 21
488.555625
  0
ARC
  8
OBRYS
 10
554.024263
 20
460.555625
 40
21.000000
 50
90.000000
 51
270.000000
  0
ARC
  8
OBRYS
 10
554.024263
 20
460.555625
 40
60.000000
 50
90.000000
 51
270.000000
  0
ARC
  8
OBRYS
 10
554.024263
 20
460.555625
 40
40.000000
 50
90.000000
 51
270.000000
  0
ARC
  8
OSA
 10
554.024263
 20
460.555625
 40
50.000000
 50
90.000000
 51
270.000000
  0
ARC
  8
OBRYS
 10
554.024263
 20
460.555625
 40
24.000000
 50
205.791094
 51
270.000000
  0
ARC
  8
OBRYS
 10
580.540767
 20
398.039121
 40
5.000000
 50
303.511664
 51
334.169919
  0
ARC
  8
OBRYS
 10
527.507758
 20
398.039121
 40
5.000000
 50
205.830081
 51
236.488335
  0
ARC
  8
OBRYS
 10
554.024263
 20
438.083534
 40
53.027909
 50
236.488379
 51
303.511629
  0
LINE
  8
OBRYS
 10
532.507758
 20
398.039121
 11
532.507758
 21
390.935326
  0
ARC
  8
OBRYS
 10
534.507758
 20
390.935326
 40
2.000000
 50
180.000000
 51
247.513406
  0
LINE
  8
OBRYS
 10
575.540767
 20
398.039121
 11
575.540767
 21
390.935326
  0
ARC
  8
OBRYS
 10
573.540767
 20
390.935326
 40
2.000000
 50
292.486594
 51
360.000000
  0
ENDBLK
  8
OSA
  0
BLOCK
  8
OSA
  2
Srouby_s_valcovou_hlavou___1
 70
   66
 10
554.024263
 20
488.555625
  0
LINE
  8
OSA
 62
     2
  6
CONTINUOUS
 10
556.024263
 20
489.710333
 11
556.024263
 21
487.400917
  0
LINE
  8
OSA
 62
     2
  6
CONTINUOUS
 10
556.024263
 20
487.400917
 11
554.024263
 21
486.246210
  0
LINE
  8
OSA
 62
     2
  6
CONTINUOUS
 10
554.024263
 20
486.246210
 11
552.024263
 21
487.400917
  0
LINE
  8
OSA
 62
     2
  6
CONTINUOUS
 10
552.024263
 20
487.400917
 11
552.024263
 21
489.710333
  0
LINE
  8
OSA
 62
     2
  6
CONTINUOUS
 10
552.024263
 20
489.710333
 11
554.024263
 21
490.865041
  0
LINE
  8
OSA
 62
     2
  6
CONTINUOUS
 10
554.024263
 20
490.865041
 11
556.024263
 21
489.710333
  0
CIRCLE
  8
OSA
 62
     2
  6
CONTINUOUS
 10
554.024263
 20
488.555625
 40
2.309415
  0
CIRCLE
  8
OSA
 62
     2
  6
CONTINUOUS
 10
554.024263
 20
488.555625
 40
4.250000
  0
ENDBLK
  8
OSA
  0
BLOCK
  8
OSA
  2
Srouby_s_valcovou_hlavou___2
 70
   66
 10
580.540767
 20
451.072129
  0
LINE
  8
OSA
 62
     2
  6
CONTINUOUS
 10
582.540767
 20
452.226837
 11
582.540767
 21
449.917422
  0
LINE
  8
OSA
 62
     2
  6
CONTINUOUS
 10
582.540767
 20
449.917422
 11
580.540767
 21
448.762714
  0
LINE
  8
OSA
 62
     2
  6
CONTINUOUS
 10
580.540767
 20
448.762714
 11
578.540767
 21
449.917422
  0
LINE
  8
OSA
 62
     2
  6
CONTINUOUS
 10
578.540767
 20
449.917422
 11
578.540767
 21
452.226837
  0
LINE
  8
OSA
 62
     2
  6
CONTINUOUS
 10
578.540767
 20
452.226837
 11
580.540767
 21
453.381545
  0
LINE
  8
OSA
 62
     2
  6
CONTINUOUS
 10
580.540767
 20
453.381545
 11
582.540767
 21
452.226837
  0
CIRCLE
  8
OSA
 62
     2
  6
CONTINUOUS
 10
580.540767
 20
451.072129
 40
2.309415
  0
CIRCLE
  8
OSA
 62
     2
  6
CONTINUOUS
 10
580.540767
 20
451.072129
 40
4.250000
  0
ENDBLK
  8
OSA
  0
BLOCK
  8
OSA
  2
Srouby_s_valcovou_hlavou___3
 70
   66
 10
527.507758
 20
451.072129
  0
LINE
  8
OSA
 62
     2
  6
CONTINUOUS
 10
529.507758
 20
452.226837
 11
529.507758
 21
449.917422
  0
LINE
  8
OSA
 62
     2
  6
CONTINUOUS
 10
529.507758
 20
449.917422
 11
527.507758
 21
448.762714
  0
LINE
  8
OSA
 62
     2
  6
CONTINUOUS
 10
527.507758
 20
448.762714
 11
525.507758
 21
449.917422
  0
LINE
  8
OSA
 62
     2
  6
CONTINUOUS
 10
525.507758
 20
449.917422
 11
525.507758
 21
452.226837
  0
LINE
  8
OSA
 62
     2
  6
CONTINUOUS
 10
525.507758
 20
452.226837
 11
527.507758
 21
453.381545
  0
LINE
  8
OSA
 62
     2
  6
CONTINUOUS
 10
527.507758
 20
453.381545
 11
529.507758
 21
452.226837
  0
CIRCLE
  8
OSA
 62
     2
  6
CONTINUOUS
 10
527.507758
 20
451.072129
 40
2.309415
  0
CIRCLE
  8
OSA
 62
     2
  6
CONTINUOUS
 10
527.507758
 20
451.072129
 40
4.250000
  0
ENDBLK
  8
OSA
  0
BLOCK
  8
OSA
  2
Srouby_s_valcovou_hlavou___4
 70
   66
 10
580.540767
 20
398.039121
  0
LINE
  8
OSA
 62
     2
  6
CONTINUOUS
 10
582.540767
 20
399.193829
 11
582.540767
 21
396.884413
  0
LINE
  8
OSA
 62
     2
  6
CONTINUOUS
 10
582.540767
 20
396.884413
 11
580.540767
 21
395.729705
  0
LINE
  8
OSA
 62
     2
  6
CONTINUOUS
 10
580.540767
 20
395.729705
 11
578.540767
 21
396.884413
  0
LINE
  8
OSA
 62
     2
  6
CONTINUOUS
 10
578.540767
 20
396.884413
 11
578.540767
 21
399.193829
  0
LINE
  8
OSA
 62
     2
  6
CONTINUOUS
 10
578.540767
 20
399.193829
 11
580.540767
 21
400.348536
  0
LINE
  8
OSA
 62
     2
  6
CONTINUOUS
 10
580.540767
 20
400.348536
 11
582.540767
 21
399.193829
  0
CIRCLE
  8
OSA
 62
     2
  6
CONTINUOUS
 10
580.540767
 20
398.039121
 40
2.309415
  0
CIRCLE
  8
OSA
 62
     2
  6
CONTINUOUS
 10
580.540767
 20
398.039121
 40
4.250000
  0
ENDBLK
  8
OSA
  0
BLOCK
  8
OSA
  2
Srouby_s_valcovou_hlavou___5
 70
   66
 10
527.507758
 20
398.039121
  0
LINE
  8
OSA
 62
     2
  6
CONTINUOUS
 10
529.507758
 20
399.193829
 11
529.507758
 21
396.884413
  0
LINE
  8
OSA
 62
     2
  6
CONTINUOUS
 10
529.507758
 20
396.884413
 11
527.507758
 21
395.729705
  0
LINE
  8
OSA
 62
     2
  6
CONTINUOUS
 10
527.507758
 20
395.729705
 11
525.507758
 21
396.884413
  0
LINE
  8
OSA
 62
     2
  6
CONTINUOUS
 10
525.507758
 20
396.884413
 11
525.507758
 21
399.193829
  0
LINE
  8
OSA
 62
     2
  6
CONTINUOUS
 10
525.507758
 20
399.193829
 11
527.507758
 21
400.348536
  0
LINE
  8
OSA
 62
     2
  6
CONTINUOUS
 10
527.507758
 20
400.348536
 11
529.507758
 21
399.193829
  0
CIRCLE
  8
OSA
 62
     2
  6
CONTINUOUS
 10
527.507758
 20
398.039121
 40
2.309415
  0
CIRCLE
  8
OSA
 62
     2
  6
CONTINUOUS
 10
527.507758
 20
398.039121
 40
4.250000
  0
ENDBLK
  8
OSA
  0
BLOCK
  8
OBRYS
  2
_3
 70
   64
 10
764.834956
 20
424.555625
  0
LINE
  8
OBRYS
 10
787.834967
 20
441.406361
 11
769.834966
 21
441.406361
  0
LINE
  8
OBRYS
 10
787.834967
 20
394.659671
 11
769.834966
 21
394.659671
  0
LINE
  8
OBRYS
 10
787.834967
 20
407.147903
 11
769.834966
 21
407.147903
  0
LINE
  8
OBRYS
 10
765.834967
 20
424.555625
 11
765.834967
 21
388.637854
  0
LINE
  8
OBRYS
 10
765.834967
 20
489.555625
 11
765.834967
 21
424.555625
  0
LINE
  8
OBRYS
 10
764.834956
 20
394.575237
 11
764.834956
 21
424.555625
  0
LINE
  8
OBRYS
 10
764.834956
 20
424.555625
 11
764.834945
 21
454.536387
  0
LINE
  8
OBRYS
 10
787.834967
 20
478.035625
 11
787.834967
 21
493.555625
  0
ARC
  8
OBRYS
 10
769.834967
 20
489.555625
 40
4.000000
 50
90.000000
 51
180.000000
  0
ARC
  8
OBRYS
 10
764.862312
 20
393.575237
 40
1.000000
 50
5.995066
 51
90.000000
  0
ARC
  8
OBRYS
 10
769.834967
 20
389.055625
 40
4.000000
 50
185.995066
 51
270.000000
  0
ARC
  8
OBRYS
 10
764.834956
 20
455.536387
 40
1.000000
 50
270.000000
 51
360.000000
  0
LINE
  8
OBRYS
 10
764.834956
 20
394.575237
 11
764.862312
 21
394.575237
  0
LINE
  8
OSA
 10
754.334970
 20
424.555625
 11
795.334963
 21
424.555625
  0
LINE
  8
OBRYS
 10
787.834967
 20
385.055625
 11
769.834967
 21
385.055625
  0
LINE
  8
OBRYS
 10
787.834967
 20
424.555625
 11
787.834967
 21
385.055625
  0
LINE
  8
OBRYS
 10
787.834967
 20
478.035625
 11
787.834967
 21
424.555625
  0
LINE
  8
OBRYS
 10
769.834967
 20
493.555625
 11
787.834967
 21
493.555625
  0
LINE
  8
OBRYS
 10
787.834967
 20
478.035625
 11
787.834967
 21
493.555625
  0
LINE
  8
OBRYS
 10
787.834967
 20
478.035625
 11
787.834967
 21
460.555625
  0
LINE
  8
OSA
 10
785.993248
 20
488.555625
 11
820.054595
 21
488.555625
  0
LINE
  8
OSA
 10
786.163009
 20
424.555625
 11
815.554598
 21
424.555625
  0
LINE
  8
OBRYS
 10
813.334967
 20
452.555625
 11
813.334967
 21
468.555625
  0
LINE
  8
OBRYS
 10
814.334967
 20
469.722292
 11
816.834967
 21
469.722292
  0
ARC
  8
OBRYS
 10
814.334967
 20
468.722292
 40
1.000000
 50
90.000000
 51
180.000000
  0
LINE
  8
OBRYS
 10
815.334967
 20
470.555625
 11
816.834967
 21
470.555625
  0
ARC
  8
OBRYS
 10
815.334967
 20
468.555625
 40
2.000000
 50
90.000000
 51
180.000000
  0
ARC
  8
OBRYS
 10
815.334967
 20
452.555625
 40
2.000000
 50
180.000000
 51
270.000000
  0
LINE
  8
OBRYS
 10
815.334967
 20
450.555625
 11
816.834967
 21
450.555625
  0
ARC
  8
OBRYS
 10
814.334967
 20
452.388958
 40
1.000000
 50
180.000000
 51
270.000000
  0
LINE
  8
OBRYS
 10
814.334967
 20
451.388958
 11
816.834967
 21
451.388958
  0
LINE
  8
OSA
 10
783.834967
 20
398.039121
 11
800.834967
 21
398.039121
  0
LINE
  8
OBRYS
 10
796.834967
 20
449.613680
 11
796.834967
 21
389.055625
  0
LINE
  8
OBRYS
 10
807.834967
 20
402.555625
 11
807.834967
 21
460.555625
  0
LINE
  8
OBRYS
 10
807.834967
 20
518.555625
 11
807.834967
 21
460.555625
  0
ARC
  8
OBRYS
 10
792.834967
 20
389.055625
 40
4.000000
 50
270.000000
 51
360.000000
  0
ARC
  8
OBRYS
 10
798.834967
 20
431.555625
 40
2.000000
 50
90.000000
 51
180.000000
  0
LINE
  8
OSA
 10
801.054602
 20
510.555625
 11
824.054595
 21
510.555625
  0
LINE
  8
OBRYS
 10
792.834967
 20
385.055625
 11
787.834967
 21
385.055625
  0
LINE
  8
OBRYS
 10
787.834967
 20
460.555625
 11
787.834967
 21
385.055625
  0
LINE
  8
OSA
 10
786.067518
 20
460.555625
 11
815.554598
 21
460.555625
  0
LINE
  8
OBRYS
 10
792.834967
 20
401.039121
 11
792.834967
 21
387.055625
  0
ARC
  8
OBRYS
 10
790.834967
 20
387.055625
 40
2.000000
 50
270.000000
 51
360.000000
  0
LINE
  8
OBRYS
 10
816.834967
 20
400.555625
 11
809.834967
 21
400.555625
  0
ARC
  8
OBRYS
 10
809.834967
 20
402.555625
 40
2.000000
 50
180.000000
 51
270.000000
  0
LINE
  8
OBRYS
 10
816.834967
 20
520.555625
 11
809.834967
 21
520.555625
  0
ARC
  8
OBRYS
 10
809.834967
 20
518.555625
 40
2.000000
 50
90.000000
 51
180.000000
  0
ARC
  8
OBRYS
 10
805.834967
 20
495.555625
 40
2.000000
 50
270.000000
 51
360.000000
  0
ARC
  8
OBRYS
 10
805.834967
 20
431.555625
 40
2.000000
 50
0.000000
 51
90.000000
  0
LINE
  8
OBRYS
 10
798.834967
 20
433.555625
 11
805.834967
 21
433.555625
  0
LINE
  8
OBRYS
 10
805.834967
 20
493.555625
 11
787.834967
 21
493.555625
  0
LINE
  8
OBRYS
 10
815.834967
 20
451.388958
 11
815.834967
 21
469.722292
  0
LINE
  8
OBRYS
 10
816.834967
 20
400.555625
 11
816.834967
 21
451.388958
  0
LINE
  8
OBRYS
 10
816.834967
 20
469.722292
 11
816.834967
 21
520.555625
  0
INSERT
  8
OBRYS
  2
Srouby_s_valcovou_hlavou___7
 62
     7
 10
792.834967
 20
398.039121
  0
ARC
  8
OBRYS
 10
794.834967
 20
402.289121
 40
2.000000
 50
90.000000
 51
180.000000
  0
ARC
  8
OBRYS
 10
794.834967
 20
406.289121
 40
2.000000
 50
270.000000
 51
360.000000
  0
ENDBLK
  8
OBRYS
  0
BLOCK
  8
OBRYS
  2
Srouby_s_valcovou_hlavou___7
 70
   66
 10
792.834967
 20
398.039121
  0
LINE
  8
OBRYS
 10
796.334967
 20
401.789121
 11
796.334967
 21
394.289121
  0
LINE
  8
OBRYS
 10
795.834967
 20
402.289121
 11
792.834967
 21
402.289121
  0
LINE
  8
OBRYS
 10
792.834967
 20
402.289121
 11
792.834967
 21
393.789121
  0
LINE
  8
OBRYS
 10
792.834967
 20
393.789121
 11
795.834967
 21
393.789121
  0
ARC
  8
OBRYS
 10
795.834967
 20
401.789121
 40
0.500000
 50
0.000000
 51
90.000000
  0
ARC
  8
OBRYS
 10
795.834967
 20
394.289121
 40
0.500000
 50
270.000000
 51
360.000000
  0
LINE
  8
OBRYS
 62
     7
  6
DOT
 10
796.334967
 20
400.348536
 11
794.668300
 21
400.348536
  0
LINE
  8
OBRYS
 62
     7
  6
DOT
 10
796.334967
 20
399.193829
 11
794.668300
 21
399.193829
  0
LINE
  8
OBRYS
 62
     7
  6
DOT
 10
796.334967
 20
396.884413
 11
794.668300
 21
396.884413
  0
LINE
  8
OBRYS
 62
     7
  6
DOT
 10
796.334967
 20
395.729705
 11
794.668300
 21
395.729705
  0
ARC
  8
OBRYS
 62
     7
  6
DOT
 10
796.668306
 20
399.771182
 40
0.666673
 50
120.000310
 51
239.999690
  0
ARC
  8
OBRYS
 62
     7
  6
DOT
 10
798.168325
 20
398.039121
 40
2.166692
 50
147.795963
 51
212.204037
  0
ARC
  8
OBRYS
 62
     7
  6
DOT
 10
796.668306
 20
396.307059
 40
0.666673
 50
120.000310
 51
239.999690
  0
ARC
  8
OBRYS
 62
     7
  6
DOT
 10
795.001640
 20
399.771182
 40
0.666673
 50
120.000310
 51
239.999690
  0
ARC
  8
OBRYS
 62
     7
  6
DOT
 10
796.501658
 20
398.039121
 40
2.166692
 50
147.795963
 51
212.204037
  0
ARC
  8
OBRYS
 62
     7
  6
DOT
 10
795.001640
 20
396.307059
 40
0.666673
 50
120.000310
 51
239.999690
  0
LINE
  8
OBRYS
 62
     7
  6
DOT
 10
794.334967
 20
399.771182
 11
793.180259
 21
398.039121
  0
LINE
  8
OBRYS
 62
     7
  6
DOT
 10
793.180259
 20
398.039121
 11
794.334967
 21
396.307059
  0
ENDBLK
  8
OBRYS
  0
BLOCK
  8
OBRYS
  2
_4
 70
   64
 10
313.276967
 20
424.555612
  0
LINE
  8
OBRYS
 10
290.276956
 20
441.406348
 11
308.276957
 21
441.406348
  0
LINE
  8
OBRYS
 10
290.276956
 20
394.659658
 11
308.276957
 21
394.659658
  0
LINE
  8
OBRYS
 10
290.276956
 20
407.147890
 11
308.276957
 21
407.147890
  0
LINE
  8
OBRYS
 10
312.276956
 20
424.555612
 11
312.276956
 21
388.637841
  0
LINE
  8
OBRYS
 10
312.276956
 20
489.555612
 11
312.276956
 21
424.555612
  0
LINE
  8
OBRYS
 10
313.276967
 20
394.575224
 11
313.276967
 21
424.555612
  0
LINE
  8
OBRYS
 10
313.276967
 20
424.555612
 11
313.276978
 21
454.536374
  0
LINE
  8
OBRYS
 10
290.276956
 20
478.035612
 11
290.276956
 21
493.555612
  0
ARC
  8
OBRYS
 10
308.276956
 20
489.555612
 40
4.000000
 50
0.000000
 51
90.000000
  0
ARC
  8
OBRYS
 10
313.249610
 20
393.575224
 40
1.000000
 50
90.000000
 51
174.004934
  0
ARC
  8
OBRYS
 10
308.276956
 20
389.055612
 40
4.000000
 50
270.000000
 51
354.004934
  0
ARC
  8
OBRYS
 10
313.276967
 20
455.536374
 40
1.000000
 50
180.000000
 51
270.000000
  0
LINE
  8
OBRYS
 10
313.276967
 20
394.575224
 11
313.249610
 21
394.575224
  0
LINE
  8
OSA
 10
323.776952
 20
424.555612
 11
282.776959
 21
424.555612
  0
LINE
  8
OBRYS
 10
290.276956
 20
385.055612
 11
308.276956
 21
385.055612
  0
LINE
  8
OBRYS
 10
290.276956
 20
424.555612
 11
290.276956
 21
385.055612
  0
LINE
  8
OBRYS
 10
290.276956
 20
478.035612
 11
290.276956
 21
424.555612
  0
LINE
  8
OBRYS
 10
308.276956
 20
493.555612
 11
290.276956
 21
493.555612
  0
LINE
  8
OBRYS
 10
290.276956
 20
478.035612
 11
290.276956
 21
493.555612
  0
LINE
  8
OBRYS
 10
290.276956
 20
478.035612
 11
290.276956
 21
460.555612
  0
LINE
  8
OSA
 10
292.118675
 20
488.555612
 11
258.057328
 21
488.555612
  0
LINE
  8
OSA
 10
291.948914
 20
424.555612
 11
262.557324
 21
424.555612
  0
LINE
  8
OBRYS
 10
264.776956
 20
452.555612
 11
264.776956
 21
468.555612
  0
LINE
  8
OBRYS
 10
263.776956
 20
469.722279
 11
261.276956
 21
469.722279
  0
ARC
  8
OBRYS
 10
263.776956
 20
468.722279
 40
1.000000
 50
0.000000
 51
90.000000
  0
LINE
  8
OBRYS
 10
262.776956
 20
470.555612
 11
261.276956
 21
470.555612
  0
ARC
  8
OBRYS
 10
262.776956
 20
468.555612
 40
2.000000
 50
0.000000
 51
90.000000
  0
ARC
  8
OBRYS
 10
262.776956
 20
452.555612
 40
2.000000
 50
270.000000
 51
360.000000
  0
LINE
  8
OBRYS
 10
262.776956
 20
450.555612
 11
261.276956
 21
450.555612
  0
ARC
  8
OBRYS
 10
263.776956
 20
452.388946
 40
1.000000
 50
270.000000
 51
360.000000
  0
LINE
  8
OBRYS
 10
263.776956
 20
451.388946
 11
261.276956
 21
451.388946
  0
LINE
  8
OSA
 10
294.276956
 20
398.039108
 11
277.276956
 21
398.039108
  0
LINE
  8
OBRYS
 10
281.276956
 20
449.613667
 11
281.276956
 21
389.055612
  0
LINE
  8
OBRYS
 10
270.276956
 20
402.555612
 11
270.276956
 21
460.555612
  0
LINE
  8
OBRYS
 10
270.276956
 20
518.555612
 11
270.276956
 21
460.555612
  0
ARC
  8
OBRYS
 10
285.276956
 20
389.055612
 40
4.000000
 50
180.000000
 51
270.000000
  0
ARC
  8
OBRYS
 10
279.276956
 20
431.555612
 40
2.000000
 50
0.000000
 51
90.000000
  0
LINE
  8
OSA
 10
277.057321
 20
510.555612
 11
254.057328
 21
510.555612
  0
LINE
  8
OBRYS
 10
285.276956
 20
385.055612
 11
290.276956
 21
385.055612
  0
LINE
  8
OBRYS
 10
290.276956
 20
460.555612
 11
290.276956
 21
385.055612
  0
LINE
  8
OSA
 10
292.044404
 20
460.555612
 11
262.557324
 21
460.555612
  0
LINE
  8
OBRYS
 10
285.276956
 20
401.039108
 11
285.276956
 21
387.055612
  0
ARC
  8
OBRYS
 10
287.276956
 20
387.055612
 40
2.000000
 50
180.000000
 51
270.000000
  0
LINE
  8
OBRYS
 10
261.276956
 20
400.555612
 11
268.276956
 21
400.555612
  0
ARC
  8
OBRYS
 10
268.276956
 20
402.555612
 40
2.000000
 50
270.000000
 51
360.000000
  0
LINE
  8
OBRYS
 10
261.276956
 20
520.555612
 11
268.276956
 21
520.555612
  0
ARC
  8
OBRYS
 10
268.276956
 20
518.555612
 40
2.000000
 50
0.000000
 51
90.000000
  0
ARC
  8
OBRYS
 10
272.276956
 20
495.555612
 40
2.000000
 50
180.000000
 51
270.000000
  0
ARC
  8
OBRYS
 10
272.276956
 20
431.555612
 40
2.000000
 50
90.000000
 51
180.000000
  0
LINE
  8
OBRYS
 10
279.276956
 20
433.555612
 11
272.276956
 21
433.555612
  0
LINE
  8
OBRYS
 10
272.276956
 20
493.555612
 11
290.276956
 21
493.555612
  0
LINE
  8
OBRYS
 10
262.276956
 20
451.388946
 11
262.276956
 21
469.722279
  0
LINE
  8
OBRYS
 10
261.276956
 20
400.555612
 11
261.276956
 21
451.388946
  0
LINE
  8
OBRYS
 10
261.276956
 20
469.722279
 11
261.276956
 21
520.555612
  0
INSERT
  8
OBRYS
  2
Srouby_s_valcovou_hlavou___9
 62
     7
 10
822.771570
 20
398.039108
  0
ARC
  8
OBRYS
 10
283.276956
 20
402.289108
 40
2.000000
 50
0.000000
 51
90.000000
  0
ARC
  8
OBRYS
 10
283.276956
 20
406.289108
 40
2.000000
 50
180.000000
 51
270.000000
  0
ENDBLK
  8
OBRYS
  0
BLOCK
  8
OBRYS
  2
Srouby_s_valcovou_hlavou___9
 70
   66
 10
822.771570
 20
398.039108
  0
LINE
  8
OBRYS
 10
281.776956
 20
401.789108
 11
281.776956
 21
394.289108
  0
LINE
  8
OBRYS
 10
282.276956
 20
402.289108
 11
285.276956
 21
402.289108
  0
LINE
  8
OBRYS
 10
285.276956
 20
402.289108
 11
285.276956
 21
393.789108
  0
LINE
  8
OBRYS
 10
285.276956
 20
393.789108
 11
282.276956
 21
393.789108
  0
ARC
  8
OBRYS
 10
282.276956
 20
401.789108
 40
0.500000
 50
90.000000
 51
180.000000
  0
ARC
  8
OBRYS
 10
282.276956
 20
394.289108
 40
0.500000
 50
180.000000
 51
270.000000
  0
LINE
  8
OBRYS
 62
     7
  6
DOT
 10
281.776956
 20
400.348523
 11
283.443622
 21
400.348523
  0
LINE
  8
OBRYS
 62
     7
  6
DOT
 10
281.776956
 20
399.193816
 11
283.443622
 21
399.193816
  0
LINE
  8
OBRYS
 62
     7
  6
DOT
 10
281.776956
 20
396.884400
 11
283.443622
 21
396.884400
  0
LINE
  8
OBRYS
 62
     7
  6
DOT
 10
281.776956
 20
395.729692
 11
283.443622
 21
395.729692
  0
ARC
  8
OBRYS
 62
     7
  6
DOT
 10
281.443616
 20
399.771170
 40
0.666673
 50
300.000310
 51
59.999690
  0
ARC
  8
OBRYS
 62
     7
  6
DOT
 10
279.943597
 20
398.039108
 40
2.166692
 50
327.795963
 51
32.204037
  0
ARC
  8
OBRYS
 62
     7
  6
DOT
 10
281.443616
 20
396.307046
 40
0.666673
 50
300.000310
 51
59.999690
  0
ARC
  8
OBRYS
 62
     7
  6
DOT
 10
283.110283
 20
399.771170
 40
0.666673
 50
300.000310
 51
59.999690
  0
ARC
  8
OBRYS
 62
     7
  6
DOT
 10
281.610264
 20
398.039108
 40
2.166692
 50
327.795963
 51
32.204037
  0
ARC
  8
OBRYS
 62
     7
  6
DOT
 10
283.110283
 20
396.307046
 40
0.666673
 50
300.000310
 51
59.999690
  0
LINE
  8
OBRYS
 62
     7
  6
DOT
 10
283.776956
 20
399.771170
 11
284.931664
 21
398.039108
  0
LINE
  8
OBRYS
 62
     7
  6
DOT
 10
284.931664
 20
398.039108
 11
283.776956
 21
396.307046
  0
ENDBLK
  8
OBRYS
  0
BLOCK
  8
OBRYS
  2
_5
 70
   64
 10
313.276967
 20
261.787393
  0
LINE
  8
OBRYS
 10
261.276956
 20
201.787393
 11
261.276956
 21
261.787393
  0
LINE
  8
OBRYS
 10
261.276956
 20
261.787393
 11
261.276956
 21
321.787393
  0
LINE
  8
OBRYS
 10
270.276956
 20
203.787393
 11
270.276956
 21
261.787393
  0
LINE
  8
OBRYS
 10
270.276956
 20
319.787393
 11
270.276956
 21
261.787393
  0
LINE
  8
OSA
 10
292.044404
 20
261.787393
 11
262.557324
 21
261.787393
  0
LINE
  8
OBRYS
 10
261.276956
 20
201.787393
 11
268.276956
 21
201.787393
  0
ARC
  8
OBRYS
 10
268.276956
 20
203.787393
 40
2.000000
 50
270.000000
 51
360.000000
  0
LINE
  8
OBRYS
 10
261.276956
 20
321.787393
 11
268.276956
 21
321.787393
  0
ARC
  8
OBRYS
 10
268.276956
 20
319.787393
 40
2.000000
 50
0.000000
 51
90.000000
  0
LINE
  8
OBRYS
 10
290.276956
 20
298.268155
 11
290.276956
 21
225.306631
  0
ARC
  8
OBRYS
 10
279.776956
 20
226.551602
 40
1.500000
 50
4.876572
 51
90.000000
  0
ARC
  8
OBRYS
 10
282.766096
 20
226.806631
 40
1.500000
 50
184.876572
 51
270.000000
  0
LINE
  8
OBRYS
 10
271.776956
 20
228.051602
 11
279.776956
 21
228.051602
  0
ARC
  8
OBRYS
 10
271.776956
 20
226.551602
 40
1.500000
 50
90.000000
 51
180.000000
  0
ARC
  8
OBRYS
 10
271.776956
 20
297.023183
 40
1.500000
 50
180.000000
 51
270.000000
  0
LINE
  8
OBRYS
 10
271.776956
 20
295.523183
 11
279.776956
 21
295.523183
  0
ARC
  8
OBRYS
 10
282.766096
 20
296.768155
 40
1.500000
 50
90.000000
 51
175.123428
  0
ARC
  8
OBRYS
 10
279.776956
 20
297.023183
 40
1.500000
 50
270.000000
 51
355.123428
  0
LINE
  8
OBRYS
 10
282.766111
 20
225.306631
 11
290.276956
 21
225.306631
  0
LINE
  8
OBRYS
 10
282.766111
 20
298.268155
 11
290.276956
 21
298.268155
  0
LINE
  8
OBRYS
 10
308.276956
 20
298.268155
 11
290.276956
 21
298.268155
  0
LINE
  8
OBRYS
 10
290.276956
 20
298.268155
 11
290.276956
 21
261.787393
  0
LINE
  8
OBRYS
 10
290.276956
 20
261.787393
 11
290.276956
 21
225.306631
  0
LINE
  8
OBRYS
 10
290.276956
 20
225.306631
 11
308.276956
 21
225.306631
  0
LINE
  8
OSA
 10
323.776952
 20
261.787393
 11
282.776959
 21
261.787393
  0
LINE
  8
OBRYS
 10
313.304323
 20
235.287393
 11
313.276967
 21
235.287393
  0
ARC
  8
OBRYS
 10
313.276967
 20
289.287393
 40
1.000000
 50
180.000000
 51
270.000000
  0
ARC
  8
OBRYS
 10
308.276956
 20
229.306631
 40
4.000000
 50
270.000000
 51
354.004934
  0
ARC
  8
OBRYS
 10
313.276967
 20
234.287393
 40
1.000000
 50
90.000000
 51
174.004934
  0
ARC
  8
OBRYS
 10
308.276956
 20
294.268155
 40
4.000000
 50
0.000000
 51
90.000000
  0
LINE
  8
OBRYS
 10
313.276967
 20
261.787393
 11
313.276978
 21
288.287393
  0
LINE
  8
OBRYS
 10
313.304323
 20
235.287393
 11
313.276967
 21
261.787393
  0
LINE
  8
OBRYS
 10
312.276956
 20
294.268155
 11
312.276956
 21
261.787393
  0
LINE
  8
OBRYS
 10
312.276956
 20
261.787393
 11
312.276956
 21
228.888860
  0
ENDBLK
  8
OBRYS
  0
BLOCK
  8
OBRYS
  2
_6
 70
   64
 10
313.276967
 20
616.327158
  0
LINE
  8
OBRYS
 10
290.276956
 20
579.846396
 11
290.276956
 21
652.807920
  0
ARC
  8
OBRYS
 10
268.276956
 20
558.327158
 40
2.000000
 50
270.000000
 51
360.000000
  0
LINE
  8
OBRYS
 10
261.276956
 20
556.327158
 11
268.276956
 21
556.327158
  0
ARC
  8
OBRYS
 10
268.276956
 20
674.327158
 40
2.000000
 50
0.000000
 51
90.000000
  0
LINE
  8
OBRYS
 10
261.276956
 20
676.327158
 11
268.276956
 21
676.327158
  0
LINE
  8
OSA
 10
292.044404
 20
616.327158
 11
262.557324
 21
616.327158
  0
LINE
  8
OBRYS
 10
270.276956
 20
558.327158
 11
270.276956
 21
616.327158
  0
LINE
  8
OBRYS
 10
270.276956
 20
674.327158
 11
270.276956
 21
616.327158
  0
LINE
  8
OBRYS
 10
261.276956
 20
616.327158
 11
261.276956
 21
556.327158
  0
LINE
  8
OBRYS
 10
261.276956
 20
676.327158
 11
261.276956
 21
616.327158
  0
LINE
  8
OBRYS
 10
290.276956
 20
646.762782
 11
286.210413
 21
646.762782
  0
ARC
  8
OBRYS
 10
283.276956
 20
639.843662
 40
2.000000
 50
270.000000
 51
360.000000
  0
ARC
  8
OBRYS
 10
283.276956
 20
635.843662
 40
2.000000
 50
90.000000
 51
180.000000
  0
ARC
  8
OBRYS
 10
287.276956
 20
650.807920
 40
2.000000
 50
90.000000
 51
180.000000
  0
LINE
  8
OBRYS
 10
285.276956
 20
650.807920
 11
285.276956
 21
581.846396
  0
ARC
  8
OBRYS
 10
287.276956
 20
581.846396
 40
2.000000
 50
180.000000
 51
270.000000
  0
ARC
  8
OBRYS
 10
283.276956
 20
596.810653
 40
2.000000
 50
180.000000
 51
270.000000
  0
ARC
  8
OBRYS
 10
283.276956
 20
592.810653
 40
2.000000
 50
0.000000
 51
90.000000
  0
LINE
  8
OBRYS
 10
290.276956
 20
585.891534
 11
286.210413
 21
585.891534
  0
LINE
  8
OSA
 10
287.680520
 20
589.810653
 11
277.276956
 21
589.810653
  0
INSERT
  8
OBRYS
  2
Srouby_s_valcovou_hlavou___11
 62
     7
 10
285.276956
 20
589.810653
  0
INSERT
  8
OBRYS
  2
Srouby_s_valcovou_hlavou___12
 62
     7
 10
285.276956
 20
642.843662
  0
LINE
  8
OSA
 10
287.680520
 20
642.843662
 11
277.276956
 21
642.843662
  0
ARC
  8
OBRYS
 10
279.776956
 20
581.091367
 40
1.500000
 50
4.876572
 51
90.000000
  0
ARC
  8
OBRYS
 10
282.766096
 20
581.346396
 40
1.500000
 50
184.876572
 51
270.000000
  0
LINE
  8
OBRYS
 10
271.776956
 20
582.591367
 11
279.776956
 21
582.591367
  0
ARC
  8
OBRYS
 10
271.776956
 20
581.091367
 40
1.500000
 50
90.000000
 51
180.000000
  0
ARC
  8
OBRYS
 10
271.776956
 20
651.562948
 40
1.500000
 50
180.000000
 51
270.000000
  0
LINE
  8
OBRYS
 10
271.776956
 20
650.062948
 11
279.776956
 21
650.062948
  0
ARC
  8
OBRYS
 10
282.766096
 20
651.307920
 40
1.500000
 50
90.000000
 51
175.123428
  0
ARC
  8
OBRYS
 10
279.776956
 20
651.562948
 40
1.500000
 50
270.000000
 51
355.123428
  0
LINE
  8
OBRYS
 10
281.276956
 20
651.127751
 11
281.276956
 21
581.526564
  0
LINE
  8
OBRYS
 10
282.766079
 20
579.846396
 11
290.276956
 21
579.846396
  0
LINE
  8
OBRYS
 10
282.766081
 20
652.807920
 11
290.276956
 21
652.807920
  0
LINE
  8
OBRYS
 10
290.276956
 20
585.891534
 11
308.276957
 21
585.891534
  0
LINE
  8
OBRYS
 10
290.276956
 20
646.762782
 11
308.276957
 21
646.762782
  0
LINE
  8
OBRYS
 10
312.276956
 20
616.327158
 11
312.276956
 21
649.225691
  0
LINE
  8
OBRYS
 10
312.276956
 20
583.846396
 11
312.276956
 21
616.327158
  0
LINE
  8
OBRYS
 10
313.276967
 20
642.826784
 11
313.276967
 21
616.327158
  0
LINE
  8
OBRYS
 10
313.276967
 20
616.327158
 11
313.276978
 21
589.827158
  0
ARC
  8
OBRYS
 10
308.276956
 20
583.846396
 40
4.000000
 50
270.000000
 51
360.000000
  0
ARC
  8
OBRYS
 10
313.249610
 20
643.826784
 40
1.000000
 50
185.995066
 51
270.000000
  0
ARC
  8
OBRYS
 10
308.276956
 20
648.807920
 40
4.000000
 50
5.995066
 51
90.000000
  0
ARC
  8
OBRYS
 10
313.276967
 20
588.827158
 40
1.000000
 50
90.000000
 51
180.000000
  0
LINE
  8
OBRYS
 10
313.276967
 20
642.826784
 11
313.249610
 21
642.826784
  0
LINE
  8
OSA
 10
323.776952
 20
616.327158
 11
282.776959
 21
616.327158
  0
LINE
  8
OBRYS
 10
290.276956
 20
652.807920
 11
308.276956
 21
652.807920
  0
LINE
  8
OBRYS
 10
290.276956
 20
616.327158
 11
290.276956
 21
652.807920
  0
LINE
  8
OBRYS
 10
290.276956
 20
579.846396
 11
290.276956
 21
616.327158
  0
LINE
  8
OBRYS
 10
308.276956
 20
579.846396
 11
290.276956
 21
579.846396
  0
ENDBLK
  8
OBRYS
  0
BLOCK
  8
OBRYS
  2
Srouby_s_valcovou_hlavou___11
 70
   66
 10
285.276956
 20
589.810653
  0
LINE
  8
OBRYS
 10
281.776956
 20
586.060653
 11
281.776956
 21
593.560653
  0
LINE
  8
OBRYS
 10
282.276956
 20
585.560653
 11
285.276956
 21
585.560653
  0
LINE
  8
OBRYS
 10
285.276956
 20
585.560653
 11
285.276956
 21
594.060653
  0
LINE
  8
OBRYS
 10
285.276956
 20
594.060653
 11
282.276956
 21
594.060653
  0
ARC
  8
OBRYS
 10
282.276956
 20
586.060653
 40
0.500000
 50
180.000000
 51
270.000000
  0
ARC
  8
OBRYS
 10
282.276956
 20
593.560653
 40
0.500000
 50
90.000000
 51
180.000000
  0
LINE
  8
OBRYS
 62
     7
  6
DOT
 10
281.776956
 20
587.501238
 11
283.443622
 21
587.501238
  0
LINE
  8
OBRYS
 62
     7
  6
DOT
 10
281.776956
 20
588.655946
 11
283.443622
 21
588.655946
  0
LINE
  8
OBRYS
 62
     7
  6
DOT
 10
281.776956
 20
590.965361
 11
283.443622
 21
590.965361
  0
LINE
  8
OBRYS
 62
     7
  6
DOT
 10
281.776956
 20
592.120069
 11
283.443622
 21
592.120069
  0
ARC
  8
OBRYS
 62
     7
  6
DOT
 10
281.443616
 20
588.078592
 40
0.666673
 50
300.000310
 51
59.999690
  0
ARC
  8
OBRYS
 62
     7
  6
DOT
 10
279.943597
 20
589.810653
 40
2.166692
 50
327.795963
 51
32.204037
  0
ARC
  8
OBRYS
 62
     7
  6
DOT
 10
281.443616
 20
591.542715
 40
0.666673
 50
300.000310
 51
59.999690
  0
ARC
  8
OBRYS
 62
     7
  6
DOT
 10
283.110283
 20
588.078592
 40
0.666673
 50
300.000310
 51
59.999690
  0
ARC
  8
OBRYS
 62
     7
  6
DOT
 10
281.610264
 20
589.810653
 40
2.166692
 50
327.795963
 51
32.204037
  0
ARC
  8
OBRYS
 62
     7
  6
DOT
 10
283.110283
 20
591.542715
 40
0.666673
 50
300.000310
 51
59.999690
  0
LINE
  8
OBRYS
 62
     7
  6
DOT
 10
283.776956
 20
588.078592
 11
284.931664
 21
589.810653
  0
LINE
  8
OBRYS
 62
     7
  6
DOT
 10
284.931664
 20
589.810653
 11
283.776956
 21
591.542715
  0
ENDBLK
  8
OBRYS
  0
BLOCK
  8
OBRYS
  2
Srouby_s_valcovou_hlavou___12
 70
   66
 10
285.276956
 20
642.843662
  0
LINE
  8
OBRYS
 10
281.776956
 20
646.593662
 11
281.776956
 21
639.093662
  0
LINE
  8
OBRYS
 10
282.276956
 20
647.093662
 11
285.276956
 21
647.093662
  0
LINE
  8
OBRYS
 10
285.276956
 20
647.093662
 11
285.276956
 21
638.593662
  0
LINE
  8
OBRYS
 10
285.276956
 20
638.593662
 11
282.276956
 21
638.593662
  0
ARC
  8
OBRYS
 10
282.276956
 20
646.593662
 40
0.500000
 50
90.000000
 51
180.000000
  0
ARC
  8
OBRYS
 10
282.276956
 20
639.093662
 40
0.500000
 50
180.000000
 51
270.000000
  0
LINE
  8
OBRYS
 62
     7
  6
DOT
 10
281.776956
 20
645.153078
 11
283.443622
 21
645.153078
  0
LINE
  8
OBRYS
 62
     7
  6
DOT
 10
281.776956
 20
643.998370
 11
283.443622
 21
643.998370
  0
LINE
  8
OBRYS
 62
     7
  6
DOT
 10
281.776956
 20
641.688954
 11
283.443622
 21
641.688954
  0
LINE
  8
OBRYS
 62
     7
  6
DOT
 10
281.776956
 20
640.534247
 11
283.443622
 21
640.534247
  0
ARC
  8
OBRYS
 62
     7
  6
DOT
 10
281.443616
 20
644.575724
 40
0.666673
 50
300.000310
 51
59.999690
  0
ARC
  8
OBRYS
 62
     7
  6
DOT
 10
279.943597
 20
642.843662
 40
2.166692
 50
327.795963
 51
32.204037
  0
ARC
  8
OBRYS
 62
     7
  6
DOT
 10
281.443616
 20
641.111600
 40
0.666673
 50
300.000310
 51
59.999690
  0
ARC
  8
OBRYS
 62
     7
  6
DOT
 10
283.110283
 20
644.575724
 40
0.666673
 50
300.000310
 51
59.999690
  0
ARC
  8
OBRYS
 62
     7
  6
DOT
 10
281.610264
 20
642.843662
 40
2.166692
 50
327.795963
 51
32.204037
  0
ARC
  8
OBRYS
 62
     7
  6
DOT
 10
283.110283
 20
641.111600
 40
0.666673
 50
300.000310
 51
59.999690
  0
LINE
  8
OBRYS
 62
     7
  6
DOT
 10
283.776956
 20
644.575724
 11
284.931664
 21
642.843662
  0
LINE
  8
OBRYS
 62
     7
  6
DOT
 10
284.931664
 20
642.843662
 11
283.776956
 21
641.111600
  0
ENDBLK
  8
OBRYS
  0
BLOCK
  8
OBRYS
  2
_7
 70
   64
 10
364.276967
 20
588.327158
  0
ARC
  8
OBRYS
 10
383.276967
 20
568.327158
 40
2.000000
 50
180.000000
 51
270.000000
  0
LINE
  8
OBRYS
 10
381.276967
 20
568.327158
 11
381.276967
 21
588.327158
  0
LINE
  8
OBRYS
 10
408.276967
 20
566.327158
 11
383.276967
 21
566.327158
  0
LINE
  8
OBRYS
 10
412.276967
 20
588.327158
 11
364.276967
 21
588.327158
  0
LINE
  8
OBRYS
 10
381.276967
 20
583.327158
 11
364.276967
 21
583.327158
  0
LINE
  8
OBRYS
 62
     7
  6
DASHDOT
 10
399.276967
 20
574.327158
 11
399.276967
 21
582.977158
  0
LINE
  8
OBRYS
 62
     7
  6
DASHDOT
 10
399.276967
 20
574.327158
 11
399.276967
 21
565.677158
  0
LINE
  8
OBRYS
 62
     7
  6
DASHDOT
 10
399.276967
 20
574.327158
 11
407.926967
 21
574.327158
  0
LINE
  8
OBRYS
 62
     7
  6
DASHDOT
 10
399.276967
 20
574.327158
 11
390.626967
 21
574.327158
  0
CIRCLE
  8
OBRYS
 10
399.276967
 20
574.327158
 40
3.650000
  0
ARC
  8
OBRYS
 10
408.276967
 20
570.327158
 40
4.000000
 50
270.000000
 51
360.000000
  0
LINE
  8
OBRYS
 10
412.276967
 20
588.327158
 11
412.276967
 21
570.327158
  0
LINE
  8
OBRYS
 10
381.276967
 20
575.327158
 11
364.276967
 21
575.327158
  0
LINE
  8
OBRYS
 10
347.276967
 20
575.327158
 11
364.276967
 21
575.327158
  0
LINE
  8
OBRYS
 10
316.276967
 20
588.327158
 11
316.276967
 21
570.327158
  0
ARC
  8
OBRYS
 10
320.276967
 20
570.327158
 40
4.000000
 50
180.000000
 51
270.000000
  0
CIRCLE
  8
OBRYS
 10
329.276967
 20
574.327158
 40
3.650000
  0
LINE
  8
OBRYS
 62
     7
  6
DASHDOT
 10
329.276967
 20
574.327158
 11
337.926967
 21
574.327158
  0
LINE
  8
OBRYS
 62
     7
  6
DASHDOT
 10
329.276967
 20
574.327158
 11
320.626967
 21
574.327158
  0
LINE
  8
OBRYS
 62
     7
  6
DASHDOT
 10
329.276967
 20
574.327158
 11
329.276967
 21
565.677158
  0
LINE
  8
OBRYS
 62
     7
  6
DASHDOT
 10
329.276967
 20
574.327158
 11
329.276967
 21
582.977158
  0
LINE
  8
OBRYS
 10
347.276967
 20
583.327158
 11
364.276967
 21
583.327158
  0
LINE
  8
OBRYS
 10
316.276967
 20
588.327158
 11
364.276967
 21
588.327158
  0
LINE
  8
OBRYS
 62
     7
  6
DASHDOT
 10
364.276967
 20
593.327158
 11
364.276967
 21
567.951641
  0
LINE
  8
OBRYS
 10
320.276967
 20
566.327158
 11
345.276967
 21
566.327158
  0
LINE
  8
OBRYS
 10
347.276967
 20
568.327158
 11
347.276967
 21
588.327158
  0
ARC
  8
OBRYS
 10
345.276967
 20
568.327158
 40
2.000000
 50
270.000000
 51
360.000000
  0
ENDBLK
  8
OBRYS
  0
BLOCK
  8
OBRYS
  2
_8
 70
   64
 10
364.276967
 20
644.327158
  0
ARC
  8
OBRYS
 10
383.276967
 20
664.327158
 40
2.000000
 50
90.000000
 51
180.000000
  0
LINE
  8
OBRYS
 10
381.276967
 20
664.327158
 11
381.276967
 21
644.327158
  0
LINE
  8
OBRYS
 10
408.276967
 20
666.327158
 11
383.276967
 21
666.327158
  0
LINE
  8
OBRYS
 10
412.276967
 20
644.327158
 11
364.276967
 21
644.327158
  0
LINE
  8
OBRYS
 10
381.276967
 20
649.327158
 11
364.276967
 21
649.327158
  0
LINE
  8
OBRYS
 62
     7
  6
DASHDOT
 10
399.276967
 20
658.327158
 11
399.276967
 21
649.677158
  0
LINE
  8
OBRYS
 62
     7
  6
DASHDOT
 10
399.276967
 20
658.327158
 11
399.276967
 21
666.977158
  0
LINE
  8
OBRYS
 62
     7
  6
DASHDOT
 10
399.276967
 20
658.327158
 11
407.926967
 21
658.327158
  0
LINE
  8
OBRYS
 62
     7
  6
DASHDOT
 10
399.276967
 20
658.327158
 11
390.626967
 21
658.327158
  0
CIRCLE
  8
OBRYS
 10
399.276967
 20
658.327158
 40
3.650000
  0
ARC
  8
OBRYS
 10
408.276967
 20
662.327158
 40
4.000000
 50
0.000000
 51
90.000000
  0
LINE
  8
OBRYS
 10
412.276967
 20
644.327158
 11
412.276967
 21
662.327158
  0
LINE
  8
OBRYS
 10
381.276967
 20
657.327158
 11
364.276967
 21
657.327158
  0
LINE
  8
OBRYS
 10
347.276967
 20
657.327158
 11
364.276967
 21
657.327158
  0
LINE
  8
OBRYS
 10
316.276967
 20
644.327158
 11
316.276967
 21
662.327158
  0
ARC
  8
OBRYS
 10
320.276967
 20
662.327158
 40
4.000000
 50
90.000000
 51
180.000000
  0
CIRCLE
  8
OBRYS
 10
329.276967
 20
658.327158
 40
3.650000
  0
LINE
  8
OBRYS
 62
     7
  6
DASHDOT
 10
329.276967
 20
658.327158
 11
337.926967
 21
658.327158
  0
LINE
  8
OBRYS
 62
     7
  6
DASHDOT
 10
329.276967
 20
658.327158
 11
320.626967
 21
658.327158
  0
LINE
  8
OBRYS
 62
     7
  6
DASHDOT
 10
329.276967
 20
658.327158
 11
329.276967
 21
666.977158
  0
LINE
  8
OBRYS
 62
     7
  6
DASHDOT
 10
329.276967
 20
658.327158
 11
329.276967
 21
649.677158
  0
LINE
  8
OBRYS
 10
347.276967
 20
649.327158
 11
364.276967
 21
649.327158
  0
LINE
  8
OBRYS
 10
316.276967
 20
644.327158
 11
364.276967
 21
644.327158
  0
LINE
  8
OBRYS
 62
     7
  6
DASHDOT
 10
364.276967
 20
639.327158
 11
364.276967
 21
664.702674
  0
LINE
  8
OBRYS
 10
320.276967
 20
666.327158
 11
345.276967
 21
666.327158
  0
LINE
  8
OBRYS
 10
347.276967
 20
664.327158
 11
347.276967
 21
644.327158
  0
ARC
  8
OBRYS
 10
345.276967
 20
664.327158
 40
2.000000
 50
0.000000
 51
90.000000
  0
ENDBLK
  8
OBRYS
  0
BLOCK
  8
OBRYS
  2
_9
 70
   64
 10
364.276967
 20
228.787393
  0
ARC
  8
OBRYS
 10
387.276967
 20
213.787393
 40
2.000000
 50
180.000000
 51
270.000000
  0
LINE
  8
OBRYS
 10
385.276967
 20
213.787393
 11
385.276967
 21
220.787393
  0
ARC
  8
OBRYS
 10
341.276967
 20
213.787393
 40
2.000000
 50
270.000000
 51
360.000000
  0
LINE
  8
OBRYS
 10
343.276967
 20
213.787393
 11
343.276967
 21
220.787393
  0
LINE
  8
OBRYS
 10
316.276967
 20
215.787393
 11
316.276967
 21
227.787390
  0
LINE
  8
OBRYS
 10
412.276967
 20
215.787393
 11
412.276967
 21
227.787390
  0
LINE
  8
OBRYS
 10
347.276967
 20
213.787393
 11
347.276967
 21
220.787393
  0
LINE
  8
OBRYS
 10
381.276967
 20
213.787393
 11
381.276967
 21
220.787393
  0
ARC
  8
OBRYS
 10
383.276967
 20
213.787393
 40
2.000000
 50
180.000000
 51
270.000000
  0
LINE
  8
OBRYS
 10
408.276967
 20
211.787393
 11
383.276967
 21
211.787393
  0
LINE
  8
OBRYS
 62
     7
  6
DASHDOT
 10
399.276967
 20
219.787393
 11
399.276967
 21
223.437393
  0
LINE
  8
OBRYS
 62
     7
  6
DASHDOT
 10
399.276967
 20
219.787393
 11
399.276967
 21
211.137393
  0
LINE
  8
OBRYS
 62
     7
  6
DASHDOT
 10
399.276967
 20
219.787393
 11
407.926967
 21
219.787393
  0
LINE
  8
OBRYS
 62
     7
  6
DASHDOT
 10
399.276967
 20
219.787393
 11
390.626967
 21
219.787393
  0
ARC
  8
OBRYS
 10
408.276967
 20
215.787393
 40
4.000000
 50
270.000000
 51
360.000000
  0
ARC
  8
OBRYS
 10
320.276967
 20
215.787393
 40
4.000000
 50
180.000000
 51
270.000000
  0
LINE
  8
OBRYS
 62
     7
  6
DASHDOT
 10
329.276967
 20
219.787393
 11
337.926967
 21
219.787393
  0
LINE
  8
OBRYS
 62
     7
  6
DASHDOT
 10
329.276967
 20
219.787393
 11
320.626967
 21
219.787393
  0
LINE
  8
OBRYS
 62
     7
  6
DASHDOT
 10
329.276967
 20
219.787393
 11
329.276967
 21
211.137393
  0
LINE
  8
OBRYS
 62
     7
  6
DASHDOT
 10
329.276967
 20
219.787393
 11
329.276967
 21
223.437393
  0
LINE
  8
OBRYS
 10
320.276967
 20
211.787393
 11
345.276967
 21
211.787393
  0
ARC
  8
OBRYS
 10
345.276967
 20
213.787393
 40
2.000000
 50
270.000000
 51
360.000000
  0
ARC
  8
OBRYS
 10
335.747139
 20
224.819634
 40
3.000000
 50
181.379849
 51
227.001233
  0
LINE
  8
OBRYS
 10
332.748009
 20
224.747393
 11
361.474245
 21
224.747393
  0
ARC
  8
OBRYS
 10
333.747139
 20
224.882459
 40
1.000000
 50
187.762453
 51
227.001233
  0
ARC
  8
OBRYS
 10
332.918712
 20
224.819634
 40
3.000000
 50
181.379849
 51
227.001233
  0
LINE
  8
OBRYS
 10
317.254019
 20
224.747393
 11
329.919582
 21
224.747393
  0
LINE
  8
OBRYS
 10
336.096267
 20
221.324656
 11
333.065156
 21
224.151091
  0
LINE
  8
OBRYS
 10
330.559947
 20
223.515159
 11
332.747139
 21
223.515159
  0
LINE
  8
OBRYS
 10
335.096267
 20
221.324656
 11
333.701191
 21
222.625529
  0
LINE
  8
OBRYS
 10
332.267840
 20
221.324656
 11
330.872764
 21
222.625529
  0
ARC
  8
OBRYS
 10
337.460232
 20
222.787393
 40
2.000000
 50
227.001233
 51
270.000000
  0
ARC
  8
OBRYS
 10
336.460232
 20
222.787393
 40
2.000000
 50
227.001233
 51
270.000000
  0
ARC
  8
OBRYS
 10
333.631805
 20
222.787393
 40
2.000000
 50
227.001233
 51
270.000000
  0
ARC
  8
OBRYS
 10
320.710625
 20
222.787393
 40
2.000000
 50
234.246113
 51
270.000000
  0
LINE
  8
OBRYS
 10
320.710625
 20
220.787393
 11
364.276967
 21
220.787393
  0
LINE
  8
OBRYS
 10
319.542015
 20
221.164324
 11
317.108357
 21
222.916558
  0
ARC
  8
OBRYS
 10
318.276967
 20
224.539626
 40
2.000000
 50
180.000000
 51
234.246113
  0
ARC
  8
OBRYS
 10
322.422061
 20
222.787393
 40
2.000000
 50
234.246113
 51
270.000000
  0
LINE
  8
OBRYS
 10
321.253451
 20
221.164324
 11
317.108357
 21
224.148792
  0
ARC
  8
OBRYS
 10
318.276967
 20
225.771860
 40
2.000000
 50
180.000000
 51
234.246113
  0
ARC
  8
OBRYS
 10
317.276967
 20
227.787393
 40
1.000000
 50
90.000000
 51
180.000000
  0
LINE
  8
OBRYS
 10
364.276967
 20
228.787393
 11
317.276967
 21
228.787393
  0
LINE
  8
OBRYS
 62
     7
  6
DASHDOT
 10
364.276967
 20
218.478455
 11
364.276967
 21
235.307393
  0
LINE
  8
OBRYS
 62
     7
  6
DASHDOT
 10
364.276967
 20
218.478455
 11
364.276967
 21
235.307393
  0
LINE
  8
OBRYS
 10
364.276967
 20
228.787393
 11
411.276967
 21
228.787393
  0
ARC
  8
OBRYS
 10
411.276967
 20
227.787393
 40
1.000000
 50
0.000000
 51
90.000000
  0
ARC
  8
OBRYS
 10
410.276967
 20
225.771860
 40
2.000000
 50
305.753887
 51
360.000000
  0
LINE
  8
OBRYS
 10
407.300483
 20
221.164324
 11
411.445576
 21
224.148792
  0
ARC
  8
OBRYS
 10
406.131873
 20
222.787393
 40
2.000000
 50
270.000000
 51
305.753887
  0
ARC
  8
OBRYS
 10
410.276967
 20
224.539626
 40
2.000000
 50
305.753887
 51
360.000000
  0
LINE
  8
OBRYS
 10
409.011918
 20
221.164324
 11
411.445576
 21
222.916558
  0
LINE
  8
OBRYS
 10
407.843309
 20
220.787393
 11
364.276967
 21
220.787393
  0
ARC
  8
OBRYS
 10
407.843309
 20
222.787393
 40
2.000000
 50
270.000000
 51
305.753887
  0
ARC
  8
OBRYS
 10
394.922128
 20
222.787393
 40
2.000000
 50
270.000000
 51
312.998767
  0
ARC
  8
OBRYS
 10
392.093701
 20
222.787393
 40
2.000000
 50
270.000000
 51
312.998767
  0
ARC
  8
OBRYS
 10
391.093701
 20
222.787393
 40
2.000000
 50
270.000000
 51
312.998767
  0
LINE
  8
OBRYS
 10
366.276962
 20
224.747393
 11
366.276962
 21
220.787393
  0
LINE
  8
OBRYS
 10
362.276962
 20
224.747393
 11
362.276962
 21
220.787393
  0
LINE
  8
OBRYS
 10
396.286094
 20
221.324656
 11
397.681170
 21
222.625529
  0
LINE
  8
OBRYS
 10
393.457667
 20
221.324656
 11
394.852743
 21
222.625529
  0
LINE
  8
OBRYS
 10
397.993986
 20
223.515159
 11
395.806795
 21
223.515159
  0
LINE
  8
OBRYS
 10
392.457667
 20
221.324656
 11
395.488777
 21
224.151091
  0
LINE
  8
OBRYS
 10
411.299914
 20
224.747393
 11
398.634352
 21
224.747393
  0
ARC
  8
OBRYS
 10
395.635222
 20
224.819634
 40
3.000000
 50
312.998767
 51
358.620151
  0
ARC
  8
OBRYS
 10
394.806795
 20
224.882459
 40
1.000000
 50
312.998767
 51
352.237547
  0
LINE
  8
OBRYS
 10
395.805925
 20
224.747393
 11
367.079689
 21
224.747393
  0
ARC
  8
OBRYS
 10
392.806795
 20
224.819634
 40
3.000000
 50
312.998767
 51
358.620151
  0
LINE
  8
OBRYS
 10
365.894083
 20
223.515159
 11
362.656290
 21
223.515159
  0
ARC
  8
OBRYS
 10
329.276967
 20
219.787393
 40
3.650000
 50
164.099203
 51
15.900797
  0
ARC
  8
OBRYS
 10
399.276967
 20
219.787393
 40
3.650000
 50
164.099203
 51
15.900797
  0
ENDBLK
  8
OBRYS
  0
BLOCK
  8
OBRYS
  2
_10
 70
   64
 10
364.276967
 20
294.787393
  0
ARC
  8
OBRYS
 10
387.276967
 20
309.787393
 40
2.000000
 50
90.000000
 51
180.000000
  0
LINE
  8
OBRYS
 10
385.276967
 20
309.787393
 11
385.276967
 21
302.787393
  0
ARC
  8
OBRYS
 10
341.276967
 20
309.787393
 40
2.000000
 50
0.000000
 51
90.000000
  0
LINE
  8
OBRYS
 10
343.276967
 20
309.787393
 11
343.276967
 21
302.787393
  0
LINE
  8
OBRYS
 10
316.276967
 20
307.787393
 11
316.276967
 21
295.787395
  0
LINE
  8
OBRYS
 10
412.276967
 20
307.787393
 11
412.276967
 21
295.787395
  0
LINE
  8
OBRYS
 10
347.276967
 20
309.787393
 11
347.276967
 21
302.787393
  0
LINE
  8
OBRYS
 10
381.276967
 20
309.787393
 11
381.276967
 21
302.787393
  0
ARC
  8
OBRYS
 10
383.276967
 20
309.787393
 40
2.000000
 50
90.000000
 51
180.000000
  0
LINE
  8
OBRYS
 10
408.276967
 20
311.787393
 11
383.276967
 21
311.787393
  0
LINE
  8
OBRYS
 62
     7
  6
DASHDOT
 10
399.276967
 20
303.787393
 11
399.276967
 21
300.137393
  0
LINE
  8
OBRYS
 62
     7
  6
DASHDOT
 10
399.276967
 20
303.787393
 11
399.276967
 21
312.437393
  0
LINE
  8
OBRYS
 62
     7
  6
DASHDOT
 10
399.276967
 20
303.787393
 11
407.926967
 21
303.787393
  0
LINE
  8
OBRYS
 62
     7
  6
DASHDOT
 10
399.276967
 20
303.787393
 11
390.626967
 21
303.787393
  0
ARC
  8
OBRYS
 10
408.276967
 20
307.787393
 40
4.000000
 50
0.000000
 51
90.000000
  0
ARC
  8
OBRYS
 10
320.276967
 20
307.787393
 40
4.000000
 50
90.000000
 51
180.000000
  0
LINE
  8
OBRYS
 62
     7
  6
DASHDOT
 10
329.276967
 20
303.787393
 11
337.926967
 21
303.787393
  0
LINE
  8
OBRYS
 62
     7
  6
DASHDOT
 10
329.276967
 20
303.787393
 11
320.626967
 21
303.787393
  0
LINE
  8
OBRYS
 62
     7
  6
DASHDOT
 10
329.276967
 20
303.787393
 11
329.276967
 21
312.437393
  0
LINE
  8
OBRYS
 62
     7
  6
DASHDOT
 10
329.276967
 20
303.787393
 11
329.276967
 21
300.137393
  0
LINE
  8
OBRYS
 10
320.276967
 20
311.787393
 11
345.276967
 21
311.787393
  0
ARC
  8
OBRYS
 10
345.276967
 20
309.787393
 40
2.000000
 50
0.000000
 51
90.000000
  0
ARC
  8
OBRYS
 10
335.747139
 20
298.755151
 40
3.000000
 50
132.998767
 51
178.620151
  0
LINE
  8
OBRYS
 10
332.748009
 20
298.827393
 11
361.474245
 21
298.827393
  0
ARC
  8
OBRYS
 10
333.747139
 20
298.692326
 40
1.000000
 50
132.998767
 51
172.237547
  0
ARC
  8
OBRYS
 10
332.918712
 20
298.755151
 40
3.000000
 50
132.998767
 51
178.620151
  0
LINE
  8
OBRYS
 10
317.254019
 20
298.827393
 11
329.919582
 21
298.827393
  0
LINE
  8
OBRYS
 10
336.096267
 20
302.250129
 11
333.065156
 21
299.423695
  0
LINE
  8
OBRYS
 10
330.559947
 20
300.059626
 11
332.747139
 21
300.059626
  0
LINE
  8
OBRYS
 10
335.096267
 20
302.250129
 11
333.701191
 21
300.949256
  0
LINE
  8
OBRYS
 10
332.267840
 20
302.250129
 11
330.872764
 21
300.949256
  0
ARC
  8
OBRYS
 10
337.460232
 20
300.787393
 40
2.000000
 50
90.000000
 51
132.998767
  0
ARC
  8
OBRYS
 10
336.460232
 20
300.787393
 40
2.000000
 50
90.000000
 51
132.998767
  0
ARC
  8
OBRYS
 10
333.631805
 20
300.787393
 40
2.000000
 50
90.000000
 51
132.998767
  0
ARC
  8
OBRYS
 10
320.710625
 20
300.787393
 40
2.000000
 50
90.000000
 51
125.753887
  0
LINE
  8
OBRYS
 10
320.710625
 20
302.787393
 11
364.276967
 21
302.787393
  0
LINE
  8
OBRYS
 10
319.542015
 20
302.410461
 11
317.108357
 21
300.658228
  0
ARC
  8
OBRYS
 10
318.276967
 20
299.035159
 40
2.000000
 50
125.753887
 51
180.000000
  0
ARC
  8
OBRYS
 10
322.422061
 20
300.787393
 40
2.000000
 50
90.000000
 51
125.753887
  0
LINE
  8
OBRYS
 10
321.253451
 20
302.410461
 11
317.108357
 21
299.425994
  0
ARC
  8
OBRYS
 10
318.276967
 20
297.802925
 40
2.000000
 50
125.753887
 51
180.000000
  0
ARC
  8
OBRYS
 10
317.276967
 20
295.787393
 40
1.000000
 50
180.000000
 51
270.000000
  0
LINE
  8
OBRYS
 10
364.276967
 20
294.787393
 11
317.276967
 21
294.787393
  0
LINE
  8
OBRYS
 62
     7
  6
DASHDOT
 10
364.276967
 20
305.096331
 11
364.276967
 21
288.267393
  0
LINE
  8
OBRYS
 62
     7
  6
DASHDOT
 10
364.276967
 20
305.096331
 11
364.276967
 21
288.267393
  0
LINE
  8
OBRYS
 10
364.276967
 20
294.787393
 11
411.276967
 21
294.787393
  0
ARC
  8
OBRYS
 10
411.276967
 20
295.787393
 40
1.000000
 50
270.000000
 51
360.000000
  0
ARC
  8
OBRYS
 10
410.276967
 20
297.802925
 40
2.000000
 50
0.000000
 51
54.246113
  0
LINE
  8
OBRYS
 10
407.300483
 20
302.410461
 11
411.445576
 21
299.425994
  0
ARC
  8
OBRYS
 10
406.131873
 20
300.787393
 40
2.000000
 50
54.246113
 51
90.000000
  0
ARC
  8
OBRYS
 10
410.276967
 20
299.035159
 40
2.000000
 50
0.000000
 51
54.246113
  0
LINE
  8
OBRYS
 10
409.011918
 20
302.410461
 11
411.445576
 21
300.658228
  0
LINE
  8
OBRYS
 10
407.843309
 20
302.787393
 11
364.276967
 21
302.787393
  0
ARC
  8
OBRYS
 10
407.843309
 20
300.787393
 40
2.000000
 50
54.246113
 51
90.000000
  0
ARC
  8
OBRYS
 10
394.922128
 20
300.787393
 40
2.000000
 50
47.001233
 51
90.000000
  0
ARC
  8
OBRYS
 10
392.093701
 20
300.787393
 40
2.000000
 50
47.001233
 51
90.000000
  0
ARC
  8
OBRYS
 10
391.093701
 20
300.787393
 40
2.000000
 50
47.001233
 51
90.000000
  0
LINE
  8
OBRYS
 10
366.276962
 20
298.827393
 11
366.276962
 21
302.787393
  0
LINE
  8
OBRYS
 10
362.276962
 20
298.827393
 11
362.276962
 21
302.787393
  0
LINE
  8
OBRYS
 10
396.286094
 20
302.250129
 11
397.681170
 21
300.949256
  0
LINE
  8
OBRYS
 10
393.457667
 20
302.250129
 11
394.852743
 21
300.949256
  0
LINE
  8
OBRYS
 10
397.993986
 20
300.059626
 11
395.806795
 21
300.059626
  0
LINE
  8
OBRYS
 10
392.457667
 20
302.250129
 11
395.488777
 21
299.423695
  0
LINE
  8
OBRYS
 10
411.299914
 20
298.827393
 11
398.634352
 21
298.827393
  0
ARC
  8
OBRYS
 10
395.635222
 20
298.755151
 40
3.000000
 50
1.379849
 51
47.001233
  0
ARC
  8
OBRYS
 10
394.806795
 20
298.692326
 40
1.000000
 50
7.762453
 51
47.001233
  0
LINE
  8
OBRYS
 10
395.805925
 20
298.827393
 11
367.079689
 21
298.827393
  0
ARC
  8
OBRYS
 10
392.806795
 20
298.755151
 40
3.000000
 50
1.379849
 51
47.001233
  0
LINE
  8
OBRYS
 10
365.894083
 20
300.059626
 11
362.656290
 21
300.059626
  0
ARC
  8
OBRYS
 10
329.276967
 20
303.787393
 40
3.650000
 50
344.099203
 51
195.900797
  0
ARC
  8
OBRYS
 10
399.276967
 20
303.787393
 40
3.650000
 50
344.099203
 51
195.900797
  0
ENDBLK
  8
OBRYS
  0
BLOCK
  8
OBRYS
  2
_11
 70
   64
 10
364.276967
 20
464.555612
  0
LINE
  8
OSA
 10
364.276967
 20
464.555612
 11
414.484840
 21
464.555612
  0
ARC
  8
OBRYS
 10
364.276967
 20
464.555612
 40
55.000000
 50
251.995547
 51
288.004453
  0
INSERT
  8
OBRYS
  2
__14
 62
     7
 10
362.742691
 20
411.055612
  0
ARC
  8
OBRYS
 10
277.277084
 20
464.422331
 40
60.000000
 50
354.868303
 51
5.387322
  0
ARC
  8
OBRYS
 10
451.276850
 20
464.688893
 40
60.000000
 50
174.868303
 51
185.387322
  0
ARC
  8
OBRYS
 10
364.410248
 20
377.555729
 40
60.000000
 50
84.868303
 51
95.387322
  0
ARC
  8
OBRYS
 10
364.143686
 20
551.555495
 40
60.000000
 50
264.868303
 51
275.387322
  0
LINE
  8
OSA
 10
364.276967
 20
464.555612
 11
364.276967
 21
516.564716
  0
LINE
  8
OSA
 10
364.276967
 20
464.555612
 11
314.069093
 21
464.555612
  0
ARC
  8
OBRYS
 10
399.276967
 20
414.055612
 40
5.500000
 50
0.000496
 51
180.000496
  0
LINE
  8
OBRYS
 10
404.776967
 20
414.055660
 11
404.776967
 21
401.555612
  0
LINE
  8
OBRYS
 10
393.776967
 20
414.055565
 11
393.776967
 21
401.555612
  0
LINE
  8
OBRYS
 10
334.776967
 20
414.055565
 11
334.776967
 21
401.555612
  0
LINE
  8
OBRYS
 10
323.776967
 20
414.055660
 11
323.776967
 21
401.555612
  0
ARC
  8
OBRYS
 10
329.276967
 20
414.055612
 40
5.500000
 50
359.999504
 51
179.999504
  0
LINE
  8
OSA
 10
364.276967
 20
464.555612
 11
364.276967
 21
391.109889
  0
ARC
  8
OBRYS
 10
380.276967
 20
394.555612
 40
1.000000
 50
0.000000
 51
90.000000
  0
LINE
  8
OBRYS
 10
380.276967
 20
395.555612
 11
364.276967
 21
395.555612
  0
ARC
  8
OBRYS
 10
348.276967
 20
394.555612
 40
1.000000
 50
90.000000
 51
180.000000
  0
LINE
  8
OBRYS
 10
348.276967
 20
395.555612
 11
364.276967
 21
395.555612
  0
LINE
  8
OBRYS
 62
     7
  6
DASHDOT
 10
329.276967
 20
419.555612
 11
329.276967
 21
393.555612
  0
LINE
  8
OBRYS
 62
     4
  6
HIDDEN2
 10
402.776967
 20
401.555612
 11
402.776967
 21
393.555612
  0
LINE
  8
OBRYS
 62
     4
  6
HIDDEN2
 10
395.776967
 20
401.555612
 11
395.776967
 21
393.555612
  0
LINE
  8
OBRYS
 62
     4
  6
HIDDEN2
 10
325.776967
 20
401.555612
 11
325.776967
 21
393.555612
  0
LINE
  8
OBRYS
 62
     4
  6
HIDDEN2
 10
332.776967
 20
401.555612
 11
332.776967
 21
393.555612
  0
ARC
  8
OBRYS
 10
390.214392
 20
457.055612
 40
2.000000
 50
90.000000
 51
163.872380
  0
LINE
  8
OBRYS
 10
396.776973
 20
459.055612
 11
390.214392
 21
459.055612
  0
ARC
  8
OBRYS
 10
371.776967
 20
438.618188
 40
2.000000
 50
106.127620
 51
180.000000
  0
LINE
  8
OBRYS
 10
369.776967
 20
432.055606
 11
369.776967
 21
438.618188
  0
ARC
  8
OBRYS
 10
356.776967
 20
438.618188
 40
2.000000
 50
0.000000
 51
73.872380
  0
LINE
  8
OBRYS
 10
358.776967
 20
432.055606
 11
358.776967
 21
438.618188
  0
ARC
  8
OBRYS
 10
338.339542
 20
457.055612
 40
2.000000
 50
16.127620
 51
90.000000
  0
LINE
  8
OBRYS
 10
331.776961
 20
459.055612
 11
338.339542
 21
459.055612
  0
ARC
  8
OBRYS
 10
338.339542
 20
472.055612
 40
2.000000
 50
270.000000
 51
343.872380
  0
LINE
  8
OBRYS
 10
331.776961
 20
470.055612
 11
338.339542
 21
470.055612
  0
ARC
  8
OBRYS
 10
356.776967
 20
490.493037
 40
2.000000
 50
286.127620
 51
360.000000
  0
LINE
  8
OBRYS
 10
358.776967
 20
497.055618
 11
358.776967
 21
490.493037
  0
ARC
  8
OBRYS
 10
390.214392
 20
472.055612
 40
2.000000
 50
196.127620
 51
270.000000
  0
LINE
  8
OBRYS
 10
396.776973
 20
470.055612
 11
390.214392
 21
470.055612
  0
ARC
  8
OBRYS
 10
371.776967
 20
490.493037
 40
2.000000
 50
180.000000
 51
253.872380
  0
LINE
  8
OBRYS
 10
369.776967
 20
497.055618
 11
369.776967
 21
490.493037
  0
LINE
  8
OBRYS
 10
381.276967
 20
399.555612
 11
347.276967
 21
399.555612
  0
LINE
  8
OBRYS
 10
384.846772
 20
401.555612
 11
382.282898
 21
401.555612
  0
LINE
  8
OBRYS
 10
343.707162
 20
401.555612
 11
346.271035
 21
401.555612
  0
ARC
  8
OBRYS
 10
387.276967
 20
403.555612
 40
2.000000
 50
180.000000
 51
270.000000
  0
ARC
  8
OBRYS
 10
341.276967
 20
403.555612
 40
2.000000
 50
270.000000
 51
360.000000
  0
ARC
  8
OBRYS
 10
364.276967
 20
432.055612
 40
5.500000
 50
180.000000
 51
360.000000
  0
ARC
  8
OBRYS
 10
396.776967
 20
464.555612
 40
5.500000
 50
270.000000
 51
90.000000
  0
ARC
  8
OBRYS
 10
331.776967
 20
464.555612
 40
5.500000
 50
90.000000
 51
270.000000
  0
ARC
  8
OBRYS
 10
364.276967
 20
497.055612
 40
5.500000
 50
0.000000
 51
180.000000
  0
LINE
  8
OBRYS
 62
     7
  6
DASHDOT
 10
399.276967
 20
419.555612
 11
399.276967
 21
393.555612
  0
CIRCLE
  8
OSA
 10
364.276967
 20
464.555612
 40
32.500000
  0
CIRCLE
  8
OBRYS
 10
364.276967
 20
464.555612
 40
42.500000
  0
ARC
  8
OBRYS
 10
364.123177
 20
464.555612
 40
51.408811
 50
290.284353
 51
293.402256
  0
ARC
  8
OBRYS
 10
364.430757
 20
464.555612
 40
51.408811
 50
246.597744
 51
249.715647
  0
LINE
  8
OBRYS
 10
385.276967
 20
418.476875
 11
385.276967
 21
403.555612
  0
ARC
  8
OBRYS
 10
387.276967
 20
418.476875
 40
2.000000
 50
116.525876
 51
180.000000
  0
LINE
  8
OBRYS
 10
381.276967
 20
415.288483
 11
381.276967
 21
393.555612
  0
ARC
  8
OBRYS
 10
379.276967
 20
415.288483
 40
2.000000
 50
0.000000
 51
106.933533
  0
ARC
  8
OBRYS
 10
349.276967
 20
415.288483
 40
2.000000
 50
73.066467
 51
180.000000
  0
LINE
  8
OBRYS
 10
347.276967
 20
415.288483
 11
347.276967
 21
393.555612
  0
ARC
  8
OBRYS
 10
341.276967
 20
418.476875
 40
2.000000
 50
0.000000
 51
63.474124
  0
LINE
  8
OBRYS
 10
343.276967
 20
418.476875
 11
343.276967
 21
403.555612
  0
LINE
  8
OBRYS
 10
395.709925
 20
435.951082
 11
401.935209
 21
429.725797
  0
LINE
  8
OBRYS
 10
392.881497
 20
433.122655
 11
399.112770
 21
426.891382
  0
LINE
  8
OBRYS
 10
335.672436
 20
433.122655
 11
329.441164
 21
426.891382
  0
LINE
  8
OBRYS
 10
332.844009
 20
435.951082
 11
326.618724
 21
429.725797
  0
LINE
  8
OBRYS
 10
366.276967
 20
507.008527
 11
366.276967
 21
512.513928
  0
LINE
  8
OBRYS
 10
362.276967
 20
507.008527
 11
362.276967
 21
512.513928
  0
LINE
  8
OBRYS
 10
335.672436
 20
495.988570
 11
331.779530
 21
499.881476
  0
LINE
  8
OBRYS
 10
332.844009
 20
493.160143
 11
328.951103
 21
497.053049
  0
LINE
  8
OBRYS
 10
321.824052
 20
466.555608
 11
316.318651
 21
466.555608
  0
LINE
  8
OBRYS
 10
321.824052
 20
462.555608
 11
316.318652
 21
462.555608
  0
LINE
  8
OBRYS
 10
392.881497
 20
495.988570
 11
396.774403
 21
499.881476
  0
LINE
  8
OBRYS
 10
395.709925
 20
493.160143
 11
399.602830
 21
497.053049
  0
LINE
  8
OBRYS
 10
406.729882
 20
466.555616
 11
412.235282
 21
466.555617
  0
LINE
  8
OBRYS
 10
406.729882
 20
462.555616
 11
412.235282
 21
462.555617
  0
ARC
  8
OBRYS
 10
364.276967
 20
464.555612
 40
48.500000
 50
0.000000
 51
180.000000
  0
ARC
  8
OBRYS
 10
364.276967
 20
464.555612
 40
55.000000
 50
292.446351
 51
331.862473
  0
ARC
  8
OBRYS
 10
364.276967
 20
464.555612
 40
55.000000
 50
208.137527
 51
247.553649
  0
LINE
  8
OSA
 62
     2
  6
CONTINUOUS
 10
315.776967
 20
393.555612
 11
347.276967
 21
393.555612
  0
LINE
  8
OBRYS
 10
315.776967
 20
464.555612
 11
315.776967
 21
393.555612
  0
LINE
  8
OSA
 62
     2
  6
CONTINUOUS
 10
381.276967
 20
393.555612
 11
412.776967
 21
393.555612
  0
LINE
  8
OBRYS
 10
412.776967
 20
464.555612
 11
412.776967
 21
393.555612
  0
LINE
  8
OBRYS
 10
387.276967
 20
401.555612
 11
410.776967
 21
401.555612
  0
ARC
  8
OBRYS
 10
410.776967
 20
399.555612
 40
2.000000
 50
0.000000
 51
90.000000
  0
LINE
  8
OBRYS
 10
317.776967
 20
401.555612
 11
341.276967
 21
401.555612
  0
ARC
  8
OBRYS
 10
317.776967
 20
399.555612
 40
2.000000
 50
90.000000
 51
180.000000
  0
INSERT
  8
OBRYS
  2
Srouby_s_valcovou_hlavou___15
 62
     7
 10
364.276967
 20
432.055612
  0
INSERT
  8
OBRYS
  2
Srouby_s_valcovou_hlavou___16
 62
     7
 10
396.776967
 20
464.555612
  0
INSERT
  8
OBRYS
  2
Srouby_s_valcovou_hlavou___17
 62
     7
 10
364.276967
 20
497.055612
  0
INSERT
  8
OBRYS
  2
Srouby_s_valcovou_hlavou___18
 62
     7
 10
331.776967
 20
464.555612
  0
ARC
  8
OBRYS
 10
361.476967
 20
476.355612
 40
0.200000
 50
90.000000
 51
180.000000
  0
LINE
  8
OBRYS
 10
361.476967
 20
476.555612
 11
367.076967
 21
476.555612
  0
LINE
  8
OBRYS
 10
361.276967
 20
473.569490
 11
361.276967
 21
476.355612
  0
ARC
  8
OBRYS
 10
367.076967
 20
476.355612
 40
0.200000
 50
0.000000
 51
90.000000
  0
LINE
  8
OBRYS
 10
367.276967
 20
476.355612
 11
367.276967
 21
473.569490
  0
ARC
  8
OBRYS
 10
364.276967
 20
464.555612
 40
9.500000
 50
108.408480
 51
71.591520
  0
CIRCLE
  8
OBRYS
 10
364.276967
 20
464.555612
 40
15.000000
  0
CIRCLE
  8
OBRYS
 10
364.276967
 20
464.555612
 40
23.500000
  0
CIRCLE
  8
OBRYS
 10
364.276967
 20
464.555612
 40
25.000000
  0
ENDBLK
  8
OBRYS
  0
BLOCK
  8
OBRYS
  2
__14
 70
   64
 10
362.742691
 20
411.055612
  0
INSERT
  8
OBRYS
  2
*X__19
 10
0.000000
 20
0.000000
  0
INSERT
  8
OBRYS
  2
*X__20
 10
0.000000
 20
0.000000
  0
LINE
  8
OBRYS
 10
368.888166
 20
411.055612
 11
368.888166
 21
421.055612
  0
LINE
  8
OBRYS
 10
368.118935
 20
421.055612
 11
368.118935
 21
411.055612
  0
ARC
  8
OBRYS
 10
368.118935
 20
417.978689
 40
3.076923
 50
90.000000
 51
180.000000
  0
LINE
  8
OBRYS
 10
365.042012
 20
417.978689
 11
365.042012
 21
414.132535
  0
ARC
  8
OBRYS
 10
368.118935
 20
414.132535
 40
3.076923
 50
180.000000
 51
270.000000
  0
ARC
  8
OBRYS
 10
368.888166
 20
417.978689
 40
3.076923
 50
0.000000
 51
90.000000
  0
LINE
  8
OBRYS
 10
371.965089
 20
414.132535
 11
371.965089
 21
417.978689
  0
ARC
  8
OBRYS
 10
368.888166
 20
414.132535
 40
3.076923
 50
270.000000
 51
360.000000
  0
LINE
  8
OBRYS
 10
359.665768
 20
421.055612
 11
359.665768
 21
411.055612
  0
LINE
  8
OBRYS
 10
363.511921
 20
414.901766
 11
363.511921
 21
413.363305
  0
LINE
  8
OBRYS
 10
363.511921
 20
414.901766
 11
362.742691
 21
414.901766
  0
LINE
  8
OBRYS
 10
363.511921
 20
413.363305
 11
362.742691
 21
413.363305
  0
LINE
  8
OBRYS
 10
362.742691
 20
413.363305
 11
362.742691
 21
411.055612
  0
LINE
  8
OBRYS
 10
362.742691
 20
421.055612
 11
362.742691
 21
414.901766
  0
LINE
  8
OBRYS
 10
359.665768
 20
421.055612
 11
362.742691
 21
421.055612
  0
LINE
  8
OBRYS
 10
362.742691
 20
411.055612
 11
359.665768
 21
411.055612
  0
LINE
  8
OBRYS
 10
358.896537
 20
421.055612
 11
358.896537
 21
413.363305
  0
LINE
  8
OBRYS
 10
358.896537
 20
413.363305
 11
355.819614
 21
413.363305
  0
LINE
  8
OBRYS
 10
355.819614
 20
413.363305
 11
358.896537
 21
421.055612
  0
INSERT
  8
OBRYS
  2
*X__21
 10
0.000000
 20
0.000000
  0
INSERT
  8
OBRYS
  2
*X__22
 10
0.000000
 20
0.000000
  0
ENDBLK
  8
OBRYS
  0
BLOCK
  8
OBRYS
  2
Srouby_s_valcovou_hlavou___15
 70
   66
 10
364.276967
 20
432.055612
  0
LINE
  8
OBRYS
 10
361.776967
 20
430.612228
 11
361.776967
 21
433.498997
  0
LINE
  8
OBRYS
 10
361.776967
 20
433.498997
 11
364.276967
 21
434.942382
  0
LINE
  8
OBRYS
 10
364.276967
 20
434.942382
 11
366.776967
 21
433.498997
  0
LINE
  8
OBRYS
 10
366.776967
 20
433.498997
 11
366.776967
 21
430.612228
  0
LINE
  8
OBRYS
 10
366.776967
 20
430.612228
 11
364.276967
 21
429.168843
  0
LINE
  8
OBRYS
 10
364.276967
 20
429.168843
 11
361.776967
 21
430.612228
  0
CIRCLE
  8
OBRYS
 10
364.276967
 20
432.055612
 40
2.886769
  0
CIRCLE
  8
OBRYS
 10
364.276967
 20
432.055612
 40
5.000000
  0
ENDBLK
  8
OBRYS
  0
BLOCK
  8
OBRYS
  2
Srouby_s_valcovou_hlavou___16
 70
   66
 10
396.776967
 20
464.555612
  0
LINE
  8
OBRYS
 10
394.276967
 20
463.112228
 11
394.276967
 21
465.998997
  0
LINE
  8
OBRYS
 10
394.276967
 20
465.998997
 11
396.776967
 21
467.442382
  0
LINE
  8
OBRYS
 10
396.776967
 20
467.442382
 11
399.276967
 21
465.998997
  0
LINE
  8
OBRYS
 10
399.276967
 20
465.998997
 11
399.276967
 21
463.112228
  0
LINE
  8
OBRYS
 10
399.276967
 20
463.112228
 11
396.776967
 21
461.668843
  0
LINE
  8
OBRYS
 10
396.776967
 20
461.668843
 11
394.276967
 21
463.112228
  0
CIRCLE
  8
OBRYS
 10
396.776967
 20
464.555612
 40
2.886769
  0
CIRCLE
  8
OBRYS
 10
396.776967
 20
464.555612
 40
5.000000
  0
ENDBLK
  8
OBRYS
  0
BLOCK
  8
OBRYS
  2
Srouby_s_valcovou_hlavou___17
 70
   66
 10
364.276967
 20
497.055612
  0
LINE
  8
OBRYS
 10
361.776967
 20
495.612228
 11
361.776967
 21
498.498997
  0
LINE
  8
OBRYS
 10
361.776967
 20
498.498997
 11
364.276967
 21
499.942382
  0
LINE
  8
OBRYS
 10
364.276967
 20
499.942382
 11
366.776967
 21
498.498997
  0
LINE
  8
OBRYS
 10
366.776967
 20
498.498997
 11
366.776967
 21
495.612228
  0
LINE
  8
OBRYS
 10
366.776967
 20
495.612228
 11
364.276967
 21
494.168843
  0
LINE
  8
OBRYS
 10
364.276967
 20
494.168843
 11
361.776967
 21
495.612228
  0
CIRCLE
  8
OBRYS
 10
364.276967
 20
497.055612
 40
2.886769
  0
CIRCLE
  8
OBRYS
 10
364.276967
 20
497.055612
 40
5.000000
  0
ENDBLK
  8
OBRYS
  0
BLOCK
  8
OBRYS
  2
Srouby_s_valcovou_hlavou___18
 70
   66
 10
331.776967
 20
464.555612
  0
LINE
  8
OBRYS
 10
329.276967
 20
463.112228
 11
329.276967
 21
465.998997
  0
LINE
  8
OBRYS
 10
329.276967
 20
465.998997
 11
331.776967
 21
467.442382
  0
LINE
  8
OBRYS
 10
331.776967
 20
467.442382
 11
334.276967
 21
465.998997
  0
LINE
  8
OBRYS
 10
334.276967
 20
465.998997
 11
334.276967
 21
463.112228
  0
LINE
  8
OBRYS
 10
334.276967
 20
463.112228
 11
331.776967
 21
461.668843
  0
LINE
  8
OBRYS
 10
331.776967
 20
461.668843
 11
329.276967
 21
463.112228
  0
CIRCLE
  8
OBRYS
 10
331.776967
 20
464.555612
 40
2.886769
  0
CIRCLE
  8
OBRYS
 10
331.776967
 20
464.555612
 40
5.000000
  0
ENDBLK
  8
OBRYS
  0
BLOCK
  8
OBRYS
  2
*X__19
 70
   65
 10
0.0
 20
0.0
  0
LINE
  8
OBRYS
 62
     0
 10
368.118164
 20
411.176117
 11
367.999390
 21
411.057312
  0
LINE
  8
OBRYS
 62
     0
 10
367.723633
 20
411.081360
 11
368.116760
 21
411.474518
  0
LINE
  8
OBRYS
 62
     0
 10
368.118164
 20
411.772919
 11
367.469055
 21
411.123779
  0
LINE
  8
OBRYS
 62
     0
 10
367.231445
 20
411.186005
 11
368.116760
 21
412.071320
  0
LINE
  8
OBRYS
 62
     0
 10
368.118164
 20
412.369720
 11
367.009460
 21
411.260956
  0
LINE
  8
OBRYS
 62
     0
 10
366.800110
 20
411.351471
 11
368.116760
 21
412.668121
  0
LINE
  8
OBRYS
 62
     0
 10
368.118164
 20
412.966522
 11
366.604980
 21
411.453308
  0
LINE
  8
OBRYS
 62
     0
 10
366.418274
 20
411.566437
 11
368.118164
 21
413.266327
  0
LINE
  8
OBRYS
 62
     0
 10
368.116760
 20
413.564728
 11
366.244324
 21
411.692291
  0
LINE
  8
OBRYS
 62
     0
 10
366.081726
 20
411.826660
 11
368.118164
 21
413.863129
  0
LINE
  8
OBRYS
 62
     0
 10
368.116760
 20
414.161530
 11
365.927551
 21
411.972321
  0
LINE
  8
OBRYS
 62
     0
 10
365.784729
 20
412.126465
 11
368.118164
 21
414.459930
  0
LINE
  8
OBRYS
 62
     0
 10
368.116760
 20
414.758331
 11
365.651794
 21
412.293335
  0
LINE
  8
OBRYS
 62
     0
 10
365.530151
 20
412.468719
 11
368.118164
 21
415.056732
  0
LINE
  8
OBRYS
 62
     0
 10
368.116760
 20
415.355103
 11
365.418457
 21
412.656799
  0
LINE
  8
OBRYS
 62
     0
 10
365.319458
 20
412.854797
 11
368.118164
 21
415.653503
  0
LINE
  8
OBRYS
 62
     0
 10
368.118164
 20
415.953339
 11
365.231750
 21
413.066925
  0
LINE
  8
OBRYS
 62
     0
 10
365.156799
 20
413.291779
 11
368.116760
 21
416.251740
  0
LINE
  8
OBRYS
 62
     0
 10
368.118164
 20
416.550140
 11
365.100220
 21
413.532196
  0
LINE
  8
OBRYS
 62
     0
 10
365.059204
 20
413.790985
 11
368.116760
 21
416.848511
  0
LINE
  8
OBRYS
 62
     0
 10
368.118164
 20
417.146912
 11
365.040833
 21
414.069611
  0
LINE
  8
OBRYS
 62
     0
 10
365.040833
 20
414.369415
 11
368.116760
 21
417.445313
  0
LINE
  8
OBRYS
 62
     0
 10
368.118164
 20
417.743713
 11
365.040833
 21
414.666382
  0
LINE
  8
OBRYS
 62
     0
 10
365.040833
 20
414.966217
 11
368.116760
 21
418.042114
  0
LINE
  8
OBRYS
 62
     0
 10
368.118164
 20
418.340515
 11
365.040833
 21
415.263184
  0
LINE
  8
OBRYS
 62
     0
 10
365.040833
 20
415.563019
 11
368.116760
 21
418.638916
  0
LINE
  8
OBRYS
 62
     0
 10
368.118164
 20
418.937317
 11
365.040833
 21
415.859985
  0
LINE
  8
OBRYS
 62
     0
 10
365.040833
 20
416.159790
 11
368.118164
 21
419.237122
  0
LINE
  8
OBRYS
 62
     0
 10
368.116760
 20
419.535522
 11
365.039429
 21
416.458191
  0
LINE
  8
OBRYS
 62
     0
 10
365.040833
 20
416.756592
 11
368.118164
 21
419.833923
  0
LINE
  8
OBRYS
 62
     0
 10
368.116760
 20
420.132324
 11
365.040833
 21
417.056427
  0
LINE
  8
OBRYS
 62
     0
 10
365.040833
 20
417.353394
 11
368.118164
 21
420.430725
  0
LINE
  8
OBRYS
 62
     0
 10
368.116760
 20
420.729126
 11
365.040833
 21
417.653198
  0
LINE
  8
OBRYS
 62
     0
 10
365.040833
 20
417.950195
 11
368.118164
 21
421.027527
  0
LINE
  8
OBRYS
 62
     0
 10
367.833923
 20
421.043091
 11
365.053589
 21
418.262726
  0
LINE
  8
OBRYS
 62
     0
 10
365.107300
 20
418.613464
 11
367.481750
 21
420.987915
  0
LINE
  8
OBRYS
 62
     0
 10
367.063171
 20
420.869141
 11
365.227539
 21
419.033478
  0
LINE
  8
OBRYS
 62
     0
 10
365.513184
 20
419.618958
 11
366.476257
 21
420.582062
  0
LINE
  8
OBRYS
 62
     0
 10
366.213257
 20
411.714935
 11
365.699890
 21
412.228302
  0
LINE
  8
OBRYS
 62
     0
 10
365.277039
 20
412.950958
 11
366.935913
 21
411.292084
  0
LINE
  8
OBRYS
 62
     0
 10
367.379944
 20
411.144989
 11
365.129944
 21
413.395020
  0
LINE
  8
OBRYS
 62
     0
 10
365.063477
 20
413.761292
 11
367.746216
 21
411.078522
  0
LINE
  8
OBRYS
 62
     0
 10
368.067261
 20
411.057312
 11
365.042236
 21
414.082336
  0
LINE
  8
OBRYS
 62
     0
 10
365.040833
 20
414.380737
 11
368.116760
 21
411.304810
  0
LINE
  8
OBRYS
 62
     0
 10
368.118164
 20
411.603210
 11
365.040833
 21
414.680542
  0
LINE
  8
OBRYS
 62
     0
 10
365.040833
 20
414.977509
 11
368.116760
 21
411.901611
  0
LINE
  8
OBRYS
 62
     0
 10
368.118164
 20
412.200012
 11
365.040833
 21
415.277344
  0
LINE
  8
OBRYS
 62
     0
 10
365.040833
 20
415.574310
 11
368.116760
 21
412.498413
  0
LINE
  8
OBRYS
 62
     0
 10
368.118164
 20
412.796814
 11
365.040833
 21
415.874146
  0
LINE
  8
OBRYS
 62
     0
 10
365.039429
 20
416.172546
 11
368.116760
 21
413.095215
  0
LINE
  8
OBRYS
 62
     0
 10
368.118164
 20
413.393616
 11
365.040833
 21
416.470917
  0
LINE
  8
OBRYS
 62
     0
 10
365.039429
 20
416.769318
 11
368.116760
 21
413.691986
  0
LINE
  8
OBRYS
 62
     0
 10
368.116760
 20
413.991821
 11
365.040833
 21
417.067719
  0
LINE
  8
OBRYS
 62
     0
 10
365.040833
 20
417.367554
 11
368.118164
 21
414.290222
  0
LINE
  8
OBRYS
 62
     0
 10
368.116760
 20
414.588623
 11
365.040833
 21
417.664520
  0
LINE
  8
OBRYS
 62
     0
 10
365.040833
 20
417.964355
 11
368.118164
 21
414.887024
  0
LINE
  8
OBRYS
 62
     0
 10
368.116760
 20
415.185425
 11
365.052185
 21
418.250000
  0
LINE
  8
OBRYS
 62
     0
 10
365.087524
 20
418.514465
 11
368.118164
 21
415.483795
  0
LINE
  8
OBRYS
 62
     0
 10
368.116760
 20
415.782196
 11
365.141235
 21
418.757721
  0
LINE
  8
OBRYS
 62
     0
 10
365.210571
 20
418.988220
 11
368.118164
 21
416.080597
  0
LINE
  8
OBRYS
 62
     0
 10
368.116760
 20
416.378998
 11
365.294006
 21
419.201782
  0
LINE
  8
OBRYS
 62
     0
 10
365.391541
 20
419.404022
 11
368.118164
 21
416.677399
  0
LINE
  8
OBRYS
 62
     0
 10
368.118164
 20
416.977234
 11
365.500488
 21
419.594940
  0
LINE
  8
OBRYS
 62
     0
 10
365.617859
 20
419.774536
 11
368.116760
 21
417.275604
  0
LINE
  8
OBRYS
 62
     0
 10
368.118164
 20
417.574005
 11
365.749390
 21
419.942810
  0
LINE
  8
OBRYS
 62
     0
 10
365.889343
 20
420.099792
 11
368.116760
 21
417.872406
  0
LINE
  8
OBRYS
 62
     0
 10
368.118164
 20
418.170807
 11
366.040710
 21
420.248291
  0
LINE
  8
OBRYS
 62
     0
 10
366.200500
 20
420.385468
 11
368.116760
 21
418.469208
  0
LINE
  8
OBRYS
 62
     0
 10
368.118164
 20
418.767609
 11
366.373047
 21
420.512756
  0
LINE
  8
OBRYS
 62
     0
 10
366.554077
 20
420.628723
 11
368.116760
 21
419.066010
  0
LINE
  8
OBRYS
 62
     0
 10
368.118164
 20
419.364410
 11
366.747803
 21
420.734772
  0
LINE
  8
OBRYS
 62
     0
 10
366.954285
 20
420.828125
 11
368.118164
 21
419.664215
  0
LINE
  8
OBRYS
 62
     0
 10
368.116760
 20
419.962616
 11
367.172058
 21
420.907318
  0
LINE
  8
OBRYS
 62
     0
 10
367.406799
 20
420.972382
 11
368.118164
 21
420.261017
  0
LINE
  8
OBRYS
 62
     0
 10
368.116760
 20
420.559418
 11
367.655701
 21
421.020447
  0
LINE
  8
OBRYS
 62
     0
 10
367.925842
 20
421.050140
 11
368.118164
 21
420.857819
  0
ENDBLK
  8
OBRYS
  0
BLOCK
  8
OBRYS
  2
*X__20
 70
   65
 10
0.0
 20
0.0
  0
LINE
  8
OBRYS
 62
     0
 10
371.426025
 20
412.393768
 11
370.625549
 21
411.593323
  0
LINE
  8
OBRYS
 62
     0
 10
369.994812
 20
411.262390
 11
371.756958
 21
413.024506
  0
LINE
  8
OBRYS
 62
     0
 10
371.888489
 20
413.453003
 11
369.566345
 21
411.130859
  0
LINE
  8
OBRYS
 62
     0
 10
369.208557
 20
411.072876
 11
371.946472
 21
413.810791
  0
LINE
  8
OBRYS
 62
     0
 10
371.964844
 20
414.126160
 11
368.893188
 21
411.054504
  0
LINE
  8
OBRYS
 62
     0
 10
368.886108
 20
411.347229
 11
371.963440
 21
414.424561
  0
LINE
  8
OBRYS
 62
     0
 10
371.963440
 20
414.724365
 11
368.886108
 21
411.647034
  0
LINE
  8
OBRYS
 62
     0
 10
368.887512
 20
411.945435
 11
371.963440
 21
415.021362
  0
LINE
  8
OBRYS
 62
     0
 10
371.963440
 20
415.321167
 11
368.886108
 21
412.243835
  0
LINE
  8
OBRYS
 62
     0
 10
368.887512
 20
412.542236
 11
371.963440
 21
415.618164
  0
LINE
  8
OBRYS
 62
     0
 10
371.963440
 20
415.917969
 11
368.886108
 21
412.840637
  0
LINE
  8
OBRYS
 62
     0
 10
368.887512
 20
413.139038
 11
371.964844
 21
416.216370
  0
LINE
  8
OBRYS
 62
     0
 10
371.963440
 20
416.514771
 11
368.886108
 21
413.437439
  0
LINE
  8
OBRYS
 62
     0
 10
368.887512
 20
413.735840
 11
371.964844
 21
416.813171
  0
LINE
  8
OBRYS
 62
     0
 10
371.963440
 20
417.111572
 11
368.886108
 21
414.034241
  0
LINE
  8
OBRYS
 62
     0
 10
368.886108
 20
414.334045
 11
371.963440
 21
417.411377
  0
LINE
  8
OBRYS
 62
     0
 10
371.963440
 20
417.708374
 11
368.887512
 21
414.632446
  0
LINE
  8
OBRYS
 62
     0
 10
368.886108
 20
414.930847
 11
371.963440
 21
418.008179
  0
LINE
  8
OBRYS
 62
     0
 10
371.947876
 20
418.289612
 11
368.887512
 21
415.229248
  0
LINE
  8
OBRYS
 62
     0
 10
368.886108
 20
415.527649
 11
371.909668
 21
418.551239
  0
LINE
  8
OBRYS
 62
     0
 10
371.854553
 20
418.793060
 11
368.887512
 21
415.826050
  0
LINE
  8
OBRYS
 62
     0
 10
368.886108
 20
416.124451
 11
371.782410
 21
419.020752
  0
LINE
  8
OBRYS
 62
     0
 10
371.697571
 20
419.232880
 11
368.887512
 21
416.422852
  0
LINE
  8
OBRYS
 62
     0
 10
368.886108
 20
416.721252
 11
371.598572
 21
419.433716
  0
LINE
  8
OBRYS
 62
     0
 10
371.486816
 20
419.621796
 11
368.886108
 21
417.021057
  0
LINE
  8
OBRYS
 62
     0
 10
368.887512
 20
417.319458
 11
371.366638
 21
419.798584
  0
LINE
  8
OBRYS
 62
     0
 10
371.235107
 20
419.966858
 11
368.886108
 21
417.617859
  0
LINE
  8
OBRYS
 62
     0
 10
368.887512
 20
417.916260
 11
371.093689
 21
420.122437
  0
LINE
  8
OBRYS
 62
     0
 10
370.940918
 20
420.269501
 11
368.886108
 21
418.214661
  0
LINE
  8
OBRYS
 62
     0
 10
368.887512
 20
418.513062
 11
370.779724
 21
420.405273
  0
LINE
  8
OBRYS
 62
     0
 10
370.605774
 20
420.531128
 11
368.886108
 21
418.811462
  0
LINE
  8
OBRYS
 62
     0
 10
368.887512
 20
419.109863
 11
370.421936
 21
420.644287
  0
LINE
  8
OBRYS
 62
     0
 10
370.226746
 20
420.748932
 11
368.886108
 21
419.408264
  0
LINE
  8
OBRYS
 62
     0
 10
368.887512
 20
419.706665
 11
370.020264
 21
420.839447
  0
LINE
  8
OBRYS
 62
     0
 10
369.798279
 20
420.917206
 11
368.887512
 21
420.006470
  0
LINE
  8
OBRYS
 62
     0
 10
368.886108
 20
420.304871
 11
369.562073
 21
420.980865
  0
LINE
  8
OBRYS
 62
     0
 10
369.310364
 20
421.026123
 11
368.887512
 21
420.603271
  0
LINE
  8
OBRYS
 62
     0
 10
368.886108
 20
420.901672
 11
369.037415
 21
421.052979
  0
LINE
  8
OBRYS
 62
     0
 10
368.962463
 20
411.055908
 11
368.886108
 21
411.132263
  0
LINE
  8
OBRYS
 62
     0
 10
368.887512
 20
411.430664
 11
369.241089
 21
411.077118
  0
LINE
  8
OBRYS
 62
     0
 10
369.498474
 20
411.116730
 11
368.886108
 21
411.729065
  0
LINE
  8
OBRYS
 62
     0
 10
368.887512
 20
412.027466
 11
369.738892
 21
411.176117
  0
LINE
  8
OBRYS
 62
     0
 10
369.962280
 20
411.249664
 11
368.886108
 21
412.325867
  0
LINE
  8
OBRYS
 62
     0
 10
368.887512
 20
412.624268
 11
370.174438
 21
411.337341
  0
LINE
  8
OBRYS
 62
     0
 10
370.371033
 20
411.437744
 11
368.886108
 21
412.922668
  0
LINE
  8
OBRYS
 62
     0
 10
368.886108
 20
413.222473
 11
370.559082
 21
411.549469
  0
LINE
  8
OBRYS
 62
     0
 10
370.735901
 20
411.672516
 11
368.887512
 21
413.520874
  0
LINE
  8
OBRYS
 62
     0
 10
368.886108
 20
413.819275
 11
370.899902
 21
411.805450
  0
LINE
  8
OBRYS
 62
     0
 10
371.055481
 20
411.949677
 11
368.887512
 21
414.117676
  0
LINE
  8
OBRYS
 62
     0
 10
368.886108
 20
414.416077
 11
371.199768
 21
412.102417
  0
LINE
  8
OBRYS
 62
     0
 10
371.334106
 20
412.267883
 11
368.887512
 21
414.714478
  0
LINE
  8
OBRYS
 62
     0
 10
368.886108
 20
415.012878
 11
371.457153
 21
412.441833
  0
LINE
  8
OBRYS
 62
     0
 10
371.570251
 20
412.628510
 11
368.887512
 21
415.311279
  0
LINE
  8
OBRYS
 62
     0
 10
368.886108
 20
415.609680
 11
371.672119
 21
412.823669
  0
LINE
  8
OBRYS
 62
     0
 10
371.761169
 20
413.034393
 11
368.886108
 21
415.909485
  0
LINE
  8
OBRYS
 62
     0
 10
368.887512
 20
416.207886
 11
371.837585
 21
413.257843
  0
LINE
  8
OBRYS
 62
     0
 10
371.896973
 20
413.495422
 11
368.886108
 21
416.506287
  0
LINE
  8
OBRYS
 62
     0
 10
368.887512
 20
416.804688
 11
371.940796
 21
413.751404
  0
LINE
  8
OBRYS
 62
     0
 10
371.962036
 20
414.027161
 11
368.886108
 21
417.103088
  0
LINE
  8
OBRYS
 62
     0
 10
368.887512
 20
417.401489
 11
371.963440
 21
414.325562
  0
LINE
  8
OBRYS
 62
     0
 10
371.963440
 20
414.622559
 11
368.886108
 21
417.699890
  0
LINE
  8
OBRYS
 62
     0
 10
368.887512
 20
417.998291
 11
371.963440
 21
414.922363
  0
LINE
  8
OBRYS
 62
     0
 10
371.963440
 20
415.219360
 11
368.886108
 21
418.296692
  0
LINE
  8
OBRYS
 62
     0
 10
368.886108
 20
418.596497
 11
371.963440
 21
415.519165
  0
LINE
  8
OBRYS
 62
     0
 10
371.964844
 20
415.817566
 11
368.887512
 21
418.894897
  0
LINE
  8
OBRYS
 62
     0
 10
368.886108
 20
419.193298
 11
371.963440
 21
416.115967
  0
LINE
  8
OBRYS
 62
     0
 10
371.964844
 20
416.414368
 11
368.887512
 21
419.491699
  0
LINE
  8
OBRYS
 62
     0
 10
368.886108
 20
419.790100
 11
371.963440
 21
416.712769
  0
LINE
  8
OBRYS
 62
     0
 10
371.963440
 20
417.012573
 11
368.887512
 21
420.088501
  0
LINE
  8
OBRYS
 62
     0
 10
368.886108
 20
420.386902
 11
371.963440
 21
417.309570
  0
LINE
  8
OBRYS
 62
     0
 10
371.963440
 20
417.609375
 11
368.887512
 21
420.685272
  0
LINE
  8
OBRYS
 62
     0
 10
368.886108
 20
420.983673
 11
371.963440
 21
417.906372
  0
LINE
  8
OBRYS
 62
     0
 10
371.954956
 20
418.214661
 11
369.123657
 21
421.045898
  0
LINE
  8
OBRYS
 62
     0
 10
369.468750
 20
421.000671
 11
371.908264
 21
418.561127
  0
LINE
  8
OBRYS
 62
     0
 10
371.800781
 20
418.965607
 11
369.873230
 21
420.893188
  0
LINE
  8
OBRYS
 62
     0
 10
370.417664
 20
420.648529
 11
371.556152
 21
419.510071
  0
ENDBLK
  8
OBRYS
  0
BLOCK
  8
OBRYS
  2
*X__21
 70
   65
 10
0.0
 20
0.0
  0
LINE
  8
OBRYS
 62
     0
 10
362.743347
 20
411.235962
 11
362.562317
 21
411.054932
  0
LINE
  8
OBRYS
 62
     0
 10
362.262512
 20
411.054932
 11
362.741943
 21
411.534363
  0
LINE
  8
OBRYS
 62
     0
 10
362.743347
 20
411.832764
 11
361.964111
 21
411.053528
  0
LINE
  8
OBRYS
 62
     0
 10
361.665710
 20
411.054932
 11
362.741943
 21
412.131165
  0
LINE
  8
OBRYS
 62
     0
 10
362.743347
 20
412.429565
 11
361.367310
 21
411.053528
  0
LINE
  8
OBRYS
 62
     0
 10
361.068909
 20
411.054932
 11
362.741943
 21
412.727966
  0
LINE
  8
OBRYS
 62
     0
 10
363.376892
 20
413.362946
 11
363.511230
 21
413.497284
  0
LINE
  8
OBRYS
 62
     0
 10
363.512634
 20
413.795685
 11
363.078491
 21
413.361511
  0
LINE
  8
OBRYS
 62
     0
 10
362.743347
 20
413.026367
 11
360.770508
 21
411.053528
  0
LINE
  8
OBRYS
 62
     0
 10
360.472107
 20
411.054932
 11
362.741943
 21
413.324768
  0
LINE
  8
OBRYS
 62
     0
 10
362.778687
 20
413.361511
 11
363.511230
 21
414.094086
  0
LINE
  8
OBRYS
 62
     0
 10
363.512634
 20
414.392487
 11
360.173706
 21
411.053528
  0
LINE
  8
OBRYS
 62
     0
 10
359.875305
 20
411.054932
 11
363.511230
 21
414.690887
  0
LINE
  8
OBRYS
 62
     0
 10
363.423584
 20
414.900177
 11
359.666016
 21
411.142609
  0
LINE
  8
OBRYS
 62
     0
 10
359.666016
 20
411.442444
 11
363.123779
 21
414.900177
  0
LINE
  8
OBRYS
 62
     0
 10
362.825378
 20
414.901611
 11
359.664612
 21
411.740845
  0
LINE
  8
OBRYS
 62
     0
 10
359.666016
 20
412.039246
 11
362.743347
 21
415.116547
  0
LINE
  8
OBRYS
 62
     0
 10
362.741943
 20
415.414948
 11
359.666016
 21
412.339050
  0
LINE
  8
OBRYS
 62
     0
 10
359.666016
 20
412.636017
 11
362.743347
 21
415.713348
  0
LINE
  8
OBRYS
 62
     0
 10
362.741943
 20
416.011749
 11
359.666016
 21
412.935852
  0
LINE
  8
OBRYS
 62
     0
 10
359.666016
 20
413.232819
 11
362.743347
 21
416.310150
  0
LINE
  8
OBRYS
 62
     0
 10
362.741943
 20
416.608551
 11
359.666016
 21
413.532654
  0
LINE
  8
OBRYS
 62
     0
 10
359.666016
 20
413.829620
 11
362.743347
 21
416.906952
  0
LINE
  8
OBRYS
 62
     0
 10
362.743347
 20
417.206757
 11
359.666016
 21
414.129456
  0
LINE
  8
OBRYS
 62
     0
 10
359.664612
 20
414.427826
 11
362.741943
 21
417.505157
  0
LINE
  8
OBRYS
 62
     0
 10
362.743347
 20
417.803558
 11
359.666016
 21
414.726227
  0
LINE
  8
OBRYS
 62
     0
 10
359.666016
 20
415.026062
 11
362.741943
 21
418.101959
  0
LINE
  8
OBRYS
 62
     0
 10
362.743347
 20
418.400360
 11
359.666016
 21
415.323029
  0
LINE
  8
OBRYS
 62
     0
 10
359.666016
 20
415.622864
 11
362.741943
 21
418.698761
  0
LINE
  8
OBRYS
 62
     0
 10
362.743347
 20
418.997162
 11
359.666016
 21
415.919830
  0
LINE
  8
OBRYS
 62
     0
 10
359.666016
 20
416.219635
 11
362.741943
 21
419.295563
  0
LINE
  8
OBRYS
 62
     0
 10
362.743347
 20
419.593964
 11
359.666016
 21
416.516632
  0
LINE
  8
OBRYS
 62
     0
 10
359.666016
 20
416.816437
 11
362.743347
 21
419.893768
  0
LINE
  8
OBRYS
 62
     0
 10
362.741943
 20
420.192169
 11
359.664612
 21
417.114838
  0
LINE
  8
OBRYS
 62
     0
 10
359.666016
 20
417.413239
 11
362.743347
 21
420.490570
  0
LINE
  8
OBRYS
 62
     0
 10
362.741943
 20
420.788971
 11
359.666016
 21
417.713043
  0
LINE
  8
OBRYS
 62
     0
 10
359.666016
 20
418.010040
 11
362.709412
 21
421.053436
  0
LINE
  8
OBRYS
 62
     0
 10
362.411011
 20
421.054840
 11
359.666016
 21
418.309845
  0
LINE
  8
OBRYS
 62
     0
 10
359.666016
 20
418.606842
 11
362.112610
 21
421.053436
  0
LINE
  8
OBRYS
 62
     0
 10
361.814209
 20
421.054840
 11
359.666016
 21
418.906647
  0
LINE
  8
OBRYS
 62
     0
 10
359.666016
 20
419.203644
 11
361.515808
 21
421.053436
  0
LINE
  8
OBRYS
 62
     0
 10
361.217407
 20
421.054840
 11
359.666016
 21
419.503448
  0
LINE
  8
OBRYS
 62
     0
 10
359.664612
 20
419.801849
 11
360.917603
 21
421.054840
  0
LINE
  8
OBRYS
 62
     0
 10
360.619202
 20
421.053436
 11
359.666016
 21
420.100250
  0
LINE
  8
OBRYS
 62
     0
 10
359.664612
 20
420.398651
 11
360.320801
 21
421.054840
  0
LINE
  8
OBRYS
 62
     0
 10
360.022400
 20
421.053436
 11
359.666016
 21
420.697052
  0
LINE
  8
OBRYS
 62
     0
 10
359.666016
 20
420.996857
 11
359.723999
 21
421.054840
  0
LINE
  8
OBRYS
 62
     0
 10
359.790466
 20
411.054932
 11
359.666016
 21
411.179382
  0
LINE
  8
OBRYS
 62
     0
 10
359.664612
 20
411.477783
 11
360.088867
 21
411.053528
  0
LINE
  8
OBRYS
 62
     0
 10
360.387268
 20
411.054932
 11
359.666016
 21
411.776184
  0
LINE
  8
OBRYS
 62
     0
 10
359.666016
 20
412.075989
 11
360.687073
 21
411.054932
  0
LINE
  8
OBRYS
 62
     0
 10
360.985474
 20
411.053528
 11
359.666016
 21
412.372986
  0
LINE
  8
OBRYS
 62
     0
 10
359.666016
 20
412.672791
 11
361.283875
 21
411.054932
  0
LINE
  8
OBRYS
 62
     0
 10
361.582275
 20
411.053528
 11
359.666016
 21
412.969788
  0
LINE
  8
OBRYS
 62
     0
 10
359.666016
 20
413.269592
 11
361.880676
 21
411.054932
  0
LINE
  8
OBRYS
 62
     0
 10
362.179077
 20
411.053528
 11
359.666016
 21
413.566589
  0
LINE
  8
OBRYS
 62
     0
 10
359.666016
 20
413.866394
 11
362.477478
 21
411.054932
  0
LINE
  8
OBRYS
 62
     0
 10
362.741943
 20
411.087463
 11
359.664612
 21
414.164795
  0
LINE
  8
OBRYS
 62
     0
 10
359.666016
 20
414.463196
 11
362.743347
 21
411.385864
  0
LINE
  8
OBRYS
 62
     0
 10
362.741943
 20
411.684265
 11
359.664612
 21
414.761597
  0
LINE
  8
OBRYS
 62
     0
 10
359.666016
 20
415.059998
 11
362.743347
 21
411.982666
  0
LINE
  8
OBRYS
 62
     0
 10
362.743347
 20
412.282471
 11
359.666016
 21
415.359802
  0
LINE
  8
OBRYS
 62
     0
 10
359.666016
 20
415.656799
 11
362.741943
 21
412.580872
  0
LINE
  8
OBRYS
 62
     0
 10
362.743347
 20
412.879272
 11
359.666016
 21
415.956604
  0
LINE
  8
OBRYS
 62
     0
 10
359.666016
 20
416.253601
 11
362.741943
 21
413.177673
  0
LINE
  8
OBRYS
 62
     0
 10
362.857910
 20
413.361511
 11
359.666016
 21
416.553406
  0
LINE
  8
OBRYS
 62
     0
 10
359.664612
 20
416.851807
 11
363.154846
 21
413.361511
  0
LINE
  8
OBRYS
 62
     0
 10
363.454651
 20
413.361511
 11
359.666016
 21
417.150208
  0
LINE
  8
OBRYS
 62
     0
 10
359.664612
 20
417.448608
 11
363.511230
 21
413.601929
  0
LINE
  8
OBRYS
 62
     0
 10
363.511230
 20
413.901764
 11
359.666016
 21
417.747009
  0
LINE
  8
OBRYS
 62
     0
 10
359.666016
 20
418.046814
 11
362.743347
 21
414.969482
  0
LINE
  8
OBRYS
 62
     0
 10
362.811218
 20
414.901611
 11
363.512634
 21
414.200165
  0
LINE
  8
OBRYS
 62
     0
 10
363.511230
 20
414.498535
 11
363.109619
 21
414.900177
  0
LINE
  8
OBRYS
 62
     0
 10
362.741943
 20
415.267883
 11
359.666016
 21
418.343811
  0
LINE
  8
OBRYS
 62
     0
 10
359.666016
 20
418.643616
 11
362.743347
 21
415.566284
  0
LINE
  8
OBRYS
 62
     0
 10
363.409424
 20
414.900177
 11
363.512634
 21
414.796936
  0
LINE
  8
OBRYS
 62
     0
 10
362.741943
 20
415.864685
 11
359.666016
 21
418.940582
  0
LINE
  8
OBRYS
 62
     0
 10
359.666016
 20
419.240417
 11
362.743347
 21
416.163086
  0
LINE
  8
OBRYS
 62
     0
 10
362.741943
 20
416.461487
 11
359.666016
 21
419.537384
  0
LINE
  8
OBRYS
 62
     0
 10
359.666016
 20
419.837219
 11
362.743347
 21
416.759888
  0
LINE
  8
OBRYS
 62
     0
 10
362.741943
 20
417.058289
 11
359.664612
 21
420.135620
  0
LINE
  8
OBRYS
 62
     0
 10
359.666016
 20
420.433990
 11
362.743347
 21
417.356689
  0
LINE
  8
OBRYS
 62
     0
 10
362.743347
 20
417.656494
 11
359.666016
 21
420.733826
  0
LINE
  8
OBRYS
 62
     0
 10
359.666016
 20
421.030792
 11
362.741943
 21
417.954895
  0
LINE
  8
OBRYS
 62
     0
 10
362.743347
 20
418.253296
 11
359.941772
 21
421.054840
  0
LINE
  8
OBRYS
 62
     0
 10
360.240173
 20
421.053436
 11
362.741943
 21
418.551697
  0
LINE
  8
OBRYS
 62
     0
 10
362.743347
 20
418.850098
 11
360.538574
 21
421.054840
  0
LINE
  8
OBRYS
 62
     0
 10
360.836975
 20
421.053436
 11
362.741943
 21
419.148499
  0
LINE
  8
OBRYS
 62
     0
 10
362.743347
 20
419.446869
 11
361.135376
 21
421.054840
  0
LINE
  8
OBRYS
 62
     0
 10
361.433777
 20
421.053436
 11
362.741943
 21
419.745270
  0
LINE
  8
OBRYS
 62
     0
 10
362.743347
 20
420.043671
 11
361.732178
 21
421.054840
  0
LINE
  8
OBRYS
 62
     0
 10
362.031982
 20
421.054840
 11
362.743347
 21
420.343506
  0
LINE
  8
OBRYS
 62
     0
 10
362.741943
 20
420.641907
 11
362.330383
 21
421.053436
  0
LINE
  8
OBRYS
 62
     0
 10
362.628784
 20
421.054840
 11
362.743347
 21
420.940308
  0
ENDBLK
  8
OBRYS
  0
BLOCK
  8
OBRYS
  2
*X__22
 70
   65
 10
0.0
 20
0.0
  0
LINE
  8
OBRYS
 62
     0
 10
358.896667
 20
413.659912
 11
358.599670
 21
413.362946
  0
LINE
  8
OBRYS
 62
     0
 10
358.301270
 20
413.361511
 11
358.896667
 21
413.956909
  0
LINE
  8
OBRYS
 62
     0
 10
358.896667
 20
414.256714
 11
358.002869
 21
413.362946
  0
LINE
  8
OBRYS
 62
     0
 10
357.704468
 20
413.361511
 11
358.896667
 21
414.553711
  0
LINE
  8
OBRYS
 62
     0
 10
358.896667
 20
414.853516
 11
357.404663
 21
413.361511
  0
LINE
  8
OBRYS
 62
     0
 10
357.107666
 20
413.361511
 11
358.896667
 21
415.150513
  0
LINE
  8
OBRYS
 62
     0
 10
358.896667
 20
415.450317
 11
356.807861
 21
413.361511
  0
LINE
  8
OBRYS
 62
     0
 10
356.510864
 20
413.361511
 11
358.896667
 21
415.747314
  0
LINE
  8
OBRYS
 62
     0
 10
358.896667
 20
416.047119
 11
356.211060
 21
413.361511
  0
LINE
  8
OBRYS
 62
     0
 10
355.912659
 20
413.362946
 11
358.895264
 21
416.345520
  0
LINE
  8
OBRYS
 62
     0
 10
358.896667
 20
416.643921
 11
355.956543
 21
413.703766
  0
LINE
  8
OBRYS
 62
     0
 10
356.154480
 20
414.201569
 11
358.896667
 21
416.943726
  0
LINE
  8
OBRYS
 62
     0
 10
358.896667
 20
417.240723
 11
356.355347
 21
414.699371
  0
LINE
  8
OBRYS
 62
     0
 10
356.553345
 20
415.197174
 11
358.896667
 21
417.540527
  0
LINE
  8
OBRYS
 62
     0
 10
358.896667
 20
417.837494
 11
356.752747
 21
415.693573
  0
LINE
  8
OBRYS
 62
     0
 10
356.952148
 20
416.192780
 11
358.896667
 21
418.137329
  0
LINE
  8
OBRYS
 62
     0
 10
358.896667
 20
418.434296
 11
357.151550
 21
416.689178
  0
LINE
  8
OBRYS
 62
     0
 10
357.349548
 20
417.186981
 11
358.896667
 21
418.734131
  0
LINE
  8
OBRYS
 62
     0
 10
358.895264
 20
419.032532
 11
357.547485
 21
417.684784
  0
LINE
  8
OBRYS
 62
     0
 10
357.748352
 20
418.182587
 11
358.896667
 21
419.330933
  0
LINE
  8
OBRYS
 62
     0
 10
358.896667
 20
419.630737
 11
357.946289
 21
418.680389
  0
LINE
  8
OBRYS
 62
     0
 10
358.145752
 20
419.176758
 11
358.896667
 21
419.927704
  0
LINE
  8
OBRYS
 62
     0
 10
358.896667
 20
420.227539
 11
358.345154
 21
419.675995
  0
LINE
  8
OBRYS
 62
     0
 10
358.544556
 20
420.172363
 11
358.896667
 21
420.524506
  0
LINE
  8
OBRYS
 62
     0
 10
358.896667
 20
420.824341
 11
358.742493
 21
420.670166
  0
LINE
  8
OBRYS
 62
     0
 10
355.990479
 20
413.361511
 11
355.868835
 21
413.483154
  0
LINE
  8
OBRYS
 62
     0
 10
355.953674
 20
413.698120
 11
356.288879
 21
413.362946
  0
LINE
  8
OBRYS
 62
     0
 10
356.587280
 20
413.361511
 11
356.038513
 21
413.910248
  0
LINE
  8
OBRYS
 62
     0
 10
356.124817
 20
414.123779
 11
356.885681
 21
413.362946
  0
LINE
  8
OBRYS
 62
     0
 10
357.184082
 20
413.361511
 11
356.209656
 21
414.335907
  0
LINE
  8
OBRYS
 62
     0
 10
356.294495
 20
414.550873
 11
357.483887
 21
413.361511
  0
LINE
  8
OBRYS
 62
     0
 10
357.780884
 20
413.361511
 11
356.379395
 21
414.763000
  0
LINE
  8
OBRYS
 62
     0
 10
356.465637
 20
414.976563
 11
358.080688
 21
413.361511
  0
LINE
  8
OBRYS
 62
     0
 10
358.379089
 20
413.362946
 11
356.551880
 21
415.190094
  0
LINE
  8
OBRYS
 62
     0
 10
356.635315
 20
415.403656
 11
358.677490
 21
413.361511
  0
LINE
  8
OBRYS
 62
     0
 10
358.896667
 20
413.442139
 11
356.721619
 21
415.617188
  0
LINE
  8
OBRYS
 62
     0
 10
356.806458
 20
415.829315
 11
358.896667
 21
413.739105
  0
LINE
  8
OBRYS
 62
     0
 10
358.896667
 20
414.038940
 11
356.892700
 21
416.042877
  0
LINE
  8
OBRYS
 62
     0
 10
356.977600
 20
416.255005
 11
358.896667
 21
414.335907
  0
LINE
  8
OBRYS
 62
     0
 10
358.896667
 20
414.635742
 11
357.062439
 21
416.469971
  0
LINE
  8
OBRYS
 62
     0
 10
357.147278
 20
416.682098
 11
358.896667
 21
414.932709
  0
LINE
  8
OBRYS
 62
     0
 10
358.896667
 20
415.232513
 11
357.233582
 21
416.895630
  0
LINE
  8
OBRYS
 62
     0
 10
357.318420
 20
417.107788
 11
358.895264
 21
415.530914
  0
LINE
  8
OBRYS
 62
     0
 10
358.896667
 20
415.829315
 11
357.403259
 21
417.322723
  0
LINE
  8
OBRYS
 62
     0
 10
357.489502
 20
417.536285
 11
358.896667
 21
416.129150
  0
LINE
  8
OBRYS
 62
     0
 10
358.896667
 20
416.426117
 11
357.574402
 21
417.748413
  0
LINE
  8
OBRYS
 62
     0
 10
357.660645
 20
417.961945
 11
358.896667
 21
416.725922
  0
LINE
  8
OBRYS
 62
     0
 10
358.896667
 20
417.022919
 11
357.744080
 21
418.175507
  0
LINE
  8
OBRYS
 62
     0
 10
357.830322
 20
418.389038
 11
358.896667
 21
417.322723
  0
LINE
  8
OBRYS
 62
     0
 10
358.896667
 20
417.619720
 11
357.915222
 21
418.601196
  0
LINE
  8
OBRYS
 62
     0
 10
358.001465
 20
418.814728
 11
358.896667
 21
417.919525
  0
LINE
  8
OBRYS
 62
     0
 10
358.895264
 20
418.217926
 11
358.084900
 21
419.028290
  0
LINE
  8
OBRYS
 62
     0
 10
358.171204
 20
419.241821
 11
358.896667
 21
418.516327
  0
LINE
  8
OBRYS
 62
     0
 10
358.896667
 20
418.816132
 11
358.257446
 21
419.455383
  0
LINE
  8
OBRYS
 62
     0
 10
358.342285
 20
419.667511
 11
358.896667
 21
419.113129
  0
LINE
  8
OBRYS
 62
     0
 10
358.896667
 20
419.412933
 11
358.427124
 21
419.882446
  0
LINE
  8
OBRYS
 62
     0
 10
358.512024
 20
420.094604
 11
358.896667
 21
419.709930
  0
LINE
  8
OBRYS
 62
     0
 10
358.896667
 20
420.009735
 11
358.598267
 21
420.308136
  0
LINE
  8
OBRYS
 62
     0
 10
358.683105
 20
420.520264
 11
358.896667
 21
420.306732
  0
LINE
  8
OBRYS
 62
     0
 10
358.896667
 20
420.606537
 11
358.769409
 21
420.733826
  0
LINE
  8
OBRYS
 62
     0
 10
358.852844
 20
420.947357
 11
358.895264
 21
420.904938
  0
ENDBLK
  8
OBRYS
  0
BLOCK
  8
OBRYS
  2
_12
 70
   64
 10
713.834956
 20
464.555625
  0
LINE
  8
OSA
 10
713.834956
 20
464.555625
 11
764.042829
 21
464.555625
  0
ARC
  8
OBRYS
 10
713.834956
 20
464.555625
 40
55.000000
 50
251.995547
 51
288.004453
  0
INSERT
  8
OBRYS
  2
__24
 62
     7
 10
712.300680
 20
411.055625
  0
ARC
  8
OBRYS
 10
626.835073
 20
464.422344
 40
60.000000
 50
354.868303
 51
5.387322
  0
ARC
  8
OBRYS
 10
800.834839
 20
464.688906
 40
60.000000
 50
174.868303
 51
185.387322
  0
ARC
  8
OBRYS
 10
713.968237
 20
377.555742
 40
60.000000
 50
84.868303
 51
95.387322
  0
ARC
  8
OBRYS
 10
713.701675
 20
551.555508
 40
60.000000
 50
264.868303
 51
275.387322
  0
LINE
  8
OSA
 10
713.834956
 20
464.555625
 11
713.834956
 21
516.564729
  0
LINE
  8
OSA
 10
713.834956
 20
464.555625
 11
663.627082
 21
464.555625
  0
ARC
  8
OBRYS
 10
748.834956
 20
414.055625
 40
5.500000
 50
0.000496
 51
180.000496
  0
LINE
  8
OBRYS
 10
754.334956
 20
414.055673
 11
754.334956
 21
401.555625
  0
LINE
  8
OBRYS
 10
743.334956
 20
414.055578
 11
743.334956
 21
401.555625
  0
LINE
  8
OBRYS
 10
684.334956
 20
414.055578
 11
684.334956
 21
401.555625
  0
LINE
  8
OBRYS
 10
673.334956
 20
414.055673
 11
673.334956
 21
401.555625
  0
ARC
  8
OBRYS
 10
678.834956
 20
414.055625
 40
5.500000
 50
359.999504
 51
179.999504
  0
LINE
  8
OSA
 10
713.834956
 20
464.555625
 11
713.834956
 21
391.109901
  0
ARC
  8
OBRYS
 10
729.834956
 20
394.555625
 40
1.000000
 50
0.000000
 51
90.000000
  0
LINE
  8
OBRYS
 10
729.834956
 20
395.555625
 11
713.834956
 21
395.555625
  0
ARC
  8
OBRYS
 10
697.834956
 20
394.555625
 40
1.000000
 50
90.000000
 51
180.000000
  0
LINE
  8
OBRYS
 10
697.834956
 20
395.555625
 11
713.834956
 21
395.555625
  0
LINE
  8
OBRYS
 62
     7
  6
DASHDOT
 10
678.834956
 20
419.555625
 11
678.834956
 21
393.555625
  0
LINE
  8
OBRYS
 62
     4
  6
HIDDEN2
 10
752.334956
 20
401.555625
 11
752.334956
 21
393.555625
  0
LINE
  8
OBRYS
 62
     4
  6
HIDDEN2
 10
745.334956
 20
401.555625
 11
745.334956
 21
393.555625
  0
LINE
  8
OBRYS
 62
     4
  6
HIDDEN2
 10
675.334956
 20
401.555625
 11
675.334956
 21
393.555625
  0
LINE
  8
OBRYS
 62
     4
  6
HIDDEN2
 10
682.334956
 20
401.555625
 11
682.334956
 21
393.555625
  0
ARC
  8
OBRYS
 10
739.772380
 20
457.055625
 40
2.000000
 50
90.000000
 51
163.872380
  0
LINE
  8
OBRYS
 10
746.334962
 20
459.055625
 11
739.772380
 21
459.055625
  0
ARC
  8
OBRYS
 10
721.334956
 20
438.618200
 40
2.000000
 50
106.127620
 51
180.000000
  0
LINE
  8
OBRYS
 10
719.334956
 20
432.055619
 11
719.334956
 21
438.618200
  0
ARC
  8
OBRYS
 10
706.334956
 20
438.618200
 40
2.000000
 50
0.000000
 51
73.872380
  0
LINE
  8
OBRYS
 10
708.334956
 20
432.055619
 11
708.334956
 21
438.618200
  0
ARC
  8
OBRYS
 10
687.897531
 20
457.055625
 40
2.000000
 50
16.127620
 51
90.000000
  0
LINE
  8
OBRYS
 10
681.334950
 20
459.055625
 11
687.897531
 21
459.055625
  0
ARC
  8
OBRYS
 10
687.897531
 20
472.055625
 40
2.000000
 50
270.000000
 51
343.872380
  0
LINE
  8
OBRYS
 10
681.334950
 20
470.055625
 11
687.897531
 21
470.055625
  0
ARC
  8
OBRYS
 10
706.334956
 20
490.493050
 40
2.000000
 50
286.127620
 51
360.000000
  0
LINE
  8
OBRYS
 10
708.334956
 20
497.055631
 11
708.334956
 21
490.493050
  0
ARC
  8
OBRYS
 10
739.772380
 20
472.055625
 40
2.000000
 50
196.127620
 51
270.000000
  0
LINE
  8
OBRYS
 10
746.334962
 20
470.055625
 11
739.772380
 21
470.055625
  0
ARC
  8
OBRYS
 10
721.334956
 20
490.493050
 40
2.000000
 50
180.000000
 51
253.872380
  0
LINE
  8
OBRYS
 10
719.334956
 20
497.055631
 11
719.334956
 21
490.493050
  0
LINE
  8
OBRYS
 10
730.834956
 20
399.555625
 11
696.834956
 21
399.555625
  0
LINE
  8
OBRYS
 10
734.404760
 20
401.555625
 11
731.840887
 21
401.555625
  0
LINE
  8
OBRYS
 10
693.265151
 20
401.555625
 11
695.829024
 21
401.555625
  0
ARC
  8
OBRYS
 10
736.834956
 20
403.555625
 40
2.000000
 50
180.000000
 51
270.000000
  0
ARC
  8
OBRYS
 10
690.834956
 20
403.555625
 40
2.000000
 50
270.000000
 51
360.000000
  0
ARC
  8
OBRYS
 10
713.834956
 20
432.055625
 40
5.500000
 50
180.000000
 51
360.000000
  0
ARC
  8
OBRYS
 10
746.334956
 20
464.555625
 40
5.500000
 50
270.000000
 51
90.000000
  0
ARC
  8
OBRYS
 10
681.334956
 20
464.555625
 40
5.500000
 50
90.000000
 51
270.000000
  0
ARC
  8
OBRYS
 10
713.834956
 20
497.055625
 40
5.500000
 50
0.000000
 51
180.000000
  0
LINE
  8
OBRYS
 62
     7
  6
DASHDOT
 10
748.834956
 20
419.555625
 11
748.834956
 21
393.555625
  0
CIRCLE
  8
OSA
 10
713.834956
 20
464.555625
 40
32.500000
  0
CIRCLE
  8
OBRYS
 10
713.834956
 20
464.555625
 40
42.500000
  0
ARC
  8
OBRYS
 10
713.681166
 20
464.555625
 40
51.408811
 50
290.284353
 51
293.402256
  0
ARC
  8
OBRYS
 10
713.988746
 20
464.555625
 40
51.408811
 50
246.597744
 51
249.715647
  0
LINE
  8
OBRYS
 10
734.834956
 20
418.476888
 11
734.834956
 21
403.555625
  0
ARC
  8
OBRYS
 10
736.834956
 20
418.476888
 40
2.000000
 50
116.525876
 51
180.000000
  0
LINE
  8
OBRYS
 10
730.834956
 20
415.288496
 11
730.834956
 21
393.555625
  0
ARC
  8
OBRYS
 10
728.834956
 20
415.288496
 40
2.000000
 50
0.000000
 51
106.933533
  0
ARC
  8
OBRYS
 10
698.834956
 20
415.288496
 40
2.000000
 50
73.066467
 51
180.000000
  0
LINE
  8
OBRYS
 10
696.834956
 20
415.288496
 11
696.834956
 21
393.555625
  0
ARC
  8
OBRYS
 10
690.834956
 20
418.476888
 40
2.000000
 50
0.000000
 51
63.474124
  0
LINE
  8
OBRYS
 10
692.834956
 20
418.476888
 11
692.834956
 21
403.555625
  0
LINE
  8
OBRYS
 10
745.267913
 20
435.951095
 11
751.493198
 21
429.725810
  0
LINE
  8
OBRYS
 10
742.439486
 20
433.122667
 11
748.670759
 21
426.891395
  0
LINE
  8
OBRYS
 10
685.230425
 20
433.122667
 11
678.999153
 21
426.891395
  0
LINE
  8
OBRYS
 10
682.401998
 20
435.951095
 11
676.176713
 21
429.725810
  0
LINE
  8
OBRYS
 10
715.834956
 20
507.008540
 11
715.834956
 21
512.513940
  0
LINE
  8
OBRYS
 10
711.834956
 20
507.008540
 11
711.834956
 21
512.513940
  0
LINE
  8
OBRYS
 10
685.230425
 20
495.988583
 11
681.337519
 21
499.881489
  0
LINE
  8
OBRYS
 10
682.401998
 20
493.160156
 11
678.509092
 21
497.053061
  0
LINE
  8
OBRYS
 10
671.382040
 20
466.555621
 11
665.876640
 21
466.555620
  0
LINE
  8
OBRYS
 10
671.382041
 20
462.555621
 11
665.876641
 21
462.555620
  0
LINE
  8
OBRYS
 10
742.439486
 20
495.988583
 11
746.332392
 21
499.881489
  0
LINE
  8
OBRYS
 10
745.267913
 20
493.160156
 11
749.160819
 21
497.053061
  0
LINE
  8
OBRYS
 10
756.287871
 20
466.555629
 11
761.793271
 21
466.555630
  0
LINE
  8
OBRYS
 10
756.287871
 20
462.555629
 11
761.793271
 21
462.555630
  0
ARC
  8
OBRYS
 10
713.834956
 20
464.555625
 40
48.500000
 50
0.000000
 51
180.000000
  0
ARC
  8
OBRYS
 10
713.834956
 20
464.555625
 40
55.000000
 50
292.446351
 51
331.862473
  0
ARC
  8
OBRYS
 10
713.834956
 20
464.555625
 40
55.000000
 50
208.137527
 51
247.553649
  0
LINE
  8
OSA
 62
     2
  6
CONTINUOUS
 10
665.334956
 20
393.555625
 11
696.834956
 21
393.555625
  0
LINE
  8
OBRYS
 10
665.334956
 20
464.555625
 11
665.334956
 21
393.555625
  0
LINE
  8
OSA
 62
     2
  6
CONTINUOUS
 10
730.834956
 20
393.555625
 11
762.334956
 21
393.555625
  0
LINE
  8
OBRYS
 10
762.334956
 20
464.555625
 11
762.334956
 21
393.555625
  0
LINE
  8
OBRYS
 10
736.834956
 20
401.555625
 11
760.334956
 21
401.555625
  0
ARC
  8
OBRYS
 10
760.334956
 20
399.555625
 40
2.000000
 50
0.000000
 51
90.000000
  0
LINE
  8
OBRYS
 10
667.334956
 20
401.555625
 11
690.834956
 21
401.555625
  0
ARC
  8
OBRYS
 10
667.334956
 20
399.555625
 40
2.000000
 50
90.000000
 51
180.000000
  0
INSERT
  8
OBRYS
  2
Srouby_s_valcovou_hlavou___25
 62
     7
 10
713.834956
 20
432.055625
  0
INSERT
  8
OBRYS
  2
Srouby_s_valcovou_hlavou___26
 62
     7
 10
746.334956
 20
464.555625
  0
INSERT
  8
OBRYS
  2
Srouby_s_valcovou_hlavou___27
 62
     7
 10
713.834956
 20
497.055625
  0
INSERT
  8
OBRYS
  2
Srouby_s_valcovou_hlavou___28
 62
     7
 10
681.334956
 20
464.555625
  0
ARC
  8
OBRYS
 10
711.034956
 20
476.355625
 40
0.200000
 50
90.000000
 51
180.000000
  0
LINE
  8
OBRYS
 10
711.034956
 20
476.555625
 11
716.634956
 21
476.555625
  0
LINE
  8
OBRYS
 10
710.834956
 20
473.569503
 11
710.834956
 21
476.355625
  0
ARC
  8
OBRYS
 10
716.634956
 20
476.355625
 40
0.200000
 50
0.000000
 51
90.000000
  0
LINE
  8
OBRYS
 10
716.834956
 20
476.355625
 11
716.834956
 21
473.569503
  0
ARC
  8
OBRYS
 10
713.834956
 20
464.555625
 40
9.500000
 50
108.408480
 51
71.591520
  0
CIRCLE
  8
OBRYS
 10
713.834956
 20
464.555625
 40
15.000000
  0
CIRCLE
  8
OBRYS
 10
713.834956
 20
464.555625
 40
23.500000
  0
CIRCLE
  8
OBRYS
 10
713.834956
 20
464.555625
 40
25.000000
  0
ENDBLK
  8
OBRYS
  0
BLOCK
  8
OBRYS
  2
__24
 70
   64
 10
712.300680
 20
411.055625
  0
INSERT
  8
OBRYS
  2
*X__29
 10
0.000000
 20
0.000000
  0
INSERT
  8
OBRYS
  2
*X__30
 10
0.000000
 20
0.000000
  0
LINE
  8
OBRYS
 10
718.446155
 20
411.055625
 11
718.446155
 21
421.055625
  0
LINE
  8
OBRYS
 10
717.676924
 20
421.055625
 11
717.676924
 21
411.055625
  0
ARC
  8
OBRYS
 10
717.676924
 20
417.978702
 40
3.076923
 50
90.000000
 51
180.000000
  0
LINE
  8
OBRYS
 10
714.600001
 20
417.978702
 11
714.600001
 21
414.132548
  0
ARC
  8
OBRYS
 10
717.676924
 20
414.132548
 40
3.076923
 50
180.000000
 51
270.000000
  0
ARC
  8
OBRYS
 10
718.446155
 20
417.978702
 40
3.076923
 50
0.000000
 51
90.000000
  0
LINE
  8
OBRYS
 10
721.523078
 20
414.132548
 11
721.523078
 21
417.978702
  0
ARC
  8
OBRYS
 10
718.446155
 20
414.132548
 40
3.076923
 50
270.000000
 51
360.000000
  0
LINE
  8
OBRYS
 10
709.223757
 20
421.055625
 11
709.223757
 21
411.055625
  0
LINE
  8
OBRYS
 10
713.069910
 20
414.901779
 11
713.069910
 21
413.363317
  0
LINE
  8
OBRYS
 10
713.069910
 20
414.901779
 11
712.300680
 21
414.901779
  0
LINE
  8
OBRYS
 10
713.069910
 20
413.363317
 11
712.300680
 21
413.363317
  0
LINE
  8
OBRYS
 10
712.300680
 20
413.363317
 11
712.300680
 21
411.055625
  0
LINE
  8
OBRYS
 10
712.300680
 20
421.055625
 11
712.300680
 21
414.901779
  0
LINE
  8
OBRYS
 10
709.223757
 20
421.055625
 11
712.300680
 21
421.055625
  0
LINE
  8
OBRYS
 10
712.300680
 20
411.055625
 11
709.223757
 21
411.055625
  0
LINE
  8
OBRYS
 10
708.454526
 20
421.055625
 11
708.454526
 21
413.363317
  0
LINE
  8
OBRYS
 10
708.454526
 20
413.363317
 11
705.377603
 21
413.363317
  0
LINE
  8
OBRYS
 10
705.377603
 20
413.363317
 11
708.454526
 21
421.055625
  0
INSERT
  8
OBRYS
  2
*X__31
 10
0.000000
 20
0.000000
  0
INSERT
  8
OBRYS
  2
*X__32
 10
0.000000
 20
0.000000
  0
ENDBLK
  8
OBRYS
  0
BLOCK
  8
OBRYS
  2
Srouby_s_valcovou_hlavou___25
 70
   66
 10
713.834956
 20
432.055625
  0
LINE
  8
OBRYS
 10
711.334956
 20
430.612240
 11
711.334956
 21
433.499010
  0
LINE
  8
OBRYS
 10
711.334956
 20
433.499010
 11
713.834956
 21
434.942394
  0
LINE
  8
OBRYS
 10
713.834956
 20
434.942394
 11
716.334956
 21
433.499010
  0
LINE
  8
OBRYS
 10
716.334956
 20
433.499010
 11
716.334956
 21
430.612240
  0
LINE
  8
OBRYS
 10
716.334956
 20
430.612240
 11
713.834956
 21
429.168856
  0
LINE
  8
OBRYS
 10
713.834956
 20
429.168856
 11
711.334956
 21
430.612240
  0
CIRCLE
  8
OBRYS
 10
713.834956
 20
432.055625
 40
2.886769
  0
CIRCLE
  8
OBRYS
 10
713.834956
 20
432.055625
 40
5.000000
  0
ENDBLK
  8
OBRYS
  0
BLOCK
  8
OBRYS
  2
Srouby_s_valcovou_hlavou___26
 70
   66
 10
746.334956
 20
464.555625
  0
LINE
  8
OBRYS
 10
743.834956
 20
463.112240
 11
743.834956
 21
465.999010
  0
LINE
  8
OBRYS
 10
743.834956
 20
465.999010
 11
746.334956
 21
467.442394
  0
LINE
  8
OBRYS
 10
746.334956
 20
467.442394
 11
748.834956
 21
465.999010
  0
LINE
  8
OBRYS
 10
748.834956
 20
465.999010
 11
748.834956
 21
463.112240
  0
LINE
  8
OBRYS
 10
748.834956
 20
463.112240
 11
746.334956
 21
461.668856
  0
LINE
  8
OBRYS
 10
746.334956
 20
461.668856
 11
743.834956
 21
463.112240
  0
CIRCLE
  8
OBRYS
 10
746.334956
 20
464.555625
 40
2.886769
  0
CIRCLE
  8
OBRYS
 10
746.334956
 20
464.555625
 40
5.000000
  0
ENDBLK
  8
OBRYS
  0
BLOCK
  8
OBRYS
  2
Srouby_s_valcovou_hlavou___27
 70
   66
 10
713.834956
 20
497.055625
  0
LINE
  8
OBRYS
 10
711.334956
 20
495.612240
 11
711.334956
 21
498.499010
  0
LINE
  8
OBRYS
 10
711.334956
 20
498.499010
 11
713.834956
 21
499.942394
  0
LINE
  8
OBRYS
 10
713.834956
 20
499.942394
 11
716.334956
 21
498.499010
  0
LINE
  8
OBRYS
 10
716.334956
 20
498.499010
 11
716.334956
 21
495.612240
  0
LINE
  8
OBRYS
 10
716.334956
 20
495.612240
 11
713.834956
 21
494.168856
  0
LINE
  8
OBRYS
 10
713.834956
 20
494.168856
 11
711.334956
 21
495.612240
  0
CIRCLE
  8
OBRYS
 10
713.834956
 20
497.055625
 40
2.886769
  0
CIRCLE
  8
OBRYS
 10
713.834956
 20
497.055625
 40
5.000000
  0
ENDBLK
  8
OBRYS
  0
BLOCK
  8
OBRYS
  2
Srouby_s_valcovou_hlavou___28
 70
   66
 10
681.334956
 20
464.555625
  0
LINE
  8
OBRYS
 10
678.834956
 20
463.112240
 11
678.834956
 21
465.999010
  0
LINE
  8
OBRYS
 10
678.834956
 20
465.999010
 11
681.334956
 21
467.442394
  0
LINE
  8
OBRYS
 10
681.334956
 20
467.442394
 11
683.834956
 21
465.999010
  0
LINE
  8
OBRYS
 10
683.834956
 20
465.999010
 11
683.834956
 21
463.112240
  0
LINE
  8
OBRYS
 10
683.834956
 20
463.112240
 11
681.334956
 21
461.668856
  0
LINE
  8
OBRYS
 10
681.334956
 20
461.668856
 11
678.834956
 21
463.112240
  0
CIRCLE
  8
OBRYS
 10
681.334956
 20
464.555625
 40
2.886769
  0
CIRCLE
  8
OBRYS
 10
681.334956
 20
464.555625
 40
5.000000
  0
ENDBLK
  8
OBRYS
  0
BLOCK
  8
OBRYS
  2
*X__29
 70
   65
 10
0.0
 20
0.0
  0
LINE
  8
OBRYS
 62
     0
 10
717.676147
 20
411.176117
 11
717.557373
 21
411.057312
  0
LINE
  8
OBRYS
 62
     0
 10
717.281616
 20
411.081360
 11
717.674744
 21
411.474518
  0
LINE
  8
OBRYS
 62
     0
 10
717.676147
 20
411.772919
 11
717.027039
 21
411.123779
  0
LINE
  8
OBRYS
 62
     0
 10
716.789429
 20
411.186005
 11
717.674744
 21
412.071320
  0
LINE
  8
OBRYS
 62
     0
 10
717.676147
 20
412.369720
 11
716.567444
 21
411.260956
  0
LINE
  8
OBRYS
 62
     0
 10
716.358093
 20
411.351471
 11
717.674744
 21
412.668121
  0
LINE
  8
OBRYS
 62
     0
 10
717.676147
 20
412.966522
 11
716.162964
 21
411.453308
  0
LINE
  8
OBRYS
 62
     0
 10
715.976257
 20
411.566437
 11
717.676147
 21
413.266327
  0
LINE
  8
OBRYS
 62
     0
 10
717.674744
 20
413.564728
 11
715.802307
 21
411.692291
  0
LINE
  8
OBRYS
 62
     0
 10
715.639709
 20
411.826660
 11
717.676147
 21
413.863129
  0
LINE
  8
OBRYS
 62
     0
 10
717.674744
 20
414.161530
 11
715.485535
 21
411.972321
  0
LINE
  8
OBRYS
 62
     0
 10
715.342712
 20
412.126465
 11
717.676147
 21
414.459930
  0
LINE
  8
OBRYS
 62
     0
 10
717.674744
 20
414.758331
 11
715.209778
 21
412.293335
  0
LINE
  8
OBRYS
 62
     0
 10
715.088135
 20
412.468719
 11
717.676147
 21
415.056732
  0
LINE
  8
OBRYS
 62
     0
 10
717.674744
 20
415.355103
 11
714.976440
 21
412.656799
  0
LINE
  8
OBRYS
 62
     0
 10
714.877441
 20
412.854797
 11
717.676147
 21
415.653503
  0
LINE
  8
OBRYS
 62
     0
 10
717.676147
 20
415.953339
 11
714.789734
 21
413.066925
  0
LINE
  8
OBRYS
 62
     0
 10
714.714783
 20
413.291779
 11
717.674744
 21
416.251740
  0
LINE
  8
OBRYS
 62
     0
 10
717.676147
 20
416.550140
 11
714.658203
 21
413.532196
  0
LINE
  8
OBRYS
 62
     0
 10
714.617188
 20
413.790985
 11
717.674744
 21
416.848511
  0
LINE
  8
OBRYS
 62
     0
 10
717.676147
 20
417.146912
 11
714.598816
 21
414.069611
  0
LINE
  8
OBRYS
 62
     0
 10
714.598816
 20
414.369415
 11
717.674744
 21
417.445313
  0
LINE
  8
OBRYS
 62
     0
 10
717.676147
 20
417.743713
 11
714.598816
 21
414.666382
  0
LINE
  8
OBRYS
 62
     0
 10
714.598816
 20
414.966217
 11
717.674744
 21
418.042114
  0
LINE
  8
OBRYS
 62
     0
 10
717.676147
 20
418.340515
 11
714.598816
 21
415.263184
  0
LINE
  8
OBRYS
 62
     0
 10
714.598816
 20
415.563019
 11
717.674744
 21
418.638916
  0
LINE
  8
OBRYS
 62
     0
 10
717.676147
 20
418.937317
 11
714.598816
 21
415.859985
  0
LINE
  8
OBRYS
 62
     0
 10
714.598816
 20
416.159790
 11
717.676147
 21
419.237122
  0
LINE
  8
OBRYS
 62
     0
 10
717.674744
 20
419.535522
 11
714.597412
 21
416.458191
  0
LINE
  8
OBRYS
 62
     0
 10
714.598816
 20
416.756592
 11
717.676147
 21
419.833923
  0
LINE
  8
OBRYS
 62
     0
 10
717.674744
 20
420.132324
 11
714.598816
 21
417.056427
  0
LINE
  8
OBRYS
 62
     0
 10
714.598816
 20
417.353394
 11
717.676147
 21
420.430725
  0
LINE
  8
OBRYS
 62
     0
 10
717.674744
 20
420.729126
 11
714.598816
 21
417.653198
  0
LINE
  8
OBRYS
 62
     0
 10
714.598816
 20
417.950195
 11
717.676147
 21
421.027527
  0
LINE
  8
OBRYS
 62
     0
 10
717.391907
 20
421.043091
 11
714.611572
 21
418.262726
  0
LINE
  8
OBRYS
 62
     0
 10
714.665283
 20
418.613464
 11
717.039734
 21
420.987915
  0
LINE
  8
OBRYS
 62
     0
 10
716.621155
 20
420.869141
 11
714.785522
 21
419.033478
  0
LINE
  8
OBRYS
 62
     0
 10
715.071167
 20
419.618958
 11
716.034241
 21
420.582062
  0
LINE
  8
OBRYS
 62
     0
 10
715.771240
 20
411.714935
 11
715.257874
 21
412.228302
  0
LINE
  8
OBRYS
 62
     0
 10
714.835022
 20
412.950958
 11
716.493896
 21
411.292084
  0
LINE
  8
OBRYS
 62
     0
 10
716.937927
 20
411.144989
 11
714.687927
 21
413.395020
  0
LINE
  8
OBRYS
 62
     0
 10
714.621460
 20
413.761292
 11
717.304199
 21
411.078522
  0
LINE
  8
OBRYS
 62
     0
 10
717.625244
 20
411.057312
 11
714.600220
 21
414.082336
  0
LINE
  8
OBRYS
 62
     0
 10
714.598816
 20
414.380737
 11
717.674744
 21
411.304810
  0
LINE
  8
OBRYS
 62
     0
 10
717.676147
 20
411.603210
 11
714.598816
 21
414.680542
  0
LINE
  8
OBRYS
 62
     0
 10
714.598816
 20
414.977509
 11
717.674744
 21
411.901611
  0
LINE
  8
OBRYS
 62
     0
 10
717.676147
 20
412.200012
 11
714.598816
 21
415.277344
  0
LINE
  8
OBRYS
 62
     0
 10
714.598816
 20
415.574310
 11
717.674744
 21
412.498413
  0
LINE
  8
OBRYS
 62
     0
 10
717.676147
 20
412.796814
 11
714.598816
 21
415.874146
  0
LINE
  8
OBRYS
 62
     0
 10
714.597412
 20
416.172546
 11
717.674744
 21
413.095215
  0
LINE
  8
OBRYS
 62
     0
 10
717.676147
 20
413.393616
 11
714.598816
 21
416.470917
  0
LINE
  8
OBRYS
 62
     0
 10
714.597412
 20
416.769318
 11
717.674744
 21
413.691986
  0
LINE
  8
OBRYS
 62
     0
 10
717.674744
 20
413.991821
 11
714.598816
 21
417.067719
  0
LINE
  8
OBRYS
 62
     0
 10
714.598816
 20
417.367554
 11
717.676147
 21
414.290222
  0
LINE
  8
OBRYS
 62
     0
 10
717.674744
 20
414.588623
 11
714.598816
 21
417.664520
  0
LINE
  8
OBRYS
 62
     0
 10
714.598816
 20
417.964355
 11
717.676147
 21
414.887024
  0
LINE
  8
OBRYS
 62
     0
 10
717.674744
 20
415.185425
 11
714.610168
 21
418.250000
  0
LINE
  8
OBRYS
 62
     0
 10
714.645508
 20
418.514465
 11
717.676147
 21
415.483795
  0
LINE
  8
OBRYS
 62
     0
 10
717.674744
 20
415.782196
 11
714.699219
 21
418.757721
  0
LINE
  8
OBRYS
 62
     0
 10
714.768555
 20
418.988220
 11
717.676147
 21
416.080597
  0
LINE
  8
OBRYS
 62
     0
 10
717.674744
 20
416.378998
 11
714.851990
 21
419.201782
  0
LINE
  8
OBRYS
 62
     0
 10
714.949524
 20
419.404022
 11
717.676147
 21
416.677399
  0
LINE
  8
OBRYS
 62
     0
 10
717.676147
 20
416.977234
 11
715.058472
 21
419.594940
  0
LINE
  8
OBRYS
 62
     0
 10
715.175842
 20
419.774536
 11
717.674744
 21
417.275604
  0
LINE
  8
OBRYS
 62
     0
 10
717.676147
 20
417.574005
 11
715.307373
 21
419.942810
  0
LINE
  8
OBRYS
 62
     0
 10
715.447327
 20
420.099792
 11
717.674744
 21
417.872406
  0
LINE
  8
OBRYS
 62
     0
 10
717.676147
 20
418.170807
 11
715.598694
 21
420.248291
  0
LINE
  8
OBRYS
 62
     0
 10
715.758484
 20
420.385468
 11
717.674744
 21
418.469208
  0
LINE
  8
OBRYS
 62
     0
 10
717.676147
 20
418.767609
 11
715.931030
 21
420.512756
  0
LINE
  8
OBRYS
 62
     0
 10
716.112061
 20
420.628723
 11
717.674744
 21
419.066010
  0
LINE
  8
OBRYS
 62
     0
 10
717.676147
 20
419.364410
 11
716.305786
 21
420.734772
  0
LINE
  8
OBRYS
 62
     0
 10
716.512268
 20
420.828125
 11
717.676147
 21
419.664215
  0
LINE
  8
OBRYS
 62
     0
 10
717.674744
 20
419.962616
 11
716.730042
 21
420.907318
  0
LINE
  8
OBRYS
 62
     0
 10
716.964783
 20
420.972382
 11
717.676147
 21
420.261017
  0
LINE
  8
OBRYS
 62
     0
 10
717.674744
 20
420.559418
 11
717.213684
 21
421.020447
  0
LINE
  8
OBRYS
 62
     0
 10
717.483826
 20
421.050140
 11
717.676147
 21
420.857819
  0
ENDBLK
  8
OBRYS
  0
BLOCK
  8
OBRYS
  2
*X__30
 70
   65
 10
0.0
 20
0.0
  0
LINE
  8
OBRYS
 62
     0
 10
720.984009
 20
412.393768
 11
720.183533
 21
411.593323
  0
LINE
  8
OBRYS
 62
     0
 10
719.552795
 20
411.262390
 11
721.314941
 21
413.024506
  0
LINE
  8
OBRYS
 62
     0
 10
721.446472
 20
413.453003
 11
719.124329
 21
411.130859
  0
LINE
  8
OBRYS
 62
     0
 10
718.766541
 20
411.072876
 11
721.504456
 21
413.810791
  0
LINE
  8
OBRYS
 62
     0
 10
721.522827
 20
414.126160
 11
718.451172
 21
411.054504
  0
LINE
  8
OBRYS
 62
     0
 10
718.444092
 20
411.347229
 11
721.521423
 21
414.424561
  0
LINE
  8
OBRYS
 62
     0
 10
721.521423
 20
414.724365
 11
718.444092
 21
411.647034
  0
LINE
  8
OBRYS
 62
     0
 10
718.445496
 20
411.945435
 11
721.521423
 21
415.021362
  0
LINE
  8
OBRYS
 62
     0
 10
721.521423
 20
415.321167
 11
718.444092
 21
412.243835
  0
LINE
  8
OBRYS
 62
     0
 10
718.445496
 20
412.542236
 11
721.521423
 21
415.618164
  0
LINE
  8
OBRYS
 62
     0
 10
721.521423
 20
415.917969
 11
718.444092
 21
412.840637
  0
LINE
  8
OBRYS
 62
     0
 10
718.445496
 20
413.139038
 11
721.522827
 21
416.216370
  0
LINE
  8
OBRYS
 62
     0
 10
721.521423
 20
416.514771
 11
718.444092
 21
413.437439
  0
LINE
  8
OBRYS
 62
     0
 10
718.445496
 20
413.735840
 11
721.522827
 21
416.813171
  0
LINE
  8
OBRYS
 62
     0
 10
721.521423
 20
417.111572
 11
718.444092
 21
414.034241
  0
LINE
  8
OBRYS
 62
     0
 10
718.444092
 20
414.334045
 11
721.521423
 21
417.411377
  0
LINE
  8
OBRYS
 62
     0
 10
721.521423
 20
417.708374
 11
718.445496
 21
414.632446
  0
LINE
  8
OBRYS
 62
     0
 10
718.444092
 20
414.930847
 11
721.521423
 21
418.008179
  0
LINE
  8
OBRYS
 62
     0
 10
721.505859
 20
418.289612
 11
718.445496
 21
415.229248
  0
LINE
  8
OBRYS
 62
     0
 10
718.444092
 20
415.527649
 11
721.467651
 21
418.551239
  0
LINE
  8
OBRYS
 62
     0
 10
721.412537
 20
418.793060
 11
718.445496
 21
415.826050
  0
LINE
  8
OBRYS
 62
     0
 10
718.444092
 20
416.124451
 11
721.340393
 21
419.020752
  0
LINE
  8
OBRYS
 62
     0
 10
721.255554
 20
419.232880
 11
718.445496
 21
416.422852
  0
LINE
  8
OBRYS
 62
     0
 10
718.444092
 20
416.721252
 11
721.156555
 21
419.433716
  0
LINE
  8
OBRYS
 62
     0
 10
721.044800
 20
419.621796
 11
718.444092
 21
417.021057
  0
LINE
  8
OBRYS
 62
     0
 10
718.445496
 20
417.319458
 11
720.924622
 21
419.798584
  0
LINE
  8
OBRYS
 62
     0
 10
720.793091
 20
419.966858
 11
718.444092
 21
417.617859
  0
LINE
  8
OBRYS
 62
     0
 10
718.445496
 20
417.916260
 11
720.651672
 21
420.122437
  0
LINE
  8
OBRYS
 62
     0
 10
720.498901
 20
420.269501
 11
718.444092
 21
418.214661
  0
LINE
  8
OBRYS
 62
     0
 10
718.445496
 20
418.513062
 11
720.337708
 21
420.405273
  0
LINE
  8
OBRYS
 62
     0
 10
720.163757
 20
420.531128
 11
718.444092
 21
418.811462
  0
LINE
  8
OBRYS
 62
     0
 10
718.445496
 20
419.109863
 11
719.979919
 21
420.644287
  0
LINE
  8
OBRYS
 62
     0
 10
719.784729
 20
420.748932
 11
718.444092
 21
419.408264
  0
LINE
  8
OBRYS
 62
     0
 10
718.445496
 20
419.706665
 11
719.578247
 21
420.839447
  0
LINE
  8
OBRYS
 62
     0
 10
719.356262
 20
420.917206
 11
718.445496
 21
420.006470
  0
LINE
  8
OBRYS
 62
     0
 10
718.444092
 20
420.304871
 11
719.120056
 21
420.980865
  0
LINE
  8
OBRYS
 62
     0
 10
718.868347
 20
421.026123
 11
718.445496
 21
420.603271
  0
LINE
  8
OBRYS
 62
     0
 10
718.444092
 20
420.901672
 11
718.595398
 21
421.052979
  0
LINE
  8
OBRYS
 62
     0
 10
718.520447
 20
411.055908
 11
718.444092
 21
411.132263
  0
LINE
  8
OBRYS
 62
     0
 10
718.445496
 20
411.430664
 11
718.799072
 21
411.077118
  0
LINE
  8
OBRYS
 62
     0
 10
719.056458
 20
411.116730
 11
718.444092
 21
411.729065
  0
LINE
  8
OBRYS
 62
     0
 10
718.445496
 20
412.027466
 11
719.296875
 21
411.176117
  0
LINE
  8
OBRYS
 62
     0
 10
719.520264
 20
411.249664
 11
718.444092
 21
412.325867
  0
LINE
  8
OBRYS
 62
     0
 10
718.445496
 20
412.624268
 11
719.732422
 21
411.337341
  0
LINE
  8
OBRYS
 62
     0
 10
719.929016
 20
411.437744
 11
718.444092
 21
412.922668
  0
LINE
  8
OBRYS
 62
     0
 10
718.444092
 20
413.222473
 11
720.117065
 21
411.549469
  0
LINE
  8
OBRYS
 62
     0
 10
720.293884
 20
411.672516
 11
718.445496
 21
413.520874
  0
LINE
  8
OBRYS
 62
     0
 10
718.444092
 20
413.819275
 11
720.457886
 21
411.805450
  0
LINE
  8
OBRYS
 62
     0
 10
720.613464
 20
411.949677
 11
718.445496
 21
414.117676
  0
LINE
  8
OBRYS
 62
     0
 10
718.444092
 20
414.416077
 11
720.757751
 21
412.102417
  0
LINE
  8
OBRYS
 62
     0
 10
720.892090
 20
412.267883
 11
718.445496
 21
414.714478
  0
LINE
  8
OBRYS
 62
     0
 10
718.444092
 20
415.012878
 11
721.015137
 21
412.441833
  0
LINE
  8
OBRYS
 62
     0
 10
721.128235
 20
412.628510
 11
718.445496
 21
415.311279
  0
LINE
  8
OBRYS
 62
     0
 10
718.444092
 20
415.609680
 11
721.230103
 21
412.823669
  0
LINE
  8
OBRYS
 62
     0
 10
721.319153
 20
413.034393
 11
718.444092
 21
415.909485
  0
LINE
  8
OBRYS
 62
     0
 10
718.445496
 20
416.207886
 11
721.395569
 21
413.257843
  0
LINE
  8
OBRYS
 62
     0
 10
721.454956
 20
413.495422
 11
718.444092
 21
416.506287
  0
LINE
  8
OBRYS
 62
     0
 10
718.445496
 20
416.804688
 11
721.498779
 21
413.751404
  0
LINE
  8
OBRYS
 62
     0
 10
721.520020
 20
414.027161
 11
718.444092
 21
417.103088
  0
LINE
  8
OBRYS
 62
     0
 10
718.445496
 20
417.401489
 11
721.521423
 21
414.325562
  0
LINE
  8
OBRYS
 62
     0
 10
721.521423
 20
414.622559
 11
718.444092
 21
417.699890
  0
LINE
  8
OBRYS
 62
     0
 10
718.445496
 20
417.998291
 11
721.521423
 21
414.922363
  0
LINE
  8
OBRYS
 62
     0
 10
721.521423
 20
415.219360
 11
718.444092
 21
418.296692
  0
LINE
  8
OBRYS
 62
     0
 10
718.444092
 20
418.596497
 11
721.521423
 21
415.519165
  0
LINE
  8
OBRYS
 62
     0
 10
721.522827
 20
415.817566
 11
718.445496
 21
418.894897
  0
LINE
  8
OBRYS
 62
     0
 10
718.444092
 20
419.193298
 11
721.521423
 21
416.115967
  0
LINE
  8
OBRYS
 62
     0
 10
721.522827
 20
416.414368
 11
718.445496
 21
419.491699
  0
LINE
  8
OBRYS
 62
     0
 10
718.444092
 20
419.790100
 11
721.521423
 21
416.712769
  0
LINE
  8
OBRYS
 62
     0
 10
721.521423
 20
417.012573
 11
718.445496
 21
420.088501
  0
LINE
  8
OBRYS
 62
     0
 10
718.444092
 20
420.386902
 11
721.521423
 21
417.309570
  0
LINE
  8
OBRYS
 62
     0
 10
721.521423
 20
417.609375
 11
718.445496
 21
420.685272
  0
LINE
  8
OBRYS
 62
     0
 10
718.444092
 20
420.983673
 11
721.521423
 21
417.906372
  0
LINE
  8
OBRYS
 62
     0
 10
721.512939
 20
418.214661
 11
718.681641
 21
421.045898
  0
LINE
  8
OBRYS
 62
     0
 10
719.026733
 20
421.000671
 11
721.466248
 21
418.561127
  0
LINE
  8
OBRYS
 62
     0
 10
721.358765
 20
418.965607
 11
719.431213
 21
420.893188
  0
LINE
  8
OBRYS
 62
     0
 10
719.975647
 20
420.648529
 11
721.114136
 21
419.510071
  0
ENDBLK
  8
OBRYS
  0
BLOCK
  8
OBRYS
  2
*X__31
 70
   65
 10
0.0
 20
0.0
  0
LINE
  8
OBRYS
 62
     0
 10
712.301331
 20
411.235962
 11
712.120300
 21
411.054932
  0
LINE
  8
OBRYS
 62
     0
 10
711.820496
 20
411.054932
 11
712.299927
 21
411.534363
  0
LINE
  8
OBRYS
 62
     0
 10
712.301331
 20
411.832764
 11
711.522095
 21
411.053528
  0
LINE
  8
OBRYS
 62
     0
 10
711.223694
 20
411.054932
 11
712.299927
 21
412.131165
  0
LINE
  8
OBRYS
 62
     0
 10
712.301331
 20
412.429565
 11
710.925293
 21
411.053528
  0
LINE
  8
OBRYS
 62
     0
 10
710.626892
 20
411.054932
 11
712.299927
 21
412.727966
  0
LINE
  8
OBRYS
 62
     0
 10
712.934875
 20
413.362946
 11
713.069214
 21
413.497284
  0
LINE
  8
OBRYS
 62
     0
 10
713.070618
 20
413.795685
 11
712.636475
 21
413.361511
  0
LINE
  8
OBRYS
 62
     0
 10
712.301331
 20
413.026367
 11
710.328491
 21
411.053528
  0
LINE
  8
OBRYS
 62
     0
 10
710.030090
 20
411.054932
 11
712.299927
 21
413.324768
  0
LINE
  8
OBRYS
 62
     0
 10
712.336670
 20
413.361511
 11
713.069214
 21
414.094086
  0
LINE
  8
OBRYS
 62
     0
 10
713.070618
 20
414.392487
 11
709.731689
 21
411.053528
  0
LINE
  8
OBRYS
 62
     0
 10
709.433289
 20
411.054932
 11
713.069214
 21
414.690887
  0
LINE
  8
OBRYS
 62
     0
 10
712.981567
 20
414.900177
 11
709.223999
 21
411.142609
  0
LINE
  8
OBRYS
 62
     0
 10
709.223999
 20
411.442444
 11
712.681763
 21
414.900177
  0
LINE
  8
OBRYS
 62
     0
 10
712.383362
 20
414.901611
 11
709.222595
 21
411.740845
  0
LINE
  8
OBRYS
 62
     0
 10
709.223999
 20
412.039246
 11
712.301331
 21
415.116547
  0
LINE
  8
OBRYS
 62
     0
 10
712.299927
 20
415.414948
 11
709.223999
 21
412.339050
  0
LINE
  8
OBRYS
 62
     0
 10
709.223999
 20
412.636017
 11
712.301331
 21
415.713348
  0
LINE
  8
OBRYS
 62
     0
 10
712.299927
 20
416.011749
 11
709.223999
 21
412.935852
  0
LINE
  8
OBRYS
 62
     0
 10
709.223999
 20
413.232819
 11
712.301331
 21
416.310150
  0
LINE
  8
OBRYS
 62
     0
 10
712.299927
 20
416.608551
 11
709.223999
 21
413.532654
  0
LINE
  8
OBRYS
 62
     0
 10
709.223999
 20
413.829620
 11
712.301331
 21
416.906952
  0
LINE
  8
OBRYS
 62
     0
 10
712.301331
 20
417.206757
 11
709.223999
 21
414.129456
  0
LINE
  8
OBRYS
 62
     0
 10
709.222595
 20
414.427826
 11
712.299927
 21
417.505157
  0
LINE
  8
OBRYS
 62
     0
 10
712.301331
 20
417.803558
 11
709.223999
 21
414.726227
  0
LINE
  8
OBRYS
 62
     0
 10
709.223999
 20
415.026062
 11
712.299927
 21
418.101959
  0
LINE
  8
OBRYS
 62
     0
 10
712.301331
 20
418.400360
 11
709.223999
 21
415.323029
  0
LINE
  8
OBRYS
 62
     0
 10
709.223999
 20
415.622864
 11
712.299927
 21
418.698761
  0
LINE
  8
OBRYS
 62
     0
 10
712.301331
 20
418.997162
 11
709.223999
 21
415.919830
  0
LINE
  8
OBRYS
 62
     0
 10
709.223999
 20
416.219635
 11
712.299927
 21
419.295563
  0
LINE
  8
OBRYS
 62
     0
 10
712.301331
 20
419.593964
 11
709.223999
 21
416.516632
  0
LINE
  8
OBRYS
 62
     0
 10
709.223999
 20
416.816437
 11
712.301331
 21
419.893768
  0
LINE
  8
OBRYS
 62
     0
 10
712.299927
 20
420.192169
 11
709.222595
 21
417.114838
  0
LINE
  8
OBRYS
 62
     0
 10
709.223999
 20
417.413239
 11
712.301331
 21
420.490570
  0
LINE
  8
OBRYS
 62
     0
 10
712.299927
 20
420.788971
 11
709.223999
 21
417.713043
  0
LINE
  8
OBRYS
 62
     0
 10
709.223999
 20
418.010040
 11
712.267395
 21
421.053436
  0
LINE
  8
OBRYS
 62
     0
 10
711.968994
 20
421.054840
 11
709.223999
 21
418.309845
  0
LINE
  8
OBRYS
 62
     0
 10
709.223999
 20
418.606842
 11
711.670593
 21
421.053436
  0
LINE
  8
OBRYS
 62
     0
 10
711.372192
 20
421.054840
 11
709.223999
 21
418.906647
  0
LINE
  8
OBRYS
 62
     0
 10
709.223999
 20
419.203644
 11
711.073792
 21
421.053436
  0
LINE
  8
OBRYS
 62
     0
 10
710.775391
 20
421.054840
 11
709.223999
 21
419.503448
  0
LINE
  8
OBRYS
 62
     0
 10
709.222595
 20
419.801849
 11
710.475586
 21
421.054840
  0
LINE
  8
OBRYS
 62
     0
 10
710.177185
 20
421.053436
 11
709.223999
 21
420.100250
  0
LINE
  8
OBRYS
 62
     0
 10
709.222595
 20
420.398651
 11
709.878784
 21
421.054840
  0
LINE
  8
OBRYS
 62
     0
 10
709.580383
 20
421.053436
 11
709.223999
 21
420.697052
  0
LINE
  8
OBRYS
 62
     0
 10
709.223999
 20
420.996857
 11
709.281982
 21
421.054840
  0
LINE
  8
OBRYS
 62
     0
 10
709.348450
 20
411.054932
 11
709.223999
 21
411.179382
  0
LINE
  8
OBRYS
 62
     0
 10
709.222595
 20
411.477783
 11
709.646851
 21
411.053528
  0
LINE
  8
OBRYS
 62
     0
 10
709.945251
 20
411.054932
 11
709.223999
 21
411.776184
  0
LINE
  8
OBRYS
 62
     0
 10
709.223999
 20
412.075989
 11
710.245056
 21
411.054932
  0
LINE
  8
OBRYS
 62
     0
 10
710.543457
 20
411.053528
 11
709.223999
 21
412.372986
  0
LINE
  8
OBRYS
 62
     0
 10
709.223999
 20
412.672791
 11
710.841858
 21
411.054932
  0
LINE
  8
OBRYS
 62
     0
 10
711.140259
 20
411.053528
 11
709.223999
 21
412.969788
  0
LINE
  8
OBRYS
 62
     0
 10
709.223999
 20
413.269592
 11
711.438660
 21
411.054932
  0
LINE
  8
OBRYS
 62
     0
 10
711.737061
 20
411.053528
 11
709.223999
 21
413.566589
  0
LINE
  8
OBRYS
 62
     0
 10
709.223999
 20
413.866394
 11
712.035461
 21
411.054932
  0
LINE
  8
OBRYS
 62
     0
 10
712.299927
 20
411.087463
 11
709.222595
 21
414.164795
  0
LINE
  8
OBRYS
 62
     0
 10
709.223999
 20
414.463196
 11
712.301331
 21
411.385864
  0
LINE
  8
OBRYS
 62
     0
 10
712.299927
 20
411.684265
 11
709.222595
 21
414.761597
  0
LINE
  8
OBRYS
 62
     0
 10
709.223999
 20
415.059998
 11
712.301331
 21
411.982666
  0
LINE
  8
OBRYS
 62
     0
 10
712.301331
 20
412.282471
 11
709.223999
 21
415.359802
  0
LINE
  8
OBRYS
 62
     0
 10
709.223999
 20
415.656799
 11
712.299927
 21
412.580872
  0
LINE
  8
OBRYS
 62
     0
 10
712.301331
 20
412.879272
 11
709.223999
 21
415.956604
  0
LINE
  8
OBRYS
 62
     0
 10
709.223999
 20
416.253601
 11
712.299927
 21
413.177673
  0
LINE
  8
OBRYS
 62
     0
 10
712.415894
 20
413.361511
 11
709.223999
 21
416.553406
  0
LINE
  8
OBRYS
 62
     0
 10
709.222595
 20
416.851807
 11
712.712830
 21
413.361511
  0
LINE
  8
OBRYS
 62
     0
 10
713.012634
 20
413.361511
 11
709.223999
 21
417.150208
  0
LINE
  8
OBRYS
 62
     0
 10
709.222595
 20
417.448608
 11
713.069214
 21
413.601929
  0
LINE
  8
OBRYS
 62
     0
 10
713.069214
 20
413.901764
 11
709.223999
 21
417.747009
  0
LINE
  8
OBRYS
 62
     0
 10
709.223999
 20
418.046814
 11
712.301331
 21
414.969482
  0
LINE
  8
OBRYS
 62
     0
 10
712.369202
 20
414.901611
 11
713.070618
 21
414.200165
  0
LINE
  8
OBRYS
 62
     0
 10
713.069214
 20
414.498535
 11
712.667603
 21
414.900177
  0
LINE
  8
OBRYS
 62
     0
 10
712.299927
 20
415.267883
 11
709.223999
 21
418.343811
  0
LINE
  8
OBRYS
 62
     0
 10
709.223999
 20
418.643616
 11
712.301331
 21
415.566284
  0
LINE
  8
OBRYS
 62
     0
 10
712.967407
 20
414.900177
 11
713.070618
 21
414.796936
  0
LINE
  8
OBRYS
 62
     0
 10
712.299927
 20
415.864685
 11
709.223999
 21
418.940582
  0
LINE
  8
OBRYS
 62
     0
 10
709.223999
 20
419.240417
 11
712.301331
 21
416.163086
  0
LINE
  8
OBRYS
 62
     0
 10
712.299927
 20
416.461487
 11
709.223999
 21
419.537384
  0
LINE
  8
OBRYS
 62
     0
 10
709.223999
 20
419.837219
 11
712.301331
 21
416.759888
  0
LINE
  8
OBRYS
 62
     0
 10
712.299927
 20
417.058289
 11
709.222595
 21
420.135620
  0
LINE
  8
OBRYS
 62
     0
 10
709.223999
 20
420.433990
 11
712.301331
 21
417.356689
  0
LINE
  8
OBRYS
 62
     0
 10
712.301331
 20
417.656494
 11
709.223999
 21
420.733826
  0
LINE
  8
OBRYS
 62
     0
 10
709.223999
 20
421.030792
 11
712.299927
 21
417.954895
  0
LINE
  8
OBRYS
 62
     0
 10
712.301331
 20
418.253296
 11
709.499756
 21
421.054840
  0
LINE
  8
OBRYS
 62
     0
 10
709.798157
 20
421.053436
 11
712.299927
 21
418.551697
  0
LINE
  8
OBRYS
 62
     0
 10
712.301331
 20
418.850098
 11
710.096558
 21
421.054840
  0
LINE
  8
OBRYS
 62
     0
 10
710.394958
 20
421.053436
 11
712.299927
 21
419.148499
  0
LINE
  8
OBRYS
 62
     0
 10
712.301331
 20
419.446869
 11
710.693359
 21
421.054840
  0
LINE
  8
OBRYS
 62
     0
 10
710.991760
 20
421.053436
 11
712.299927
 21
419.745270
  0
LINE
  8
OBRYS
 62
     0
 10
712.301331
 20
420.043671
 11
711.290161
 21
421.054840
  0
LINE
  8
OBRYS
 62
     0
 10
711.589966
 20
421.054840
 11
712.301331
 21
420.343506
  0
LINE
  8
OBRYS
 62
     0
 10
712.299927
 20
420.641907
 11
711.888367
 21
421.053436
  0
LINE
  8
OBRYS
 62
     0
 10
712.186768
 20
421.054840
 11
712.301331
 21
420.940308
  0
ENDBLK
  8
OBRYS
  0
BLOCK
  8
OBRYS
  2
*X__32
 70
   65
 10
0.0
 20
0.0
  0
LINE
  8
OBRYS
 62
     0
 10
708.454651
 20
413.659912
 11
708.157654
 21
413.362946
  0
LINE
  8
OBRYS
 62
     0
 10
707.859253
 20
413.361511
 11
708.454651
 21
413.956909
  0
LINE
  8
OBRYS
 62
     0
 10
708.454651
 20
414.256714
 11
707.560852
 21
413.362946
  0
LINE
  8
OBRYS
 62
     0
 10
707.262451
 20
413.361511
 11
708.454651
 21
414.553711
  0
LINE
  8
OBRYS
 62
     0
 10
708.454651
 20
414.853516
 11
706.962646
 21
413.361511
  0
LINE
  8
OBRYS
 62
     0
 10
706.665649
 20
413.361511
 11
708.454651
 21
415.150513
  0
LINE
  8
OBRYS
 62
     0
 10
708.454651
 20
415.450317
 11
706.365845
 21
413.361511
  0
LINE
  8
OBRYS
 62
     0
 10
706.068848
 20
413.361511
 11
708.454651
 21
415.747314
  0
LINE
  8
OBRYS
 62
     0
 10
708.454651
 20
416.047119
 11
705.769043
 21
413.361511
  0
LINE
  8
OBRYS
 62
     0
 10
705.470642
 20
413.362946
 11
708.453247
 21
416.345520
  0
LINE
  8
OBRYS
 62
     0
 10
708.454651
 20
416.643921
 11
705.514526
 21
413.703766
  0
LINE
  8
OBRYS
 62
     0
 10
705.712463
 20
414.201569
 11
708.454651
 21
416.943726
  0
LINE
  8
OBRYS
 62
     0
 10
708.454651
 20
417.240723
 11
705.913330
 21
414.699371
  0
LINE
  8
OBRYS
 62
     0
 10
706.111328
 20
415.197174
 11
708.454651
 21
417.540527
  0
LINE
  8
OBRYS
 62
     0
 10
708.454651
 20
417.837494
 11
706.310730
 21
415.693573
  0
LINE
  8
OBRYS
 62
     0
 10
706.510132
 20
416.192780
 11
708.454651
 21
418.137329
  0
LINE
  8
OBRYS
 62
     0
 10
708.454651
 20
418.434296
 11
706.709534
 21
416.689178
  0
LINE
  8
OBRYS
 62
     0
 10
706.907532
 20
417.186981
 11
708.454651
 21
418.734131
  0
LINE
  8
OBRYS
 62
     0
 10
708.453247
 20
419.032532
 11
707.105469
 21
417.684784
  0
LINE
  8
OBRYS
 62
     0
 10
707.306335
 20
418.182587
 11
708.454651
 21
419.330933
  0
LINE
  8
OBRYS
 62
     0
 10
708.454651
 20
419.630737
 11
707.504272
 21
418.680389
  0
LINE
  8
OBRYS
 62
     0
 10
707.703735
 20
419.176758
 11
708.454651
 21
419.927704
  0
LINE
  8
OBRYS
 62
     0
 10
708.454651
 20
420.227539
 11
707.903137
 21
419.675995
  0
LINE
  8
OBRYS
 62
     0
 10
708.102539
 20
420.172363
 11
708.454651
 21
420.524506
  0
LINE
  8
OBRYS
 62
     0
 10
708.454651
 20
420.824341
 11
708.300476
 21
420.670166
  0
LINE
  8
OBRYS
 62
     0
 10
705.548462
 20
413.361511
 11
705.426819
 21
413.483154
  0
LINE
  8
OBRYS
 62
     0
 10
705.511658
 20
413.698120
 11
705.846863
 21
413.362946
  0
LINE
  8
OBRYS
 62
     0
 10
706.145264
 20
413.361511
 11
705.596497
 21
413.910248
  0
LINE
  8
OBRYS
 62
     0
 10
705.682800
 20
414.123779
 11
706.443665
 21
413.362946
  0
LINE
  8
OBRYS
 62
     0
 10
706.742065
 20
413.361511
 11
705.767639
 21
414.335907
  0
LINE
  8
OBRYS
 62
     0
 10
705.852478
 20
414.550873
 11
707.041870
 21
413.361511
  0
LINE
  8
OBRYS
 62
     0
 10
707.338867
 20
413.361511
 11
705.937378
 21
414.763000
  0
LINE
  8
OBRYS
 62
     0
 10
706.023621
 20
414.976563
 11
707.638672
 21
413.361511
  0
LINE
  8
OBRYS
 62
     0
 10
707.937073
 20
413.362946
 11
706.109863
 21
415.190094
  0
LINE
  8
OBRYS
 62
     0
 10
706.193298
 20
415.403656
 11
708.235474
 21
413.361511
  0
LINE
  8
OBRYS
 62
     0
 10
708.454651
 20
413.442139
 11
706.279602
 21
415.617188
  0
LINE
  8
OBRYS
 62
     0
 10
706.364441
 20
415.829315
 11
708.454651
 21
413.739105
  0
LINE
  8
OBRYS
 62
     0
 10
708.454651
 20
414.038940
 11
706.450684
 21
416.042877
  0
LINE
  8
OBRYS
 62
     0
 10
706.535583
 20
416.255005
 11
708.454651
 21
414.335907
  0
LINE
  8
OBRYS
 62
     0
 10
708.454651
 20
414.635742
 11
706.620422
 21
416.469971
  0
LINE
  8
OBRYS
 62
     0
 10
706.705261
 20
416.682098
 11
708.454651
 21
414.932709
  0
LINE
  8
OBRYS
 62
     0
 10
708.454651
 20
415.232513
 11
706.791565
 21
416.895630
  0
LINE
  8
OBRYS
 62
     0
 10
706.876404
 20
417.107788
 11
708.453247
 21
415.530914
  0
LINE
  8
OBRYS
 62
     0
 10
708.454651
 20
415.829315
 11
706.961243
 21
417.322723
  0
LINE
  8
OBRYS
 62
     0
 10
707.047485
 20
417.536285
 11
708.454651
 21
416.129150
  0
LINE
  8
OBRYS
 62
     0
 10
708.454651
 20
416.426117
 11
707.132385
 21
417.748413
  0
LINE
  8
OBRYS
 62
     0
 10
707.218628
 20
417.961945
 11
708.454651
 21
416.725922
  0
LINE
  8
OBRYS
 62
     0
 10
708.454651
 20
417.022919
 11
707.302063
 21
418.175507
  0
LINE
  8
OBRYS
 62
     0
 10
707.388306
 20
418.389038
 11
708.454651
 21
417.322723
  0
LINE
  8
OBRYS
 62
     0
 10
708.454651
 20
417.619720
 11
707.473206
 21
418.601196
  0
LINE
  8
OBRYS
 62
     0
 10
707.559448
 20
418.814728
 11
708.454651
 21
417.919525
  0
LINE
  8
OBRYS
 62
     0
 10
708.453247
 20
418.217926
 11
707.642883
 21
419.028290
  0
LINE
  8
OBRYS
 62
     0
 10
707.729187
 20
419.241821
 11
708.454651
 21
418.516327
  0
LINE
  8
OBRYS
 62
     0
 10
708.454651
 20
418.816132
 11
707.815430
 21
419.455383
  0
LINE
  8
OBRYS
 62
     0
 10
707.900269
 20
419.667511
 11
708.454651
 21
419.113129
  0
LINE
  8
OBRYS
 62
     0
 10
708.454651
 20
419.412933
 11
707.985107
 21
419.882446
  0
LINE
  8
OBRYS
 62
     0
 10
708.070007
 20
420.094604
 11
708.454651
 21
419.709930
  0
LINE
  8
OBRYS
 62
     0
 10
708.454651
 20
420.009735
 11
708.156250
 21
420.308136
  0
LINE
  8
OBRYS
 62
     0
 10
708.241089
 20
420.520264
 11
708.454651
 21
420.306732
  0
LINE
  8
OBRYS
 62
     0
 10
708.454651
 20
420.606537
 11
708.327393
 21
420.733826
  0
LINE
  8
OBRYS
 62
     0
 10
708.410828
 20
420.947357
 11
708.453247
 21
420.904938
  0
ENDBLK
  8
OBRYS
  0
BLOCK
  8
OBRYS
  2
_13
 70
   64
 10
198.529671
 20
464.555612
  0
LINE
  8
OBRYS
 10
206.529671
 20
464.555612
 11
206.529671
 21
446.416876
  0
LINE
  8
OBRYS
 62
     7
  6
DASHDOT
 10
218.265948
 20
464.555612
 11
186.078810
 21
464.555612
  0
LINE
  8
OBRYS
 10
207.529671
 20
459.042314
 11
207.529671
 21
470.068911
  0
LINE
  8
OBRYS
 10
207.529671
 20
459.042314
 11
207.529671
 21
452.936473
  0
LINE
  8
OBRYS
 10
206.529671
 20
461.384264
 11
207.529671
 21
459.042314
  0
LINE
  8
OBRYS
 10
206.529671
 20
467.726960
 11
207.529671
 21
470.068911
  0
LINE
  8
OBRYS
 10
207.529671
 20
470.068911
 11
207.529671
 21
476.174752
  0
LINE
  8
OBRYS
 10
207.529671
 20
497.829873
 11
207.529671
 21
503.358363
  0
LINE
  8
OBRYS
 10
206.529671
 20
464.555612
 11
206.529671
 21
510.555612
  0
ARC
  8
OBRYS
 10
208.529671
 20
508.927151
 40
2.000000
 50
180.000000
 51
201.047672
  0
LINE
  8
OBRYS
 10
207.529671
 20
503.358363
 11
206.663107
 21
508.208862
  0
ARC
  8
OBRYS
 10
204.529671
 20
511.055612
 40
2.000000
 50
0.000000
 51
90.000000
  0
LINE
  8
OBRYS
 10
207.529671
 20
497.829873
 11
206.529671
 21
498.232864
  0
LINE
  8
OBRYS
 10
207.529671
 20
493.344909
 11
206.529671
 21
494.350085
  0
ARC
  8
OBRYS
 10
199.529671
 20
512.055612
 40
1.000000
 50
89.999761
 51
180.000000
  0
LINE
  8
OBRYS
 10
199.529671
 20
513.055612
 11
204.529671
 21
513.055612
  0
LINE
  8
OBRYS
 10
201.029671
 20
416.055612
 11
202.529671
 21
416.055612
  0
ENDBLK
  8
OBRYS
  0
BLOCK
  8
OBRYS
  2
_14
 70
   64
 10
207.529671
 20
464.555612
  0
LINE
  8
OBRYS
 10
202.529671
 20
393.555612
 11
202.529671
 21
440.756622
  0
LINE
  8
0
  6
DOT
 10
202.529671
 20
392.055612
 11
202.529671
 21
393.555612
  0
LINE
  8
OBRYS
 10
224.529671
 20
393.555612
 11
224.529671
 21
399.555612
  0
LINE
  8
0
  6
DOT
 10
224.529671
 20
392.055612
 11
224.529671
 21
393.555612
  0
LINE
  8
OBRYS
 10
211.777437
 20
512.555612
 11
208.529673
 21
512.555612
  0
LINE
  8
OSA
 10
217.838609
 20
464.555612
 11
201.009671
 21
464.555612
  0
LINE
  8
OSA
 10
217.838609
 20
464.555612
 11
201.009671
 21
464.555612
  0
LINE
  8
OBRYS
 10
224.529671
 20
393.555612
 11
202.529671
 21
393.555612
  0
LINE
  8
OBRYS
 10
208.529671
 20
401.555612
 11
222.529671
 21
401.555612
  0
ARC
  8
OBRYS
 10
208.529671
 20
403.555612
 40
2.000000
 50
180.000000
 51
270.000000
  0
ARC
  8
OBRYS
 10
222.529671
 20
399.555612
 40
2.000000
 50
40.000000
 51
90.000000
  0
ARC
  8
OBRYS
 10
222.529671
 20
399.555612
 40
2.000000
 50
0.000000
 51
40.000000
  0
LINE
  8
OSA
 10
216.529671
 20
388.555612
 11
216.529671
 21
406.555612
  0
LINE
  8
NEVIDITELNA
 10
212.879671
 20
401.555612
 11
212.879671
 21
393.555612
  0
LINE
  8
NEVIDITELNA
 10
220.179671
 20
393.555612
 11
220.179671
 21
401.555612
  0
LINE
  8
OBRYS
 10
207.529671
 20
464.555612
 11
207.529671
 21
511.555612
  0
ARC
  8
OBRYS
 10
208.529671
 20
511.555612
 40
1.000000
 50
90.000000
 51
180.000000
  0
ARC
  8
OBRYS
 10
213.529671
 20
422.700706
 40
2.000000
 50
324.246113
 51
360.000000
  0
ARC
  8
OBRYS
 10
210.545203
 20
510.555612
 40
2.000000
 50
35.753887
 51
90.000000
  0
LINE
  8
OBRYS
 10
215.152740
 20
507.579128
 11
212.168272
 21
511.724222
  0
ARC
  8
OBRYS
 10
213.529671
 20
506.410519
 40
2.000000
 50
0.000000
 51
35.753887
  0
ARC
  8
OBRYS
 10
211.777437
 20
510.555612
 40
2.000000
 50
35.753887
 51
90.000000
  0
LINE
  8
OBRYS
 10
215.152740
 20
509.290564
 11
213.400506
 21
511.724222
  0
LINE
  8
OBRYS
 10
215.529671
 20
508.121954
 11
215.529671
 21
464.555612
  0
ARC
  8
OBRYS
 10
213.529671
 20
508.121954
 40
2.000000
 50
0.000000
 51
35.753887
  0
ARC
  8
OBRYS
 10
213.529671
 20
495.200774
 40
2.000000
 50
0.000000
 51
42.998767
  0
ARC
  8
OBRYS
 10
213.529671
 20
492.372347
 40
2.000000
 50
0.000000
 51
42.998767
  0
ARC
  8
OBRYS
 10
213.529671
 20
491.372347
 40
2.000000
 50
0.000000
 51
42.998767
  0
LINE
  8
OBRYS
 10
211.569671
 20
466.555608
 11
215.529671
 21
466.555608
  0
LINE
  8
OBRYS
 10
211.569671
 20
462.555608
 11
215.529671
 21
462.555608
  0
LINE
  8
OBRYS
 10
214.992408
 20
496.564739
 11
213.691534
 21
497.959815
  0
LINE
  8
OBRYS
 10
214.992408
 20
493.736312
 11
213.691534
 21
495.131388
  0
LINE
  8
OBRYS
 10
212.801905
 20
498.272632
 11
212.801905
 21
496.085440
  0
LINE
  8
OBRYS
 10
214.992408
 20
492.736312
 11
212.165973
 21
495.767423
  0
LINE
  8
OBRYS
 10
211.569671
 20
511.578560
 11
211.569671
 21
498.912997
  0
ARC
  8
OBRYS
 10
211.497429
 20
495.913867
 40
3.000000
 50
42.998767
 51
88.620151
  0
ARC
  8
OBRYS
 10
211.434605
 20
495.085440
 40
1.000000
 50
42.998767
 51
82.237547
  0
LINE
  8
OBRYS
 10
211.569671
 20
496.084570
 11
211.569671
 21
467.358334
  0
ARC
  8
OBRYS
 10
211.497429
 20
493.085440
 40
3.000000
 50
42.998767
 51
88.620151
  0
LINE
  8
OBRYS
 10
212.801905
 20
466.172728
 11
212.801905
 21
462.934936
  0
ARC
  8
OBRYS
 10
213.529671
 20
437.738878
 40
2.000000
 50
317.001233
 51
360.000000
  0
ARC
  8
OBRYS
 10
213.529671
 20
436.738878
 40
2.000000
 50
317.001233
 51
360.000000
  0
ARC
  8
OBRYS
 10
213.529671
 20
433.910451
 40
2.000000
 50
317.001233
 51
360.000000
  0
ARC
  8
OBRYS
 10
142.308599
 20
464.555612
 40
69.261071
 50
339.457583
 51
360.000000
  0
ARC
  8
OBRYS
 10
216.529671
 20
436.742845
 40
10.000000
 50
159.457583
 51
180.000000
  0
LINE
  8
OBRYS
 10
207.529671
 20
464.555612
 11
207.529671
 21
449.416876
  0
ARC
  8
OBRYS
 10
207.529671
 20
440.756622
 40
5.000000
 50
120.000000
 51
180.000000
  0
ARC
  8
OBRYS
 10
202.529671
 20
449.416876
 40
5.000000
 50
300.000000
 51
360.000000
  0
LINE
  8
OBRYS
 10
214.992408
 20
432.546485
 11
207.066934
 21
424.047089
  0
ARC
  8
OBRYS
 10
208.529671
 20
422.683124
 40
2.000000
 50
137.001233
 51
180.000000
  0
LINE
  8
OBRYS
 10
206.529671
 20
403.555608
 11
206.529671
 21
436.742845
  0
LINE
  8
OBRYS
 10
214.992408
 20
435.374913
 11
207.066934
 21
426.875516
  0
ARC
  8
OBRYS
 10
208.529671
 20
425.511551
 40
2.000000
 50
137.001233
 51
180.000000
  0
LINE
  8
OBRYS
 10
214.992408
 20
436.374913
 11
207.066934
 21
427.875516
  0
ARC
  8
OBRYS
 10
208.529671
 20
426.511551
 40
2.000000
 50
137.001233
 51
180.000000
  0
LINE
  8
OBRYS
 10
224.061760
 20
400.841187
 11
210.934694
 21
416.485415
  0
ARC
  8
OBRYS
 10
212.466783
 20
417.770990
 40
2.000000
 50
140.449366
 51
220.000000
  0
LINE
  8
OBRYS
 10
206.987547
 20
414.277001
 11
210.924659
 21
419.044510
  0
ARC
  8
OBRYS
 10
208.529671
 20
413.003481
 40
2.000000
 50
140.449366
 51
180.000000
  0
LINE
  8
OBRYS
 10
215.152740
 20
421.532097
 11
211.249234
 21
416.110561
  0
ARC
  8
OBRYS
 10
213.529671
 20
420.989270
 40
2.000000
 50
324.246113
 51
360.000000
  0
LINE
  8
OBRYS
 10
215.152740
 20
419.820661
 11
211.912416
 21
415.320211
  0
LINE
  8
OBRYS
 10
215.529671
 20
420.989270
 11
215.529671
 21
464.555612
  0
ENDBLK
  8
OBRYS
  0
BLOCK
  8
OBRYS
  2
_15
 70
   64
 10
141.529671
 20
464.555612
  0
LINE
  8
OBRYS
 10
146.529671
 20
393.555612
 11
146.529671
 21
440.756622
  0
LINE
  8
0
  6
DOT
 10
146.529671
 20
392.055612
 11
146.529671
 21
393.555612
  0
LINE
  8
OBRYS
 10
124.529671
 20
393.555612
 11
124.529671
 21
399.555612
  0
LINE
  8
0
  6
DOT
 10
124.529671
 20
392.055612
 11
124.529671
 21
393.555612
  0
LINE
  8
OBRYS
 10
137.281905
 20
512.555612
 11
140.529668
 21
512.555612
  0
LINE
  8
OSA
 10
131.220733
 20
464.555612
 11
148.049671
 21
464.555612
  0
LINE
  8
OSA
 10
131.220733
 20
464.555612
 11
148.049671
 21
464.555612
  0
LINE
  8
OBRYS
 10
124.529671
 20
393.555612
 11
146.529671
 21
393.555612
  0
LINE
  8
OBRYS
 10
140.529671
 20
401.555612
 11
126.529671
 21
401.555612
  0
ARC
  8
OBRYS
 10
140.529671
 20
403.555612
 40
2.000000
 50
270.000000
 51
360.000000
  0
ARC
  8
OBRYS
 10
126.529671
 20
399.555612
 40
2.000000
 50
90.000000
 51
140.000000
  0
ARC
  8
OBRYS
 10
126.529671
 20
399.555612
 40
2.000000
 50
140.000000
 51
180.000000
  0
LINE
  8
OSA
 10
132.529671
 20
388.555612
 11
132.529671
 21
406.555612
  0
LINE
  8
NEVIDITELNA
 10
136.179671
 20
401.555612
 11
136.179671
 21
393.555612
  0
LINE
  8
NEVIDITELNA
 10
128.879671
 20
393.555612
 11
128.879671
 21
401.555612
  0
LINE
  8
OBRYS
 10
141.529671
 20
464.555612
 11
141.529671
 21
511.555612
  0
ARC
  8
OBRYS
 10
140.529671
 20
511.555612
 40
1.000000
 50
0.000000
 51
90.000000
  0
ARC
  8
OBRYS
 10
135.529671
 20
422.700706
 40
2.000000
 50
180.000000
 51
215.753887
  0
ARC
  8
OBRYS
 10
138.514138
 20
510.555612
 40
2.000000
 50
90.000000
 51
144.246113
  0
LINE
  8
OBRYS
 10
133.906602
 20
507.579128
 11
136.891070
 21
511.724222
  0
ARC
  8
OBRYS
 10
135.529671
 20
506.410519
 40
2.000000
 50
144.246113
 51
180.000000
  0
ARC
  8
OBRYS
 10
137.281905
 20
510.555612
 40
2.000000
 50
90.000000
 51
144.246113
  0
LINE
  8
OBRYS
 10
133.906602
 20
509.290564
 11
135.658836
 21
511.724222
  0
LINE
  8
OBRYS
 10
133.529671
 20
508.121954
 11
133.529671
 21
464.555612
  0
ARC
  8
OBRYS
 10
135.529671
 20
508.121954
 40
2.000000
 50
144.246113
 51
180.000000
  0
ARC
  8
OBRYS
 10
135.529671
 20
495.200774
 40
2.000000
 50
137.001233
 51
180.000000
  0
ARC
  8
OBRYS
 10
135.529671
 20
492.372347
 40
2.000000
 50
137.001233
 51
180.000000
  0
ARC
  8
OBRYS
 10
135.529671
 20
491.372347
 40
2.000000
 50
137.001233
 51
180.000000
  0
LINE
  8
OBRYS
 10
137.489671
 20
466.555608
 11
133.529671
 21
466.555608
  0
LINE
  8
OBRYS
 10
137.489671
 20
462.555608
 11
133.529671
 21
462.555608
  0
LINE
  8
OBRYS
 10
134.066934
 20
496.564739
 11
135.367807
 21
497.959815
  0
LINE
  8
OBRYS
 10
134.066934
 20
493.736312
 11
135.367807
 21
495.131388
  0
LINE
  8
OBRYS
 10
136.257437
 20
498.272632
 11
136.257437
 21
496.085440
  0
LINE
  8
OBRYS
 10
134.066934
 20
492.736312
 11
136.893369
 21
495.767423
  0
LINE
  8
OBRYS
 10
137.489671
 20
511.578560
 11
137.489671
 21
498.912997
  0
ARC
  8
OBRYS
 10
137.561913
 20
495.913867
 40
3.000000
 50
91.379849
 51
137.001233
  0
ARC
  8
OBRYS
 10
137.624737
 20
495.085440
 40
1.000000
 50
97.762453
 51
137.001233
  0
LINE
  8
OBRYS
 10
137.489671
 20
496.084570
 11
137.489671
 21
467.358334
  0
ARC
  8
OBRYS
 10
137.561913
 20
493.085440
 40
3.000000
 50
91.379849
 51
137.001233
  0
LINE
  8
OBRYS
 10
136.257437
 20
466.172728
 11
136.257437
 21
462.934936
  0
ARC
  8
OBRYS
 10
135.529671
 20
437.738878
 40
2.000000
 50
180.000000
 51
222.998767
  0
ARC
  8
OBRYS
 10
135.529671
 20
436.738878
 40
2.000000
 50
180.000000
 51
222.998767
  0
ARC
  8
OBRYS
 10
135.529671
 20
433.910451
 40
2.000000
 50
180.000000
 51
222.998767
  0
ARC
  8
OBRYS
 10
206.750742
 20
464.555612
 40
69.261071
 50
180.000000
 51
200.542417
  0
ARC
  8
OBRYS
 10
132.529671
 20
436.742845
 40
10.000000
 50
0.000000
 51
20.542417
  0
LINE
  8
OBRYS
 10
141.529671
 20
464.555612
 11
141.529671
 21
449.416876
  0
ARC
  8
OBRYS
 10
141.529671
 20
440.756622
 40
5.000000
 50
0.000000
 51
60.000000
  0
ARC
  8
OBRYS
 10
146.529671
 20
449.416876
 40
5.000000
 50
180.000000
 51
240.000000
  0
LINE
  8
OBRYS
 10
134.066934
 20
432.546485
 11
141.992408
 21
424.047089
  0
ARC
  8
OBRYS
 10
140.529671
 20
422.683124
 40
2.000000
 50
0.000000
 51
42.998767
  0
LINE
  8
OBRYS
 10
142.529671
 20
403.555608
 11
142.529671
 21
436.742845
  0
LINE
  8
OBRYS
 10
134.066934
 20
435.374913
 11
141.992408
 21
426.875516
  0
ARC
  8
OBRYS
 10
140.529671
 20
425.511551
 40
2.000000
 50
0.000000
 51
42.998767
  0
LINE
  8
OBRYS
 10
134.066934
 20
436.374913
 11
141.992408
 21
427.875516
  0
ARC
  8
OBRYS
 10
140.529671
 20
426.511551
 40
2.000000
 50
0.000000
 51
42.998767
  0
LINE
  8
OBRYS
 10
124.997582
 20
400.841187
 11
138.124647
 21
416.485415
  0
ARC
  8
OBRYS
 10
136.592558
 20
417.770990
 40
2.000000
 50
320.000000
 51
39.550634
  0
LINE
  8
OBRYS
 10
142.071795
 20
414.277001
 11
138.134683
 21
419.044510
  0
ARC
  8
OBRYS
 10
140.529671
 20
413.003481
 40
2.000000
 50
0.000000
 51
39.550634
  0
LINE
  8
OBRYS
 10
133.906602
 20
421.532097
 11
137.810108
 21
416.110561
  0
ARC
  8
OBRYS
 10
135.529671
 20
420.989270
 40
2.000000
 50
180.000000
 51
215.753887
  0
LINE
  8
OBRYS
 10
133.906602
 20
419.820661
 11
137.146926
 21
415.320211
  0
LINE
  8
OBRYS
 10
133.529671
 20
420.989270
 11
133.529671
 21
464.555612
  0
ENDBLK
  8
OBRYS
  0
BLOCK
  8
KOTA
  2
Vnitrni_metricky_zavit_M1_16
 70
   66
 10
364.276967
 20
261.787393
  0
CIRCLE
  8
KOTA
 62
     2
 10
364.276967
 20
261.787393
 40
4.458800
  0
ARC
  8
KOTA
 62
     7
 10
364.276967
 20
261.787393
 40
5.000000
 50
85.000000
 51
5.000000
  0
ENDBLK
  8
KOTA
  0
ENDSEC
  0
SECTION
  2
ENTITIES
  0
ARC
  8
OBRYS
 10
554.024263
 20
303.615863
 40
5.500000
 50
111.323686
 51
68.676314
  0
LINE
  8
OBRYS
 10
552.024263
 20
308.739339
 11
552.024263
 21
310.715863
  0
LINE
  8
OBRYS
 10
552.024263
 20
310.715863
 11
556.024263
 21
310.715863
  0
LINE
  8
OBRYS
 10
556.024263
 20
310.715863
 11
556.024263
 21
308.739339
  0
CIRCLE
  8
OBRYS
 10
554.024263
 20
303.615863
 40
10.000000
  0
LINE
  8
OSA
 10
554.024263
 20
303.615863
 11
554.024263
 21
290.490866
  0
LINE
  8
OSA
 10
554.024263
 20
303.615863
 11
554.024263
 21
316.740861
  0
LINE
  8
OSA
 10
554.024263
 20
303.615863
 11
540.899265
 21
303.615863
  0
LINE
  8
OSA
 10
554.024263
 20
303.615863
 11
567.149260
 21
303.615863
  0
LINE
  8
OSA
 10
554.024263
 20
329.865858
 11
567.149260
 21
329.865858
  0
LINE
  8
OSA
 10
554.024263
 20
329.865858
 11
540.899265
 21
329.865858
  0
LINE
  8
OSA
 10
554.024263
 20
329.865858
 11
554.024263
 21
342.990855
  0
LINE
  8
OSA
 10
554.024263
 20
329.865858
 11
554.024263
 21
316.740861
  0
LINE
  8
OBRYS
 10
552.524263
 20
334.108499
 11
552.524263
 21
335.665858
  0
LINE
  8
OBRYS
 10
552.524263
 20
335.665858
 11
555.524263
 21
335.665858
  0
LINE
  8
OBRYS
 10
555.524263
 20
335.665858
 11
555.524263
 21
334.108499
  0
ARC
  8
OBRYS
 10
554.024263
 20
329.865858
 40
4.500000
 50
109.471221
 51
70.528779
  0
CIRCLE
  8
OBRYS
 10
554.024263
 20
329.865858
 40
10.000000
  0
INSERT
  8
OBRYS
  2
_0
 62
     7
 10
521.024263
 20
463.055625
  0
LINE
  8
OSA
 10
517.280329
 20
464.555625
 11
590.768197
 21
464.555625
  0
INSERT
  8
OBRYS
  2
_1
 62
     7
 10
587.024263
 20
463.055625
  0
INSERT
  8
OSA
  2
_2
  6
CONTINUOUS
 10
554.024263
 20
424.555625
  0
ARC
  8
OBRYS
 10
174.529671
 20
460.555612
 40
60.000000
 50
61.044976
 51
119.926435
  0
ARC
  8
OBRYS
 10
174.529671
 20
460.555612
 40
60.000000
 50
309.579912
 51
46.895326
  0
ARC
  8
OBRYS
 10
174.529671
 20
438.083521
 40
53.027909
 50
237.109198
 51
302.890802
  0
ARC
  8
OBRYS
 10
174.529671
 20
460.555612
 40
60.000000
 50
133.104674
 51
230.420088
  0
INSERT
  8
OBRYS
  2
_3
 62
     7
 10
764.834956
 20
424.555625
  0
INSERT
  8
OBRYS
  2
_4
 62
     7
 10
313.276967
 20
424.555612
  0
INSERT
  8
OBRYS
  2
_5
 62
     7
 10
313.276967
 20
261.787393
  0
INSERT
  8
OBRYS
  2
_6
 62
     7
 10
313.276967
 20
616.327158
  0
TEXT
  8
NEVIDITELNA
 62
     2
  6
CONTINUOUS
 10
257.164154
 20
731.051453
 40
15.000000
  1
MRP 40A - FT + 2x adaptér
 50
0.00
 51
0.00
 41
0.80
  0
TEXT
  8
NEVIDITELNA
 62
     2
  6
CONTINUOUS
 10
257.903198
 20
765.730042
 40
15.000000
  1
MRP 40A - B
 50
0.00
 51
0.00
 41
0.80
  0
ARC
  8
OBRYS
 10
410.776967
 20
646.327158
 40
2.000000
 50
0.000000
 51
41.409622
  0
ARC
  8
OBRYS
 10
410.776967
 20
586.327158
 40
2.000000
 50
318.590378
 51
360.000000
  0
ARC
  8
OBRYS
 10
317.776967
 20
586.327158
 40
2.000000
 50
180.000000
 51
221.409622
  0
ARC
  8
OBRYS
 10
317.776967
 20
646.327158
 40
2.000000
 50
138.590378
 51
180.000000
  0
INSERT
  8
OBRYS
  2
_7
 62
     7
 10
364.276967
 20
588.327158
  0
INSERT
  8
OBRYS
  2
_8
 62
     7
 10
364.276967
 20
644.327158
  0
ARC
  8
OBRYS
 10
317.776967
 20
231.787393
 40
2.000000
 50
180.000000
 51
269.998834
  0
ARC
  8
OBRYS
 10
410.776967
 20
231.787393
 40
2.000000
 50
270.000000
 51
360.000000
  0
ARC
  8
OBRYS
 10
408.648506
 20
227.787393
 40
2.000000
 50
90.000000
 51
111.047672
  0
LINE
  8
OBRYS
 10
403.079718
 20
228.787393
 11
407.930216
 21
229.653957
  0
LINE
  8
OBRYS
 10
325.474216
 20
228.787393
 11
320.623717
 21
229.653957
  0
ARC
  8
OBRYS
 10
319.905428
 20
227.787393
 40
2.000000
 50
68.952328
 51
90.000000
  0
LINE
  8
OBRYS
 10
331.002707
 20
228.787393
 11
325.474216
 21
228.787393
  0
LINE
  8
OBRYS
 10
358.763668
 20
228.787393
 11
352.657828
 21
228.787393
  0
LINE
  8
OBRYS
 10
361.105619
 20
229.787393
 11
358.763668
 21
228.787393
  0
LINE
  8
OBRYS
 10
367.448315
 20
229.787393
 11
369.790265
 21
228.787393
  0
LINE
  8
OBRYS
 10
369.790265
 20
228.787393
 11
375.896106
 21
228.787393
  0
LINE
  8
OBRYS
 10
369.790265
 20
228.787393
 11
358.763668
 21
228.787393
  0
LINE
  8
OBRYS
 10
397.551227
 20
228.787393
 11
403.079718
 21
228.787393
  0
ARC
  8
OBRYS
 10
408.648506
 20
227.787393
 40
2.000000
 50
90.000000
 51
111.047672
  0
LINE
  8
OBRYS
 10
364.276967
 20
229.787393
 11
410.776967
 21
229.787393
  0
LINE
  8
OBRYS
 10
364.276967
 20
229.787393
 11
317.776967
 21
229.787393
  0
LINE
  8
OBRYS
 10
397.551227
 20
228.787393
 11
397.954218
 21
229.787393
  0
LINE
  8
OBRYS
 10
393.066264
 20
228.787393
 11
394.071440
 21
229.787393
  0
LINE
  8
OBRYS
 10
335.487670
 20
228.787393
 11
334.482494
 21
229.787393
  0
LINE
  8
OBRYS
 10
331.002707
 20
228.787393
 11
330.599715
 21
229.787393
  0
LINE
  8
OBRYS
 10
315.776967
 20
286.787393
 11
315.776967
 21
291.787393
  0
LINE
  8
OBRYS
 10
412.776967
 20
286.787393
 11
412.776967
 21
291.787393
  0
ARC
  8
OBRYS
 10
317.776967
 20
291.787393
 40
2.000000
 50
90.000000
 51
180.000000
  0
ARC
  8
OBRYS
 10
410.776967
 20
291.787393
 40
2.000000
 50
0.000000
 51
90.000000
  0
LINE
  8
OBRYS
 10
331.002707
 20
294.787393
 11
330.599715
 21
293.787393
  0
LINE
  8
OBRYS
 10
335.487670
 20
294.787393
 11
334.482494
 21
293.787393
  0
LINE
  8
OBRYS
 10
393.066264
 20
294.787393
 11
394.071440
 21
293.787393
  0
LINE
  8
OBRYS
 10
397.551227
 20
294.787393
 11
397.954218
 21
293.787393
  0
LINE
  8
OBRYS
 10
364.276967
 20
293.787393
 11
317.776967
 21
293.787393
  0
LINE
  8
OBRYS
 10
364.276967
 20
293.787393
 11
410.776967
 21
293.787393
  0
ARC
  8
OBRYS
 10
408.648506
 20
295.787393
 40
2.000000
 50
248.952328
 51
270.000000
  0
LINE
  8
OBRYS
 10
397.551227
 20
294.787393
 11
403.079718
 21
294.787393
  0
LINE
  8
OBRYS
 10
369.790265
 20
294.787393
 11
358.763668
 21
294.787393
  0
LINE
  8
OBRYS
 10
369.790265
 20
294.787393
 11
375.896106
 21
294.787393
  0
LINE
  8
OBRYS
 10
367.448315
 20
293.787393
 11
369.790265
 21
294.787393
  0
LINE
  8
OBRYS
 10
361.105619
 20
293.787393
 11
358.763668
 21
294.787393
  0
LINE
  8
OBRYS
 10
358.763668
 20
294.787393
 11
352.657828
 21
294.787393
  0
LINE
  8
OBRYS
 10
331.002707
 20
294.787393
 11
325.474216
 21
294.787393
  0
ARC
  8
OBRYS
 10
319.905428
 20
295.787393
 40
2.000000
 50
270.000000
 51
291.047672
  0
LINE
  8
OBRYS
 10
325.474216
 20
294.787393
 11
320.623717
 21
293.920829
  0
LINE
  8
OBRYS
 10
403.079718
 20
294.787393
 11
407.930216
 21
293.920829
  0
ARC
  8
OBRYS
 10
408.648506
 20
295.787393
 40
2.000000
 50
248.952328
 51
270.000000
  0
INSERT
  8
OBRYS
  2
_9
 62
     7
 10
364.276967
 20
228.787393
  0
INSERT
  8
OBRYS
  2
_10
 62
     7
 10
364.276967
 20
294.787393
  0
LINE
  8
OSA
 10
544.573425
 20
424.555625
 11
567.707957
 21
424.555625
  0
LINE
  8
OSA
 10
554.024263
 20
518.805475
 11
554.024263
 21
392.903524
  0
LINE
  8
OBRYS
 10
315.776967
 20
454.536374
 11
313.276967
 21
454.536374
  0
LINE
  8
0
 62
     2
 10
313.276967
 20
454.000476
 11
315.776967
 21
454.000476
  0
LINE
  8
0
 62
     2
 10
313.276967
 20
441.010095
 11
315.776967
 21
441.010095
  0
LINE
  8
0
 62
     2
 10
313.276967
 20
437.545993
 11
315.776967
 21
437.545993
  0
LINE
  8
0
 62
     2
 10
313.276967
 20
395.110749
 11
315.776967
 21
395.110749
  0
LINE
  8
OBRYS
 10
315.776967
 20
394.574850
 11
313.276967
 21
394.574850
  0
LINE
  8
0
 62
     2
 10
313.276967
 20
411.565231
 11
315.776967
 21
411.565231
  0
LINE
  8
0
 62
     2
 10
313.276967
 20
408.101130
 11
315.776967
 21
408.101130
  0
LINE
  8
OBRYS
 10
421.276967
 20
454.536374
 11
412.776967
 21
454.536374
  0
LINE
  8
0
 62
     2
 10
421.276967
 20
454.000476
 11
412.776967
 21
454.000476
  0
LINE
  8
0
 62
     2
 10
421.276967
 20
441.010095
 11
412.776967
 21
441.010095
  0
LINE
  8
0
 62
     2
 10
421.276967
 20
437.545993
 11
412.776967
 21
437.545993
  0
LINE
  8
0
 62
     2
 10
421.276967
 20
395.110749
 11
412.776967
 21
395.110749
  0
LINE
  8
OBRYS
 10
421.276967
 20
394.574850
 11
412.776967
 21
394.574850
  0
LINE
  8
0
 62
     2
 10
421.276967
 20
411.565231
 11
412.776967
 21
411.565231
  0
LINE
  8
0
 62
     2
 10
421.276967
 20
408.101130
 11
412.776967
 21
408.101130
  0
INSERT
  8
OBRYS
  2
_11
 62
     7
 10
364.276967
 20
464.555612
  0
LINE
  8
OSA
 10
364.276967
 20
464.555612
 11
364.276967
 21
394.808316
  0
LINE
  8
OSA
 10
364.276967
 20
424.555612
 11
313.276967
 21
424.555612
  0
LINE
  8
OSA
 10
364.276967
 20
424.555612
 11
421.276967
 21
424.555612
  0
LINE
  8
OSA
 62
     2
  6
CONTINUOUS
 10
421.276967
 20
395.574850
 11
421.276967
 21
453.536374
  0
LINE
  8
OSA
 62
     2
  6
CONTINUOUS
 10
313.276967
 20
394.574850
 11
313.276967
 21
454.536374
  0
LINE
  8
OSA
 62
     2
  6
CONTINUOUS
 10
421.276967
 20
394.574850
 11
421.276967
 21
454.536374
  0
LINE
  8
OSA
 10
294.276967
 20
424.555612
 11
322.776967
 21
424.555612
  0
LINE
  8
OBRYS
 10
313.276967
 20
424.555612
 11
313.276967
 21
394.574850
  0
LINE
  8
OBRYS
 10
313.276967
 20
424.555612
 11
313.276967
 21
454.536374
  0
LINE
  8
OSA
 10
294.276967
 20
424.555612
 11
322.776967
 21
424.555612
  0
LINE
  8
OSA
 10
713.834956
 20
464.555625
 11
713.834956
 21
394.808329
  0
LINE
  8
OSA
 10
713.834956
 20
424.555625
 11
764.834956
 21
424.555625
  0
LINE
  8
OSA
 10
713.834956
 20
424.555625
 11
656.834956
 21
424.555625
  0
LINE
  8
OSA
 62
     2
  6
CONTINUOUS
 10
656.834956
 20
395.574863
 11
656.834956
 21
453.536387
  0
LINE
  8
OSA
 62
     2
  6
CONTINUOUS
 10
656.834956
 20
394.574863
 11
656.834956
 21
454.536387
  0
LINE
  8
OBRYS
 10
764.834956
 20
454.536387
 11
764.834956
 21
394.574863
  0
INSERT
  8
OBRYS
  2
_12
 62
     7
 10
713.834956
 20
464.555625
  0
LINE
  8
OBRYS
 10
656.834956
 20
454.536387
 11
665.334956
 21
454.536387
  0
LINE
  8
0
 62
     2
 10
656.834956
 20
454.000489
 11
665.334956
 21
454.000489
  0
LINE
  8
0
 62
     2
 10
656.834956
 20
441.010108
 11
665.334956
 21
441.010108
  0
LINE
  8
0
 62
     2
 10
656.834956
 20
437.546006
 11
665.334956
 21
437.546006
  0
LINE
  8
0
 62
     2
 10
656.834956
 20
411.565244
 11
665.334956
 21
411.565244
  0
LINE
  8
0
 62
     2
 10
656.834956
 20
408.101142
 11
665.334956
 21
408.101142
  0
LINE
  8
0
 62
     2
 10
656.834956
 20
395.110761
 11
665.334956
 21
395.110761
  0
LINE
  8
OBRYS
 10
656.834956
 20
394.574863
 11
665.334956
 21
394.574863
  0
LINE
  8
0
 62
     2
 10
764.834956
 20
441.010108
 11
762.334956
 21
441.010108
  0
LINE
  8
0
 62
     2
 10
764.834956
 20
437.546006
 11
762.334956
 21
437.546006
  0
LINE
  8
OBRYS
 10
762.334956
 20
454.536387
 11
764.834956
 21
454.536387
  0
LINE
  8
0
 62
     2
 10
764.834956
 20
454.000489
 11
762.334956
 21
454.000489
  0
LINE
  8
0
 62
     2
 10
764.834956
 20
411.565244
 11
762.334956
 21
411.565244
  0
LINE
  8
0
 62
     2
 10
764.834956
 20
408.101142
 11
762.334956
 21
408.101142
  0
LINE
  8
0
 62
     2
 10
764.834956
 20
395.110761
 11
762.334956
 21
395.110761
  0
LINE
  8
OBRYS
 10
762.334956
 20
394.574863
 11
764.834956
 21
394.574863
  0
INSERT
  8
OBRYS
  2
_13
 62
     7
 10
198.529671
 20
464.555612
  0
INSERT
  8
OBRYS
  2
_14
 62
     7
 10
207.529671
 20
464.555612
  0
LINE
  8
OBRYS
 10
142.529671
 20
464.555612
 11
142.529671
 21
446.416876
  0
INSERT
  8
OBRYS
  2
_15
 62
     7
 10
141.529671
 20
464.555612
  0
LINE
  8
OBRYS
 10
141.529671
 20
493.344909
 11
142.529671
 21
494.350085
  0
LINE
  8
OBRYS
 10
141.529671
 20
497.829873
 11
142.529671
 21
498.232864
  0
ARC
  8
OBRYS
 10
144.529671
 20
511.055612
 40
2.000000
 50
90.000000
 51
180.000000
  0
LINE
  8
OBRYS
 10
142.529671
 20
464.555612
 11
142.529671
 21
511.055612
  0
LINE
  8
OBRYS
 10
141.529671
 20
503.358363
 11
142.396235
 21
508.208862
  0
ARC
  8
OBRYS
 10
140.529671
 20
508.927151
 40
2.000000
 50
338.952328
 51
360.000000
  0
LINE
  8
OBRYS
 10
141.529671
 20
497.829873
 11
141.529671
 21
503.358363
  0
LINE
  8
OBRYS
 10
141.529671
 20
470.068911
 11
141.529671
 21
476.174752
  0
LINE
  8
OBRYS
 10
142.529671
 20
467.726960
 11
141.529671
 21
470.068911
  0
LINE
  8
OBRYS
 10
142.529671
 20
461.384264
 11
141.529671
 21
459.042314
  0
LINE
  8
OBRYS
 10
141.529671
 20
459.042314
 11
141.529671
 21
452.936473
  0
LINE
  8
OBRYS
 10
141.529671
 20
459.042314
 11
141.529671
 21
470.068911
  0
LINE
  8
OBRYS
 10
148.029671
 20
513.055612
 11
144.529671
 21
513.055612
  0
LINE
  8
OBRYS
 10
198.529671
 20
441.298770
 11
198.529671
 21
512.555612
  0
LINE
  8
OSA
 10
174.529671
 20
424.555612
 11
209.137822
 21
424.555612
  0
LINE
  8
OSA
 10
174.529671
 20
424.555612
 11
138.847171
 21
424.555612
  0
LINE
  8
OBRYS
 10
150.529671
 20
441.298770
 11
150.529671
 21
464.555612
  0
CIRCLE
  8
OSA
 62
     2
  6
CONTINUOUS
 10
174.529671
 20
424.555612
 40
21.000000
  0
LINE
  8
OSA
 62
     2
  6
CONTINUOUS
 10
176.529671
 20
395.110749
 11
199.029671
 21
408.101130
  0
ARC
  8
OSA
 62
     2
  6
CONTINUOUS
 10
197.029671
 20
411.565231
 40
4.000000
 50
300.000000
 51
360.000000
  0
ARC
  8
OBRYS
 10
174.529671
 20
398.574850
 40
4.000000
 50
240.000000
 51
300.000000
  0
LINE
  8
OBRYS
 10
150.029671
 20
408.101130
 11
172.529671
 21
395.110749
  0
ARC
  8
OBRYS
 10
152.029671
 20
411.565231
 40
4.000000
 50
180.000000
 51
240.000000
  0
LINE
  8
OBRYS
 10
201.029671
 20
411.565231
 11
201.029671
 21
437.545993
  0
ARC
  8
OBRYS
 10
197.029671
 20
437.545993
 40
4.000000
 50
0.000000
 51
60.000000
  0
LINE
  8
OBRYS
 10
176.529671
 20
454.000476
 11
199.029671
 21
441.010095
  0
ARC
  8
OBRYS
 10
174.529671
 20
450.536374
 40
4.000000
 50
60.000000
 51
120.000000
  0
LINE
  8
OBRYS
 10
150.029671
 20
441.010095
 11
172.529671
 21
454.000476
  0
ARC
  8
OBRYS
 10
152.029671
 20
437.545993
 40
4.000000
 50
120.000000
 51
180.000000
  0
LINE
  8
OBRYS
 10
148.029671
 20
411.565231
 11
148.029671
 21
437.545993
  0
LINE
  8
OBRYS
 10
198.529671
 20
458.052721
 11
181.508269
 21
458.052721
  0
LINE
  8
OBRYS
 10
198.529671
 20
471.058504
 11
181.508269
 21
471.058504
  0
LINE
  8
OBRYS
 10
198.529671
 20
512.555612
 11
180.529671
 21
512.555612
  0
ARC
  8
OBRYS
 10
152.529671
 20
508.597713
 40
2.000000
 50
180.000000
 51
271.193489
  0
LINE
  8
OBRYS
 10
198.529671
 20
507.555612
 11
152.571328
 21
506.598147
  0
LINE
  8
OBRYS
 10
198.529671
 20
512.555612
 11
180.529671
 21
512.555612
  0
LINE
  8
OSA
 10
203.621757
 20
464.555612
 11
130.133889
 21
464.555612
  0
ARC
  8
OBRYS
 10
181.032562
 20
464.555612
 40
6.502892
 50
90.000000
 51
270.000000
  0
LINE
  8
OBRYS
 10
165.529671
 20
509.422099
 11
165.529671
 21
512.555612
  0
LINE
  8
OBRYS
 10
183.529671
 20
512.555612
 11
174.529671
 21
512.555612
  0
LINE
  8
OBRYS
 10
183.529671
 20
509.422099
 11
183.529671
 21
512.555612
  0
LINE
  8
OBRYS
 10
181.529671
 20
512.555612
 11
181.529671
 21
514.555612
  0
LINE
  8
OBRYS
 10
167.529671
 20
512.555612
 11
167.529671
 21
514.555612
  0
ARC
  8
OBRYS
 10
180.529671
 20
514.555612
 40
1.000000
 50
0.000000
 51
90.000000
  0
LINE
  8
OBRYS
 10
168.529671
 20
515.555612
 11
180.529671
 21
515.555612
  0
ARC
  8
OBRYS
 10
168.529671
 20
514.555612
 40
1.000000
 50
90.000000
 51
180.000000
  0
LINE
  8
OSA
 10
174.529671
 20
518.805462
 11
174.529671
 21
392.903511
  0
LINE
  8
OBRYS
 10
150.529671
 20
511.055612
 11
150.529671
 21
464.555612
  0
ARC
  8
OBRYS
 10
148.529671
 20
511.055612
 40
2.000000
 50
0.000000
 51
90.000000
  0
LINE
  8
OBRYS
 10
150.466163
 20
512.555612
 11
174.529671
 21
512.555612
  0
ARC
  8
OBRYS
 10
150.466163
 20
514.555612
 40
2.000000
 50
241.044976
 51
270.000000
  0
LINE
  8
OBRYS
 10
148.529671
 20
513.055612
 11
146.529671
 21
513.055612
  0
LINE
  8
OSA
 10
316.276967
 20
261.787393
 11
423.256072
 21
261.787393
  0
LINE
  8
OBRYS
 10
412.776967
 20
235.787393
 11
412.776967
 21
231.787393
  0
LINE
  8
OBRYS
 10
315.776967
 20
235.787393
 11
315.776967
 21
231.787393
  0
ARC
  8
OBRYS
 10
360.276967
 20
251.540442
 40
2.000000
 50
0.000000
 51
68.676314
  0
LINE
  8
OBRYS
 10
362.276967
 20
251.540442
 11
362.276967
 21
239.787393
  0
ARC
  8
OBRYS
 10
368.276967
 20
251.540442
 40
2.000000
 50
111.323686
 51
180.000000
  0
LINE
  8
OBRYS
 10
366.276967
 20
251.540442
 11
366.276967
 21
239.787393
  0
ARC
  8
OBRYS
 10
368.276967
 20
239.787393
 40
2.000000
 50
180.000000
 51
270.000000
  0
ARC
  8
OBRYS
 10
360.276967
 20
239.787393
 40
2.000000
 50
270.000000
 51
360.000000
  0
LINE
  8
OSA
 10
364.276967
 20
290.879479
 11
364.276967
 21
217.391611
  0
ARC
  8
OBRYS
 10
322.276967
 20
267.787393
 40
6.000000
 50
180.000000
 51
255.522488
  0
LINE
  8
OBRYS
 10
316.276967
 20
285.787393
 11
316.276967
 21
267.787393
  0
ARC
  8
OBRYS
 10
319.810078
 20
260.177238
 40
2.000000
 50
1.193489
 51
72.039507
  0
ARC
  8
OBRYS
 10
322.276967
 20
267.787393
 40
6.000000
 50
180.000000
 51
252.039507
  0
ARC
  8
OBRYS
 10
320.234866
 20
239.787393
 40
2.000000
 50
270.000000
 51
1.193489
  0
LINE
  8
OBRYS
 10
321.276967
 20
285.787393
 11
322.234432
 21
239.829050
  0
LINE
  8
OBRYS
 10
316.276967
 20
285.787393
 11
316.276967
 21
267.787393
  0
LINE
  8
OBRYS
 10
412.276967
 20
285.787393
 11
412.276967
 21
267.787393
  0
LINE
  8
OBRYS
 10
407.276967
 20
285.787393
 11
406.319501
 21
239.829050
  0
ARC
  8
OBRYS
 10
408.319067
 20
239.787393
 40
2.000000
 50
178.806511
 51
270.000000
  0
ARC
  8
OBRYS
 10
406.276967
 20
267.787393
 40
6.000000
 50
287.960493
 51
360.000000
  0
ARC
  8
OBRYS
 10
408.743856
 20
260.177238
 40
2.000000
 50
107.960493
 51
178.806511
  0
LINE
  8
OBRYS
 10
321.818634
 20
259.787383
 11
313.276967
 21
259.787383
  0
LINE
  8
OBRYS
 10
313.276967
 20
235.287393
 11
313.276967
 21
288.287393
  0
LINE
  8
OBRYS
 10
421.276967
 20
259.787383
 11
406.276967
 21
259.787383
  0
LINE
  8
OBRYS
 10
317.804831
 20
263.787393
 11
313.276967
 21
263.787393
  0
LINE
  8
OBRYS
 10
421.276967
 20
263.787393
 11
410.749103
 21
263.787393
  0
LINE
  8
OBRYS
 10
421.276967
 20
235.287393
 11
421.276967
 21
288.287393
  0
LINE
  8
OBRYS
 10
412.276967
 20
285.787393
 11
412.276967
 21
267.787393
  0
LINE
  8
OBRYS
 10
370.779858
 20
285.787393
 11
370.779858
 21
268.765991
  0
LINE
  8
OBRYS
 10
357.774075
 20
285.787393
 11
357.774075
 21
268.765991
  0
INSERT
  8
KOTA
 66
     1
  2
Vnitrni_metricky_zavit_M1_16
 62
     7
 10
364.276967
 20
261.787393
  0
ATTRIB
  8
KOTA
 10
0.000000
 20
0.000000
 40
2.500000
  1
CSN 02 1034
  2
norma roz.
 70
     1
  0
ATTRIB
  8
KOTA
 10
0.000000
 20
0.000000
 40
2.500000
  1
1
  2
roztec
 70
     1
  0
ATTRIB
  8
KOTA
 10
0.000000
 20
0.000000
 40
2.500000
  1
*NB
  2
puvod
 70
     1
  0
ATTRIB
  8
KOTA
 10
0.000000
 20
0.000000
 40
2.500000
  1
02 1034
  2
tridici znak
 70
     1
  0
SEQEND
  8
KOTA
  0
CIRCLE
  8
OBRYS
 10
364.276967
 20
261.787393
 40
9.000000
  0
ARC
  8
OBRYS
 10
372.779858
 20
268.765991
 40
2.000000
 50
180.000000
 51
219.376835
  0
ARC
  8
OBRYS
 10
355.774075
 20
268.765991
 40
2.000000
 50
320.623165
 51
360.000000
  0
ARC
  8
OBRYS
 10
406.276967
 20
267.787393
 40
6.000000
 50
284.477512
 51
360.000000
  0
LINE
  8
OBRYS
 10
410.776967
 20
237.787393
 11
364.276967
 21
237.787393
  0
ARC
  8
OBRYS
 10
410.776967
 20
235.787393
 40
2.000000
 50
0.000000
 51
90.000000
  0
LINE
  8
OBRYS
 10
421.276967
 20
235.287393
 11
412.776967
 21
235.287393
  0
LINE
  8
OBRYS
 10
315.776967
 20
235.287393
 11
313.276967
 21
235.287393
  0
LINE
  8
OBRYS
 10
317.776967
 20
237.787393
 11
364.276967
 21
237.787393
  0
ARC
  8
OBRYS
 10
317.776967
 20
235.787393
 40
2.000000
 50
90.000000
 51
180.000000
  0
LINE
  8
OBRYS
 10
316.276967
 20
285.787393
 11
411.776967
 21
285.787393
  0
ARC
  8
OBRYS
 10
316.776967
 20
286.787393
 40
1.000000
 50
179.999761
 51
270.000000
  0
LINE
  8
OBRYS
 62
     7
  6
DASHDOT
 10
364.276967
 20
305.523670
 11
364.276967
 21
273.336532
  0
ARC
  8
OBRYS
 10
411.776967
 20
286.787393
 40
1.000000
 50
270.000000
 51
360.000000
  0
LINE
  8
OBRYS
 10
421.276967
 20
288.287393
 11
412.776967
 21
288.287393
  0
LINE
  8
OBRYS
 10
315.776967
 20
288.287393
 11
313.276967
 21
288.287393
  0
LINE
  8
OSA
 10
316.276967
 20
616.327158
 11
412.276967
 21
616.327158
  0
LINE
  8
OBRYS
 10
421.276967
 20
642.827158
 11
421.276967
 21
589.827158
  0
LINE
  8
OSA
 10
364.276967
 20
587.235071
 11
364.276967
 21
660.722940
  0
LINE
  8
0
 62
     2
 10
334.871950
 20
589.827158
 11
313.276967
 21
589.827158
  0
LINE
  8
0
 62
     2
 10
335.075872
 20
591.827158
 11
313.276967
 21
591.827158
  0
LINE
  8
0
 62
     2
 10
313.276967
 20
591.827158
 11
313.276967
 21
614.327158
  0
LINE
  8
0
 62
     2
 10
334.863986
 20
614.327158
 11
313.276967
 21
614.327158
  0
LINE
  8
0
 62
     2
 10
334.863986
 20
618.327158
 11
313.276967
 21
618.327158
  0
LINE
  8
0
 62
     2
 10
313.276967
 20
618.327158
 11
313.276967
 21
640.827158
  0
LINE
  8
0
 62
     2
 10
335.075872
 20
640.827158
 11
313.276967
 21
640.827158
  0
LINE
  8
0
 62
     2
 10
313.276967
 20
642.827158
 11
334.871950
 21
642.827158
  0
LINE
  8
0
 62
     2
 10
340.305824
 20
642.827158
 11
388.248110
 21
642.827158
  0
LINE
  8
0
 62
     2
 10
313.276967
 20
589.827158
 11
313.276967
 21
591.827158
  0
LINE
  8
0
 62
     2
 10
313.276967
 20
614.327158
 11
313.276967
 21
618.327158
  0
LINE
  8
0
 62
     2
 10
313.276967
 20
640.827158
 11
313.276967
 21
642.827158
  0
LINE
  8
0
 62
     2
 10
340.305824
 20
590.363679
 11
340.305824
 21
642.827158
  0
POLYLINE
  8
0
 62
     2
 66
    1
  0
VERTEX
  8
0
 62
     2
 10
389.192505
 20
589.827148
  0
VERTEX
  8
0
 62
     2
 10
388.248108
 20
590.363708
  0
VERTEX
  8
0
 62
     2
 10
383.763916
 20
590.905334
  0
VERTEX
  8
0
 62
     2
 10
374.079163
 20
591.582825
  0
VERTEX
  8
0
 62
     2
 10
364.276978
 20
591.807495
  0
VERTEX
  8
0
 62
     2
 10
354.474792
 20
591.582825
  0
VERTEX
  8
0
 62
     2
 10
344.790039
 20
590.905334
  0
VERTEX
  8
0
 62
     2
 10
340.305817
 20
590.363708
  0
VERTEX
  8
0
 62
     2
 10
339.361420
 20
589.827148
  0
SEQEND
  8
0
  0
POLYLINE
  8
0
 62
     2
 66
    1
  0
VERTEX
  8
0
 62
     2
 10
388.248108
 20
642.827148
  0
VERTEX
  8
0
 62
     2
 10
389.147339
 20
642.827148
  0
VERTEX
  8
0
 62
     2
 10
392.029846
 20
642.827148
  0
VERTEX
  8
0
 62
     2
 10
393.681976
 20
642.827148
  0
VERTEX
  8
0
 62
     2
 10
394.230133
 20
642.739746
  0
VERTEX
  8
0
 62
     2
 10
394.485992
 20
642.481384
  0
VERTEX
  8
0
 62
     2
 10
394.438354
 20
642.063232
  0
VERTEX
  8
0
 62
     2
 10
394.089355
 20
641.503723
  0
VERTEX
  8
0
 62
     2
 10
393.510803
 20
640.887451
  0
VERTEX
  8
0
 62
     2
 10
393.478058
 20
640.827148
  0
VERTEX
  8
0
 62
     2
 10
389.867249
 20
635.726501
  0
VERTEX
  8
0
 62
     2
 10
388.346588
 20
631.081360
  0
VERTEX
  8
0
 62
     2
 10
388.644165
 20
626.555786
  0
VERTEX
  8
0
 62
     2
 10
390.820496
 20
621.786804
  0
VERTEX
  8
0
 62
     2
 10
393.689941
 20
618.327148
  0
VERTEX
  8
0
 62
     2
 10
394.148743
 20
617.563232
  0
VERTEX
  8
0
 62
     2
 10
394.310333
 20
616.745300
  0
VERTEX
  8
0
 62
     2
 10
394.239014
 20
616.327148
  0
VERTEX
  8
0
 62
     2
 10
394.310333
 20
615.909058
  0
VERTEX
  8
0
 62
     2
 10
394.148743
 20
615.091125
  0
VERTEX
  8
0
 62
     2
 10
393.689941
 20
614.327148
  0
VERTEX
  8
0
 62
     2
 10
390.820496
 20
610.867554
  0
VERTEX
  8
0
 62
     2
 10
388.644165
 20
606.098572
  0
VERTEX
  8
0
 62
     2
 10
388.346588
 20
601.572998
  0
VERTEX
  8
0
 62
     2
 10
389.867249
 20
596.927856
  0
VERTEX
  8
0
 62
     2
 10
393.478058
 20
591.827148
  0
VERTEX
  8
0
 62
     2
 10
393.510803
 20
591.766846
  0
VERTEX
  8
0
 62
     2
 10
394.089355
 20
591.150635
  0
VERTEX
  8
0
 62
     2
 10
394.438354
 20
590.591125
  0
VERTEX
  8
0
 62
     2
 10
394.485992
 20
590.172974
  0
VERTEX
  8
0
 62
     2
 10
394.230133
 20
589.914612
  0
VERTEX
  8
0
 62
     2
 10
393.681976
 20
589.827148
  0
VERTEX
  8
0
 62
     2
 10
392.029846
 20
589.827148
  0
VERTEX
  8
0
 62
     2
 10
389.192505
 20
589.827148
  0
SEQEND
  8
0
  0
LINE
  8
0
 62
     2
 10
388.248110
 20
590.363679
 11
388.248110
 21
642.827158
  0
POLYLINE
  8
0
 62
     2
 66
    1
  0
VERTEX
  8
0
 62
     2
 10
340.305817
 20
642.827148
  0
VERTEX
  8
0
 62
     2
 10
339.406616
 20
642.827148
  0
VERTEX
  8
0
 62
     2
 10
336.524078
 20
642.827148
  0
VERTEX
  8
0
 62
     2
 10
334.871948
 20
642.827148
  0
VERTEX
  8
0
 62
     2
 10
334.323792
 20
642.739746
  0
VERTEX
  8
0
 62
     2
 10
334.067963
 20
642.481384
  0
VERTEX
  8
0
 62
     2
 10
334.115570
 20
642.063232
  0
VERTEX
  8
0
 62
     2
 10
334.464569
 20
641.503723
  0
VERTEX
  8
0
 62
     2
 10
335.043121
 20
640.887451
  0
VERTEX
  8
0
 62
     2
 10
335.075867
 20
640.827148
  0
VERTEX
  8
0
 62
     2
 10
338.686676
 20
635.726501
  0
VERTEX
  8
0
 62
     2
 10
340.207336
 20
631.081360
  0
VERTEX
  8
0
 62
     2
 10
339.909760
 20
626.555786
  0
VERTEX
  8
0
 62
     2
 10
337.733429
 20
621.786804
  0
VERTEX
  8
0
 62
     2
 10
334.863983
 20
618.327148
  0
VERTEX
  8
0
 62
     2
 10
334.405182
 20
617.563232
  0
VERTEX
  8
0
 62
     2
 10
334.243591
 20
616.745300
  0
VERTEX
  8
0
 62
     2
 10
334.314911
 20
616.327148
  0
VERTEX
  8
0
 62
     2
 10
334.243591
 20
615.909058
  0
VERTEX
  8
0
 62
     2
 10
334.405182
 20
615.091125
  0
VERTEX
  8
0
 62
     2
 10
334.863983
 20
614.327148
  0
VERTEX
  8
0
 62
     2
 10
337.733429
 20
610.867554
  0
VERTEX
  8
0
 62
     2
 10
339.909760
 20
606.098572
  0
VERTEX
  8
0
 62
     2
 10
340.207336
 20
601.572998
  0
VERTEX
  8
0
 62
     2
 10
338.686676
 20
596.927856
  0
VERTEX
  8
0
 62
     2
 10
335.075867
 20
591.827148
  0
VERTEX
  8
0
 62
     2
 10
335.043121
 20
591.766846
  0
VERTEX
  8
0
 62
     2
 10
334.464569
 20
591.150635
  0
VERTEX
  8
0
 62
     2
 10
334.115570
 20
590.591125
  0
VERTEX
  8
0
 62
     2
 10
334.067963
 20
590.172974
  0
VERTEX
  8
0
 62
     2
 10
334.323792
 20
589.914612
  0
VERTEX
  8
0
 62
     2
 10
334.871948
 20
589.827148
  0
VERTEX
  8
0
 62
     2
 10
336.524078
 20
589.827148
  0
VERTEX
  8
0
 62
     2
 10
339.361420
 20
589.827148
  0
SEQEND
  8
0
  0
LINE
  8
OSA
 10
422.776963
 20
616.327158
 11
305.776970
 21
616.327158
  0
LINE
  8
0
 62
     2
 10
421.276967
 20
642.827158
 11
393.681983
 21
642.827158
  0
LINE
  8
0
 62
     2
 10
393.478062
 20
640.827158
 11
421.276967
 21
640.827158
  0
LINE
  8
0
 62
     2
 10
393.689948
 20
618.327158
 11
421.276967
 21
618.327158
  0
LINE
  8
0
 62
     2
 10
393.689948
 20
614.327158
 11
421.276967
 21
614.327158
  0
LINE
  8
0
 62
     2
 10
393.478062
 20
591.827158
 11
421.276967
 21
591.827158
  0
LINE
  8
0
 62
     2
 10
393.681983
 20
589.827158
 11
421.276967
 21
589.827158
  0
LINE
  8
OBRYS
 10
412.776967
 20
642.827158
 11
412.776967
 21
646.327158
  0
LINE
  8
OBRYS
 10
315.776967
 20
642.827158
 11
315.776967
 21
646.327158
  0
LINE
  8
OBRYS
 62
     7
  6
DASHDOT
 10
364.276967
 20
572.590880
 11
364.276967
 21
604.778019
  0
LINE
  8
OBRYS
 10
412.776967
 20
589.827158
 11
412.776967
 21
586.327158
  0
LINE
  8
OBRYS
 10
315.776967
 20
589.827158
 11
315.776967
 21
586.327158
  0
ARC
  8
OBRYS
 10
454.630382
 20
690.597839
 40
2.000000
 50
82.410458
 51
180.000000
  0
ARC
  8
OBRYS
 10
440.630382
 20
690.597839
 40
2.000000
 50
0.000000
 51
97.589542
  0
ENDSEC
  0
EOF

