  0
SECTION
  2
HEADER
  9
$ACADVER
  1
AC1009
  9
$INSBASE
 10
0.0
 20
0.0
 30
0.0
  9
$LIMMIN
 10
0.0
 20
0.0
  9
$LIMMAX
 10
430.0000
 20
307.0000
  9
$EXTMIN
 10
99999999999999998000000000000000000000.0000
 20
99999999999999998000000000000000000000.0000
  9
$EXTMAX
 10
99999999999999998000000000000000000000.0000
 20
99999999999999998000000000000000000000.0000
  9
$VIEWCTR
 10
488.7074
 20
540.7184
  9
$VIEWSIZE
 40
870.8363
  9
$DIMLFAC
 40
0.6667
  9
$MEASUREMENT
 70
     1
  9
$DWGCODEPAGE
 3
ANSI_1250
  9
$CLAYER
  8
OBRYS
  9
$CELTYPE
  6
BYLAYER
  9
$CECOLOR
 62
  256
  9
$ORTHOMODE
 70
     0
  9
$REGENMODE
 70
     1
  9
$FILLMODE
 70
     1
  9
$QTEXTMODE
 70
     0
  9
$MIRRTEXT
 70
     1
  9
$DRAGMODE
 70
     2
  9
$LTSCALE
 40
1.0
  9
$OSMODE
 70
    37
  9
$ATTMODE
 70
     1
  9
$TEXTSIZE
 40
2.5
  9
$TRACEWID
 40
1.0
  9
$TEXTSTYLE
  7
STANDARD
  9
$CLAYER
  8
0
  9
$CELTYPE
  6
BYLAYER
  9
$CECOLOR
 62
   256
  9
$DIMSCALE
 40
1.0
  9
$DIMASZ
 40
2.5
  9
$DIMEXO
 40
0.625
  9
$DIMDLI
 40
3.75
  9
$DIMRND
 40
0.0
  9
$DIMDLE
 40
0.0
  9
$DIMEXE
 40
1.25
  9
$DIMTP
 40
0.0
  9
$DIMTM
 40
0.0
  9
$DIMTXT
 40
2.5
  9
$DIMCEN
 40
2.5
  9
$DIMTSZ
 40
0.0
  9
$DIMTOL
 70
     0
  9
$DIMLIM
 70
     0
  9
$DIMTIH
 70
     0
  9
$DIMTOH
 70
     0
  9
$DIMSE1
 70
     0
  9
$DIMSE2
 70
     0
  9
$DIMTAD
 70
     1
  9
$DIMZIN
 70
     8
  9
$DIMBLK
  1

  9
$DIMASO
 70
     1
  9
$DIMSHO
 70
     1
  9
$DIMPOST
  1

  9
$DIMAPOST
  1

  9
$DIMALT
 70
     0
  9
$DIMALTD
 70
     3
  9
$DIMALTF
 40
0.03937007874016
  9
$DIMTOFL
 70
     1
  9
$DIMTVP
 40
0.0
  9
$DIMTIX
 70
     0
  9
$DIMSOXD
 70
     0
  9
$DIMSAH
 70
     0
  9
$DIMBLK1
  1

  9
$DIMBLK2
  1

  9
$DIMSTYLE
  2
ISO-25
  9
$DIMCLRD
 70
     0
  9
$DIMCLRE
 70
     0
  9
$DIMCLRT
 70
     0
  9
$DIMTFAC
 40
1.0
  9
$DIMGAP
 40
0.625
  9
$LUNITS
 70
     2
  9
$LUPREC
 70
     4
  9
$SKETCHINC
 40
1.0
  9
$FILLETRAD
 40
10.0
  9
$AUNITS
 70
     0
  9
$AUPREC
 70
     0
  9
$MENU
  1
.
  9
$ELEVATION
 40
0.0
  9
$PELEVATION
 40
0.0
  9
$THICKNESS
 40
0.0
  9
$LIMCHECK
 70
     0
  9
$BLIPMODE
 70
     0
  9
$CHAMFERA
 40
10.0
  9
$CHAMFERB
 40
10.0
  9
$SKPOLY
 70
     0
  9
$TDCREATE
 40
2451579.5163292708
  9
$TDUPDATE
 40
2451579.6904035881
  9
$TDINDWG
 40
0.0082924769
  9
$TDUSRTIMER
 40
0.0082825116
  9
$USRTIMER
 70
     1
  9
$ANGBASE
 50
0.0
  9
$ANGDIR
 70
     0
  9
$PDMODE
 70
     0
  9
$PDSIZE
 40
0.0
  9
$PLINEWID
 40
0.0
  9
$COORDS
 70
     1
  9
$SPLFRAME
 70
     0
  9
$SPLINETYPE
 70
     6
  9
$SPLINESEGS
 70
     8
  9
$ATTDIA
 70
     0
  9
$ATTREQ
 70
     1
  9
$SURFTAB1
 70
     6
  9
$SURFTAB2
 70
     6
  9
$SURFTYPE
 70
     6
  9
$SURFU
 70
     6
  9
$SURFV
 70
     6
  9
$UCSNAME
  2

  9
$UCSORG
 10
0.0
 20
0.0
 30
0.0
  9
$UCSXDIR
 10
1.0
 20
0.0
 30
0.0
  9
$UCSYDIR
 10
0.0
 20
1.0
 30
0.0
  9
$PUCSNAME
  2

  9
$PUCSORG
 10
0.0
 20
0.0
 30
0.0
  9
$PUCSXDIR
 10
1.0
 20
0.0
 30
0.0
  9
$PUCSYDIR
 10
0.0
 20
1.0
 30
0.0
  9
$USERI1
 70
     0
  9
$USERI2
 70
     0
  9
$USERI3
 70
     0
  9
$USERI4
 70
     0
  9
$USERI5
 70
     0
  9
$USERR1
 40
0.0
  9
$USERR2
 40
0.0
  9
$USERR3
 40
0.0
  9
$USERR4
 40
0.0
  9
$USERR5
 40
0.0
  9
$WORLDVIEW
 70
     1
  9
$SHADEDGE
 70
     3
  9
$SHADEDIF
 70
    70
  9
$TILEMODE
 70
     1
  9
$MAXACTVP
 70
    64
  9
$PLIMCHECK
 70
     0
  9
$PEXTMIN
 10
1.0000000000000000E+020
 20
1.0000000000000000E+020
 30
1.0000000000000000E+020
  9
$PEXTMAX
 10
-1.0000000000000000E+020
 20
-1.0000000000000000E+020
 30
-1.0000000000000000E+020
  9
$PLIMMIN
 10
0.0
 20
0.0
  9
$PLIMMAX
 10
420.0
 20
297.0
  9
$UNITMODE
 70
     0
  9
$VISRETAIN
 70
     1
  9
$PLINEGEN
 70
     0
  9
$PSLTSCALE
 70
     1
  0
ENDSEC
  0
SECTION
  2
TABLES
  0
TABLE
  2
VPORT
 70
     2
  0
VPORT
  2
*ACTIVE
 70
     0
 10
0.0
 20
0.0
 11
1.0
 21
1.0
 12
488.7074
 22
540.7184
 13
0.0
 23
0.0
 14
10.0
 24
10.0
 15
10.0
 25
10.0
 16
0.0
 26
0.0
 36
1.0
 17
0.0
 27
0.0
 37
0.0
 40
870.8363
 41
1.6916
 42
50.0
 43
0.0
 44
0.0
 50
0.0
 51
0.0
 71
     0
 72
   100
 73
     1
 74
     3
 75
     0
 76
     0
 77
     0
 78
     0
  0
ENDTAB
  0
TABLE
  2
LTYPE
 70
     7
  0
LTYPE
  2
CONTINUOUS
 70
     0
  3
Solid line
 72
    65
 73
     0
 40
0.0
  0
LTYPE
  2
HIDDEN2
 70
     0
  3
Hidden (.5x) _ _ _ _ _ _ _ _ _ _ _ _ _ _ _ _ _
 72
    65
 73
     2
 40
5.1
 49
3.5
 49
-1.6
  0
LTYPE
  2
DASHDOT
 70
     0
  3
Dash dot __ . __ . __ . __ . __ . __ . __ . __
 72
    65
 73
     4
 40
10.4
 49
6.2
 49
-2.1
 49
0.0
 49
-2.1
  0
LTYPE
  2
DOT
 70
     0
  3
Dot . . . . . . . . . . . . . . . . . . . . . .
 72
    65
 73
     2
 40
2.2
 49
1.1
 49
-1.1
  0
LTYPE
  2
DASHED
 70
     0
  3
Dashed __ __ __ __ __ __ __ __ __ __ __ __ __ _
 72
    65
 73
     2
 40
11.049999999999979
 49
8.699999999999999
 49
-2.3499999999999979
  0
LTYPE
  2
PHANTOM2
 70
     0
  3
Phantom (.5x) ___ _ _ ___ _ _ ___ _ _ ___ _ _
 72
    65
 73
     6
 40
18.3
 49
7.8
 49
-2.1
 49
2.1
 49
-2.1
 49
2.1
 49
-2.1
  0
LTYPE
  2
CENTER
 70
     0
  3
Center ____ _ ____ _ ____ _ ____ _ ____ _ ____
 72
    65
 73
     4
 40
14.1
 49
7.8
 49
-2.1
 49
2.1
 49
-2.1
  0
ENDTAB
  0
TABLE
  2
LAYER
 70
     7
  0
LAYER
  2
0
 70
    64
 62
     7
  6
CONTINUOUS
  0
LAYER
  2
OBRYS
 70
    64
 62
     2
  6
CONTINUOUS
  0
LAYER
  2
OSA
 70
    64
 62
     7
  6
DASHDOT
  0
LAYER
  2
KOTA
 70
    64
 62
     3
  6
CONTINUOUS
  0
LAYER
  2
SRAFY
 70
    64
 62
     7
  6
CONTINUOUS
  0
LAYER
  2
POMOC
 70
    64
 62
     1
  6
DOT
  0
LAYER
  2
NEVIDITELNA
 70
    64
 62
     4
  6
HIDDEN2
  0
ENDTAB
  0
TABLE
  2
STYLE
 70
     1
  0
STYLE
  2
STANDARD
 70
     0
 40
0.0
 41
1.0
 50
0.0
 71
     0
 42
2.5
  3
txt
  4

  0
ENDTAB
  0
TABLE
  2
VIEW
 70
     0
  0
ENDTAB
  0
TABLE
  2
UCS
 70
     0
  0
ENDTAB
  0
TABLE
  2
APPID
 70
     1
  0
APPID
  2
ACAD
 70
     0
  0
ENDTAB
  0
TABLE
  2
DIMSTYLE
 70
     1
  0
DIMSTYLE
  2
ISO-25
 70
     0
  3

  4

  5

  6

  7

 40
1.0
 41
2.5
 42
0.625
 43
3.75
 44
1.25
 45
0.0
 46
0.0
 47
0.0
 48
0.0
140
2.5
141
2.5
142
0.0
143
0.03937007874016
144
1.0
145
0.0
146
1.0
147
0.625
 71
     0
 72
     0
 73
     0
 74
     0
 75
     0
 76
     0
 77
     1
 78
     8
170
     0
171
     3
172
     1
173
     0
174
     0
175
     0
176
     0
177
     0
178
     0
  0
ENDTAB
  0
ENDSEC
  0
SECTION
  2
BLOCKS
  0
BLOCK
  8
0
  2
$MODEL_SPACE
 70
     0
 10
0.0
 20
0.0
 30
0.0
  3
$MODEL_SPACE
  1

  0
ENDBLK
  8
0
  0
BLOCK
 67
     1
  8
0
  2
$PAPER_SPACE
 70
     0
 10
0.0
 20
0.0
 30
0.0
  3
$PAPER_SPACE
  1

  0
ENDBLK
 67
     1
  8
0
  0
BLOCK
  8
OBRYS
  2
_0
 70
   64
 10
587.024263
 20
464.555625
  0
LINE
  8
OBRYS
 10
623.198574
 20
419.390783
 11
592.019078
 21
422.118635
  0
LINE
  8
OBRYS
 10
625.842475
 20
394.942127
 11
590.441338
 21
420.871281
  0
LINE
  8
OBRYS
 10
623.024263
 20
466.555625
 11
613.990920
 21
466.555625
  0
LINE
  8
OBRYS
 10
623.024263
 20
462.555625
 11
613.723509
 21
462.555625
  0
LINE
  8
OBRYS
 10
623.198574
 20
509.720467
 11
599.538976
 21
507.650521
  0
ARC
  8
OBRYS
 62
     4
  6
HIDDEN2
 10
632.824263
 20
511.255625
 40
0.800000
 50
90.000000
 51
180.000000
  0
LINE
  8
OBRYS
 62
     4
  6
HIDDEN2
 10
632.824263
 20
512.055625
 11
636.024263
 21
512.055625
  0
LINE
  8
OBRYS
 62
     4
  6
HIDDEN2
 10
632.024263
 20
464.555625
 11
632.024263
 21
511.255625
  0
LINE
  8
OBRYS
 62
     4
  6
HIDDEN2
 10
632.024263
 20
464.555625
 11
632.024263
 21
417.855625
  0
LINE
  8
OBRYS
 62
     4
  6
HIDDEN2
 10
632.824263
 20
417.055625
 11
636.024263
 21
417.055625
  0
ARC
  8
OBRYS
 62
     4
  6
HIDDEN2
 10
632.824263
 20
417.855625
 40
0.800000
 50
180.000000
 51
270.000000
  0
ARC
  8
OBRYS
 10
623.024263
 20
460.555625
 40
2.000000
 50
0.000000
 51
90.000000
  0
ARC
  8
OBRYS
 10
623.024263
 20
468.555625
 40
2.000000
 50
270.000000
 51
360.000000
  0
LINE
  8
OBRYS
 10
625.024263
 20
532.555625
 11
625.024263
 21
464.555625
  0
LINE
  8
OBRYS
 10
625.024263
 20
396.555625
 11
625.024263
 21
464.555625
  0
LINE
  8
OBRYS
 10
636.024263
 20
464.555625
 11
636.024263
 21
394.555625
  0
LINE
  8
OBRYS
 10
636.024263
 20
534.555625
 11
636.024263
 21
464.555625
  0
LINE
  8
OBRYS
 10
636.024263
 20
534.555625
 11
627.024263
 21
534.555625
  0
ARC
  8
OBRYS
 10
627.024263
 20
532.555625
 40
2.000000
 50
90.000000
 51
180.000000
  0
ARC
  8
OBRYS
 10
627.024263
 20
396.555625
 40
2.000000
 50
180.000000
 51
270.000000
  0
LINE
  8
OBRYS
 10
636.024263
 20
394.555625
 11
627.024263
 21
394.555625
  0
LINE
  8
OBRYS
 62
     7
  6
DASHDOT
 10
582.024263
 20
464.555625
 11
641.524263
 21
464.555625
  0
ARC
  8
OBRYS
 10
623.024263
 20
417.398394
 40
2.000000
 50
0.000000
 51
85.000000
  0
ARC
  8
OBRYS
 10
623.024263
 20
511.712857
 40
2.000000
 50
275.000000
 51
360.000000
  0
LINE
  8
OBRYS
 10
634.524263
 20
454.555625
 11
636.024263
 21
454.555625
  0
LINE
  8
OBRYS
 10
634.524263
 20
474.555625
 11
636.024263
 21
474.555625
  0
ARC
  8
OBRYS
 10
634.524263
 20
456.555625
 40
2.000000
 50
180.000000
 51
270.000000
  0
LINE
  8
OBRYS
 10
632.524263
 20
456.555625
 11
632.524263
 21
472.555625
  0
ARC
  8
OBRYS
 10
634.524263
 20
472.555625
 40
2.000000
 50
90.000000
 51
180.000000
  0
LINE
  8
OBRYS
 10
625.842475
 20
534.169123
 11
595.480300
 21
511.930698
  0
ENDBLK
  8
OBRYS
  0
BLOCK
  8
OSA
  2
_1
 70
   64
 10
554.024263
 20
504.555625
  0
ARC
  8
OSA
 62
     2
  6
CONTINUOUS
 10
534.507758
 20
538.175924
 40
2.000000
 50
112.486594
 51
180.000000
  0
LINE
  8
OSA
 62
     2
  6
CONTINUOUS
 10
532.507758
 20
531.072129
 11
532.507758
 21
538.175924
  0
ARC
  8
OSA
 62
     2
  6
CONTINUOUS
 10
573.540767
 20
538.175924
 40
2.000000
 50
0.000000
 51
67.513406
  0
LINE
  8
OSA
 62
     2
  6
CONTINUOUS
 10
575.540767
 20
531.072129
 11
575.540767
 21
538.175924
  0
ARC
  8
OSA
 62
     2
  6
CONTINUOUS
 10
554.024263
 20
491.027717
 40
53.027909
 50
56.488379
 51
123.511629
  0
ARC
  8
OSA
 62
     2
  6
CONTINUOUS
 10
580.540767
 20
531.072129
 40
5.000000
 50
25.830081
 51
56.488335
  0
ARC
  8
OSA
 62
     2
  6
CONTINUOUS
 10
527.507758
 20
531.072129
 40
5.000000
 50
123.511664
 51
154.169919
  0
ARC
  8
OSA
 62
     2
  6
CONTINUOUS
 10
554.024263
 20
468.555625
 40
24.000000
 50
25.791094
 51
90.000000
  0
ARC
  8
OSA
 10
554.024263
 20
468.555625
 40
50.000000
 50
270.000000
 51
90.000000
  0
ARC
  8
OSA
 62
     2
  6
CONTINUOUS
 10
554.024263
 20
468.555625
 40
40.000000
 50
270.000000
 51
90.000000
  0
ARC
  8
OSA
 62
     2
  6
CONTINUOUS
 10
554.024263
 20
468.555625
 40
60.000000
 50
270.000000
 51
90.000000
  0
ARC
  8
OSA
 62
     2
  6
CONTINUOUS
 10
554.024263
 20
468.555625
 40
21.000000
 50
270.000000
 51
90.000000
  0
LINE
  8
OSA
 10
554.024263
 20
440.555625
 11
564.024276
 21
440.555625
  0
ARC
  8
OSA
 62
     2
  6
CONTINUOUS
 10
554.024279
 20
440.555625
 40
5.000000
 50
270.000000
 51
90.000000
  0
LINE
  8
OSA
 10
554.024263
 20
504.555625
 11
594.024259
 21
504.555625
  0
LINE
  8
OSA
 10
554.024263
 20
468.555625
 11
614.024263
 21
468.555625
  0
LINE
  8
OSA
 10
554.024263
 20
550.199672
 11
554.024263
 21
408.555625
  0
ARC
  8
OSA
 62
     2
  6
CONTINUOUS
 10
580.005025
 20
519.555625
 40
10.500000
 50
0.000006
 51
25.830081
  0
LINE
  8
OSA
 62
     2
  6
CONTINUOUS
 10
589.455971
 20
524.130514
 11
585.041218
 21
533.250648
  0
CIRCLE
  8
OSA
 62
     2
  6
CONTINUOUS
 10
580.540767
 20
478.039121
 40
5.000000
  0
ARC
  8
OSA
 62
     2
  6
CONTINUOUS
 10
580.540767
 20
531.072129
 40
5.000000
 50
180.000000
 51
270.000036
  0
ARC
  8
OSA
 62
     2
  6
CONTINUOUS
 10
587.262234
 20
524.072129
 40
2.000000
 50
25.830081
 51
90.000000
  0
LINE
  8
OSA
 62
     2
  6
CONTINUOUS
 10
580.540767
 20
526.072129
 11
587.262234
 21
526.072129
  0
CIRCLE
  8
OSA
 62
     2
  6
CONTINUOUS
 10
589.379602
 20
503.910964
 40
3.500000
  0
LINE
  8
OSA
 10
554.024263
 20
468.555625
 11
596.450670
 21
426.129218
  0
LINE
  8
OSA
 10
554.024263
 20
468.555625
 11
596.450670
 21
510.982032
  0
CIRCLE
  8
OSA
 62
     2
  6
CONTINUOUS
 10
589.379602
 20
433.200286
 40
3.500000
  0
ARC
  8
OSA
 62
     2
  6
CONTINUOUS
 10
580.540767
 20
478.039121
 40
5.000000
 50
135.000000
 51
183.167456
  0
ARC
  8
OSA
 62
     2
  6
CONTINUOUS
 10
554.024263
 20
468.555625
 40
24.000000
 50
276.634438
 51
13.567580
  0
ARC
  8
OSA
 62
     2
  6
CONTINUOUS
 10
554.024263
 20
468.555625
 40
24.000000
 50
166.432420
 51
263.365562
  0
ARC
  8
OSA
 62
     2
  6
CONTINUOUS
 10
527.507758
 20
478.039121
 40
5.000000
 50
356.832544
 51
45.000000
  0
CIRCLE
  8
OSA
 62
     2
  6
CONTINUOUS
 10
518.668924
 20
433.200286
 40
3.500000
  0
LINE
  8
OSA
 10
554.024263
 20
468.555625
 11
511.597856
 21
510.982032
  0
LINE
  8
OSA
 10
554.024263
 20
468.555625
 11
511.597856
 21
426.129218
  0
CIRCLE
  8
OSA
 62
     2
  6
CONTINUOUS
 10
518.668924
 20
503.910964
 40
3.500000
  0
LINE
  8
OSA
 62
     2
  6
CONTINUOUS
 10
527.507758
 20
526.072129
 11
520.786292
 21
526.072129
  0
ARC
  8
OSA
 62
     2
  6
CONTINUOUS
 10
520.786292
 20
524.072129
 40
2.000000
 50
90.000000
 51
154.169919
  0
ARC
  8
OSA
 62
     2
  6
CONTINUOUS
 10
527.507758
 20
531.072129
 40
5.000000
 50
269.999964
 51
360.000000
  0
CIRCLE
  8
OSA
 62
     2
  6
CONTINUOUS
 10
527.507758
 20
478.039121
 40
5.000000
  0
LINE
  8
OSA
 62
     2
  6
CONTINUOUS
 10
518.592554
 20
524.130514
 11
523.007308
 21
533.250648
  0
ARC
  8
OSA
 62
     2
  6
CONTINUOUS
 10
528.043501
 20
519.555625
 40
10.500000
 50
154.169919
 51
179.999994
  0
LINE
  8
OSA
 10
554.024263
 20
468.555625
 11
494.024263
 21
468.555625
  0
LINE
  8
OSA
 10
554.024263
 20
504.555625
 11
514.024266
 21
504.555625
  0
ARC
  8
OSA
 62
     2
  6
CONTINUOUS
 10
554.024246
 20
440.555625
 40
5.000000
 50
90.000000
 51
270.000000
  0
LINE
  8
OSA
 10
554.024263
 20
440.555625
 11
544.024250
 21
440.555625
  0
ARC
  8
OSA
 62
     2
  6
CONTINUOUS
 10
554.024263
 20
468.555625
 40
21.000000
 50
90.000000
 51
270.000000
  0
ARC
  8
OSA
 62
     2
  6
CONTINUOUS
 10
554.024263
 20
468.555625
 40
60.000000
 50
90.000000
 51
270.000000
  0
ARC
  8
OSA
 62
     2
  6
CONTINUOUS
 10
554.024263
 20
468.555625
 40
40.000000
 50
90.000000
 51
270.000000
  0
ARC
  8
OSA
 10
554.024263
 20
468.555625
 40
50.000000
 50
90.000000
 51
270.000000
  0
ARC
  8
OSA
 62
     2
  6
CONTINUOUS
 10
554.024263
 20
468.555625
 40
24.000000
 50
90.000000
 51
154.208906
  0
CIRCLE
  8
OSA
 62
     2
  6
CONTINUOUS
 10
554.024263
 20
468.555625
 40
17.480000
  0
ARC
  8
OSA
 62
     2
  6
CONTINUOUS
 10
554.024263
 20
468.555625
 40
55.000000
 50
270.000000
 51
90.000000
  0
ARC
  8
OSA
 62
     2
  6
CONTINUOUS
 10
578.745525
 20
429.763110
 40
2.000000
 50
35.000000
 51
122.508094
  0
LINE
  8
OSA
 62
     2
  6
CONTINUOUS
 10
580.383829
 20
430.910263
 11
584.402162
 21
425.171489
  0
ARC
  8
OSA
 62
     2
  6
CONTINUOUS
 10
582.763858
 20
424.024336
 40
2.000000
 50
302.837382
 51
35.000000
  0
ARC
  8
OSA
 62
     2
  6
CONTINUOUS
 10
554.024263
 20
468.555625
 40
44.000000
 50
270.000000
 51
90.000000
  0
ARC
  8
OSA
 62
     2
  6
CONTINUOUS
 10
598.555552
 20
439.816030
 40
2.000000
 50
235.000000
 51
327.162618
  0
LINE
  8
OSA
 62
     2
  6
CONTINUOUS
 10
591.669625
 20
442.196059
 11
597.408399
 21
438.177726
  0
ARC
  8
OSA
 62
     2
  6
CONTINUOUS
 10
592.816778
 20
443.834363
 40
2.000000
 50
147.491906
 51
235.000000
  0
LINE
  8
OSA
 62
     2
  6
CONTINUOUS
 10
613.185061
 20
458.555625
 11
608.254994
 21
459.388958
  0
LINE
  8
OSA
 62
     2
  6
CONTINUOUS
 10
613.185061
 20
478.555625
 11
608.254994
 21
477.722292
  0
ARC
  8
OSA
 62
     2
  6
CONTINUOUS
 10
592.816778
 20
493.276887
 40
2.000000
 50
125.000000
 51
212.508094
  0
LINE
  8
OSA
 62
     2
  6
CONTINUOUS
 10
591.669625
 20
494.915191
 11
597.408399
 21
498.933524
  0
ARC
  8
OSA
 62
     2
  6
CONTINUOUS
 10
598.555552
 20
497.295220
 40
2.000000
 50
32.837382
 51
125.000000
  0
ARC
  8
OSA
 62
     2
  6
CONTINUOUS
 10
582.763858
 20
513.086914
 40
2.000000
 50
325.000000
 51
57.162618
  0
LINE
  8
OSA
 62
     2
  6
CONTINUOUS
 10
580.383829
 20
506.200987
 11
584.402162
 21
511.939761
  0
ARC
  8
OSA
 62
     2
  6
CONTINUOUS
 10
578.745525
 20
507.348140
 40
2.000000
 50
237.491906
 51
325.000000
  0
ARC
  8
OSA
 62
     2
  6
CONTINUOUS
 10
529.303001
 20
507.348140
 40
2.000000
 50
215.000000
 51
302.508094
  0
LINE
  8
OSA
 62
     2
  6
CONTINUOUS
 10
527.664697
 20
506.200987
 11
523.646364
 21
511.939761
  0
ARC
  8
OSA
 62
     2
  6
CONTINUOUS
 10
525.284668
 20
513.086914
 40
2.000000
 50
122.837382
 51
215.000000
  0
ARC
  8
OSA
 62
     2
  6
CONTINUOUS
 10
509.492974
 20
497.295220
 40
2.000000
 50
55.000000
 51
147.162618
  0
LINE
  8
OSA
 62
     2
  6
CONTINUOUS
 10
516.378901
 20
494.915191
 11
510.640127
 21
498.933524
  0
ARC
  8
OSA
 62
     2
  6
CONTINUOUS
 10
515.231748
 20
493.276887
 40
2.000000
 50
327.491906
 51
55.000000
  0
LINE
  8
OSA
 62
     2
  6
CONTINUOUS
 10
494.863465
 20
478.555625
 11
499.793531
 21
477.722292
  0
LINE
  8
OSA
 62
     2
  6
CONTINUOUS
 10
494.863465
 20
458.555625
 11
499.793531
 21
459.388958
  0
ARC
  8
OSA
 62
     2
  6
CONTINUOUS
 10
515.231748
 20
443.834363
 40
2.000000
 50
305.000000
 51
32.508094
  0
LINE
  8
OSA
 62
     2
  6
CONTINUOUS
 10
516.378901
 20
442.196059
 11
510.640127
 21
438.177726
  0
ARC
  8
OSA
 62
     2
  6
CONTINUOUS
 10
509.492974
 20
439.816030
 40
2.000000
 50
212.837382
 51
305.000000
  0
ARC
  8
OSA
 62
     2
  6
CONTINUOUS
 10
554.024263
 20
468.555625
 40
44.000000
 50
90.000000
 51
270.000000
  0
ARC
  8
OSA
 62
     2
  6
CONTINUOUS
 10
525.284668
 20
424.024336
 40
2.000000
 50
145.000000
 51
237.162618
  0
LINE
  8
OSA
 62
     2
  6
CONTINUOUS
 10
527.664697
 20
430.910263
 11
523.646364
 21
425.171489
  0
ARC
  8
OSA
 62
     2
  6
CONTINUOUS
 10
529.303001
 20
429.763110
 40
2.000000
 50
57.491906
 51
145.000000
  0
ARC
  8
OSA
 62
     2
  6
CONTINUOUS
 10
554.024263
 20
468.555625
 40
55.000000
 50
90.000000
 51
270.000000
  0
LINE
  8
OSA
 62
     2
  6
CONTINUOUS
 10
590.505025
 20
516.191263
 11
590.505025
 21
519.555625
  0
LINE
  8
OSA
 62
     2
  6
CONTINUOUS
 10
517.543501
 20
516.191263
 11
517.543501
 21
519.555625
  0
INSERT
  8
OSA
  2
Srouby_s_valcovou_hlavou___1
  6
CONTINUOUS
 10
580.540767
 20
531.072129
  0
INSERT
  8
OSA
  2
Srouby_s_valcovou_hlavou___2
  6
CONTINUOUS
 10
527.507758
 20
531.072129
  0
LINE
  8
OSA
 10
580.540767
 20
531.072129
 11
587.150140
 21
531.072129
  0
LINE
  8
OSA
 10
580.540767
 20
531.072129
 11
573.931394
 21
531.072129
  0
LINE
  8
OSA
 10
580.540767
 20
531.072129
 11
580.540767
 21
537.681502
  0
LINE
  8
OSA
 10
580.540767
 20
531.072129
 11
580.540767
 21
524.462756
  0
LINE
  8
OSA
 10
527.507758
 20
531.072129
 11
527.507758
 21
524.462756
  0
LINE
  8
OSA
 10
527.507758
 20
531.072129
 11
527.507758
 21
537.681502
  0
LINE
  8
OSA
 10
527.507758
 20
531.072129
 11
520.898385
 21
531.072129
  0
LINE
  8
OSA
 10
527.507758
 20
531.072129
 11
534.117131
 21
531.072129
  0
LINE
  8
OSA
 10
580.540767
 20
478.039121
 11
580.540767
 21
471.429748
  0
LINE
  8
OSA
 10
580.540767
 20
478.039121
 11
580.540767
 21
484.648494
  0
LINE
  8
OSA
 10
580.540767
 20
478.039121
 11
573.931394
 21
478.039121
  0
LINE
  8
OSA
 10
580.540767
 20
478.039121
 11
587.150140
 21
478.039121
  0
LINE
  8
OSA
 10
527.507758
 20
478.039121
 11
527.507758
 21
471.429748
  0
LINE
  8
OSA
 10
527.507758
 20
478.039121
 11
527.507758
 21
484.648494
  0
LINE
  8
OSA
 10
527.507758
 20
478.039121
 11
520.898385
 21
478.039121
  0
LINE
  8
OSA
 10
527.507758
 20
478.039121
 11
534.117131
 21
478.039121
  0
INSERT
  8
OSA
  2
Srouby_s_valcovou_hlavou___3
  6
CONTINUOUS
 10
580.540767
 20
478.039121
  0
INSERT
  8
OSA
  2
Srouby_s_valcovou_hlavou___4
  6
CONTINUOUS
 10
527.507758
 20
478.039121
  0
INSERT
  8
OSA
  2
Srouby_s_valcovou_hlavou___5
  6
CONTINUOUS
 10
554.024263
 20
440.555625
  0
LINE
  8
OSA
 10
554.024263
 20
468.555625
 11
554.024263
 21
462.388958
  0
LINE
  8
OSA
 10
554.024263
 20
468.555625
 11
554.024263
 21
474.722292
  0
LINE
  8
OSA
 10
554.024263
 20
468.555625
 11
547.857596
 21
468.555625
  0
LINE
  8
OSA
 10
554.024263
 20
468.555625
 11
560.190929
 21
468.555625
  0
LINE
  8
OSA
 62
     2
  6
CONTINUOUS
 10
552.524263
 20
472.798266
 11
552.524263
 21
474.355625
  0
LINE
  8
OSA
 62
     2
  6
CONTINUOUS
 10
552.524263
 20
474.355625
 11
555.524263
 21
474.355625
  0
LINE
  8
OSA
 62
     2
  6
CONTINUOUS
 10
555.524263
 20
474.355625
 11
555.524263
 21
472.798266
  0
ARC
  8
OSA
 62
     2
  6
CONTINUOUS
 10
554.024263
 20
468.555625
 40
4.500000
 50
109.471221
 51
70.528779
  0
CIRCLE
  8
OSA
 62
     2
  6
CONTINUOUS
 10
554.024263
 20
468.555625
 40
10.000000
  0
ENDBLK
  8
OSA
  0
BLOCK
  8
OSA
  2
Srouby_s_valcovou_hlavou___1
 70
   66
 10
580.540767
 20
531.072129
  0
LINE
  8
OSA
 62
     2
  6
CONTINUOUS
 10
578.540767
 20
529.917422
 11
578.540767
 21
532.226837
  0
LINE
  8
OSA
 62
     2
  6
CONTINUOUS
 10
578.540767
 20
532.226837
 11
580.540767
 21
533.381545
  0
LINE
  8
OSA
 62
     2
  6
CONTINUOUS
 10
580.540767
 20
533.381545
 11
582.540767
 21
532.226837
  0
LINE
  8
OSA
 62
     2
  6
CONTINUOUS
 10
582.540767
 20
532.226837
 11
582.540767
 21
529.917422
  0
LINE
  8
OSA
 62
     2
  6
CONTINUOUS
 10
582.540767
 20
529.917422
 11
580.540767
 21
528.762714
  0
LINE
  8
OSA
 62
     2
  6
CONTINUOUS
 10
580.540767
 20
528.762714
 11
578.540767
 21
529.917422
  0
CIRCLE
  8
OSA
 62
     2
  6
CONTINUOUS
 10
580.540767
 20
531.072129
 40
2.309415
  0
CIRCLE
  8
OSA
 62
     2
  6
CONTINUOUS
 10
580.540767
 20
531.072129
 40
4.250000
  0
ENDBLK
  8
OSA
  0
BLOCK
  8
OSA
  2
Srouby_s_valcovou_hlavou___2
 70
   66
 10
527.507758
 20
531.072129
  0
LINE
  8
OSA
 62
     2
  6
CONTINUOUS
 10
525.507758
 20
529.917422
 11
525.507758
 21
532.226837
  0
LINE
  8
OSA
 62
     2
  6
CONTINUOUS
 10
525.507758
 20
532.226837
 11
527.507758
 21
533.381545
  0
LINE
  8
OSA
 62
     2
  6
CONTINUOUS
 10
527.507758
 20
533.381545
 11
529.507758
 21
532.226837
  0
LINE
  8
OSA
 62
     2
  6
CONTINUOUS
 10
529.507758
 20
532.226837
 11
529.507758
 21
529.917422
  0
LINE
  8
OSA
 62
     2
  6
CONTINUOUS
 10
529.507758
 20
529.917422
 11
527.507758
 21
528.762714
  0
LINE
  8
OSA
 62
     2
  6
CONTINUOUS
 10
527.507758
 20
528.762714
 11
525.507758
 21
529.917422
  0
CIRCLE
  8
OSA
 62
     2
  6
CONTINUOUS
 10
527.507758
 20
531.072129
 40
2.309415
  0
CIRCLE
  8
OSA
 62
     2
  6
CONTINUOUS
 10
527.507758
 20
531.072129
 40
4.250000
  0
ENDBLK
  8
OSA
  0
BLOCK
  8
OSA
  2
Srouby_s_valcovou_hlavou___3
 70
   66
 10
580.540767
 20
478.039121
  0
LINE
  8
OSA
 62
     2
  6
CONTINUOUS
 10
578.540767
 20
476.884413
 11
578.540767
 21
479.193829
  0
LINE
  8
OSA
 62
     2
  6
CONTINUOUS
 10
578.540767
 20
479.193829
 11
580.540767
 21
480.348536
  0
LINE
  8
OSA
 62
     2
  6
CONTINUOUS
 10
580.540767
 20
480.348536
 11
582.540767
 21
479.193829
  0
LINE
  8
OSA
 62
     2
  6
CONTINUOUS
 10
582.540767
 20
479.193829
 11
582.540767
 21
476.884413
  0
LINE
  8
OSA
 62
     2
  6
CONTINUOUS
 10
582.540767
 20
476.884413
 11
580.540767
 21
475.729705
  0
LINE
  8
OSA
 62
     2
  6
CONTINUOUS
 10
580.540767
 20
475.729705
 11
578.540767
 21
476.884413
  0
CIRCLE
  8
OSA
 62
     2
  6
CONTINUOUS
 10
580.540767
 20
478.039121
 40
2.309415
  0
CIRCLE
  8
OSA
 62
     2
  6
CONTINUOUS
 10
580.540767
 20
478.039121
 40
4.250000
  0
ENDBLK
  8
OSA
  0
BLOCK
  8
OSA
  2
Srouby_s_valcovou_hlavou___4
 70
   66
 10
527.507758
 20
478.039121
  0
LINE
  8
OSA
 62
     2
  6
CONTINUOUS
 10
525.507758
 20
476.884413
 11
525.507758
 21
479.193829
  0
LINE
  8
OSA
 62
     2
  6
CONTINUOUS
 10
525.507758
 20
479.193829
 11
527.507758
 21
480.348536
  0
LINE
  8
OSA
 62
     2
  6
CONTINUOUS
 10
527.507758
 20
480.348536
 11
529.507758
 21
479.193829
  0
LINE
  8
OSA
 62
     2
  6
CONTINUOUS
 10
529.507758
 20
479.193829
 11
529.507758
 21
476.884413
  0
LINE
  8
OSA
 62
     2
  6
CONTINUOUS
 10
529.507758
 20
476.884413
 11
527.507758
 21
475.729705
  0
LINE
  8
OSA
 62
     2
  6
CONTINUOUS
 10
527.507758
 20
475.729705
 11
525.507758
 21
476.884413
  0
CIRCLE
  8
OSA
 62
     2
  6
CONTINUOUS
 10
527.507758
 20
478.039121
 40
2.309415
  0
CIRCLE
  8
OSA
 62
     2
  6
CONTINUOUS
 10
527.507758
 20
478.039121
 40
4.250000
  0
ENDBLK
  8
OSA
  0
BLOCK
  8
OSA
  2
Srouby_s_valcovou_hlavou___5
 70
   66
 10
554.024263
 20
440.555625
  0
LINE
  8
OSA
 62
     2
  6
CONTINUOUS
 10
552.024263
 20
439.400917
 11
552.024263
 21
441.710333
  0
LINE
  8
OSA
 62
     2
  6
CONTINUOUS
 10
552.024263
 20
441.710333
 11
554.024263
 21
442.865041
  0
LINE
  8
OSA
 62
     2
  6
CONTINUOUS
 10
554.024263
 20
442.865041
 11
556.024263
 21
441.710333
  0
LINE
  8
OSA
 62
     2
  6
CONTINUOUS
 10
556.024263
 20
441.710333
 11
556.024263
 21
439.400917
  0
LINE
  8
OSA
 62
     2
  6
CONTINUOUS
 10
556.024263
 20
439.400917
 11
554.024263
 21
438.246210
  0
LINE
  8
OSA
 62
     2
  6
CONTINUOUS
 10
554.024263
 20
438.246210
 11
552.024263
 21
439.400917
  0
CIRCLE
  8
OSA
 62
     2
  6
CONTINUOUS
 10
554.024263
 20
440.555625
 40
2.309415
  0
CIRCLE
  8
OSA
 62
     2
  6
CONTINUOUS
 10
554.024263
 20
440.555625
 40
4.250000
  0
ENDBLK
  8
OSA
  0
BLOCK
  8
OBRYS
  2
_2
 70
   64
 10
313.276967
 20
504.555625
  0
ARC
  8
OBRYS
 10
283.276956
 20
522.822129
 40
2.000000
 50
90.000000
 51
180.000000
  0
ARC
  8
OBRYS
 10
283.276956
 20
526.822129
 40
2.000000
 50
270.000000
 51
360.000000
  0
INSERT
  8
OBRYS
  2
Srouby_s_valcovou_hlavou___7
 62
     7
 10
285.276956
 20
531.072129
  0
LINE
  8
OBRYS
 10
261.276956
 20
459.388958
 11
261.276956
 21
408.555625
  0
LINE
  8
OBRYS
 10
261.276956
 20
528.555625
 11
261.276956
 21
477.722292
  0
LINE
  8
OBRYS
 10
262.276956
 20
477.722292
 11
262.276956
 21
459.388958
  0
LINE
  8
OBRYS
 10
272.276956
 20
435.555625
 11
290.276956
 21
435.555625
  0
LINE
  8
OBRYS
 10
279.276956
 20
495.555625
 11
272.276956
 21
495.555625
  0
ARC
  8
OBRYS
 10
272.276956
 20
497.555625
 40
2.000000
 50
180.000000
 51
270.000000
  0
ARC
  8
OBRYS
 10
272.276956
 20
433.555625
 40
2.000000
 50
90.000000
 51
180.000000
  0
ARC
  8
OBRYS
 10
268.276956
 20
410.555625
 40
2.000000
 50
270.000000
 51
360.000000
  0
LINE
  8
OBRYS
 10
261.276956
 20
408.555625
 11
268.276956
 21
408.555625
  0
ARC
  8
OBRYS
 10
268.276956
 20
526.555625
 40
2.000000
 50
0.000000
 51
90.000000
  0
LINE
  8
OBRYS
 10
261.276956
 20
528.555625
 11
268.276956
 21
528.555625
  0
ARC
  8
OBRYS
 10
287.276956
 20
542.055625
 40
2.000000
 50
90.000000
 51
180.000000
  0
LINE
  8
OBRYS
 10
285.276956
 20
528.072129
 11
285.276956
 21
542.055625
  0
LINE
  8
OBRYS
 62
     7
  6
DASHDOT
 10
292.044404
 20
468.555625
 11
262.557324
 21
468.555625
  0
LINE
  8
OBRYS
 10
290.276956
 20
468.555625
 11
290.276956
 21
544.055625
  0
LINE
  8
OBRYS
 10
285.276956
 20
544.055625
 11
290.276956
 21
544.055625
  0
LINE
  8
OBRYS
 62
     7
  6
DASHDOT
 10
277.057321
 20
418.555625
 11
254.057328
 21
418.555625
  0
ARC
  8
OBRYS
 10
279.276956
 20
497.555625
 40
2.000000
 50
270.000000
 51
360.000000
  0
ARC
  8
OBRYS
 10
285.276956
 20
540.055625
 40
4.000000
 50
90.000000
 51
180.000000
  0
LINE
  8
OBRYS
 10
270.276956
 20
410.555625
 11
270.276956
 21
468.555625
  0
LINE
  8
OBRYS
 10
270.276956
 20
526.555625
 11
270.276956
 21
468.555625
  0
LINE
  8
OBRYS
 10
281.276956
 20
479.497570
 11
281.276956
 21
540.055625
  0
LINE
  8
OBRYS
 62
     7
  6
DASHDOT
 10
294.276956
 20
531.072129
 11
277.276956
 21
531.072129
  0
LINE
  8
OBRYS
 10
263.776956
 20
477.722292
 11
261.276956
 21
477.722292
  0
ARC
  8
OBRYS
 10
263.776956
 20
476.722292
 40
1.000000
 50
0.000000
 51
90.000000
  0
LINE
  8
OBRYS
 10
262.776956
 20
478.555625
 11
261.276956
 21
478.555625
  0
ARC
  8
OBRYS
 10
262.776956
 20
476.555625
 40
2.000000
 50
0.000000
 51
90.000000
  0
ARC
  8
OBRYS
 10
262.776956
 20
460.555625
 40
2.000000
 50
270.000000
 51
360.000000
  0
LINE
  8
OBRYS
 10
262.776956
 20
458.555625
 11
261.276956
 21
458.555625
  0
ARC
  8
OBRYS
 10
263.776956
 20
460.388958
 40
1.000000
 50
270.000000
 51
360.000000
  0
LINE
  8
OBRYS
 10
263.776956
 20
459.388958
 11
261.276956
 21
459.388958
  0
LINE
  8
OBRYS
 10
264.776956
 20
476.555625
 11
264.776956
 21
460.555625
  0
LINE
  8
OBRYS
 62
     7
  6
DASHDOT
 10
291.948914
 20
504.555625
 11
262.557324
 21
504.555625
  0
LINE
  8
OBRYS
 62
     7
  6
DASHDOT
 10
292.118675
 20
440.555625
 11
258.057328
 21
440.555625
  0
LINE
  8
OBRYS
 10
290.276956
 20
451.075625
 11
290.276956
 21
468.555625
  0
LINE
  8
OBRYS
 10
290.276956
 20
451.075625
 11
290.276956
 21
435.555625
  0
LINE
  8
OBRYS
 10
290.276956
 20
451.075625
 11
290.276956
 21
504.555625
  0
LINE
  8
OBRYS
 10
290.276956
 20
504.555625
 11
290.276956
 21
544.055625
  0
LINE
  8
OBRYS
 10
290.276956
 20
544.055625
 11
308.276956
 21
544.055625
  0
LINE
  8
OBRYS
 62
     7
  6
DASHDOT
 10
323.776952
 20
504.555625
 11
282.776959
 21
504.555625
  0
LINE
  8
OBRYS
 10
313.276967
 20
534.536013
 11
313.249610
 21
534.536013
  0
ARC
  8
OBRYS
 10
308.276956
 20
540.055625
 40
4.000000
 50
5.995066
 51
90.000000
  0
ARC
  8
OBRYS
 10
313.249610
 20
535.536013
 40
1.000000
 50
185.995066
 51
270.000000
  0
LINE
  8
OBRYS
 10
290.276956
 20
451.075625
 11
290.276956
 21
435.555625
  0
LINE
  8
OBRYS
 10
290.276956
 20
521.963347
 11
308.276957
 21
521.963347
  0
LINE
  8
OBRYS
 10
290.276956
 20
534.451580
 11
308.276957
 21
534.451580
  0
LINE
  8
OBRYS
 10
290.276956
 20
487.704889
 11
298.215544
 21
487.704889
  0
LINE
  8
OBRYS
 10
312.276956
 20
511.417111
 11
312.276956
 21
540.473396
  0
LINE
  8
OBRYS
 10
313.276967
 20
534.536013
 11
313.276967
 21
512.503513
  0
LINE
  8
OBRYS
 10
300.566685
 20
435.555625
 11
290.276956
 21
435.555625
  0
ENDBLK
  8
OBRYS
  0
BLOCK
  8
OBRYS
  2
Srouby_s_valcovou_hlavou___7
 70
   66
 10
285.276956
 20
531.072129
  0
LINE
  8
OBRYS
 10
281.776956
 20
527.322129
 11
281.776956
 21
534.822129
  0
LINE
  8
OBRYS
 10
282.276956
 20
526.822129
 11
285.276956
 21
526.822129
  0
LINE
  8
OBRYS
 10
285.276956
 20
526.822129
 11
285.276956
 21
535.322129
  0
LINE
  8
OBRYS
 10
285.276956
 20
535.322129
 11
282.276956
 21
535.322129
  0
ARC
  8
OBRYS
 10
282.276956
 20
527.322129
 40
0.500000
 50
180.000000
 51
270.000000
  0
ARC
  8
OBRYS
 10
282.276956
 20
534.822129
 40
0.500000
 50
90.000000
 51
180.000000
  0
LINE
  8
OBRYS
 62
     7
  6
DOT
 10
281.776956
 20
528.762714
 11
283.443622
 21
528.762714
  0
LINE
  8
OBRYS
 62
     7
  6
DOT
 10
281.776956
 20
529.917422
 11
283.443622
 21
529.917422
  0
LINE
  8
OBRYS
 62
     7
  6
DOT
 10
281.776956
 20
532.226837
 11
283.443622
 21
532.226837
  0
LINE
  8
OBRYS
 62
     7
  6
DOT
 10
281.776956
 20
533.381545
 11
283.443622
 21
533.381545
  0
ARC
  8
OBRYS
 62
     7
  6
DOT
 10
281.443616
 20
529.340068
 40
0.666673
 50
300.000310
 51
59.999690
  0
ARC
  8
OBRYS
 62
     7
  6
DOT
 10
279.943597
 20
531.072129
 40
2.166692
 50
327.795963
 51
32.204037
  0
ARC
  8
OBRYS
 62
     7
  6
DOT
 10
281.443616
 20
532.804191
 40
0.666673
 50
300.000310
 51
59.999690
  0
ARC
  8
OBRYS
 62
     7
  6
DOT
 10
283.110283
 20
529.340068
 40
0.666673
 50
300.000310
 51
59.999690
  0
ARC
  8
OBRYS
 62
     7
  6
DOT
 10
281.610264
 20
531.072129
 40
2.166692
 50
327.795963
 51
32.204037
  0
ARC
  8
OBRYS
 62
     7
  6
DOT
 10
283.110283
 20
532.804191
 40
0.666673
 50
300.000310
 51
59.999690
  0
LINE
  8
OBRYS
 62
     7
  6
DOT
 10
283.776956
 20
529.340068
 11
284.931664
 21
531.072129
  0
LINE
  8
OBRYS
 62
     7
  6
DOT
 10
284.931664
 20
531.072129
 11
283.776956
 21
532.804191
  0
ENDBLK
  8
OBRYS
  0
BLOCK
  8
OBRYS
  2
_3
 70
   64
 10
804.215804
 20
504.555624
  0
LINE
  8
OBRYS
 10
827.215815
 20
487.704888
 11
809.215814
 21
487.704888
  0
LINE
  8
OBRYS
 10
827.215815
 20
534.451579
 11
809.215814
 21
534.451579
  0
LINE
  8
OBRYS
 10
827.215815
 20
521.963347
 11
809.215814
 21
521.963347
  0
LINE
  8
OBRYS
 10
805.215815
 20
504.555624
 11
805.215815
 21
540.473395
  0
LINE
  8
OBRYS
 10
805.215815
 20
439.555624
 11
805.215815
 21
504.555624
  0
LINE
  8
OBRYS
 10
804.215804
 20
534.536012
 11
804.215804
 21
504.555624
  0
LINE
  8
OBRYS
 10
804.215804
 20
504.555624
 11
804.215793
 21
474.574862
  0
LINE
  8
OBRYS
 10
827.215815
 20
451.075624
 11
827.215815
 21
435.555624
  0
ARC
  8
OBRYS
 10
809.215815
 20
439.555624
 40
4.000000
 50
180.000000
 51
270.000000
  0
ARC
  8
OBRYS
 10
804.243161
 20
535.536012
 40
1.000000
 50
270.000000
 51
354.004934
  0
ARC
  8
OBRYS
 10
809.215815
 20
540.055624
 40
4.000000
 50
90.000000
 51
174.004934
  0
ARC
  8
OBRYS
 10
804.215804
 20
473.574862
 40
1.000000
 50
0.000000
 51
90.000000
  0
LINE
  8
OBRYS
 10
804.215804
 20
534.536012
 11
804.243161
 21
534.536012
  0
LINE
  8
OSA
 10
793.715819
 20
504.555624
 11
834.715812
 21
504.555624
  0
LINE
  8
OBRYS
 10
827.215815
 20
544.055624
 11
809.215815
 21
544.055624
  0
LINE
  8
OBRYS
 10
827.215815
 20
504.555624
 11
827.215815
 21
544.055624
  0
LINE
  8
OBRYS
 10
827.215815
 20
451.075624
 11
827.215815
 21
504.555624
  0
LINE
  8
OBRYS
 10
809.215815
 20
435.555624
 11
827.215815
 21
435.555624
  0
LINE
  8
OBRYS
 10
827.215815
 20
451.075624
 11
827.215815
 21
435.555624
  0
LINE
  8
OBRYS
 10
827.215815
 20
451.075624
 11
827.215815
 21
468.555624
  0
LINE
  8
OSA
 10
825.374096
 20
440.555624
 11
859.435444
 21
440.555624
  0
LINE
  8
OSA
 10
825.543858
 20
504.555624
 11
854.935447
 21
504.555624
  0
LINE
  8
OBRYS
 10
852.715815
 20
476.555624
 11
852.715815
 21
460.555624
  0
LINE
  8
OBRYS
 10
853.715815
 20
459.388958
 11
856.215815
 21
459.388958
  0
ARC
  8
OBRYS
 10
853.715815
 20
460.388958
 40
1.000000
 50
180.000000
 51
270.000000
  0
LINE
  8
OBRYS
 10
854.715815
 20
458.555624
 11
856.215815
 21
458.555624
  0
ARC
  8
OBRYS
 10
854.715815
 20
460.555624
 40
2.000000
 50
180.000000
 51
270.000000
  0
ARC
  8
OBRYS
 10
854.715815
 20
476.555624
 40
2.000000
 50
90.000000
 51
180.000000
  0
LINE
  8
OBRYS
 10
854.715815
 20
478.555624
 11
856.215815
 21
478.555624
  0
ARC
  8
OBRYS
 10
853.715815
 20
476.722291
 40
1.000000
 50
90.000000
 51
180.000000
  0
LINE
  8
OBRYS
 10
853.715815
 20
477.722291
 11
856.215815
 21
477.722291
  0
LINE
  8
OSA
 10
823.215815
 20
531.072129
 11
840.215815
 21
531.072129
  0
LINE
  8
OBRYS
 10
836.215815
 20
479.497570
 11
836.215815
 21
540.055624
  0
LINE
  8
OBRYS
 10
847.215815
 20
526.555624
 11
847.215815
 21
468.555624
  0
LINE
  8
OBRYS
 10
847.215815
 20
410.555624
 11
847.215815
 21
468.555624
  0
ARC
  8
OBRYS
 10
832.215815
 20
540.055624
 40
4.000000
 50
0.000000
 51
90.000000
  0
ARC
  8
OBRYS
 10
838.215815
 20
497.555624
 40
2.000000
 50
180.000000
 51
270.000000
  0
LINE
  8
OSA
 10
840.435451
 20
418.555624
 11
863.435444
 21
418.555624
  0
LINE
  8
OBRYS
 10
832.215815
 20
544.055624
 11
827.215815
 21
544.055624
  0
LINE
  8
OBRYS
 10
827.215815
 20
468.555624
 11
827.215815
 21
544.055624
  0
LINE
  8
OSA
 10
825.448367
 20
468.555624
 11
854.935447
 21
468.555624
  0
LINE
  8
OBRYS
 10
832.215815
 20
528.072129
 11
832.215815
 21
542.055624
  0
ARC
  8
OBRYS
 10
830.215815
 20
542.055624
 40
2.000000
 50
0.000000
 51
90.000000
  0
LINE
  8
OBRYS
 10
856.215815
 20
528.555624
 11
849.215815
 21
528.555624
  0
ARC
  8
OBRYS
 10
849.215815
 20
526.555624
 40
2.000000
 50
90.000000
 51
180.000000
  0
LINE
  8
OBRYS
 10
856.215815
 20
408.555624
 11
849.215815
 21
408.555624
  0
ARC
  8
OBRYS
 10
849.215815
 20
410.555624
 40
2.000000
 50
180.000000
 51
270.000000
  0
ARC
  8
OBRYS
 10
845.215815
 20
433.555624
 40
2.000000
 50
0.000000
 51
90.000000
  0
ARC
  8
OBRYS
 10
845.215815
 20
497.555624
 40
2.000000
 50
270.000000
 51
360.000000
  0
LINE
  8
OBRYS
 10
838.215815
 20
495.555624
 11
845.215815
 21
495.555624
  0
LINE
  8
OBRYS
 10
845.215815
 20
435.555624
 11
827.215815
 21
435.555624
  0
LINE
  8
OBRYS
 10
855.215815
 20
477.722291
 11
855.215815
 21
459.388958
  0
LINE
  8
OBRYS
 10
856.215815
 20
528.555624
 11
856.215815
 21
477.722291
  0
LINE
  8
OBRYS
 10
856.215815
 20
459.388958
 11
856.215815
 21
408.555624
  0
INSERT
  8
OBRYS
  2
Srouby_s_valcovou_hlavou___9
 62
     7
 10
294.721202
 20
531.072129
  0
ARC
  8
OBRYS
 10
834.215815
 20
526.822129
 40
2.000000
 50
180.000000
 51
270.000000
  0
ARC
  8
OBRYS
 10
834.215815
 20
522.822129
 40
2.000000
 50
0.000000
 51
90.000000
  0
ENDBLK
  8
OBRYS
  0
BLOCK
  8
OBRYS
  2
Srouby_s_valcovou_hlavou___9
 70
   66
 10
294.721202
 20
531.072129
  0
LINE
  8
OBRYS
 10
835.715815
 20
527.322129
 11
835.715815
 21
534.822129
  0
LINE
  8
OBRYS
 10
835.215815
 20
526.822129
 11
832.215815
 21
526.822129
  0
LINE
  8
OBRYS
 10
832.215815
 20
526.822129
 11
832.215815
 21
535.322129
  0
LINE
  8
OBRYS
 10
832.215815
 20
535.322129
 11
835.215815
 21
535.322129
  0
ARC
  8
OBRYS
 10
835.215815
 20
527.322129
 40
0.500000
 50
270.000000
 51
360.000000
  0
ARC
  8
OBRYS
 10
835.215815
 20
534.822129
 40
0.500000
 50
0.000000
 51
90.000000
  0
LINE
  8
OBRYS
 62
     7
  6
DOT
 10
835.715815
 20
528.762713
 11
834.049149
 21
528.762713
  0
LINE
  8
OBRYS
 62
     7
  6
DOT
 10
835.715815
 20
529.917421
 11
834.049149
 21
529.917421
  0
LINE
  8
OBRYS
 62
     7
  6
DOT
 10
835.715815
 20
532.226837
 11
834.049149
 21
532.226837
  0
LINE
  8
OBRYS
 62
     7
  6
DOT
 10
835.715815
 20
533.381544
 11
834.049149
 21
533.381544
  0
ARC
  8
OBRYS
 62
     7
  6
DOT
 10
836.049155
 20
529.340067
 40
0.666673
 50
120.000310
 51
239.999690
  0
ARC
  8
OBRYS
 62
     7
  6
DOT
 10
837.549174
 20
531.072129
 40
2.166692
 50
147.795963
 51
212.204037
  0
ARC
  8
OBRYS
 62
     7
  6
DOT
 10
836.049155
 20
532.804190
 40
0.666673
 50
120.000310
 51
239.999690
  0
ARC
  8
OBRYS
 62
     7
  6
DOT
 10
834.382488
 20
529.340067
 40
0.666673
 50
120.000310
 51
239.999690
  0
ARC
  8
OBRYS
 62
     7
  6
DOT
 10
835.882507
 20
531.072129
 40
2.166692
 50
147.795963
 51
212.204037
  0
ARC
  8
OBRYS
 62
     7
  6
DOT
 10
834.382488
 20
532.804190
 40
0.666673
 50
120.000310
 51
239.999690
  0
LINE
  8
OBRYS
 62
     7
  6
DOT
 10
833.715815
 20
529.340067
 11
832.561108
 21
531.072129
  0
LINE
  8
OBRYS
 62
     7
  6
DOT
 10
832.561108
 20
531.072129
 11
833.715815
 21
532.804190
  0
ENDBLK
  8
OBRYS
  0
BLOCK
  8
OBRYS
  2
_4
 70
   64
 10
313.276967
 20
310.184963
  0
LINE
  8
OBRYS
 10
290.276956
 20
273.704201
 11
290.276956
 21
346.665725
  0
ARC
  8
OBRYS
 10
268.276956
 20
252.184963
 40
2.000000
 50
270.000000
 51
360.000000
  0
LINE
  8
OBRYS
 10
261.276956
 20
250.184963
 11
268.276956
 21
250.184963
  0
ARC
  8
OBRYS
 10
268.276956
 20
368.184963
 40
2.000000
 50
0.000000
 51
90.000000
  0
LINE
  8
OBRYS
 10
261.276956
 20
370.184963
 11
268.276956
 21
370.184963
  0
LINE
  8
OSA
 10
292.044404
 20
310.184963
 11
262.557324
 21
310.184963
  0
LINE
  8
OBRYS
 10
270.276956
 20
252.184963
 11
270.276956
 21
310.184963
  0
LINE
  8
OBRYS
 10
270.276956
 20
368.184963
 11
270.276956
 21
310.184963
  0
LINE
  8
OBRYS
 10
261.276956
 20
310.184963
 11
261.276956
 21
250.184963
  0
LINE
  8
OBRYS
 10
261.276956
 20
370.184963
 11
261.276956
 21
310.184963
  0
LINE
  8
OBRYS
 10
290.276956
 20
340.620587
 11
286.210413
 21
340.620587
  0
ARC
  8
OBRYS
 10
283.276956
 20
333.701467
 40
2.000000
 50
270.000000
 51
360.000000
  0
ARC
  8
OBRYS
 10
283.276956
 20
329.701467
 40
2.000000
 50
90.000000
 51
180.000000
  0
ARC
  8
OBRYS
 10
287.276956
 20
344.665725
 40
2.000000
 50
90.000000
 51
180.000000
  0
LINE
  8
OBRYS
 10
285.276956
 20
344.665725
 11
285.276956
 21
275.704201
  0
ARC
  8
OBRYS
 10
287.276956
 20
275.704201
 40
2.000000
 50
180.000000
 51
270.000000
  0
ARC
  8
OBRYS
 10
283.276956
 20
290.668459
 40
2.000000
 50
180.000000
 51
270.000000
  0
ARC
  8
OBRYS
 10
283.276956
 20
286.668459
 40
2.000000
 50
0.000000
 51
90.000000
  0
LINE
  8
OBRYS
 10
290.276956
 20
279.749339
 11
286.210413
 21
279.749339
  0
LINE
  8
OSA
 10
287.680520
 20
283.668459
 11
277.276956
 21
283.668459
  0
INSERT
  8
OBRYS
  2
Srouby_s_valcovou_hlavou___11
 62
     7
 10
285.276956
 20
283.668459
  0
INSERT
  8
OBRYS
  2
Srouby_s_valcovou_hlavou___12
 62
     7
 10
285.276956
 20
336.701467
  0
LINE
  8
OSA
 10
287.680520
 20
336.701467
 11
277.276956
 21
336.701467
  0
ARC
  8
OBRYS
 10
279.776956
 20
274.949173
 40
1.500000
 50
4.876572
 51
90.000000
  0
ARC
  8
OBRYS
 10
282.766096
 20
275.204201
 40
1.500000
 50
184.876572
 51
270.000000
  0
LINE
  8
OBRYS
 10
271.776956
 20
276.449173
 11
279.776956
 21
276.449173
  0
ARC
  8
OBRYS
 10
271.776956
 20
274.949173
 40
1.500000
 50
90.000000
 51
180.000000
  0
ARC
  8
OBRYS
 10
271.776956
 20
345.420754
 40
1.500000
 50
180.000000
 51
270.000000
  0
LINE
  8
OBRYS
 10
271.776956
 20
343.920754
 11
279.776956
 21
343.920754
  0
ARC
  8
OBRYS
 10
282.766096
 20
345.165725
 40
1.500000
 50
90.000000
 51
175.123428
  0
ARC
  8
OBRYS
 10
279.776956
 20
345.420754
 40
1.500000
 50
270.000000
 51
355.123428
  0
LINE
  8
OBRYS
 10
281.276956
 20
344.985556
 11
281.276956
 21
275.384370
  0
LINE
  8
OBRYS
 10
282.766079
 20
273.704201
 11
290.276956
 21
273.704201
  0
LINE
  8
OBRYS
 10
282.766081
 20
346.665725
 11
290.276956
 21
346.665725
  0
LINE
  8
OBRYS
 10
290.276956
 20
279.749339
 11
308.276957
 21
279.749339
  0
LINE
  8
OBRYS
 10
290.276956
 20
340.620587
 11
308.276957
 21
340.620587
  0
LINE
  8
OBRYS
 10
312.276956
 20
310.184963
 11
312.276956
 21
343.083496
  0
LINE
  8
OBRYS
 10
312.276956
 20
277.704201
 11
312.276956
 21
310.184963
  0
LINE
  8
OBRYS
 10
313.276967
 20
336.684589
 11
313.276967
 21
310.184963
  0
LINE
  8
OBRYS
 10
313.276967
 20
310.184963
 11
313.276978
 21
283.684963
  0
ARC
  8
OBRYS
 10
308.276956
 20
277.704201
 40
4.000000
 50
270.000000
 51
360.000000
  0
ARC
  8
OBRYS
 10
313.249610
 20
337.684589
 40
1.000000
 50
185.995066
 51
270.000000
  0
ARC
  8
OBRYS
 10
308.276956
 20
342.665725
 40
4.000000
 50
5.995066
 51
90.000000
  0
ARC
  8
OBRYS
 10
313.276967
 20
282.684963
 40
1.000000
 50
90.000000
 51
180.000000
  0
LINE
  8
OBRYS
 10
313.276967
 20
336.684589
 11
313.249610
 21
336.684589
  0
LINE
  8
OSA
 10
323.776952
 20
310.184963
 11
282.776959
 21
310.184963
  0
LINE
  8
OBRYS
 10
290.276956
 20
346.665725
 11
308.276956
 21
346.665725
  0
LINE
  8
OBRYS
 10
290.276956
 20
310.184963
 11
290.276956
 21
346.665725
  0
LINE
  8
OBRYS
 10
290.276956
 20
273.704201
 11
290.276956
 21
310.184963
  0
LINE
  8
OBRYS
 10
308.276956
 20
273.704201
 11
290.276956
 21
273.704201
  0
ENDBLK
  8
OBRYS
  0
BLOCK
  8
OBRYS
  2
Srouby_s_valcovou_hlavou___11
 70
   66
 10
285.276956
 20
283.668459
  0
LINE
  8
OBRYS
 10
281.776956
 20
279.918459
 11
281.776956
 21
287.418459
  0
LINE
  8
OBRYS
 10
282.276956
 20
279.418459
 11
285.276956
 21
279.418459
  0
LINE
  8
OBRYS
 10
285.276956
 20
279.418459
 11
285.276956
 21
287.918459
  0
LINE
  8
OBRYS
 10
285.276956
 20
287.918459
 11
282.276956
 21
287.918459
  0
ARC
  8
OBRYS
 10
282.276956
 20
279.918459
 40
0.500000
 50
180.000000
 51
270.000000
  0
ARC
  8
OBRYS
 10
282.276956
 20
287.418459
 40
0.500000
 50
90.000000
 51
180.000000
  0
LINE
  8
OBRYS
 62
     7
  6
DOT
 10
281.776956
 20
281.359043
 11
283.443622
 21
281.359043
  0
LINE
  8
OBRYS
 62
     7
  6
DOT
 10
281.776956
 20
282.513751
 11
283.443622
 21
282.513751
  0
LINE
  8
OBRYS
 62
     7
  6
DOT
 10
281.776956
 20
284.823167
 11
283.443622
 21
284.823167
  0
LINE
  8
OBRYS
 62
     7
  6
DOT
 10
281.776956
 20
285.977874
 11
283.443622
 21
285.977874
  0
ARC
  8
OBRYS
 62
     7
  6
DOT
 10
281.443616
 20
281.936397
 40
0.666673
 50
300.000310
 51
59.999690
  0
ARC
  8
OBRYS
 62
     7
  6
DOT
 10
279.943597
 20
283.668459
 40
2.166692
 50
327.795963
 51
32.204037
  0
ARC
  8
OBRYS
 62
     7
  6
DOT
 10
281.443616
 20
285.400520
 40
0.666673
 50
300.000310
 51
59.999690
  0
ARC
  8
OBRYS
 62
     7
  6
DOT
 10
283.110283
 20
281.936397
 40
0.666673
 50
300.000310
 51
59.999690
  0
ARC
  8
OBRYS
 62
     7
  6
DOT
 10
281.610264
 20
283.668459
 40
2.166692
 50
327.795963
 51
32.204037
  0
ARC
  8
OBRYS
 62
     7
  6
DOT
 10
283.110283
 20
285.400520
 40
0.666673
 50
300.000310
 51
59.999690
  0
LINE
  8
OBRYS
 62
     7
  6
DOT
 10
283.776956
 20
281.936397
 11
284.931664
 21
283.668459
  0
LINE
  8
OBRYS
 62
     7
  6
DOT
 10
284.931664
 20
283.668459
 11
283.776956
 21
285.400520
  0
ENDBLK
  8
OBRYS
  0
BLOCK
  8
OBRYS
  2
Srouby_s_valcovou_hlavou___12
 70
   66
 10
285.276956
 20
336.701467
  0
LINE
  8
OBRYS
 10
281.776956
 20
340.451467
 11
281.776956
 21
332.951467
  0
LINE
  8
OBRYS
 10
282.276956
 20
340.951467
 11
285.276956
 21
340.951467
  0
LINE
  8
OBRYS
 10
285.276956
 20
340.951467
 11
285.276956
 21
332.451467
  0
LINE
  8
OBRYS
 10
285.276956
 20
332.451467
 11
282.276956
 21
332.451467
  0
ARC
  8
OBRYS
 10
282.276956
 20
340.451467
 40
0.500000
 50
90.000000
 51
180.000000
  0
ARC
  8
OBRYS
 10
282.276956
 20
332.951467
 40
0.500000
 50
180.000000
 51
270.000000
  0
LINE
  8
OBRYS
 62
     7
  6
DOT
 10
281.776956
 20
339.010883
 11
283.443622
 21
339.010883
  0
LINE
  8
OBRYS
 62
     7
  6
DOT
 10
281.776956
 20
337.856175
 11
283.443622
 21
337.856175
  0
LINE
  8
OBRYS
 62
     7
  6
DOT
 10
281.776956
 20
335.546760
 11
283.443622
 21
335.546760
  0
LINE
  8
OBRYS
 62
     7
  6
DOT
 10
281.776956
 20
334.392052
 11
283.443622
 21
334.392052
  0
ARC
  8
OBRYS
 62
     7
  6
DOT
 10
281.443616
 20
338.433529
 40
0.666673
 50
300.000310
 51
59.999690
  0
ARC
  8
OBRYS
 62
     7
  6
DOT
 10
279.943597
 20
336.701467
 40
2.166692
 50
327.795963
 51
32.204037
  0
ARC
  8
OBRYS
 62
     7
  6
DOT
 10
281.443616
 20
334.969406
 40
0.666673
 50
300.000310
 51
59.999690
  0
ARC
  8
OBRYS
 62
     7
  6
DOT
 10
283.110283
 20
338.433529
 40
0.666673
 50
300.000310
 51
59.999690
  0
ARC
  8
OBRYS
 62
     7
  6
DOT
 10
281.610264
 20
336.701467
 40
2.166692
 50
327.795963
 51
32.204037
  0
ARC
  8
OBRYS
 62
     7
  6
DOT
 10
283.110283
 20
334.969406
 40
0.666673
 50
300.000310
 51
59.999690
  0
LINE
  8
OBRYS
 62
     7
  6
DOT
 10
283.776956
 20
338.433529
 11
284.931664
 21
336.701467
  0
LINE
  8
OBRYS
 62
     7
  6
DOT
 10
284.931664
 20
336.701467
 11
283.776956
 21
334.969406
  0
ENDBLK
  8
OBRYS
  0
BLOCK
  8
OBRYS
  2
_5
 70
   64
 10
313.276967
 20
654.302921
  0
LINE
  8
OBRYS
 10
261.276956
 20
594.302921
 11
261.276956
 21
654.302921
  0
LINE
  8
OBRYS
 10
261.276956
 20
654.302921
 11
261.276956
 21
714.302921
  0
LINE
  8
OBRYS
 10
270.276956
 20
596.302921
 11
270.276956
 21
654.302921
  0
LINE
  8
OBRYS
 10
270.276956
 20
712.302921
 11
270.276956
 21
654.302921
  0
LINE
  8
OSA
 10
292.044404
 20
654.302921
 11
262.557324
 21
654.302921
  0
LINE
  8
OBRYS
 10
261.276956
 20
594.302921
 11
268.276956
 21
594.302921
  0
ARC
  8
OBRYS
 10
268.276956
 20
596.302921
 40
2.000000
 50
270.000000
 51
360.000000
  0
LINE
  8
OBRYS
 10
261.276956
 20
714.302921
 11
268.276956
 21
714.302921
  0
ARC
  8
OBRYS
 10
268.276956
 20
712.302921
 40
2.000000
 50
0.000000
 51
90.000000
  0
LINE
  8
OBRYS
 10
290.276956
 20
690.783683
 11
290.276956
 21
617.822159
  0
ARC
  8
OBRYS
 10
279.776956
 20
619.067130
 40
1.500000
 50
4.876572
 51
90.000000
  0
ARC
  8
OBRYS
 10
282.766096
 20
619.322159
 40
1.500000
 50
184.876572
 51
270.000000
  0
LINE
  8
OBRYS
 10
271.776956
 20
620.567130
 11
279.776956
 21
620.567130
  0
ARC
  8
OBRYS
 10
271.776956
 20
619.067130
 40
1.500000
 50
90.000000
 51
180.000000
  0
ARC
  8
OBRYS
 10
271.776956
 20
689.538712
 40
1.500000
 50
180.000000
 51
270.000000
  0
LINE
  8
OBRYS
 10
271.776956
 20
688.038712
 11
279.776956
 21
688.038712
  0
ARC
  8
OBRYS
 10
282.766096
 20
689.283683
 40
1.500000
 50
90.000000
 51
175.123428
  0
ARC
  8
OBRYS
 10
279.776956
 20
689.538712
 40
1.500000
 50
270.000000
 51
355.123428
  0
LINE
  8
OBRYS
 10
282.766111
 20
617.822159
 11
290.276956
 21
617.822159
  0
LINE
  8
OBRYS
 10
282.766111
 20
690.783683
 11
290.276956
 21
690.783683
  0
LINE
  8
OBRYS
 10
308.276956
 20
690.783683
 11
290.276956
 21
690.783683
  0
LINE
  8
OBRYS
 10
290.276956
 20
690.783683
 11
290.276956
 21
654.302921
  0
LINE
  8
OBRYS
 10
290.276956
 20
654.302921
 11
290.276956
 21
617.822159
  0
LINE
  8
OBRYS
 10
290.276956
 20
617.822159
 11
308.276956
 21
617.822159
  0
LINE
  8
OSA
 10
323.776952
 20
654.302921
 11
282.776959
 21
654.302921
  0
LINE
  8
OBRYS
 10
313.304323
 20
627.802921
 11
313.276967
 21
627.802921
  0
ARC
  8
OBRYS
 10
313.276967
 20
681.802921
 40
1.000000
 50
180.000000
 51
270.000000
  0
ARC
  8
OBRYS
 10
308.276956
 20
621.822159
 40
4.000000
 50
270.000000
 51
354.004934
  0
ARC
  8
OBRYS
 10
313.276967
 20
626.802921
 40
1.000000
 50
90.000000
 51
174.004934
  0
ARC
  8
OBRYS
 10
308.276956
 20
686.783683
 40
4.000000
 50
0.000000
 51
90.000000
  0
LINE
  8
OBRYS
 10
313.276967
 20
654.302921
 11
313.276978
 21
680.802921
  0
LINE
  8
OBRYS
 10
313.304323
 20
627.802921
 11
313.276967
 21
654.302921
  0
LINE
  8
OBRYS
 10
312.276956
 20
686.783683
 11
312.276956
 21
654.302921
  0
LINE
  8
OBRYS
 10
312.276956
 20
654.302921
 11
312.276956
 21
621.404388
  0
ENDBLK
  8
OBRYS
  0
BLOCK
  8
OBRYS
  2
_6
 70
   64
 10
364.276967
 20
687.302921
  0
LINE
  8
OBRYS
 10
393.066264
 20
687.302921
 11
364.276967
 21
687.302921
  0
LINE
  8
OBRYS
 10
404.444304
 20
687.302921
 11
397.551227
 21
687.302921
  0
LINE
  8
OBRYS
 10
331.002707
 20
687.302921
 11
324.109614
 21
687.302921
  0
LINE
  8
OBRYS
 10
364.276967
 20
687.302921
 11
335.487670
 21
687.302921
  0
LINE
  8
OBRYS
 10
433.890465
 20
726.121133
 11
406.057803
 21
688.121133
  0
ARC
  8
OBRYS
 10
411.434198
 20
723.302921
 40
2.000000
 50
90.000000
 51
175.000000
  0
LINE
  8
OBRYS
 10
409.441809
 20
723.477233
 11
406.436694
 21
689.128610
  0
ARC
  8
OBRYS
 10
317.119735
 20
723.302921
 40
2.000000
 50
5.000000
 51
90.000000
  0
LINE
  8
OBRYS
 10
319.112125
 20
723.477233
 11
322.117240
 21
689.128610
  0
ARC
  8
OBRYS
 10
404.444304
 20
689.302921
 40
2.000000
 50
270.000000
 51
355.000000
  0
ARC
  8
OBRYS
 10
324.109629
 20
689.302921
 40
2.000000
 50
185.000000
 51
270.000000
  0
LINE
  8
OBRYS
 62
     7
  6
DASHDOT
 10
364.276967
 20
682.302921
 11
364.276967
 21
741.802921
  0
LINE
  8
OBRYS
 10
294.276967
 20
736.302921
 11
294.276967
 21
727.302921
  0
ARC
  8
OBRYS
 10
296.276967
 20
727.302921
 40
2.000000
 50
180.000000
 51
270.000000
  0
ARC
  8
OBRYS
 10
432.276967
 20
727.302921
 40
2.000000
 50
270.000000
 51
360.000000
  0
LINE
  8
OBRYS
 10
434.276967
 20
736.302921
 11
434.276967
 21
727.302921
  0
LINE
  8
OBRYS
 10
434.276967
 20
736.302921
 11
364.276967
 21
736.302921
  0
LINE
  8
OBRYS
 10
364.276967
 20
736.302921
 11
294.276967
 21
736.302921
  0
LINE
  8
OBRYS
 10
296.276967
 20
725.302921
 11
364.276967
 21
725.302921
  0
LINE
  8
OBRYS
 10
432.276967
 20
725.302921
 11
364.276967
 21
725.302921
  0
LINE
  8
OBRYS
 10
294.663469
 20
726.121133
 11
322.496131
 21
688.121133
  0
LINE
  8
OBRYS
 10
397.476447
 20
692.260326
 11
397.265097
 21
687.302921
  0
ARC
  8
OBRYS
 10
396.477355
 20
692.302921
 40
1.000000
 50
357.558772
 51
90.000000
  0
LINE
  8
OBRYS
 10
396.477355
 20
693.302921
 11
391.813439
 21
693.302921
  0
LINE
  8
OBRYS
 10
390.373750
 20
687.302921
 11
390.817217
 21
692.389771
  0
ARC
  8
OBRYS
 10
391.813439
 20
692.302921
 40
1.000000
 50
90.000000
 51
175.017599
  0
LINE
  8
OBRYS
 10
385.714782
 20
690.302921
 11
385.714782
 21
687.302921
  0
ARC
  8
OBRYS
 10
384.714782
 20
690.302921
 40
1.000000
 50
0.000000
 51
90.000000
  0
LINE
  8
OBRYS
 10
374.656546
 20
690.302921
 11
374.656546
 21
687.302921
  0
LINE
  8
OBRYS
 10
384.714782
 20
691.302921
 11
375.656546
 21
691.302921
  0
ARC
  8
OBRYS
 10
375.656546
 20
690.302921
 40
1.000000
 50
90.000000
 51
180.000000
  0
LINE
  8
OBRYS
 10
404.974195
 20
690.302921
 11
404.974195
 21
687.302921
  0
ARC
  8
OBRYS
 10
403.974195
 20
690.302921
 40
1.000000
 50
0.000000
 51
90.000000
  0
LINE
  8
OBRYS
 10
400.393723
 20
690.302921
 11
400.393723
 21
687.302921
  0
LINE
  8
OBRYS
 10
401.393723
 20
691.302921
 11
403.974195
 21
691.302921
  0
ARC
  8
OBRYS
 10
401.393723
 20
690.302921
 40
1.000000
 50
90.000000
 51
180.000000
  0
ARC
  8
OBRYS
 10
327.160211
 20
690.302921
 40
1.000000
 50
0.000000
 51
90.000000
  0
LINE
  8
OBRYS
 10
327.160211
 20
691.302921
 11
324.579739
 21
691.302921
  0
LINE
  8
OBRYS
 10
328.160211
 20
690.302921
 11
328.160211
 21
687.302921
  0
ARC
  8
OBRYS
 10
324.579739
 20
690.302921
 40
1.000000
 50
90.000000
 51
180.000000
  0
LINE
  8
OBRYS
 10
323.579739
 20
690.302921
 11
323.579739
 21
687.302921
  0
ARC
  8
OBRYS
 10
352.897388
 20
690.302921
 40
1.000000
 50
0.000000
 51
90.000000
  0
LINE
  8
OBRYS
 10
343.839152
 20
691.302921
 11
352.897388
 21
691.302921
  0
LINE
  8
OBRYS
 10
353.897388
 20
690.302921
 11
353.897388
 21
687.302921
  0
ARC
  8
OBRYS
 10
343.839152
 20
690.302921
 40
1.000000
 50
90.000000
 51
180.000000
  0
LINE
  8
OBRYS
 10
342.839152
 20
690.302921
 11
342.839152
 21
687.302921
  0
ARC
  8
OBRYS
 10
336.740495
 20
692.302921
 40
1.000000
 50
4.982401
 51
90.000000
  0
LINE
  8
OBRYS
 10
338.180184
 20
687.302921
 11
337.736716
 21
692.389771
  0
LINE
  8
OBRYS
 10
332.076579
 20
693.302921
 11
336.740495
 21
693.302921
  0
ARC
  8
OBRYS
 10
332.076579
 20
692.302921
 40
1.000000
 50
90.000000
 51
182.441228
  0
LINE
  8
OBRYS
 10
331.077487
 20
692.260326
 11
331.288837
 21
687.302921
  0
LINE
  8
OBRYS
 10
366.276967
 20
723.302921
 11
366.276967
 21
687.302921
  0
ARC
  8
OBRYS
 10
368.276967
 20
723.302921
 40
2.000000
 50
90.000000
 51
180.000000
  0
ARC
  8
OBRYS
 10
360.276967
 20
723.302921
 40
2.000000
 50
0.000000
 51
90.000000
  0
LINE
  8
OBRYS
 10
362.276967
 20
723.302921
 11
362.276967
 21
687.302921
  0
ARC
  8
OBRYS
 62
     4
  6
HIDDEN2
 10
317.576967
 20
733.102921
 40
0.800000
 50
180.000000
 51
270.000000
  0
LINE
  8
OBRYS
 62
     4
  6
HIDDEN2
 10
316.776967
 20
733.102921
 11
316.776967
 21
736.302921
  0
LINE
  8
OBRYS
 62
     4
  6
HIDDEN2
 10
364.276967
 20
732.302921
 11
317.576967
 21
732.302921
  0
LINE
  8
OBRYS
 62
     4
  6
HIDDEN2
 10
364.276967
 20
732.302921
 11
410.976967
 21
732.302921
  0
LINE
  8
OBRYS
 62
     4
  6
HIDDEN2
 10
411.776967
 20
733.102921
 11
411.776967
 21
736.302921
  0
ARC
  8
OBRYS
 62
     4
  6
HIDDEN2
 10
410.976967
 20
733.102921
 40
0.800000
 50
270.000000
 51
360.000000
  0
ENDBLK
  8
OBRYS
  0
BLOCK
  8
OBRYS
  2
_7
 70
   64
 10
364.276967
 20
277.184963
  0
LINE
  8
OBRYS
 10
335.487670
 20
277.184963
 11
364.276967
 21
277.184963
  0
LINE
  8
OBRYS
 10
324.109629
 20
277.184963
 11
331.002707
 21
277.184963
  0
LINE
  8
OBRYS
 10
397.551227
 20
277.184963
 11
404.444320
 21
277.184963
  0
LINE
  8
OBRYS
 10
364.276967
 20
277.184963
 11
393.066264
 21
277.184963
  0
LINE
  8
OBRYS
 10
294.663469
 20
238.366751
 11
322.496131
 21
276.366751
  0
ARC
  8
OBRYS
 10
317.119735
 20
241.184963
 40
2.000000
 50
270.000000
 51
355.000000
  0
LINE
  8
OBRYS
 10
319.112125
 20
241.010652
 11
322.117240
 21
275.359275
  0
ARC
  8
OBRYS
 10
411.434198
 20
241.184963
 40
2.000000
 50
185.000000
 51
270.000000
  0
LINE
  8
OBRYS
 10
409.441809
 20
241.010652
 11
406.436694
 21
275.359275
  0
ARC
  8
OBRYS
 10
324.109629
 20
275.184963
 40
2.000000
 50
90.000000
 51
175.000000
  0
ARC
  8
OBRYS
 10
404.444304
 20
275.184963
 40
2.000000
 50
5.000000
 51
90.000000
  0
LINE
  8
OBRYS
 62
     7
  6
DASHDOT
 10
364.276967
 20
282.184963
 11
364.276967
 21
222.684963
  0
LINE
  8
OBRYS
 10
434.276967
 20
228.184963
 11
434.276967
 21
237.184963
  0
ARC
  8
OBRYS
 10
432.276967
 20
237.184963
 40
2.000000
 50
0.000000
 51
90.000000
  0
ARC
  8
OBRYS
 10
296.276967
 20
237.184963
 40
2.000000
 50
90.000000
 51
180.000000
  0
LINE
  8
OBRYS
 10
294.276967
 20
228.184963
 11
294.276967
 21
237.184963
  0
LINE
  8
OBRYS
 10
294.276967
 20
228.184963
 11
364.276967
 21
228.184963
  0
LINE
  8
OBRYS
 10
364.276967
 20
228.184963
 11
434.276967
 21
228.184963
  0
LINE
  8
OBRYS
 10
432.276967
 20
239.184963
 11
364.276967
 21
239.184963
  0
LINE
  8
OBRYS
 10
296.276967
 20
239.184963
 11
364.276967
 21
239.184963
  0
LINE
  8
OBRYS
 10
433.890465
 20
238.366751
 11
406.057803
 21
276.366751
  0
LINE
  8
OBRYS
 10
331.077487
 20
272.227558
 11
331.288837
 21
277.184963
  0
ARC
  8
OBRYS
 10
332.076579
 20
272.184963
 40
1.000000
 50
177.558772
 51
270.000000
  0
LINE
  8
OBRYS
 10
332.076579
 20
271.184963
 11
336.740495
 21
271.184963
  0
LINE
  8
OBRYS
 10
338.180184
 20
277.184963
 11
337.736716
 21
272.098113
  0
ARC
  8
OBRYS
 10
336.740495
 20
272.184963
 40
1.000000
 50
270.000000
 51
355.017599
  0
LINE
  8
OBRYS
 10
342.839152
 20
274.184963
 11
342.839152
 21
277.184963
  0
ARC
  8
OBRYS
 10
343.839152
 20
274.184963
 40
1.000000
 50
180.000000
 51
270.000000
  0
LINE
  8
OBRYS
 10
353.897388
 20
274.184963
 11
353.897388
 21
277.184963
  0
LINE
  8
OBRYS
 10
343.839152
 20
273.184963
 11
352.897388
 21
273.184963
  0
ARC
  8
OBRYS
 10
352.897388
 20
274.184963
 40
1.000000
 50
270.000000
 51
360.000000
  0
LINE
  8
OBRYS
 10
323.579739
 20
274.184963
 11
323.579739
 21
277.184963
  0
ARC
  8
OBRYS
 10
324.579739
 20
274.184963
 40
1.000000
 50
180.000000
 51
270.000000
  0
LINE
  8
OBRYS
 10
328.160211
 20
274.184963
 11
328.160211
 21
277.184963
  0
LINE
  8
OBRYS
 10
327.160211
 20
273.184963
 11
324.579739
 21
273.184963
  0
ARC
  8
OBRYS
 10
327.160211
 20
274.184963
 40
1.000000
 50
270.000000
 51
360.000000
  0
ARC
  8
OBRYS
 10
401.393723
 20
274.184963
 40
1.000000
 50
180.000000
 51
270.000000
  0
LINE
  8
OBRYS
 10
401.393723
 20
273.184963
 11
403.974195
 21
273.184963
  0
LINE
  8
OBRYS
 10
400.393723
 20
274.184963
 11
400.393723
 21
277.184963
  0
ARC
  8
OBRYS
 10
403.974195
 20
274.184963
 40
1.000000
 50
270.000000
 51
360.000000
  0
LINE
  8
OBRYS
 10
404.974195
 20
274.184963
 11
404.974195
 21
277.184963
  0
ARC
  8
OBRYS
 10
375.656546
 20
274.184963
 40
1.000000
 50
180.000000
 51
270.000000
  0
LINE
  8
OBRYS
 10
384.714782
 20
273.184963
 11
375.656546
 21
273.184963
  0
LINE
  8
OBRYS
 10
374.656546
 20
274.184963
 11
374.656546
 21
277.184963
  0
ARC
  8
OBRYS
 10
384.714782
 20
274.184963
 40
1.000000
 50
270.000000
 51
360.000000
  0
LINE
  8
OBRYS
 10
385.714782
 20
274.184963
 11
385.714782
 21
277.184963
  0
ARC
  8
OBRYS
 10
391.813439
 20
272.184963
 40
1.000000
 50
184.982401
 51
270.000000
  0
LINE
  8
OBRYS
 10
390.373750
 20
277.184963
 11
390.817217
 21
272.098113
  0
LINE
  8
OBRYS
 10
396.477355
 20
271.184963
 11
391.813439
 21
271.184963
  0
ARC
  8
OBRYS
 10
396.477355
 20
272.184963
 40
1.000000
 50
270.000000
 51
2.441228
  0
LINE
  8
OBRYS
 10
397.476447
 20
272.227558
 11
397.265097
 21
277.184963
  0
LINE
  8
OBRYS
 10
362.276967
 20
241.184963
 11
362.276967
 21
277.184963
  0
ARC
  8
OBRYS
 10
360.276967
 20
241.184963
 40
2.000000
 50
270.000000
 51
360.000000
  0
ARC
  8
OBRYS
 10
368.276967
 20
241.184963
 40
2.000000
 50
180.000000
 51
270.000000
  0
LINE
  8
OBRYS
 10
366.276967
 20
241.184963
 11
366.276967
 21
277.184963
  0
ARC
  8
OBRYS
 62
     4
  6
HIDDEN2
 10
410.976967
 20
231.384963
 40
0.800000
 50
0.000000
 51
90.000000
  0
LINE
  8
OBRYS
 62
     4
  6
HIDDEN2
 10
411.776967
 20
231.384963
 11
411.776967
 21
228.184963
  0
LINE
  8
OBRYS
 62
     4
  6
HIDDEN2
 10
364.276967
 20
232.184963
 11
410.976967
 21
232.184963
  0
LINE
  8
OBRYS
 62
     4
  6
HIDDEN2
 10
364.276967
 20
232.184963
 11
317.576967
 21
232.184963
  0
LINE
  8
OBRYS
 62
     4
  6
HIDDEN2
 10
316.776967
 20
231.384963
 11
316.776967
 21
228.184963
  0
ARC
  8
OBRYS
 62
     4
  6
HIDDEN2
 10
317.576967
 20
231.384963
 40
0.800000
 50
90.000000
 51
180.000000
  0
ENDBLK
  8
OBRYS
  0
BLOCK
  8
OBRYS
  2
_8
 70
   64
 10
753.215804
 20
464.555625
  0
CIRCLE
  8
OBRYS
 10
753.215804
 20
464.555625
 40
48.500000
  0
ARC
  8
OBRYS
 10
750.415804
 20
476.355625
 40
0.200000
 50
90.000000
 51
180.000000
  0
LINE
  8
OBRYS
 10
750.415804
 20
476.555625
 11
756.015804
 21
476.555625
  0
LINE
  8
OBRYS
 10
750.215804
 20
473.569503
 11
750.215804
 21
476.355625
  0
ARC
  8
OBRYS
 10
756.015804
 20
476.355625
 40
0.200000
 50
0.000000
 51
90.000000
  0
LINE
  8
OBRYS
 10
756.215804
 20
476.355625
 11
756.215804
 21
473.569503
  0
ARC
  8
OBRYS
 10
753.215804
 20
464.555625
 40
9.500000
 50
108.408480
 51
71.591520
  0
CIRCLE
  8
OBRYS
 10
753.215804
 20
464.555625
 40
15.000000
  0
LINE
  8
OBRYS
 62
     7
  6
DASHDOT
 10
753.215804
 20
464.555625
 11
753.215804
 21
413.555625
  0
LINE
  8
OBRYS
 62
     7
  6
DASHDOT
 10
753.215804
 20
464.555625
 11
804.215804
 21
464.555625
  0
LINE
  8
OBRYS
 62
     7
  6
DASHDOT
 10
753.215804
 20
464.555625
 11
702.215804
 21
464.555625
  0
CIRCLE
  8
OBRYS
 62
     7
  6
DASHDOT
 10
753.215804
 20
464.555625
 40
32.500000
  0
INSERT
  8
OBRYS
  2
Vnitrni_metricky_zavit_M6__14
 62
     7
 10
776.196775
 20
487.536595
  0
INSERT
  8
OBRYS
  2
Vnitrni_metricky_zavit_M6__15
 62
     7
 10
730.234834
 20
487.536595
  0
INSERT
  8
OBRYS
  2
Vnitrni_metricky_zavit_M6__16
 62
     7
 10
730.234834
 20
441.574655
  0
INSERT
  8
OBRYS
  2
Vnitrni_metricky_zavit_M6__17
 62
     7
 10
776.196775
 20
441.574655
  0
INSERT
  8
OBRYS
  2
Vnitrni_metricky_zavit_M6__18
 62
     7
 10
753.215804
 20
432.055625
  0
INSERT
  8
OBRYS
  2
Vnitrni_metricky_zavit_M6__19
 62
     7
 10
720.715804
 20
464.555625
  0
INSERT
  8
OBRYS
  2
Vnitrni_metricky_zavit_M6__20
 62
     7
 10
753.215804
 20
497.055625
  0
INSERT
  8
OBRYS
  2
Vnitrni_metricky_zavit_M6__21
 62
     7
 10
785.715804
 20
464.555625
  0
ARC
  8
OBRYS
 10
753.215805
 20
464.555625
 40
44.000000
 50
223.697711
 51
226.302289
  0
ARC
  8
OBRYS
 10
753.215804
 20
464.555625
 40
44.000000
 50
268.697711
 51
271.302289
  0
ARC
  8
OBRYS
 10
753.215804
 20
464.555625
 40
44.000000
 50
313.697711
 51
316.302289
  0
ARC
  8
OBRYS
 10
753.215804
 20
464.555625
 40
44.000000
 50
358.697711
 51
1.302289
  0
ARC
  8
OBRYS
 10
753.215805
 20
464.555625
 40
44.000000
 50
178.697711
 51
181.302289
  0
ARC
  8
OBRYS
 10
753.215805
 20
464.555625
 40
44.000000
 50
133.697711
 51
136.302289
  0
ARC
  8
OBRYS
 10
736.796736
 20
424.916487
 40
12.000000
 50
26.842582
 51
108.157418
  0
ARC
  8
OBRYS
 10
769.662463
 20
424.970927
 40
12.000000
 50
72.032394
 51
153.091440
  0
ARC
  8
OBRYS
 10
753.331074
 20
384.555718
 40
55.000000
 50
72.347369
 51
107.835349
  0
ARC
  8
OBRYS
 10
792.854942
 20
448.136557
 40
12.000000
 50
116.842582
 51
198.157418
  0
ARC
  8
OBRYS
 10
792.800502
 20
481.002283
 40
12.000000
 50
162.032394
 51
243.091440
  0
ARC
  8
OBRYS
 10
833.215712
 20
464.670895
 40
55.000000
 50
162.347369
 51
197.835349
  0
ARC
  8
OBRYS
 10
713.576667
 20
480.974694
 40
12.000000
 50
296.842582
 51
18.157418
  0
ARC
  8
OBRYS
 10
713.631106
 20
448.108967
 40
12.000000
 50
342.032394
 51
63.091440
  0
ARC
  8
OBRYS
 10
673.215897
 20
464.440355
 40
55.000000
 50
342.347369
 51
17.835349
  0
ARC
  8
OBRYS
 10
753.100534
 20
544.555533
 40
55.000000
 50
252.347369
 51
287.835349
  0
ARC
  8
OBRYS
 10
736.769146
 20
504.140323
 40
12.000000
 50
252.032394
 51
333.091440
  0
ARC
  8
OBRYS
 10
769.634873
 20
504.194763
 40
12.000000
 50
206.842582
 51
288.157418
  0
ARC
  8
OBRYS
 10
753.215804
 20
464.555625
 40
44.000000
 50
88.697711
 51
91.302289
  0
CIRCLE
  8
OBRYS
 10
753.215804
 20
464.555625
 40
25.000000
  0
CIRCLE
  8
OBRYS
 10
753.215804
 20
464.555625
 40
23.500000
  0
ARC
  8
OBRYS
 10
816.924149
 20
528.126424
 40
65.000000
 50
200.268536
 51
206.842582
  0
ARC
  8
OBRYS
 10
757.825152
 20
506.301929
 40
2.000000
 50
83.699305
 51
200.268536
  0
ARC
  8
OBRYS
 10
689.507460
 20
528.126424
 40
65.000000
 50
333.091440
 51
339.731464
  0
ARC
  8
OBRYS
 10
748.606457
 20
506.301929
 40
2.000000
 50
339.731464
 51
96.300695
  0
ARC
  8
OBRYS
 10
753.215804
 20
464.555625
 40
44.000000
 50
51.300695
 51
83.699305
  0
ARC
  8
OBRYS
 10
753.118545
 20
554.555570
 40
65.000000
 50
288.157418
 51
294.731464
  0
ARC
  8
OBRYS
 10
779.475599
 20
497.334021
 40
2.000000
 50
294.731464
 51
51.300695
  0
ARC
  8
OBRYS
 10
843.215750
 20
464.652884
 40
65.000000
 50
155.392370
 51
162.032394
  0
ARC
  8
OBRYS
 10
785.937368
 20
490.886202
 40
2.000000
 50
38.823139
 51
155.392370
  0
ARC
  8
OBRYS
 10
816.786603
 20
528.263969
 40
65.000000
 50
243.091440
 51
249.731464
  0
ARC
  8
OBRYS
 10
753.215804
 20
464.555625
 40
44.000000
 50
6.300695
 51
38.823139
  0
ARC
  8
OBRYS
 10
794.962109
 20
469.164972
 40
2.000000
 50
249.731464
 51
6.300695
  0
ARC
  8
OBRYS
 10
843.215750
 20
464.652884
 40
65.000000
 50
198.157418
 51
204.731464
  0
ARC
  8
OBRYS
 10
785.994200
 20
438.295831
 40
2.000000
 50
204.731464
 51
321.300695
  0
ARC
  8
OBRYS
 10
753.313064
 20
374.555680
 40
65.000000
 50
65.392370
 51
72.032394
  0
ARC
  8
OBRYS
 10
779.546382
 20
431.834062
 40
2.000000
 50
308.823139
 51
65.392370
  0
ARC
  8
OBRYS
 10
753.215804
 20
464.555625
 40
44.000000
 50
276.300695
 51
308.823139
  0
ARC
  8
OBRYS
 10
816.924149
 20
400.984826
 40
65.000000
 50
153.091440
 51
159.731464
  0
ARC
  8
OBRYS
 10
757.825152
 20
422.809321
 40
2.000000
 50
159.731464
 51
276.300695
  0
ARC
  8
OBRYS
 10
689.507460
 20
400.984826
 40
65.000000
 50
20.268536
 51
26.842582
  0
ARC
  8
OBRYS
 10
748.606457
 20
422.809321
 40
2.000000
 50
263.699305
 51
20.268536
  0
ARC
  8
OBRYS
 10
753.215804
 20
464.555625
 40
44.000000
 50
231.300695
 51
263.699305
  0
ARC
  8
OBRYS
 10
753.313064
 20
374.555680
 40
65.000000
 50
108.157418
 51
114.731464
  0
ARC
  8
OBRYS
 10
726.956010
 20
431.777230
 40
2.000000
 50
114.731464
 51
231.300695
  0
ARC
  8
OBRYS
 10
663.215859
 20
464.458366
 40
65.000000
 50
335.392370
 51
342.032394
  0
ARC
  8
OBRYS
 10
720.494241
 20
438.225048
 40
2.000000
 50
218.823139
 51
335.392370
  0
ARC
  8
OBRYS
 10
753.215804
 20
464.555625
 40
44.000000
 50
186.300695
 51
218.823139
  0
ARC
  8
OBRYS
 10
689.645005
 20
400.847281
 40
65.000000
 50
63.091440
 51
69.731464
  0
ARC
  8
OBRYS
 10
711.469500
 20
459.946278
 40
2.000000
 50
69.731464
 51
186.300695
  0
ARC
  8
OBRYS
 10
689.645005
 20
528.263969
 40
65.000000
 50
290.268536
 51
296.842582
  0
ARC
  8
OBRYS
 10
711.469500
 20
469.164972
 40
2.000000
 50
173.699305
 51
290.268536
  0
ARC
  8
OBRYS
 10
663.215859
 20
464.458366
 40
65.000000
 50
18.157418
 51
24.731464
  0
ARC
  8
OBRYS
 10
753.215804
 20
464.555625
 40
44.000000
 50
141.300695
 51
173.699305
  0
ARC
  8
OBRYS
 10
720.437409
 20
490.815419
 40
2.000000
 50
24.731464
 51
141.300695
  0
ARC
  8
OBRYS
 10
753.118545
 20
554.555570
 40
65.000000
 50
245.392370
 51
252.032394
  0
ARC
  8
OBRYS
 10
753.215804
 20
464.555625
 40
44.000000
 50
96.300695
 51
128.823139
  0
ARC
  8
OBRYS
 10
726.885227
 20
497.277188
 40
2.000000
 50
128.823139
 51
245.392370
  0
ARC
  8
OBRYS
 10
753.215804
 20
464.555625
 40
44.000000
 50
321.300695
 51
353.699305
  0
ARC
  8
OBRYS
 10
816.786603
 20
400.847281
 40
65.000000
 50
110.268536
 51
116.842582
  0
ARC
  8
OBRYS
 10
794.962109
 20
459.946278
 40
2.000000
 50
353.699305
 51
110.268536
  0
ARC
  8
OBRYS
 10
753.215804
 20
464.555625
 40
38.000000
 50
38.893853
 51
51.106147
  0
ARC
  8
OBRYS
 10
753.215804
 20
464.555625
 40
38.000000
 50
353.893853
 51
6.106147
  0
ARC
  8
OBRYS
 10
753.215804
 20
464.555625
 40
38.000000
 50
308.893853
 51
321.106147
  0
ARC
  8
OBRYS
 10
753.215804
 20
464.555625
 40
38.000000
 50
263.893853
 51
276.106147
  0
ARC
  8
OBRYS
 10
753.215804
 20
464.555625
 40
38.000000
 50
218.893853
 51
231.106147
  0
ARC
  8
OBRYS
 10
753.215804
 20
464.555625
 40
38.000000
 50
173.893853
 51
186.106147
  0
ARC
  8
OBRYS
 10
753.215804
 20
464.555625
 40
38.000000
 50
128.893853
 51
141.106147
  0
ARC
  8
OBRYS
 10
753.215804
 20
464.555625
 40
38.000000
 50
83.893853
 51
96.106147
  0
LINE
  8
OBRYS
 62
     7
  6
DASHDOT
 10
753.215804
 20
464.555625
 11
753.215804
 21
515.555625
  0
ENDBLK
  8
OBRYS
  0
BLOCK
  8
OBRYS
  2
Vnitrni_metricky_zavit_M6__14
 70
   66
 10
776.196775
 20
487.536595
  0
CIRCLE
  8
OBRYS
 10
776.196775
 20
487.536595
 40
2.458800
  0
ARC
  8
OBRYS
 62
     7
 10
776.196775
 20
487.536595
 40
3.000000
 50
265.000000
 51
185.000000
  0
ENDBLK
  8
OBRYS
  0
BLOCK
  8
OBRYS
  2
Vnitrni_metricky_zavit_M6__15
 70
   66
 10
730.234834
 20
487.536595
  0
CIRCLE
  8
OBRYS
 10
730.234834
 20
487.536595
 40
2.458800
  0
ARC
  8
OBRYS
 62
     7
 10
730.234834
 20
487.536595
 40
3.000000
 50
265.000000
 51
185.000000
  0
ENDBLK
  8
OBRYS
  0
BLOCK
  8
OBRYS
  2
Vnitrni_metricky_zavit_M6__16
 70
   66
 10
730.234834
 20
441.574655
  0
CIRCLE
  8
OBRYS
 10
730.234834
 20
441.574655
 40
2.458800
  0
ARC
  8
OBRYS
 62
     7
 10
730.234834
 20
441.574655
 40
3.000000
 50
265.000000
 51
185.000000
  0
ENDBLK
  8
OBRYS
  0
BLOCK
  8
OBRYS
  2
Vnitrni_metricky_zavit_M6__17
 70
   66
 10
776.196775
 20
441.574655
  0
CIRCLE
  8
OBRYS
 10
776.196775
 20
441.574655
 40
2.458800
  0
ARC
  8
OBRYS
 62
     7
 10
776.196775
 20
441.574655
 40
3.000000
 50
265.000000
 51
185.000000
  0
ENDBLK
  8
OBRYS
  0
BLOCK
  8
OBRYS
  2
Vnitrni_metricky_zavit_M6__18
 70
   66
 10
753.215804
 20
432.055625
  0
CIRCLE
  8
OBRYS
 10
753.215804
 20
432.055625
 40
2.458800
  0
ARC
  8
OBRYS
 62
     7
 10
753.215804
 20
432.055625
 40
3.000000
 50
220.000000
 51
140.000000
  0
ENDBLK
  8
OBRYS
  0
BLOCK
  8
OBRYS
  2
Vnitrni_metricky_zavit_M6__19
 70
   66
 10
720.715804
 20
464.555625
  0
CIRCLE
  8
OBRYS
 10
720.715804
 20
464.555625
 40
2.458800
  0
ARC
  8
OBRYS
 62
     7
 10
720.715804
 20
464.555625
 40
3.000000
 50
220.000000
 51
140.000000
  0
ENDBLK
  8
OBRYS
  0
BLOCK
  8
OBRYS
  2
Vnitrni_metricky_zavit_M6__20
 70
   66
 10
753.215804
 20
497.055625
  0
CIRCLE
  8
OBRYS
 10
753.215804
 20
497.055625
 40
2.458800
  0
ARC
  8
OBRYS
 62
     7
 10
753.215804
 20
497.055625
 40
3.000000
 50
220.000000
 51
140.000000
  0
ENDBLK
  8
OBRYS
  0
BLOCK
  8
OBRYS
  2
Vnitrni_metricky_zavit_M6__21
 70
   66
 10
785.715804
 20
464.555625
  0
CIRCLE
  8
OBRYS
 10
785.715804
 20
464.555625
 40
2.458800
  0
ARC
  8
OBRYS
 62
     7
 10
785.715804
 20
464.555625
 40
3.000000
 50
220.000000
 51
140.000000
  0
ENDBLK
  8
OBRYS
  0
BLOCK
  8
OBRYS
  2
_9
 70
   64
 10
364.276967
 20
678.302921
  0
LINE
  8
OBRYS
 10
337.965298
 20
689.767790
 11
334.482494
 21
686.302921
  0
LINE
  8
OBRYS
 10
333.219159
 20
692.802921
 11
337.700698
 21
692.802921
  0
LINE
  8
OBRYS
 10
390.588635
 20
689.767790
 11
394.071440
 21
686.302921
  0
LINE
  8
OBRYS
 10
395.334775
 20
692.802921
 11
390.853236
 21
692.802921
  0
ARC
  8
OBRYS
 10
410.776967
 20
684.302921
 40
2.000000
 50
0.000000
 51
90.000000
  0
ARC
  8
OBRYS
 10
317.776967
 20
684.302921
 40
2.000000
 50
90.000000
 51
180.000000
  0
LINE
  8
OBRYS
 10
364.276967
 20
686.302921
 11
317.776967
 21
686.302921
  0
ARC
  8
OBRYS
 10
319.905428
 20
688.302921
 40
2.000000
 50
270.000000
 51
291.047672
  0
LINE
  8
OBRYS
 10
325.474216
 20
687.302921
 11
320.623717
 21
686.436357
  0
LINE
  8
OBRYS
 10
403.079718
 20
687.302921
 11
407.930216
 21
686.436357
  0
ARC
  8
OBRYS
 10
408.648506
 20
688.302921
 40
2.000000
 50
248.952328
 51
270.000000
  0
LINE
  8
OBRYS
 10
364.276967
 20
686.302921
 11
410.276967
 21
686.302921
  0
LINE
  8
OBRYS
 10
395.334775
 20
692.802921
 11
397.954218
 21
686.302921
  0
LINE
  8
OBRYS
 10
397.551227
 20
687.302921
 11
403.079718
 21
687.302921
  0
LINE
  8
OBRYS
 10
369.790265
 20
687.302921
 11
375.896106
 21
687.302921
  0
LINE
  8
OBRYS
 10
367.448315
 20
686.302921
 11
369.790265
 21
687.302921
  0
LINE
  8
OBRYS
 10
361.105619
 20
686.302921
 11
358.763668
 21
687.302921
  0
LINE
  8
OBRYS
 10
358.763668
 20
687.302921
 11
352.657828
 21
687.302921
  0
LINE
  8
OBRYS
 10
358.763668
 20
687.302921
 11
369.790265
 21
687.302921
  0
LINE
  8
OBRYS
 10
331.002707
 20
687.302921
 11
325.474216
 21
687.302921
  0
LINE
  8
OBRYS
 10
333.219159
 20
692.802921
 11
330.599715
 21
686.302921
  0
ARC
  8
OBRYS
 10
319.905428
 20
688.302921
 40
2.000000
 50
270.000000
 51
291.047672
  0
LINE
  8
OBRYS
 62
     7
  6
DASHDOT
 10
364.276967
 20
698.039198
 11
364.276967
 21
665.852060
  0
LINE
  8
OBRYS
 10
412.776967
 20
678.302921
 11
412.776967
 21
684.302921
  0
LINE
  8
OBRYS
 10
315.776967
 20
678.302921
 11
315.776967
 21
684.302921
  0
ENDBLK
  8
OBRYS
  0
BLOCK
  8
OBRYS
  2
_10
 70
   64
 10
364.276967
 20
286.184963
  0
LINE
  8
OBRYS
 10
315.776967
 20
283.684963
 11
315.776967
 21
280.184963
  0
LINE
  8
OBRYS
 62
     7
  6
DASHDOT
 10
364.276967
 20
266.448686
 11
364.276967
 21
298.635824
  0
ARC
  8
OBRYS
 10
408.648506
 20
276.184963
 40
2.000000
 50
90.000000
 51
111.047672
  0
LINE
  8
OBRYS
 10
395.334775
 20
271.684963
 11
397.954218
 21
278.184963
  0
LINE
  8
OBRYS
 10
397.551227
 20
277.184963
 11
403.079718
 21
277.184963
  0
LINE
  8
OBRYS
 10
369.790265
 20
277.184963
 11
358.763668
 21
277.184963
  0
LINE
  8
OBRYS
 10
369.790265
 20
277.184963
 11
375.896106
 21
277.184963
  0
LINE
  8
OBRYS
 10
367.448315
 20
278.184963
 11
369.790265
 21
277.184963
  0
LINE
  8
OBRYS
 10
361.105619
 20
278.184963
 11
358.763668
 21
277.184963
  0
LINE
  8
OBRYS
 10
358.763668
 20
277.184963
 11
352.657828
 21
277.184963
  0
LINE
  8
OBRYS
 10
331.002707
 20
277.184963
 11
325.474216
 21
277.184963
  0
LINE
  8
OBRYS
 10
333.219159
 20
271.684963
 11
330.599715
 21
278.184963
  0
LINE
  8
OBRYS
 10
364.276967
 20
278.184963
 11
318.276967
 21
278.184963
  0
ARC
  8
OBRYS
 10
319.905428
 20
276.184963
 40
2.000000
 50
68.952328
 51
90.000000
  0
LINE
  8
OBRYS
 10
325.474216
 20
277.184963
 11
320.623717
 21
278.051527
  0
LINE
  8
OBRYS
 10
403.079718
 20
277.184963
 11
407.930216
 21
278.051527
  0
ARC
  8
OBRYS
 10
408.648506
 20
276.184963
 40
2.000000
 50
90.000000
 51
111.047672
  0
LINE
  8
OBRYS
 10
364.276967
 20
278.184963
 11
410.776967
 21
278.184963
  0
ARC
  8
OBRYS
 10
410.776967
 20
280.184963
 40
2.000000
 50
270.000000
 51
360.000000
  0
ARC
  8
OBRYS
 10
317.776967
 20
280.184963
 40
2.000000
 50
180.000000
 51
270.000000
  0
LINE
  8
OBRYS
 10
333.219159
 20
271.684963
 11
337.700698
 21
271.684963
  0
LINE
  8
OBRYS
 10
337.965298
 20
274.720094
 11
334.482494
 21
278.184963
  0
LINE
  8
OBRYS
 10
395.334775
 20
271.684963
 11
390.853236
 21
271.684963
  0
LINE
  8
OBRYS
 10
390.588635
 20
274.720094
 11
394.071440
 21
278.184963
  0
LINE
  8
OBRYS
 10
412.776967
 20
283.684963
 11
412.776967
 21
280.184963
  0
ENDBLK
  8
OBRYS
  0
BLOCK
  8
OBRYS
  2
_11
 70
   64
 10
150.529671
 20
464.555625
  0
LINE
  8
OBRYS
 10
139.064802
 20
438.243957
 11
142.529671
 21
434.761152
  0
LINE
  8
OBRYS
 10
136.029671
 20
433.497817
 11
136.029671
 21
437.979356
  0
LINE
  8
OBRYS
 10
139.064802
 20
490.867294
 11
142.529671
 21
494.350098
  0
LINE
  8
OBRYS
 10
136.029671
 20
495.613433
 11
136.029671
 21
491.131894
  0
ARC
  8
OBRYS
 10
144.529671
 20
511.055625
 40
2.000000
 50
90.000000
 51
180.000000
  0
ARC
  8
OBRYS
 10
144.529671
 20
418.055625
 40
2.000000
 50
180.000000
 51
270.000000
  0
LINE
  8
OBRYS
 10
149.529671
 20
416.055625
 11
144.529671
 21
416.055625
  0
LINE
  8
OBRYS
 10
142.529671
 20
464.555625
 11
142.529671
 21
418.055625
  0
ARC
  8
OBRYS
 10
140.529671
 20
420.184086
 40
2.000000
 50
0.000000
 51
21.047672
  0
LINE
  8
OBRYS
 10
141.529671
 20
425.752874
 11
142.396235
 21
420.902376
  0
LINE
  8
OBRYS
 10
141.529671
 20
503.358376
 11
142.396235
 21
508.208875
  0
ARC
  8
OBRYS
 10
140.529671
 20
508.927164
 40
2.000000
 50
338.952328
 51
360.000000
  0
LINE
  8
OBRYS
 10
142.529671
 20
464.555625
 11
142.529671
 21
510.555625
  0
LINE
  8
OBRYS
 10
136.029671
 20
495.613433
 11
142.529671
 21
498.232877
  0
LINE
  8
OBRYS
 10
141.529671
 20
497.829885
 11
141.529671
 21
503.358376
  0
LINE
  8
OBRYS
 10
141.529671
 20
470.068923
 11
141.529671
 21
476.174764
  0
LINE
  8
OBRYS
 10
142.529671
 20
467.726973
 11
141.529671
 21
470.068923
  0
LINE
  8
OBRYS
 10
142.529671
 20
461.384277
 11
141.529671
 21
459.042327
  0
LINE
  8
OBRYS
 10
141.529671
 20
459.042327
 11
141.529671
 21
452.936486
  0
LINE
  8
OBRYS
 10
141.529671
 20
459.042327
 11
141.529671
 21
470.068923
  0
LINE
  8
OBRYS
 10
141.529671
 20
431.281365
 11
141.529671
 21
425.752874
  0
LINE
  8
OBRYS
 10
136.029671
 20
433.497817
 11
142.529671
 21
430.878374
  0
ARC
  8
OBRYS
 10
140.529671
 20
420.184086
 40
2.000000
 50
0.000000
 51
21.047672
  0
LINE
  8
OBRYS
 62
     7
  6
DASHDOT
 10
130.793394
 20
464.555625
 11
162.980532
 21
464.555625
  0
ARC
  8
OBRYS
 10
149.529671
 20
417.055625
 40
1.000000
 50
269.999761
 51
360.000000
  0
LINE
  8
OBRYS
 10
148.029671
 20
513.055625
 11
144.529671
 21
513.055625
  0
ENDBLK
  8
OBRYS
  0
BLOCK
  8
OBRYS
  2
_12
 70
   64
 10
141.529671
 20
464.555625
  0
ARC
  8
OBRYS
 62
     4
  6
HIDDEN2
 10
95.729671
 20
511.255625
 40
0.800000
 50
0.000000
 51
90.000000
  0
LINE
  8
OBRYS
 62
     4
  6
HIDDEN2
 10
95.729671
 20
512.055625
 11
92.529671
 21
512.055625
  0
LINE
  8
OBRYS
 62
     4
  6
HIDDEN2
 10
96.529671
 20
464.555625
 11
96.529671
 21
511.255625
  0
LINE
  8
OBRYS
 62
     4
  6
HIDDEN2
 10
96.529671
 20
464.555625
 11
96.529671
 21
417.855625
  0
LINE
  8
OBRYS
 62
     4
  6
HIDDEN2
 10
95.729671
 20
417.055625
 11
92.529671
 21
417.055625
  0
ARC
  8
OBRYS
 62
     4
  6
HIDDEN2
 10
95.729671
 20
417.855625
 40
0.800000
 50
270.000000
 51
360.000000
  0
LINE
  8
OBRYS
 10
105.529671
 20
462.555625
 11
141.529671
 21
462.555625
  0
ARC
  8
OBRYS
 10
105.529671
 20
460.555625
 40
2.000000
 50
90.000000
 51
180.000000
  0
ARC
  8
OBRYS
 10
105.529671
 20
468.555625
 40
2.000000
 50
180.000000
 51
270.000000
  0
LINE
  8
OBRYS
 10
105.529671
 20
466.555625
 11
141.529671
 21
466.555625
  0
LINE
  8
OBRYS
 10
136.572265
 20
431.356145
 11
141.529671
 21
431.567495
  0
ARC
  8
OBRYS
 10
136.529671
 20
432.355237
 40
1.000000
 50
180.000000
 51
272.441228
  0
LINE
  8
OBRYS
 10
135.529671
 20
432.355237
 11
135.529671
 21
437.019153
  0
LINE
  8
OBRYS
 10
141.529671
 20
438.458842
 11
136.442821
 21
438.015374
  0
ARC
  8
OBRYS
 10
136.529671
 20
437.019153
 40
1.000000
 50
94.982401
 51
180.000000
  0
LINE
  8
OBRYS
 10
138.529671
 20
443.117810
 11
141.529671
 21
443.117810
  0
ARC
  8
OBRYS
 10
138.529671
 20
444.117810
 40
1.000000
 50
180.000000
 51
270.000000
  0
LINE
  8
OBRYS
 10
138.529671
 20
454.176046
 11
141.529671
 21
454.176046
  0
LINE
  8
OBRYS
 10
137.529671
 20
444.117810
 11
137.529671
 21
453.176046
  0
ARC
  8
OBRYS
 10
138.529671
 20
453.176046
 40
1.000000
 50
90.000000
 51
180.000000
  0
LINE
  8
OBRYS
 10
138.529671
 20
423.858397
 11
141.529671
 21
423.858397
  0
ARC
  8
OBRYS
 10
138.529671
 20
424.858397
 40
1.000000
 50
180.000000
 51
270.000000
  0
LINE
  8
OBRYS
 10
138.529671
 20
428.438869
 11
141.529671
 21
428.438869
  0
LINE
  8
OBRYS
 10
137.529671
 20
427.438869
 11
137.529671
 21
424.858397
  0
ARC
  8
OBRYS
 10
138.529671
 20
427.438869
 40
1.000000
 50
90.000000
 51
180.000000
  0
ARC
  8
OBRYS
 10
138.529671
 20
501.672381
 40
1.000000
 50
180.000000
 51
270.000000
  0
LINE
  8
OBRYS
 10
137.529671
 20
501.672381
 11
137.529671
 21
504.252853
  0
LINE
  8
OBRYS
 10
138.529671
 20
500.672381
 11
141.529671
 21
500.672381
  0
ARC
  8
OBRYS
 10
138.529671
 20
504.252853
 40
1.000000
 50
90.000000
 51
180.000000
  0
LINE
  8
OBRYS
 10
138.529671
 20
505.252853
 11
141.529671
 21
505.252853
  0
ARC
  8
OBRYS
 10
138.529671
 20
475.935204
 40
1.000000
 50
180.000000
 51
270.000000
  0
LINE
  8
OBRYS
 10
137.529671
 20
484.993440
 11
137.529671
 21
475.935204
  0
LINE
  8
OBRYS
 10
138.529671
 20
474.935204
 11
141.529671
 21
474.935204
  0
ARC
  8
OBRYS
 10
138.529671
 20
484.993440
 40
1.000000
 50
90.000000
 51
180.000000
  0
LINE
  8
OBRYS
 10
138.529671
 20
485.993440
 11
141.529671
 21
485.993440
  0
ARC
  8
OBRYS
 10
136.529671
 20
492.092097
 40
1.000000
 50
180.000000
 51
265.017599
  0
LINE
  8
OBRYS
 10
141.529671
 20
490.652408
 11
136.442821
 21
491.095876
  0
LINE
  8
OBRYS
 10
135.529671
 20
496.756013
 11
135.529671
 21
492.092097
  0
ARC
  8
OBRYS
 10
136.529671
 20
496.756013
 40
1.000000
 50
87.558772
 51
180.000000
  0
LINE
  8
OBRYS
 10
136.572265
 20
497.755105
 11
141.529671
 21
497.543755
  0
LINE
  8
OBRYS
 10
102.711459
 20
394.942127
 11
140.711459
 21
422.774789
  0
LINE
  8
OBRYS
 10
103.529671
 20
532.555625
 11
103.529671
 21
464.555625
  0
LINE
  8
OBRYS
 10
103.529671
 20
396.555625
 11
103.529671
 21
464.555625
  0
LINE
  8
OBRYS
 10
92.529671
 20
464.555625
 11
92.529671
 21
394.555625
  0
LINE
  8
OBRYS
 10
92.529671
 20
534.555625
 11
92.529671
 21
464.555625
  0
LINE
  8
OBRYS
 10
92.529671
 20
534.555625
 11
101.529671
 21
534.555625
  0
ARC
  8
OBRYS
 10
101.529671
 20
532.555625
 40
2.000000
 50
0.000000
 51
90.000000
  0
ARC
  8
OBRYS
 10
101.529671
 20
396.555625
 40
2.000000
 50
270.000000
 51
360.000000
  0
LINE
  8
OBRYS
 10
92.529671
 20
394.555625
 11
101.529671
 21
394.555625
  0
LINE
  8
OBRYS
 62
     7
  6
DASHDOT
 10
146.529671
 20
464.555625
 11
87.029671
 21
464.555625
  0
ARC
  8
OBRYS
 10
139.529671
 20
424.388287
 40
2.000000
 50
275.000000
 51
360.000000
  0
ARC
  8
OBRYS
 10
139.529671
 20
504.722963
 40
2.000000
 50
0.000000
 51
85.000000
  0
LINE
  8
OBRYS
 10
105.355359
 20
419.390783
 11
139.703982
 21
422.395898
  0
ARC
  8
OBRYS
 10
105.529671
 20
417.398394
 40
2.000000
 50
95.000000
 51
180.000000
  0
LINE
  8
OBRYS
 10
105.355359
 20
509.720467
 11
139.703982
 21
506.715352
  0
ARC
  8
OBRYS
 10
105.529671
 20
511.712857
 40
2.000000
 50
180.000000
 51
265.000000
  0
LINE
  8
OBRYS
 10
94.029671
 20
454.555625
 11
92.529671
 21
454.555625
  0
LINE
  8
OBRYS
 10
94.029671
 20
474.555625
 11
92.529671
 21
474.555625
  0
ARC
  8
OBRYS
 10
94.029671
 20
456.555625
 40
2.000000
 50
270.000000
 51
360.000000
  0
LINE
  8
OBRYS
 10
96.029671
 20
456.555625
 11
96.029671
 21
472.555625
  0
ARC
  8
OBRYS
 10
94.029671
 20
472.555625
 40
2.000000
 50
0.000000
 51
90.000000
  0
LINE
  8
OBRYS
 10
102.711459
 20
534.169123
 11
140.711459
 21
506.336461
  0
LINE
  8
OBRYS
 10
141.529671
 20
464.555625
 11
141.529671
 21
435.766328
  0
LINE
  8
OBRYS
 10
141.529671
 20
431.281365
 11
141.529671
 21
424.388272
  0
LINE
  8
OBRYS
 10
141.529671
 20
504.722963
 11
141.529671
 21
497.829885
  0
LINE
  8
OBRYS
 10
141.529671
 20
493.344922
 11
141.529671
 21
464.555625
  0
ENDBLK
  8
OBRYS
  0
BLOCK
  8
OBRYS
  2
_13
 70
   64
 10
364.276967
 20
464.555625
  0
TEXT
  8
OBRYS
 62
     1
 10
357.280029
 20
402.755280
 40
7.000000
  1
40
 50
0.00
 51
0.00
 41
1.00
  0
LINE
  8
OSA
 10
364.276967
 20
464.555625
 11
434.276967
 21
464.555625
  0
ARC
  8
OBRYS
 10
398.755765
 20
517.283345
 40
2.000000
 50
325.000000
 51
56.819219
  0
LINE
  8
OBRYS
 10
394.941857
 20
508.349626
 11
400.394069
 21
516.136192
  0
ARC
  8
OBRYS
 10
393.303552
 20
509.496779
 40
2.000000
 50
237.142397
 51
325.000000
  0
ARC
  8
OBRYS
 10
409.218121
 20
493.582211
 40
2.000000
 50
125.000000
 51
212.857603
  0
LINE
  8
OBRYS
 10
408.070968
 20
495.220515
 11
415.857534
 21
500.672727
  0
ARC
  8
OBRYS
 10
417.004687
 20
499.034423
 40
2.000000
 50
33.180781
 51
125.000000
  0
ARC
  8
OBRYS
 10
417.004687
 20
430.076827
 40
2.000000
 50
235.000000
 51
326.819219
  0
LINE
  8
OBRYS
 10
408.070968
 20
433.890735
 11
415.857534
 21
428.438523
  0
ARC
  8
OBRYS
 10
409.218121
 20
435.529039
 40
2.000000
 50
147.142397
 51
235.000000
  0
ARC
  8
OBRYS
 10
393.303552
 20
419.614471
 40
2.000000
 50
35.000000
 51
122.857603
  0
LINE
  8
OBRYS
 10
394.941857
 20
420.761624
 11
400.394069
 21
412.975058
  0
ARC
  8
OBRYS
 10
398.755765
 20
411.827905
 40
2.000000
 50
303.180781
 51
35.000000
  0
ARC
  8
OBRYS
 10
329.798169
 20
411.827905
 40
2.000000
 50
145.000000
 51
236.819219
  0
LINE
  8
OBRYS
 10
333.612077
 20
420.761624
 11
328.159865
 21
412.975058
  0
ARC
  8
OBRYS
 10
335.250381
 20
419.614471
 40
2.000000
 50
57.142397
 51
145.000000
  0
ARC
  8
OBRYS
 10
319.335813
 20
435.529039
 40
2.000000
 50
305.000000
 51
32.857603
  0
LINE
  8
OBRYS
 10
320.482966
 20
433.890735
 11
312.696399
 21
428.438523
  0
ARC
  8
OBRYS
 10
311.549247
 20
430.076827
 40
2.000000
 50
213.180781
 51
305.000000
  0
ARC
  8
OBRYS
 10
329.798169
 20
517.283345
 40
2.000000
 50
123.180781
 51
215.000000
  0
LINE
  8
OBRYS
 10
333.612077
 20
508.349626
 11
328.159865
 21
516.136192
  0
ARC
  8
OBRYS
 10
335.250381
 20
509.496779
 40
2.000000
 50
215.000000
 51
302.857603
  0
ARC
  8
OBRYS
 10
319.335813
 20
493.582211
 40
2.000000
 50
327.142397
 51
55.000000
  0
LINE
  8
OBRYS
 10
320.482966
 20
495.220515
 11
312.696399
 21
500.672727
  0
ARC
  8
OBRYS
 10
311.549247
 20
499.034423
 40
2.000000
 50
55.000000
 51
146.819219
  0
LINE
  8
OBRYS
 10
428.610283
 20
473.841339
 11
433.558999
 21
474.555625
  0
LINE
  8
OBRYS
 10
428.610283
 20
455.269911
 11
433.558999
 21
454.555625
  0
LINE
  8
OBRYS
 10
299.943651
 20
455.269911
 11
294.994935
 21
454.555625
  0
LINE
  8
OBRYS
 10
299.943651
 20
473.841339
 11
294.994935
 21
474.555625
  0
CIRCLE
  8
OBRYS
 10
364.276967
 20
464.555625
 40
51.500000
  0
CIRCLE
  8
OBRYS
 10
364.276967
 20
464.555625
 40
65.000000
  0
CIRCLE
  8
OBRYS
 10
364.276967
 20
464.555625
 40
70.000000
  0
CIRCLE
  8
OSA
 10
364.276967
 20
464.555625
 40
57.500000
  0
CIRCLE
  8
OBRYS
 10
364.276967
 20
464.555625
 40
47.500000
  0
LINE
  8
OSA
 10
364.276967
 20
464.555625
 11
289.276967
 21
464.555625
  0
LINE
  8
OSA
 10
364.276967
 20
464.555625
 11
364.276967
 21
389.555625
  0
CIRCLE
  8
OBRYS
 10
323.618327
 20
505.214265
 40
4.500000
  0
CIRCLE
  8
OBRYS
 10
404.935607
 20
505.214265
 40
4.500000
  0
CIRCLE
  8
OBRYS
 10
323.618327
 20
423.896985
 40
4.500000
  0
CIRCLE
  8
OBRYS
 10
404.935607
 20
423.896985
 40
4.500000
  0
CIRCLE
  8
OSA
 10
364.276967
 20
464.555625
 40
32.500000
  0
CIRCLE
  8
OBRYS
 10
364.276967
 20
464.555625
 40
25.000000
  0
CIRCLE
  8
OBRYS
 10
364.276967
 20
464.555625
 40
38.772119
  0
CIRCLE
  8
OBRYS
 10
364.276967
 20
464.555625
 40
41.965455
  0
LINE
  8
OSA
 10
364.276967
 20
464.555625
 11
364.276967
 21
539.555625
  0
LINE
  8
OSA
 10
329.094754
 20
499.737838
 11
319.093601
 21
509.738991
  0
LINE
  8
OSA
 10
329.094754
 20
429.373412
 11
319.093601
 21
419.372259
  0
LINE
  8
OSA
 10
399.459180
 20
429.373412
 11
409.460333
 21
419.372259
  0
LINE
  8
OSA
 10
399.459180
 20
499.737838
 11
409.460333
 21
509.738991
  0
INSERT
  8
OBRYS
  2
Srouby_s_valcovou_hlavou___23
 62
     7
 10
364.276967
 20
497.055625
  0
INSERT
  8
OBRYS
  2
Srouby_s_valcovou_hlavou___24
 62
     7
 10
364.276967
 20
432.055625
  0
INSERT
  8
OBRYS
  2
Srouby_s_valcovou_hlavou___25
 62
     7
 10
331.776967
 20
464.555625
  0
INSERT
  8
OBRYS
  2
Srouby_s_valcovou_hlavou___26
 62
     7
 10
396.776967
 20
464.555625
  0
ARC
  8
OBRYS
 10
361.476967
 20
476.355625
 40
0.200000
 50
90.000000
 51
180.000000
  0
LINE
  8
OBRYS
 10
361.476967
 20
476.555625
 11
367.076967
 21
476.555625
  0
LINE
  8
OBRYS
 10
361.276967
 20
473.569503
 11
361.276967
 21
476.355625
  0
ARC
  8
OBRYS
 10
367.076967
 20
476.355625
 40
0.200000
 50
0.000000
 51
90.000000
  0
LINE
  8
OBRYS
 10
367.276967
 20
476.355625
 11
367.276967
 21
473.569503
  0
ARC
  8
OBRYS
 10
364.276967
 20
464.555625
 40
9.500000
 50
108.408480
 51
71.591520
  0
CIRCLE
  8
OBRYS
 10
364.276967
 20
464.555625
 40
15.000000
  0
ENDBLK
  8
OBRYS
  0
BLOCK
  8
OBRYS
  2
Srouby_s_valcovou_hlavou___23
 70
   66
 10
364.276967
 20
497.055625
  0
LINE
  8
OBRYS
 10
361.776967
 20
495.612240
 11
361.776967
 21
498.499010
  0
LINE
  8
OBRYS
 10
361.776967
 20
498.499010
 11
364.276967
 21
499.942394
  0
LINE
  8
OBRYS
 10
364.276967
 20
499.942394
 11
366.776967
 21
498.499010
  0
LINE
  8
OBRYS
 10
366.776967
 20
498.499010
 11
366.776967
 21
495.612240
  0
LINE
  8
OBRYS
 10
366.776967
 20
495.612240
 11
364.276967
 21
494.168856
  0
LINE
  8
OBRYS
 10
364.276967
 20
494.168856
 11
361.776967
 21
495.612240
  0
CIRCLE
  8
OBRYS
 10
364.276967
 20
497.055625
 40
2.886769
  0
CIRCLE
  8
OBRYS
 10
364.276967
 20
497.055625
 40
5.000000
  0
ENDBLK
  8
OBRYS
  0
BLOCK
  8
OBRYS
  2
Srouby_s_valcovou_hlavou___24
 70
   66
 10
364.276967
 20
432.055625
  0
LINE
  8
OBRYS
 10
361.776967
 20
430.612240
 11
361.776967
 21
433.499010
  0
LINE
  8
OBRYS
 10
361.776967
 20
433.499010
 11
364.276967
 21
434.942394
  0
LINE
  8
OBRYS
 10
364.276967
 20
434.942394
 11
366.776967
 21
433.499010
  0
LINE
  8
OBRYS
 10
366.776967
 20
433.499010
 11
366.776967
 21
430.612240
  0
LINE
  8
OBRYS
 10
366.776967
 20
430.612240
 11
364.276967
 21
429.168856
  0
LINE
  8
OBRYS
 10
364.276967
 20
429.168856
 11
361.776967
 21
430.612240
  0
CIRCLE
  8
OBRYS
 10
364.276967
 20
432.055625
 40
2.886769
  0
CIRCLE
  8
OBRYS
 10
364.276967
 20
432.055625
 40
5.000000
  0
ENDBLK
  8
OBRYS
  0
BLOCK
  8
OBRYS
  2
Srouby_s_valcovou_hlavou___25
 70
   66
 10
331.776967
 20
464.555625
  0
LINE
  8
OBRYS
 10
329.276967
 20
463.112240
 11
329.276967
 21
465.999010
  0
LINE
  8
OBRYS
 10
329.276967
 20
465.999010
 11
331.776967
 21
467.442394
  0
LINE
  8
OBRYS
 10
331.776967
 20
467.442394
 11
334.276967
 21
465.999010
  0
LINE
  8
OBRYS
 10
334.276967
 20
465.999010
 11
334.276967
 21
463.112240
  0
LINE
  8
OBRYS
 10
334.276967
 20
463.112240
 11
331.776967
 21
461.668856
  0
LINE
  8
OBRYS
 10
331.776967
 20
461.668856
 11
329.276967
 21
463.112240
  0
CIRCLE
  8
OBRYS
 10
331.776967
 20
464.555625
 40
2.886769
  0
CIRCLE
  8
OBRYS
 10
331.776967
 20
464.555625
 40
5.000000
  0
ENDBLK
  8
OBRYS
  0
BLOCK
  8
OBRYS
  2
Srouby_s_valcovou_hlavou___26
 70
   66
 10
396.776967
 20
464.555625
  0
LINE
  8
OBRYS
 10
394.276967
 20
463.112240
 11
394.276967
 21
465.999010
  0
LINE
  8
OBRYS
 10
394.276967
 20
465.999010
 11
396.776967
 21
467.442394
  0
LINE
  8
OBRYS
 10
396.776967
 20
467.442394
 11
399.276967
 21
465.999010
  0
LINE
  8
OBRYS
 10
399.276967
 20
465.999010
 11
399.276967
 21
463.112240
  0
LINE
  8
OBRYS
 10
399.276967
 20
463.112240
 11
396.776967
 21
461.668856
  0
LINE
  8
OBRYS
 10
396.776967
 20
461.668856
 11
394.276967
 21
463.112240
  0
CIRCLE
  8
OBRYS
 10
396.776967
 20
464.555625
 40
2.886769
  0
CIRCLE
  8
OBRYS
 10
396.776967
 20
464.555625
 40
5.000000
  0
ENDBLK
  8
OBRYS
  0
BLOCK
  8
KOTA
  2
Vnitrni_metricky_zavit_M1_14
 70
   66
 10
364.276967
 20
654.302921
  0
CIRCLE
  8
KOTA
 62
     2
 10
364.276967
 20
654.302921
 40
4.458800
  0
ARC
  8
KOTA
 62
     7
 10
364.276967
 20
654.302921
 40
5.000000
 50
85.000000
 51
5.000000
  0
ENDBLK
  8
KOTA
  0
ENDSEC
  0
SECTION
  2
ENTITIES
  0
ARC
  8
OBRYS
 10
554.024263
 20
305.115870
 40
5.500000
 50
111.323686
 51
68.676314
  0
LINE
  8
OBRYS
 10
552.024263
 20
310.239345
 11
552.024263
 21
312.215870
  0
LINE
  8
OBRYS
 10
552.024263
 20
312.215870
 11
556.024263
 21
312.215870
  0
LINE
  8
OBRYS
 10
556.024263
 20
312.215870
 11
556.024263
 21
310.239345
  0
CIRCLE
  8
OBRYS
 10
554.024263
 20
305.115870
 40
10.000000
  0
LINE
  8
OSA
 10
554.024263
 20
305.115870
 11
554.024263
 21
291.990873
  0
LINE
  8
OSA
 10
554.024263
 20
305.115870
 11
554.024263
 21
318.240867
  0
LINE
  8
OSA
 10
554.024263
 20
305.115870
 11
540.899265
 21
305.115870
  0
LINE
  8
OSA
 10
554.024263
 20
305.115870
 11
567.149260
 21
305.115870
  0
LINE
  8
OSA
 10
554.024263
 20
331.365865
 11
567.149260
 21
331.365865
  0
LINE
  8
OSA
 10
554.024263
 20
331.365865
 11
540.899265
 21
331.365865
  0
LINE
  8
OSA
 10
554.024263
 20
331.365865
 11
554.024263
 21
344.490862
  0
LINE
  8
OSA
 10
554.024263
 20
331.365865
 11
554.024263
 21
318.240867
  0
LINE
  8
OBRYS
 10
552.524263
 20
335.608505
 11
552.524263
 21
337.165865
  0
LINE
  8
OBRYS
 10
552.524263
 20
337.165865
 11
555.524263
 21
337.165865
  0
LINE
  8
OBRYS
 10
555.524263
 20
337.165865
 11
555.524263
 21
335.608505
  0
ARC
  8
OBRYS
 10
554.024263
 20
331.365865
 40
4.500000
 50
109.471221
 51
70.528779
  0
CIRCLE
  8
OBRYS
 10
554.024263
 20
331.365865
 40
10.000000
  0
ARC
  8
OBRYS
 10
174.529671
 20
468.555625
 40
60.000000
 50
232.630616
 51
237.769047
  0
ARC
  8
OBRYS
 10
174.529671
 20
468.555625
 40
60.000000
 50
127.445947
 51
133.704085
  0
LINE
  8
0
 62
     2
 10
138.048909
 20
508.286615
 11
138.048909
 21
519.555625
  0
ARC
  8
OBRYS
 10
174.529671
 20
468.555625
 40
60.000000
 50
241.044976
 51
298.955024
  0
ARC
  8
OBRYS
 10
174.529671
 20
468.555625
 40
60.000000
 50
302.230953
 51
52.554053
  0
LINE
  8
0
 62
     2
 10
211.010433
 20
496.427168
 11
211.010433
 21
519.555625
  0
ARC
  8
OBRYS
 10
148.013167
 20
531.072129
 40
5.000000
 50
123.511664
 51
154.169919
  0
ARC
  8
OBRYS
 10
174.529671
 20
491.027717
 40
53.027909
 50
56.488379
 51
123.511629
  0
ARC
  8
OBRYS
 10
200.510433
 20
519.555625
 40
10.500000
 50
0.000006
 51
25.830081
  0
ARC
  8
OBRYS
 10
148.548909
 20
519.555625
 40
10.500000
 50
154.169919
 51
179.999994
  0
LINE
  8
0
 62
     2
 10
139.097962
 20
524.130514
 11
143.512716
 21
533.250648
  0
ARC
  8
OBRYS
 10
201.046175
 20
531.072129
 40
5.000000
 50
25.830081
 51
56.488335
  0
LINE
  8
0
 62
     2
 10
209.961379
 20
524.130514
 11
205.546626
 21
533.250648
  0
INSERT
  8
OBRYS
  2
_0
 62
     7
 10
587.024263
 20
464.555625
  0
INSERT
  8
OSA
  2
_1
  6
CONTINUOUS
 10
554.024263
 20
504.555625
  0
INSERT
  8
OBRYS
  2
_2
 62
     7
 10
313.276967
 20
504.555625
  0
ARC
  8
OBRYS
 10
753.215804
 20
464.555625
 40
70.000000
 50
270.000000
 51
335.525657
  0
ARC
  8
OSA
 10
753.215804
 20
464.555625
 40
57.500000
 50
270.000000
 51
334.735615
  0
LINE
  8
OBRYS
 10
801.674550
 20
466.555625
 11
805.215815
 21
466.555625
  0
LINE
  8
OBRYS
 10
801.674550
 20
462.555625
 11
805.215815
 21
462.555625
  0
INSERT
  8
OBRYS
  2
_3
 62
     7
 10
804.215804
 20
504.555624
  0
INSERT
  8
OBRYS
  2
_4
 62
     7
 10
313.276967
 20
310.184963
  0
INSERT
  8
OBRYS
  2
_5
 62
     7
 10
313.276967
 20
654.302921
  0
TEXT
  8
NEVIDITELNA
 62
     2
  6
CONTINUOUS
 10
291.732391
 20
772.708862
 40
15.000000
  1
MRT 40A - FF-R
 50
0.00
 51
0.00
 41
0.80
  0
ARC
  8
OSA
 10
753.215804
 20
464.555625
 40
57.500000
 50
169.965123
 51
270.000000
  0
ARC
  8
OBRYS
 10
753.215804
 20
464.555625
 40
70.000000
 50
144.516796
 51
270.000000
  0
ARC
  8
OBRYS
 10
753.215804
 20
464.555625
 40
70.000000
 50
90.000000
 51
108.194872
  0
ARC
  8
OBRYS
 10
753.215804
 20
464.555625
 40
70.000000
 50
71.805128
 51
90.000000
  0
LINE
  8
OBRYS
 10
751.215804
 20
531.055625
 11
751.215804
 21
532.437876
  0
LINE
  8
OBRYS
 10
755.215804
 20
531.055625
 11
755.215804
 21
532.437876
  0
LINE
  8
OBRYS
 10
751.215804
 20
416.096880
 11
751.215804
 21
396.673374
  0
LINE
  8
OBRYS
 10
755.215804
 20
416.096880
 11
755.215804
 21
396.673374
  0
LINE
  8
OBRYS
 10
704.757059
 20
462.555625
 11
685.333553
 21
462.555625
  0
LINE
  8
OBRYS
 10
704.757059
 20
466.555625
 11
685.333553
 21
466.555625
  0
ARC
  8
OSA
 10
753.215804
 20
464.555625
 40
32.500000
 50
270.000000
 51
90.000000
  0
CIRCLE
  8
OBRYS
 10
793.874444
 20
423.896985
 40
4.500000
  0
LINE
  8
OSA
 10
753.215804
 20
464.555625
 11
806.248813
 21
411.522616
  0
LINE
  8
OSA
 10
753.215804
 20
464.555625
 11
753.215804
 21
389.555625
  0
LINE
  8
OSA
 10
753.215804
 20
464.555625
 11
828.215804
 21
464.555625
  0
ARC
  8
OBRYS
 10
757.215804
 20
532.437876
 40
2.000000
 50
86.627713
 51
180.000000
  0
ARC
  8
OBRYS
 10
757.215804
 20
396.673374
 40
2.000000
 50
180.000000
 51
273.372287
  0
LINE
  8
OSA
 10
753.215804
 20
464.555625
 11
753.215804
 21
539.555625
  0
ARC
  8
OBRYS
 10
685.333553
 20
468.555625
 40
2.000000
 50
176.627713
 51
270.000000
  0
ARC
  8
OBRYS
 10
685.333553
 20
460.555625
 40
2.000000
 50
90.000000
 51
183.372287
  0
ARC
  8
OBRYS
 10
749.215804
 20
396.673374
 40
2.000000
 50
266.627713
 51
360.000000
  0
ARC
  8
OBRYS
 10
749.215804
 20
532.437876
 40
2.000000
 50
0.000000
 51
93.372287
  0
LINE
  8
OSA
 10
753.215804
 20
464.555625
 11
678.215804
 21
464.555625
  0
LINE
  8
OSA
 10
753.215804
 20
464.555625
 11
700.182796
 21
411.522616
  0
CIRCLE
  8
OBRYS
 10
712.557165
 20
423.896985
 40
4.500000
  0
ARC
  8
OSA
 10
753.215804
 20
464.555625
 40
32.500000
 50
90.000000
 51
270.000000
  0
INSERT
  8
OBRYS
  2
_6
 62
     7
 10
364.276967
 20
687.302921
  0
INSERT
  8
OBRYS
  2
_7
 62
     7
 10
364.276967
 20
277.184963
  0
LINE
  8
OSA
 10
823.215804
 20
504.555625
 11
794.715804
 21
504.555625
  0
LINE
  8
OBRYS
 10
804.215804
 20
504.555625
 11
804.215804
 21
474.574863
  0
LINE
  8
OBRYS
 10
804.215804
 20
504.555625
 11
804.215804
 21
534.536387
  0
LINE
  8
OSA
 10
823.215804
 20
504.555625
 11
794.715804
 21
504.555625
  0
LINE
  8
0
 62
     2
 10
804.215804
 20
534.000489
 11
782.628785
 21
534.000489
  0
LINE
  8
0
 62
     2
 10
804.215804
 20
517.546006
 11
782.620821
 21
517.546006
  0
LINE
  8
0
 62
     2
 10
804.215804
 20
521.010108
 11
782.416899
 21
521.010108
  0
LINE
  8
0
 62
     2
 10
783.215804
 20
520.184522
 11
783.215804
 21
518.523250
  0
POLYLINE
  8
0
 62
     2
 66
    1
  0
VERTEX
  8
0
 62
     2
 10
783.215820
 20
534.478577
  0
VERTEX
  8
0
 62
     2
 10
783.087646
 20
534.340637
  0
VERTEX
  8
0
 62
     2
 10
782.628784
 20
534.000488
  0
VERTEX
  8
0
 62
     2
 10
779.759399
 20
532.003052
  0
VERTEX
  8
0
 62
     2
 10
777.583008
 20
529.249695
  0
VERTEX
  8
0
 62
     2
 10
777.285400
 20
526.636841
  0
VERTEX
  8
0
 62
     2
 10
778.806152
 20
523.954956
  0
VERTEX
  8
0
 62
     2
 10
782.416870
 20
521.010132
  0
VERTEX
  8
0
 62
     2
 10
782.449707
 20
520.966309
  0
VERTEX
  8
0
 62
     2
 10
783.028198
 20
520.518616
  0
VERTEX
  8
0
 62
     2
 10
783.215820
 20
520.184509
  0
SEQEND
  8
0
  0
LINE
  8
0
 62
     2
 10
783.215804
 20
520.184522
 11
783.215804
 21
518.523250
  0
LINE
  8
0
 62
     2
 10
696.215804
 20
534.000489
 11
723.802823
 21
534.000489
  0
LINE
  8
0
 62
     2
 10
696.215804
 20
517.546006
 11
723.810788
 21
517.546006
  0
LINE
  8
0
 62
     2
 10
696.215804
 20
521.010108
 11
724.014710
 21
521.010108
  0
LINE
  8
0
 62
     2
 10
729.244661
 20
531.055625
 11
723.253758
 21
534.514475
  0
LINE
  8
0
 62
     2
 10
723.215804
 20
534.514475
 11
723.215804
 21
534.478569
  0
LINE
  8
0
 62
     2
 10
723.215804
 20
520.184522
 11
723.215804
 21
518.523250
  0
POLYLINE
  8
0
 62
     2
 66
    1
  0
VERTEX
  8
0
 62
     2
 10
723.215820
 20
534.478577
  0
VERTEX
  8
0
 62
     2
 10
723.343994
 20
534.340637
  0
VERTEX
  8
0
 62
     2
 10
723.802856
 20
534.000488
  0
VERTEX
  8
0
 62
     2
 10
726.672241
 20
532.003052
  0
VERTEX
  8
0
 62
     2
 10
728.848633
 20
529.249695
  0
VERTEX
  8
0
 62
     2
 10
729.146240
 20
526.636841
  0
VERTEX
  8
0
 62
     2
 10
727.625488
 20
523.954956
  0
VERTEX
  8
0
 62
     2
 10
724.014771
 20
521.010132
  0
VERTEX
  8
0
 62
     2
 10
723.981934
 20
520.966309
  0
VERTEX
  8
0
 62
     2
 10
723.403442
 20
520.518616
  0
VERTEX
  8
0
 62
     2
 10
723.215820
 20
520.184509
  0
SEQEND
  8
0
  0
LINE
  8
0
 62
     2
 10
723.253758
 20
534.514475
 11
723.215804
 21
534.514475
  0
LINE
  8
0
 62
     2
 10
723.215804
 20
534.514475
 11
723.215804
 21
534.478569
  0
LINE
  8
0
 62
     2
 10
723.215804
 20
520.184522
 11
723.215804
 21
518.523250
  0
LINE
  8
OBRYS
 10
783.215804
 20
534.536387
 11
804.215804
 21
534.536387
  0
LINE
  8
OBRYS
 10
696.215804
 20
534.536387
 11
723.215804
 21
534.536387
  0
LINE
  8
OBRYS
 10
783.215804
 20
534.536387
 11
777.186948
 21
531.055625
  0
LINE
  8
OBRYS
 10
777.186948
 20
531.055625
 11
729.244661
 21
531.055625
  0
LINE
  8
OBRYS
 10
723.215804
 20
534.536387
 11
729.244661
 21
531.055625
  0
LINE
  8
OSA
 62
     2
  6
CONTINUOUS
 10
696.215804
 20
534.536387
 11
696.215804
 21
474.574863
  0
LINE
  8
OSA
 62
     2
  6
CONTINUOUS
 10
804.215804
 20
534.536387
 11
804.215804
 21
474.574863
  0
LINE
  8
OSA
 62
     2
  6
CONTINUOUS
 10
804.215804
 20
533.536387
 11
804.215804
 21
475.574863
  0
LINE
  8
OSA
 62
     2
  6
CONTINUOUS
 10
696.215804
 20
533.536387
 11
696.215804
 21
475.574863
  0
LINE
  8
OSA
 10
753.215804
 20
504.555625
 11
696.215804
 21
504.555625
  0
LINE
  8
OSA
 10
753.215804
 20
504.555625
 11
804.215804
 21
504.555625
  0
LINE
  8
OSA
 10
753.215804
 20
464.555625
 11
753.215804
 21
534.302921
  0
INSERT
  8
OBRYS
  2
_8
 62
     7
 10
753.215804
 20
464.555625
  0
LINE
  8
OBRYS
 10
696.215804
 20
474.574863
 11
705.761986
 21
474.574863
  0
LINE
  8
OBRYS
 10
800.669623
 20
474.574863
 11
804.215804
 21
474.574863
  0
LINE
  8
OBRYS
 10
729.244661
 20
531.055625
 11
729.244661
 21
506.717626
  0
LINE
  8
OBRYS
 10
777.186948
 20
531.055625
 11
777.186948
 21
506.717626
  0
POLYLINE
  8
0
 62
     2
 66
    1
  0
VERTEX
  8
0
 62
     2
 10
723.215820
 20
518.523254
  0
VERTEX
  8
0
 62
     2
 10
723.262695
 20
518.377686
  0
VERTEX
  8
0
 62
     2
 10
723.810791
 20
517.546021
  0
VERTEX
  8
0
 62
     2
 10
725.462891
 20
515.532288
  0
VERTEX
  8
0
 62
     2
 10
728.345459
 20
509.826782
  0
VERTEX
  8
0
 62
     2
 10
728.908752
 20
506.524872
  0
SEQEND
  8
0
  0
LINE
  8
0
 62
     2
 10
696.215804
 20
488.101142
 11
710.814642
 21
488.101142
  0
LINE
  8
0
 62
     2
 10
696.215804
 20
491.565244
 11
712.932675
 21
491.565244
  0
POLYLINE
  8
0
 62
     2
 66
    1
  0
VERTEX
  8
0
 62
     2
 10
783.215820
 20
518.523254
  0
VERTEX
  8
0
 62
     2
 10
783.168945
 20
518.377686
  0
VERTEX
  8
0
 62
     2
 10
782.620850
 20
517.546021
  0
VERTEX
  8
0
 62
     2
 10
780.968750
 20
515.532288
  0
VERTEX
  8
0
 62
     2
 10
778.086182
 20
509.826782
  0
VERTEX
  8
0
 62
     2
 10
777.522888
 20
506.524841
  0
SEQEND
  8
0
  0
LINE
  8
0
 62
     2
 10
804.215804
 20
488.101142
 11
795.616967
 21
488.101142
  0
LINE
  8
0
 62
     2
 10
804.215804
 20
491.565244
 11
793.498933
 21
491.565244
  0
LINE
  8
0
 62
     2
 10
696.215804
 20
475.110761
 11
705.878302
 21
475.110761
  0
LINE
  8
0
 62
     2
 10
804.215804
 20
475.110761
 11
800.553306
 21
475.110761
  0
INSERT
  8
OBRYS
  2
_9
 62
     7
 10
364.276967
 20
678.302921
  0
LINE
  8
OBRYS
 10
315.776967
 20
678.302921
 11
412.776967
 21
678.302921
  0
INSERT
  8
OBRYS
  2
_10
 62
     7
 10
364.276967
 20
286.184963
  0
INSERT
  8
OBRYS
  2
_11
 62
     7
 10
150.529671
 20
464.555625
  0
INSERT
  8
OBRYS
  2
_12
 62
     7
 10
141.529671
 20
464.555625
  0
ARC
  8
OBRYS
 10
198.593179
 20
414.555625
 40
2.000000
 50
61.044976
 51
90.000000
  0
LINE
  8
OBRYS
 10
198.593179
 20
416.555625
 11
174.529671
 21
416.555625
  0
ARC
  8
OBRYS
 10
200.529671
 20
418.055625
 40
2.000000
 50
180.000000
 51
270.000000
  0
LINE
  8
OBRYS
 10
198.529671
 20
418.055625
 11
198.529671
 21
464.555625
  0
LINE
  8
OBRYS
 10
200.529671
 20
416.055625
 11
204.529671
 21
416.055625
  0
ARC
  8
OBRYS
 10
204.529671
 20
418.055625
 40
2.000000
 50
270.000000
 51
360.000000
  0
LINE
  8
OBRYS
 10
206.529671
 20
464.555625
 11
206.529671
 21
418.055625
  0
ARC
  8
OBRYS
 10
204.529671
 20
511.055625
 40
2.000000
 50
0.000000
 51
90.000000
  0
LINE
  8
OBRYS
 10
206.529671
 20
464.555625
 11
206.529671
 21
511.055625
  0
LINE
  8
OSA
 10
174.529671
 20
410.305775
 11
174.529671
 21
536.207726
  0
ARC
  8
OBRYS
 10
180.529671
 20
414.555625
 40
1.000000
 50
270.000000
 51
360.000000
  0
LINE
  8
OBRYS
 10
180.529671
 20
413.555625
 11
168.529671
 21
413.555625
  0
ARC
  8
OBRYS
 10
168.529671
 20
414.555625
 40
1.000000
 50
180.000000
 51
270.000000
  0
LINE
  8
OBRYS
 10
181.529671
 20
416.555625
 11
181.529671
 21
414.555625
  0
LINE
  8
OBRYS
 10
167.529671
 20
416.555625
 11
167.529671
 21
414.555625
  0
LINE
  8
OBRYS
 10
165.529671
 20
419.689139
 11
165.529671
 21
416.555625
  0
LINE
  8
OBRYS
 10
165.529671
 20
416.555625
 11
174.529671
 21
416.555625
  0
LINE
  8
OBRYS
 10
183.529671
 20
419.689139
 11
183.529671
 21
416.555625
  0
ARC
  8
OBRYS
 10
168.026779
 20
464.555625
 40
6.502892
 50
270.000000
 51
90.000000
  0
LINE
  8
OSA
 10
145.437584
 20
464.555625
 11
218.925453
 21
464.555625
  0
LINE
  8
OBRYS
 10
150.529671
 20
416.555625
 11
168.529671
 21
416.555625
  0
LINE
  8
OBRYS
 10
150.529671
 20
421.555625
 11
196.488013
 21
422.513091
  0
ARC
  8
OBRYS
 10
196.529671
 20
420.513524
 40
2.000000
 50
0.000000
 51
91.193489
  0
LINE
  8
OBRYS
 10
150.529671
 20
416.555625
 11
168.529671
 21
416.555625
  0
LINE
  8
OBRYS
 10
150.529671
 20
458.052734
 11
167.551072
 21
458.052734
  0
LINE
  8
OBRYS
 10
150.529671
 20
471.058517
 11
167.551072
 21
471.058517
  0
LINE
  8
OBRYS
 10
215.029671
 20
439.555625
 11
215.029671
 21
489.555625
  0
LINE
  8
OBRYS
 10
215.529671
 20
489.055625
 11
215.529671
 21
440.055625
  0
LINE
  8
OBRYS
 10
215.029671
 20
439.555625
 11
213.029671
 21
439.555625
  0
LINE
  8
OBRYS
 10
215.029671
 20
439.555625
 11
215.529671
 21
440.055625
  0
LINE
  8
OBRYS
 10
215.029671
 20
489.555625
 11
213.029671
 21
489.555625
  0
LINE
  8
OBRYS
 10
215.029671
 20
489.555625
 11
215.529671
 21
489.055625
  0
ARC
  8
OBRYS
 10
208.529671
 20
420.184086
 40
2.000000
 50
158.952328
 51
180.000000
  0
LINE
  8
OBRYS
 10
207.529671
 20
425.752874
 11
206.663107
 21
420.902376
  0
LINE
  8
OBRYS
 10
207.529671
 20
503.358376
 11
206.663107
 21
508.208875
  0
ARC
  8
OBRYS
 10
208.529671
 20
508.927164
 40
2.000000
 50
180.000000
 51
201.047672
  0
LINE
  8
OBRYS
 10
213.029671
 20
495.613433
 11
213.029671
 21
489.555625
  0
LINE
  8
OBRYS
 10
213.029671
 20
495.613433
 11
206.529671
 21
498.232877
  0
LINE
  8
OBRYS
 10
213.029671
 20
487.816452
 11
206.529671
 21
494.350098
  0
LINE
  8
OBRYS
 10
207.529671
 20
497.829885
 11
207.529671
 21
503.358376
  0
LINE
  8
OBRYS
 10
207.529671
 20
470.068923
 11
207.529671
 21
476.174764
  0
LINE
  8
OBRYS
 10
206.529671
 20
467.726973
 11
207.529671
 21
470.068923
  0
LINE
  8
OBRYS
 10
206.529671
 20
461.384277
 11
207.529671
 21
459.042327
  0
LINE
  8
OBRYS
 10
207.529671
 20
459.042327
 11
207.529671
 21
452.936486
  0
LINE
  8
OBRYS
 10
207.529671
 20
459.042327
 11
207.529671
 21
470.068923
  0
LINE
  8
OBRYS
 10
207.529671
 20
431.281365
 11
207.529671
 21
425.752874
  0
LINE
  8
OBRYS
 10
213.029671
 20
441.294798
 11
206.529671
 21
434.761152
  0
LINE
  8
OBRYS
 10
213.029671
 20
433.497817
 11
206.529671
 21
430.878374
  0
LINE
  8
OBRYS
 10
213.029671
 20
433.497817
 11
213.029671
 21
439.555625
  0
ARC
  8
OBRYS
 10
208.529671
 20
420.184086
 40
2.000000
 50
158.952328
 51
180.000000
  0
LINE
  8
OBRYS
 10
213.029671
 20
489.555625
 11
213.029671
 21
439.555625
  0
LINE
  8
OBRYS
 10
201.029671
 20
517.546006
 11
201.029671
 21
491.565244
  0
ARC
  8
OBRYS
 10
197.029671
 20
491.565244
 40
4.000000
 50
300.000000
 51
360.000000
  0
LINE
  8
OBRYS
 10
199.029671
 20
488.101142
 11
176.529671
 21
475.110761
  0
ARC
  8
OBRYS
 10
174.529671
 20
478.574863
 40
4.000000
 50
240.000000
 51
300.000000
  0
LINE
  8
OBRYS
 10
172.529671
 20
475.110761
 11
150.029671
 21
488.101142
  0
ARC
  8
OBRYS
 10
152.029671
 20
491.565244
 40
4.000000
 50
180.000000
 51
240.000000
  0
LINE
  8
OBRYS
 10
148.029671
 20
517.546006
 11
148.029671
 21
491.565244
  0
ARC
  8
OBRYS
 10
197.029671
 20
517.546006
 40
4.000000
 50
0.000000
 51
60.000000
  0
LINE
  8
OBRYS
 10
199.029671
 20
521.010108
 11
176.529671
 21
534.000489
  0
ARC
  8
OBRYS
 10
174.529671
 20
530.536387
 40
4.000000
 50
60.000000
 51
120.000000
  0
ARC
  8
OSA
 62
     2
  6
CONTINUOUS
 10
152.029671
 20
517.546006
 40
4.000000
 50
120.000000
 51
180.000000
  0
LINE
  8
OSA
 62
     2
  6
CONTINUOUS
 10
172.529671
 20
534.000489
 11
150.029671
 21
521.010108
  0
CIRCLE
  8
OSA
 62
     2
  6
CONTINUOUS
 10
174.529671
 20
504.555625
 40
21.000000
  0
LINE
  8
OBRYS
 10
198.529671
 20
487.812467
 11
198.529671
 21
464.555625
  0
LINE
  8
OBRYS
 10
201.029671
 20
513.055625
 11
204.529671
 21
513.055625
  0
LINE
  8
OSA
 10
174.529671
 20
504.555625
 11
210.212171
 21
504.555625
  0
LINE
  8
OSA
 10
174.529671
 20
504.555625
 11
139.921520
 21
504.555625
  0
LINE
  8
OBRYS
 10
150.529671
 20
487.812467
 11
150.529671
 21
416.555625
  0
LINE
  8
OBRYS
 10
386.134460
 20
531.055625
 11
388.248110
 21
531.055625
  0
LINE
  8
OBRYS
 10
340.305824
 20
531.055625
 11
342.419474
 21
531.055625
  0
LINE
  8
OBRYS
 10
313.276967
 20
512.503513
 11
313.276967
 21
534.536387
  0
LINE
  8
0
 62
     2
 10
313.276967
 20
517.546006
 11
318.538367
 21
517.546006
  0
LINE
  8
0
 62
     2
 10
313.276967
 20
521.010108
 11
322.889875
 21
521.010108
  0
POLYLINE
  8
0
 62
     2
 66
    1
  0
VERTEX
  8
0
 62
     2
 10
334.276947
 20
534.478577
  0
VERTEX
  8
0
 62
     2
 10
334.405121
 20
534.340637
  0
VERTEX
  8
0
 62
     2
 10
334.863983
 20
534.000488
  0
VERTEX
  8
0
 62
     2
 10
337.733368
 20
532.003052
  0
VERTEX
  8
0
 62
     2
 10
339.344452
 20
529.964844
  0
SEQEND
  8
0
  0
POLYLINE
  8
0
 62
     2
 66
    1
  0
VERTEX
  8
0
 62
     2
 10
394.276947
 20
534.478577
  0
VERTEX
  8
0
 62
     2
 10
394.148773
 20
534.340637
  0
VERTEX
  8
0
 62
     2
 10
393.689911
 20
534.000488
  0
VERTEX
  8
0
 62
     2
 10
390.820526
 20
532.003052
  0
VERTEX
  8
0
 62
     2
 10
389.209442
 20
529.964905
  0
SEQEND
  8
0
  0
LINE
  8
0
 62
     2
 10
421.276967
 20
517.546006
 11
410.015567
 21
517.546006
  0
LINE
  8
0
 62
     2
 10
421.276967
 20
521.010108
 11
405.664059
 21
521.010108
  0
LINE
  8
OSA
 62
     2
  6
CONTINUOUS
 10
421.276967
 20
534.536387
 11
421.276967
 21
505.188124
  0
LINE
  8
OSA
 62
     2
  6
CONTINUOUS
 10
421.276967
 20
533.536387
 11
421.276967
 21
505.188124
  0
INSERT
  8
OBRYS
  2
_13
 62
     7
 10
364.276967
 20
464.555625
  0
LINE
  8
OSA
 10
364.276967
 20
464.555625
 11
364.276967
 21
534.302921
  0
LINE
  8
OSA
 10
364.276967
 20
504.555625
 11
313.276967
 21
504.555625
  0
LINE
  8
OSA
 10
364.276967
 20
504.555625
 11
421.276967
 21
504.555625
  0
LINE
  8
OBRYS
 10
394.276967
 20
534.536387
 11
388.248110
 21
531.055625
  0
LINE
  8
OBRYS
 10
334.276967
 20
534.536387
 11
340.305824
 21
531.055625
  0
LINE
  8
OBRYS
 10
421.276967
 20
534.536387
 11
394.276967
 21
534.536387
  0
LINE
  8
OBRYS
 10
334.276967
 20
534.536387
 11
313.276967
 21
534.536387
  0
LINE
  8
0
 62
     2
 10
394.276967
 20
534.514475
 11
394.276967
 21
534.478569
  0
LINE
  8
0
 62
     2
 10
394.239013
 20
534.514475
 11
394.276967
 21
534.514475
  0
LINE
  8
0
 62
     2
 10
394.276967
 20
534.514475
 11
394.276967
 21
534.478569
  0
LINE
  8
0
 62
     2
 10
388.248110
 20
531.055625
 11
394.239013
 21
534.514475
  0
LINE
  8
0
 62
     2
 10
421.276967
 20
534.000489
 11
393.689948
 21
534.000489
  0
LINE
  8
0
 62
     2
 10
313.276967
 20
534.000489
 11
334.863986
 21
534.000489
  0
ARC
  8
OBRYS
 10
360.276967
 20
644.055970
 40
2.000000
 50
0.000000
 51
68.676314
  0
LINE
  8
OBRYS
 10
362.276967
 20
644.055970
 11
362.276967
 21
632.302921
  0
ARC
  8
OBRYS
 10
368.276967
 20
644.055970
 40
2.000000
 50
111.323686
 51
180.000000
  0
LINE
  8
OBRYS
 10
366.276967
 20
644.055970
 11
366.276967
 21
632.302921
  0
ARC
  8
OBRYS
 10
368.276967
 20
632.302921
 40
2.000000
 50
180.000000
 51
270.000000
  0
ARC
  8
OBRYS
 10
360.276967
 20
632.302921
 40
2.000000
 50
270.000000
 51
360.000000
  0
LINE
  8
OSA
 10
364.276967
 20
683.395008
 11
364.276967
 21
609.907139
  0
ARC
  8
OBRYS
 10
322.276967
 20
660.302921
 40
6.000000
 50
180.000000
 51
255.522488
  0
LINE
  8
OBRYS
 10
316.276967
 20
678.302921
 11
316.276967
 21
660.302921
  0
ARC
  8
OBRYS
 10
319.810078
 20
652.692766
 40
2.000000
 50
1.193489
 51
72.039507
  0
ARC
  8
OBRYS
 10
322.276967
 20
660.302921
 40
6.000000
 50
180.000000
 51
252.039507
  0
ARC
  8
OBRYS
 10
320.234866
 20
632.302921
 40
2.000000
 50
270.000000
 51
1.193489
  0
LINE
  8
OBRYS
 10
321.276967
 20
678.302921
 11
322.234432
 21
632.344579
  0
LINE
  8
OBRYS
 10
316.276967
 20
678.302921
 11
316.276967
 21
660.302921
  0
LINE
  8
OBRYS
 10
412.276967
 20
678.302921
 11
412.276967
 21
660.302921
  0
LINE
  8
OBRYS
 10
407.276967
 20
678.302921
 11
406.319501
 21
632.344579
  0
ARC
  8
OBRYS
 10
408.319067
 20
632.302921
 40
2.000000
 50
178.806511
 51
270.000000
  0
ARC
  8
OBRYS
 10
406.276967
 20
660.302921
 40
6.000000
 50
287.960493
 51
360.000000
  0
ARC
  8
OBRYS
 10
408.743856
 20
652.692766
 40
2.000000
 50
107.960493
 51
178.806511
  0
LINE
  8
OBRYS
 10
321.818634
 20
652.302911
 11
313.276967
 21
652.302911
  0
LINE
  8
OBRYS
 10
313.276967
 20
627.802921
 11
313.276967
 21
680.802921
  0
LINE
  8
OBRYS
 10
421.276967
 20
652.302911
 11
406.276967
 21
652.302911
  0
LINE
  8
OBRYS
 10
317.804831
 20
656.302921
 11
313.276967
 21
656.302921
  0
LINE
  8
OBRYS
 10
421.276967
 20
656.302921
 11
410.749103
 21
656.302921
  0
LINE
  8
OBRYS
 10
421.276967
 20
627.802921
 11
421.276967
 21
680.802921
  0
LINE
  8
OBRYS
 10
412.276967
 20
678.302921
 11
412.276967
 21
660.302921
  0
LINE
  8
OBRYS
 10
370.779858
 20
678.302921
 11
370.779858
 21
661.281519
  0
LINE
  8
OBRYS
 10
357.774075
 20
678.302921
 11
357.774075
 21
661.281519
  0
INSERT
  8
KOTA
 66
     1
  2
Vnitrni_metricky_zavit_M1_14
 62
     7
 10
364.276967
 20
654.302921
  0
ATTRIB
  8
KOTA
 10
0.000000
 20
0.000000
 40
2.500000
  1
CSN 02 1034
  2
norma roz.
 70
     1
  0
ATTRIB
  8
KOTA
 10
0.000000
 20
0.000000
 40
2.500000
  1
1
  2
roztec
 70
     1
  0
ATTRIB
  8
KOTA
 10
0.000000
 20
0.000000
 40
2.500000
  1
*NB
  2
puvod
 70
     1
  0
ATTRIB
  8
KOTA
 10
0.000000
 20
0.000000
 40
2.500000
  1
02 1034
  2
tridici znak
 70
     1
  0
SEQEND
  8
KOTA
  0
CIRCLE
  8
OBRYS
 10
364.276967
 20
654.302921
 40
9.000000
  0
LINE
  8
OSA
 10
316.276967
 20
654.302921
 11
412.276967
 21
654.302921
  0
LINE
  8
OBRYS
 10
389.276967
 20
613.802921
 11
339.276967
 21
613.802921
  0
LINE
  8
OBRYS
 10
339.776967
 20
613.302921
 11
388.776967
 21
613.302921
  0
LINE
  8
OBRYS
 10
389.276967
 20
613.802921
 11
389.276967
 21
615.802921
  0
LINE
  8
OBRYS
 10
389.276967
 20
613.802921
 11
388.776967
 21
613.302921
  0
LINE
  8
OBRYS
 10
339.276967
 20
613.802921
 11
339.276967
 21
615.802921
  0
LINE
  8
OBRYS
 10
339.276967
 20
613.802921
 11
339.776967
 21
613.302921
  0
ARC
  8
OBRYS
 10
408.648506
 20
620.302921
 40
2.000000
 50
90.000000
 51
111.047672
  0
LINE
  8
OBRYS
 10
403.079718
 20
621.302921
 11
407.930216
 21
622.169485
  0
LINE
  8
OBRYS
 10
325.474216
 20
621.302921
 11
320.623717
 21
622.169485
  0
ARC
  8
OBRYS
 10
319.905428
 20
620.302921
 40
2.000000
 50
68.952328
 51
90.000000
  0
LINE
  8
OBRYS
 10
333.219159
 20
615.802921
 11
339.276967
 21
615.802921
  0
LINE
  8
OBRYS
 10
333.219159
 20
615.802921
 11
330.599715
 21
622.302921
  0
LINE
  8
OBRYS
 10
341.016140
 20
615.802921
 11
334.482494
 21
622.302921
  0
LINE
  8
OBRYS
 10
331.002707
 20
621.302921
 11
325.474216
 21
621.302921
  0
LINE
  8
OBRYS
 10
358.763668
 20
621.302921
 11
352.657828
 21
621.302921
  0
LINE
  8
OBRYS
 10
361.105619
 20
622.302921
 11
358.763668
 21
621.302921
  0
LINE
  8
OBRYS
 10
367.448315
 20
622.302921
 11
369.790265
 21
621.302921
  0
LINE
  8
OBRYS
 10
369.790265
 20
621.302921
 11
375.896106
 21
621.302921
  0
LINE
  8
OBRYS
 10
369.790265
 20
621.302921
 11
358.763668
 21
621.302921
  0
LINE
  8
OBRYS
 10
397.551227
 20
621.302921
 11
403.079718
 21
621.302921
  0
LINE
  8
OBRYS
 10
387.537794
 20
615.802921
 11
394.071440
 21
622.302921
  0
LINE
  8
OBRYS
 10
395.334775
 20
615.802921
 11
397.954218
 21
622.302921
  0
LINE
  8
OBRYS
 10
395.334775
 20
615.802921
 11
389.276967
 21
615.802921
  0
ARC
  8
OBRYS
 10
408.648506
 20
620.302921
 40
2.000000
 50
90.000000
 51
111.047672
  0
LINE
  8
OBRYS
 10
339.276967
 20
615.802921
 11
389.276967
 21
615.802921
  0
ARC
  8
OBRYS
 10
372.779858
 20
661.281519
 40
2.000000
 50
180.000000
 51
219.376835
  0
ARC
  8
OBRYS
 10
355.774075
 20
661.281519
 40
2.000000
 50
320.623165
 51
360.000000
  0
ARC
  8
OBRYS
 10
406.276967
 20
660.302921
 40
6.000000
 50
284.477512
 51
360.000000
  0
LINE
  8
OSA
 10
554.024263
 20
410.305775
 11
554.024263
 21
536.207726
  0
LINE
  8
OBRYS
 10
410.776967
 20
630.302921
 11
364.276967
 21
630.302921
  0
ARC
  8
OBRYS
 10
410.776967
 20
628.302921
 40
2.000000
 50
0.000000
 51
90.000000
  0
LINE
  8
OBRYS
 10
412.776967
 20
628.302921
 11
412.776967
 21
624.302921
  0
LINE
  8
OBRYS
 10
364.276967
 20
622.302921
 11
410.776967
 21
622.302921
  0
ARC
  8
OBRYS
 10
410.776967
 20
624.302921
 40
2.000000
 50
270.000000
 51
360.000000
  0
LINE
  8
OBRYS
 10
421.276967
 20
627.802921
 11
412.776967
 21
627.802921
  0
LINE
  8
OBRYS
 10
315.776967
 20
627.802921
 11
313.276967
 21
627.802921
  0
LINE
  8
OBRYS
 10
317.776967
 20
630.302921
 11
364.276967
 21
630.302921
  0
ARC
  8
OBRYS
 10
317.776967
 20
628.302921
 40
2.000000
 50
90.000000
 51
180.000000
  0
LINE
  8
OBRYS
 10
315.776967
 20
628.302921
 11
315.776967
 21
624.302921
  0
LINE
  8
OBRYS
 10
364.276967
 20
622.302921
 11
317.776967
 21
622.302921
  0
ARC
  8
OBRYS
 10
317.776967
 20
624.302921
 40
2.000000
 50
180.000000
 51
270.000000
  0
LINE
  8
OSA
 10
563.475101
 20
504.555625
 11
540.340568
 21
504.555625
  0
LINE
  8
OBRYS
 10
421.276967
 20
680.802921
 11
412.776967
 21
680.802921
  0
LINE
  8
OBRYS
 10
315.776967
 20
680.802921
 11
313.276967
 21
680.802921
  0
ARC
  8
OBRYS
 10
317.776967
 20
340.184963
 40
2.000000
 50
90.000000
 51
180.000000
  0
LINE
  8
OBRYS
 10
364.276967
 20
342.184963
 11
317.776967
 21
342.184963
  0
ARC
  8
OBRYS
 10
410.776967
 20
340.184963
 40
2.000000
 50
0.000000
 51
90.000000
  0
LINE
  8
OBRYS
 10
364.276967
 20
342.184963
 11
410.776967
 21
342.184963
  0
LINE
  8
OBRYS
 10
339.276967
 20
348.684963
 11
389.276967
 21
348.684963
  0
ARC
  8
OBRYS
 10
408.648506
 20
344.184963
 40
2.000000
 50
248.952328
 51
270.000000
  0
LINE
  8
OBRYS
 10
395.334775
 20
348.684963
 11
389.276967
 21
348.684963
  0
LINE
  8
OBRYS
 10
395.334775
 20
348.684963
 11
397.954218
 21
342.184963
  0
LINE
  8
OBRYS
 10
387.537794
 20
348.684963
 11
394.071440
 21
342.184963
  0
LINE
  8
OBRYS
 10
397.551227
 20
343.184963
 11
403.079718
 21
343.184963
  0
LINE
  8
OBRYS
 10
369.790265
 20
343.184963
 11
358.763668
 21
343.184963
  0
LINE
  8
OBRYS
 10
369.790265
 20
343.184963
 11
375.896106
 21
343.184963
  0
LINE
  8
OBRYS
 10
367.448315
 20
342.184963
 11
369.790265
 21
343.184963
  0
LINE
  8
OBRYS
 10
361.105619
 20
342.184963
 11
358.763668
 21
343.184963
  0
LINE
  8
OBRYS
 10
358.763668
 20
343.184963
 11
352.657828
 21
343.184963
  0
LINE
  8
OBRYS
 10
331.002707
 20
343.184963
 11
325.474216
 21
343.184963
  0
LINE
  8
OBRYS
 10
341.016140
 20
348.684963
 11
334.482494
 21
342.184963
  0
LINE
  8
OBRYS
 10
333.219159
 20
348.684963
 11
330.599715
 21
342.184963
  0
LINE
  8
OBRYS
 10
333.219159
 20
348.684963
 11
339.276967
 21
348.684963
  0
ARC
  8
OBRYS
 10
319.905428
 20
344.184963
 40
2.000000
 50
270.000000
 51
291.047672
  0
LINE
  8
OBRYS
 10
325.474216
 20
343.184963
 11
320.623717
 21
342.318399
  0
LINE
  8
OBRYS
 10
403.079718
 20
343.184963
 11
407.930216
 21
342.318399
  0
ARC
  8
OBRYS
 10
408.648506
 20
344.184963
 40
2.000000
 50
248.952328
 51
270.000000
  0
LINE
  8
OBRYS
 10
339.276967
 20
350.684963
 11
339.776967
 21
351.184963
  0
LINE
  8
OBRYS
 10
339.276967
 20
350.684963
 11
339.276967
 21
348.684963
  0
LINE
  8
OBRYS
 10
389.276967
 20
350.684963
 11
388.776967
 21
351.184963
  0
LINE
  8
OBRYS
 10
389.276967
 20
350.684963
 11
389.276967
 21
348.684963
  0
LINE
  8
OBRYS
 10
339.776967
 20
351.184963
 11
388.776967
 21
351.184963
  0
LINE
  8
OBRYS
 10
389.276967
 20
350.684963
 11
339.276967
 21
350.684963
  0
LINE
  8
OSA
 10
316.276967
 20
310.184963
 11
412.276967
 21
310.184963
  0
LINE
  8
OBRYS
 10
421.276967
 20
336.684963
 11
421.276967
 21
283.684963
  0
LINE
  8
OSA
 10
364.276967
 20
281.092877
 11
364.276967
 21
354.580745
  0
LINE
  8
0
 62
     2
 10
334.871950
 20
283.684963
 11
313.276967
 21
283.684963
  0
LINE
  8
0
 62
     2
 10
335.075872
 20
285.684963
 11
313.276967
 21
285.684963
  0
LINE
  8
0
 62
     2
 10
313.276967
 20
285.684963
 11
313.276967
 21
308.184963
  0
LINE
  8
0
 62
     2
 10
334.863986
 20
308.184963
 11
313.276967
 21
308.184963
  0
LINE
  8
0
 62
     2
 10
334.863986
 20
312.184963
 11
313.276967
 21
312.184963
  0
LINE
  8
0
 62
     2
 10
313.276967
 20
312.184963
 11
313.276967
 21
334.684963
  0
LINE
  8
0
 62
     2
 10
335.075872
 20
334.684963
 11
313.276967
 21
334.684963
  0
LINE
  8
0
 62
     2
 10
313.276967
 20
336.684963
 11
334.871950
 21
336.684963
  0
LINE
  8
0
 62
     2
 10
340.305824
 20
336.684963
 11
388.248110
 21
336.684963
  0
LINE
  8
0
 62
     2
 10
313.276967
 20
283.684963
 11
313.276967
 21
285.684963
  0
LINE
  8
0
 62
     2
 10
313.276967
 20
308.184963
 11
313.276967
 21
312.184963
  0
LINE
  8
0
 62
     2
 10
313.276967
 20
334.684963
 11
313.276967
 21
336.684963
  0
LINE
  8
0
 62
     2
 10
340.305824
 20
284.221484
 11
340.305824
 21
336.684963
  0
POLYLINE
  8
0
 62
     2
 66
    1
  0
VERTEX
  8
0
 62
     2
 10
389.192505
 20
283.684967
  0
VERTEX
  8
0
 62
     2
 10
388.248108
 20
284.221497
  0
VERTEX
  8
0
 62
     2
 10
383.763916
 20
284.763153
  0
VERTEX
  8
0
 62
     2
 10
374.079163
 20
285.440613
  0
VERTEX
  8
0
 62
     2
 10
364.276978
 20
285.665314
  0
VERTEX
  8
0
 62
     2
 10
354.474792
 20
285.440613
  0
VERTEX
  8
0
 62
     2
 10
344.790039
 20
284.763153
  0
VERTEX
  8
0
 62
     2
 10
340.305817
 20
284.221497
  0
VERTEX
  8
0
 62
     2
 10
339.361420
 20
283.684967
  0
SEQEND
  8
0
  0
POLYLINE
  8
0
 62
     2
 66
    1
  0
VERTEX
  8
0
 62
     2
 10
388.248108
 20
336.684967
  0
VERTEX
  8
0
 62
     2
 10
389.147339
 20
336.684967
  0
VERTEX
  8
0
 62
     2
 10
392.029846
 20
336.684967
  0
VERTEX
  8
0
 62
     2
 10
393.681976
 20
336.684967
  0
VERTEX
  8
0
 62
     2
 10
394.230133
 20
336.597565
  0
VERTEX
  8
0
 62
     2
 10
394.485992
 20
336.339172
  0
VERTEX
  8
0
 62
     2
 10
394.438354
 20
335.921051
  0
VERTEX
  8
0
 62
     2
 10
394.089355
 20
335.361511
  0
VERTEX
  8
0
 62
     2
 10
393.510803
 20
334.745270
  0
VERTEX
  8
0
 62
     2
 10
393.478058
 20
334.684967
  0
VERTEX
  8
0
 62
     2
 10
389.867249
 20
329.584320
  0
VERTEX
  8
0
 62
     2
 10
388.346588
 20
324.939178
  0
VERTEX
  8
0
 62
     2
 10
388.644165
 20
320.413605
  0
VERTEX
  8
0
 62
     2
 10
390.820496
 20
315.644623
  0
VERTEX
  8
0
 62
     2
 10
393.689941
 20
312.184967
  0
VERTEX
  8
0
 62
     2
 10
394.148743
 20
311.421051
  0
VERTEX
  8
0
 62
     2
 10
394.310333
 20
310.603088
  0
VERTEX
  8
0
 62
     2
 10
394.239014
 20
310.184967
  0
VERTEX
  8
0
 62
     2
 10
394.310333
 20
309.766876
  0
VERTEX
  8
0
 62
     2
 10
394.148743
 20
308.948914
  0
VERTEX
  8
0
 62
     2
 10
393.689941
 20
308.184967
  0
VERTEX
  8
0
 62
     2
 10
390.820496
 20
304.725342
  0
VERTEX
  8
0
 62
     2
 10
388.644165
 20
299.956360
  0
VERTEX
  8
0
 62
     2
 10
388.346588
 20
295.430786
  0
VERTEX
  8
0
 62
     2
 10
389.867249
 20
290.785645
  0
VERTEX
  8
0
 62
     2
 10
393.478058
 20
285.684967
  0
VERTEX
  8
0
 62
     2
 10
393.510803
 20
285.624664
  0
VERTEX
  8
0
 62
     2
 10
394.089355
 20
285.008453
  0
VERTEX
  8
0
 62
     2
 10
394.438354
 20
284.448914
  0
VERTEX
  8
0
 62
     2
 10
394.485992
 20
284.030792
  0
VERTEX
  8
0
 62
     2
 10
394.230133
 20
283.772400
  0
VERTEX
  8
0
 62
     2
 10
393.681976
 20
283.684967
  0
VERTEX
  8
0
 62
     2
 10
392.029846
 20
283.684967
  0
VERTEX
  8
0
 62
     2
 10
389.192505
 20
283.684967
  0
SEQEND
  8
0
  0
LINE
  8
0
 62
     2
 10
388.248110
 20
284.221484
 11
388.248110
 21
336.684963
  0
POLYLINE
  8
0
 62
     2
 66
    1
  0
VERTEX
  8
0
 62
     2
 10
340.305817
 20
336.684967
  0
VERTEX
  8
0
 62
     2
 10
339.406616
 20
336.684967
  0
VERTEX
  8
0
 62
     2
 10
336.524078
 20
336.684967
  0
VERTEX
  8
0
 62
     2
 10
334.871948
 20
336.684967
  0
VERTEX
  8
0
 62
     2
 10
334.323792
 20
336.597565
  0
VERTEX
  8
0
 62
     2
 10
334.067963
 20
336.339172
  0
VERTEX
  8
0
 62
     2
 10
334.115570
 20
335.921051
  0
VERTEX
  8
0
 62
     2
 10
334.464569
 20
335.361511
  0
VERTEX
  8
0
 62
     2
 10
335.043121
 20
334.745270
  0
VERTEX
  8
0
 62
     2
 10
335.075867
 20
334.684967
  0
VERTEX
  8
0
 62
     2
 10
338.686676
 20
329.584320
  0
VERTEX
  8
0
 62
     2
 10
340.207336
 20
324.939178
  0
VERTEX
  8
0
 62
     2
 10
339.909760
 20
320.413605
  0
VERTEX
  8
0
 62
     2
 10
337.733429
 20
315.644623
  0
VERTEX
  8
0
 62
     2
 10
334.863983
 20
312.184967
  0
VERTEX
  8
0
 62
     2
 10
334.405182
 20
311.421051
  0
VERTEX
  8
0
 62
     2
 10
334.243591
 20
310.603088
  0
VERTEX
  8
0
 62
     2
 10
334.314911
 20
310.184967
  0
VERTEX
  8
0
 62
     2
 10
334.243591
 20
309.766876
  0
VERTEX
  8
0
 62
     2
 10
334.405182
 20
308.948914
  0
VERTEX
  8
0
 62
     2
 10
334.863983
 20
308.184967
  0
VERTEX
  8
0
 62
     2
 10
337.733429
 20
304.725342
  0
VERTEX
  8
0
 62
     2
 10
339.909760
 20
299.956360
  0
VERTEX
  8
0
 62
     2
 10
340.207336
 20
295.430786
  0
VERTEX
  8
0
 62
     2
 10
338.686676
 20
290.785645
  0
VERTEX
  8
0
 62
     2
 10
335.075867
 20
285.684967
  0
VERTEX
  8
0
 62
     2
 10
335.043121
 20
285.624664
  0
VERTEX
  8
0
 62
     2
 10
334.464569
 20
285.008453
  0
VERTEX
  8
0
 62
     2
 10
334.115570
 20
284.448914
  0
VERTEX
  8
0
 62
     2
 10
334.067963
 20
284.030792
  0
VERTEX
  8
0
 62
     2
 10
334.323792
 20
283.772400
  0
VERTEX
  8
0
 62
     2
 10
334.871948
 20
283.684967
  0
VERTEX
  8
0
 62
     2
 10
336.524078
 20
283.684967
  0
VERTEX
  8
0
 62
     2
 10
339.361420
 20
283.684967
  0
SEQEND
  8
0
  0
LINE
  8
OSA
 10
422.776963
 20
310.184963
 11
305.776970
 21
310.184963
  0
LINE
  8
0
 62
     2
 10
421.276967
 20
336.684963
 11
393.681983
 21
336.684963
  0
LINE
  8
0
 62
     2
 10
393.478062
 20
334.684963
 11
421.276967
 21
334.684963
  0
LINE
  8
0
 62
     2
 10
393.689948
 20
312.184963
 11
421.276967
 21
312.184963
  0
LINE
  8
0
 62
     2
 10
393.689948
 20
308.184963
 11
421.276967
 21
308.184963
  0
LINE
  8
0
 62
     2
 10
393.478062
 20
285.684963
 11
421.276967
 21
285.684963
  0
LINE
  8
0
 62
     2
 10
393.681983
 20
283.684963
 11
421.276967
 21
283.684963
  0
LINE
  8
OBRYS
 10
412.776967
 20
336.684963
 11
412.776967
 21
340.184963
  0
LINE
  8
OBRYS
 10
315.776967
 20
336.684963
 11
315.776967
 21
340.184963
  0
ENDSEC
  0
EOF

