  0
SECTION
  2
HEADER
  9
$ACADVER
  1
AC1009
  9
$INSBASE
 10
0.0
 20
0.0
 30
0.0
  9
$LIMMIN
 10
0.0
 20
0.0
  9
$LIMMAX
 10
430.0000
 20
307.0000
  9
$EXTMIN
 10
99999999999999998000000000000000000000.0000
 20
99999999999999998000000000000000000000.0000
  9
$EXTMAX
 10
99999999999999998000000000000000000000.0000
 20
99999999999999998000000000000000000000.0000
  9
$VIEWCTR
 10
449.7469
 20
533.1619
  9
$VIEWSIZE
 40
694.3248
  9
$DIMLFAC
 40
0.6667
  9
$MEASUREMENT
 70
     1
  9
$DWGCODEPAGE
 3
ANSI_1250
  9
$CLAYER
  8
OBRYS
  9
$CELTYPE
  6
BYLAYER
  9
$CECOLOR
 62
  256
  9
$ORTHOMODE
 70
     0
  9
$REGENMODE
 70
     1
  9
$FILLMODE
 70
     1
  9
$QTEXTMODE
 70
     0
  9
$MIRRTEXT
 70
     1
  9
$DRAGMODE
 70
     2
  9
$LTSCALE
 40
1.0
  9
$OSMODE
 70
    37
  9
$ATTMODE
 70
     1
  9
$TEXTSIZE
 40
2.5
  9
$TRACEWID
 40
1.0
  9
$TEXTSTYLE
  7
STANDARD
  9
$CLAYER
  8
0
  9
$CELTYPE
  6
BYLAYER
  9
$CECOLOR
 62
   256
  9
$DIMSCALE
 40
1.0
  9
$DIMASZ
 40
2.5
  9
$DIMEXO
 40
0.625
  9
$DIMDLI
 40
3.75
  9
$DIMRND
 40
0.0
  9
$DIMDLE
 40
0.0
  9
$DIMEXE
 40
1.25
  9
$DIMTP
 40
0.0
  9
$DIMTM
 40
0.0
  9
$DIMTXT
 40
2.5
  9
$DIMCEN
 40
2.5
  9
$DIMTSZ
 40
0.0
  9
$DIMTOL
 70
     0
  9
$DIMLIM
 70
     0
  9
$DIMTIH
 70
     0
  9
$DIMTOH
 70
     0
  9
$DIMSE1
 70
     0
  9
$DIMSE2
 70
     0
  9
$DIMTAD
 70
     1
  9
$DIMZIN
 70
     8
  9
$DIMBLK
  1

  9
$DIMASO
 70
     1
  9
$DIMSHO
 70
     1
  9
$DIMPOST
  1

  9
$DIMAPOST
  1

  9
$DIMALT
 70
     0
  9
$DIMALTD
 70
     3
  9
$DIMALTF
 40
0.03937007874016
  9
$DIMTOFL
 70
     1
  9
$DIMTVP
 40
0.0
  9
$DIMTIX
 70
     0
  9
$DIMSOXD
 70
     0
  9
$DIMSAH
 70
     0
  9
$DIMBLK1
  1

  9
$DIMBLK2
  1

  9
$DIMSTYLE
  2
ISO-25
  9
$DIMCLRD
 70
     0
  9
$DIMCLRE
 70
     0
  9
$DIMCLRT
 70
     0
  9
$DIMTFAC
 40
1.0
  9
$DIMGAP
 40
0.625
  9
$LUNITS
 70
     2
  9
$LUPREC
 70
     4
  9
$SKETCHINC
 40
1.0
  9
$FILLETRAD
 40
10.0
  9
$AUNITS
 70
     0
  9
$AUPREC
 70
     0
  9
$MENU
  1
.
  9
$ELEVATION
 40
0.0
  9
$PELEVATION
 40
0.0
  9
$THICKNESS
 40
0.0
  9
$LIMCHECK
 70
     0
  9
$BLIPMODE
 70
     0
  9
$CHAMFERA
 40
10.0
  9
$CHAMFERB
 40
10.0
  9
$SKPOLY
 70
     0
  9
$TDCREATE
 40
2451579.5163292708
  9
$TDUPDATE
 40
2451579.6904035881
  9
$TDINDWG
 40
0.0082924769
  9
$TDUSRTIMER
 40
0.0082825116
  9
$USRTIMER
 70
     1
  9
$ANGBASE
 50
0.0
  9
$ANGDIR
 70
     0
  9
$PDMODE
 70
     0
  9
$PDSIZE
 40
0.0
  9
$PLINEWID
 40
0.0
  9
$COORDS
 70
     1
  9
$SPLFRAME
 70
     0
  9
$SPLINETYPE
 70
     6
  9
$SPLINESEGS
 70
     8
  9
$ATTDIA
 70
     0
  9
$ATTREQ
 70
     1
  9
$SURFTAB1
 70
     6
  9
$SURFTAB2
 70
     6
  9
$SURFTYPE
 70
     6
  9
$SURFU
 70
     6
  9
$SURFV
 70
     6
  9
$UCSNAME
  2

  9
$UCSORG
 10
0.0
 20
0.0
 30
0.0
  9
$UCSXDIR
 10
1.0
 20
0.0
 30
0.0
  9
$UCSYDIR
 10
0.0
 20
1.0
 30
0.0
  9
$PUCSNAME
  2

  9
$PUCSORG
 10
0.0
 20
0.0
 30
0.0
  9
$PUCSXDIR
 10
1.0
 20
0.0
 30
0.0
  9
$PUCSYDIR
 10
0.0
 20
1.0
 30
0.0
  9
$USERI1
 70
     0
  9
$USERI2
 70
     0
  9
$USERI3
 70
     0
  9
$USERI4
 70
     0
  9
$USERI5
 70
     0
  9
$USERR1
 40
0.0
  9
$USERR2
 40
0.0
  9
$USERR3
 40
0.0
  9
$USERR4
 40
0.0
  9
$USERR5
 40
0.0
  9
$WORLDVIEW
 70
     1
  9
$SHADEDGE
 70
     3
  9
$SHADEDIF
 70
    70
  9
$TILEMODE
 70
     1
  9
$MAXACTVP
 70
    64
  9
$PLIMCHECK
 70
     0
  9
$PEXTMIN
 10
1.0000000000000000E+020
 20
1.0000000000000000E+020
 30
1.0000000000000000E+020
  9
$PEXTMAX
 10
-1.0000000000000000E+020
 20
-1.0000000000000000E+020
 30
-1.0000000000000000E+020
  9
$PLIMMIN
 10
0.0
 20
0.0
  9
$PLIMMAX
 10
420.0
 20
297.0
  9
$UNITMODE
 70
     0
  9
$VISRETAIN
 70
     1
  9
$PLINEGEN
 70
     0
  9
$PSLTSCALE
 70
     1
  0
ENDSEC
  0
SECTION
  2
TABLES
  0
TABLE
  2
VPORT
 70
     2
  0
VPORT
  2
*ACTIVE
 70
     0
 10
0.0
 20
0.0
 11
1.0
 21
1.0
 12
449.7469
 22
533.1619
 13
0.0
 23
0.0
 14
10.0
 24
10.0
 15
10.0
 25
10.0
 16
0.0
 26
0.0
 36
1.0
 17
0.0
 27
0.0
 37
0.0
 40
694.3248
 41
1.6916
 42
50.0
 43
0.0
 44
0.0
 50
0.0
 51
0.0
 71
     0
 72
   100
 73
     1
 74
     3
 75
     0
 76
     0
 77
     0
 78
     0
  0
ENDTAB
  0
TABLE
  2
LTYPE
 70
     7
  0
LTYPE
  2
CONTINUOUS
 70
     0
  3
Solid line
 72
    65
 73
     0
 40
0.0
  0
LTYPE
  2
HIDDEN2
 70
     0
  3
Hidden (.5x) _ _ _ _ _ _ _ _ _ _ _ _ _ _ _ _ _
 72
    65
 73
     2
 40
5.1
 49
3.5
 49
-1.6
  0
LTYPE
  2
DASHDOT
 70
     0
  3
Dash dot __ . __ . __ . __ . __ . __ . __ . __
 72
    65
 73
     4
 40
10.4
 49
6.2
 49
-2.1
 49
0.0
 49
-2.1
  0
LTYPE
  2
DOT
 70
     0
  3
Dot . . . . . . . . . . . . . . . . . . . . . .
 72
    65
 73
     2
 40
2.2
 49
1.1
 49
-1.1
  0
LTYPE
  2
DASHED
 70
     0
  3
Dashed __ __ __ __ __ __ __ __ __ __ __ __ __ _
 72
    65
 73
     2
 40
11.049999999999979
 49
8.699999999999999
 49
-2.3499999999999979
  0
LTYPE
  2
PHANTOM2
 70
     0
  3
Phantom (.5x) ___ _ _ ___ _ _ ___ _ _ ___ _ _
 72
    65
 73
     6
 40
18.3
 49
7.8
 49
-2.1
 49
2.1
 49
-2.1
 49
2.1
 49
-2.1
  0
LTYPE
  2
CENTER
 70
     0
  3
Center ____ _ ____ _ ____ _ ____ _ ____ _ ____
 72
    65
 73
     4
 40
14.1
 49
7.8
 49
-2.1
 49
2.1
 49
-2.1
  0
ENDTAB
  0
TABLE
  2
LAYER
 70
     7
  0
LAYER
  2
0
 70
    64
 62
     7
  6
CONTINUOUS
  0
LAYER
  2
OBRYS
 70
    64
 62
     2
  6
CONTINUOUS
  0
LAYER
  2
OSA
 70
    64
 62
     7
  6
DASHDOT
  0
LAYER
  2
KOTA
 70
    64
 62
     3
  6
CONTINUOUS
  0
LAYER
  2
SRAFY
 70
    64
 62
     7
  6
CONTINUOUS
  0
LAYER
  2
POMOC
 70
    64
 62
     1
  6
DOT
  0
LAYER
  2
NEVIDITELNA
 70
    64
 62
     4
  6
HIDDEN2
  0
ENDTAB
  0
TABLE
  2
STYLE
 70
     1
  0
STYLE
  2
STANDARD
 70
     0
 40
0.0
 41
1.0
 50
0.0
 71
     0
 42
2.5
  3
txt
  4

  0
ENDTAB
  0
TABLE
  2
VIEW
 70
     0
  0
ENDTAB
  0
TABLE
  2
UCS
 70
     0
  0
ENDTAB
  0
TABLE
  2
APPID
 70
     1
  0
APPID
  2
ACAD
 70
     0
  0
ENDTAB
  0
TABLE
  2
DIMSTYLE
 70
     1
  0
DIMSTYLE
  2
ISO-25
 70
     0
  3

  4

  5

  6

  7

 40
1.0
 41
2.5
 42
0.625
 43
3.75
 44
1.25
 45
0.0
 46
0.0
 47
0.0
 48
0.0
140
2.5
141
2.5
142
0.0
143
0.03937007874016
144
1.0
145
0.0
146
1.0
147
0.625
 71
     0
 72
     0
 73
     0
 74
     0
 75
     0
 76
     0
 77
     1
 78
     8
170
     0
171
     3
172
     1
173
     0
174
     0
175
     0
176
     0
177
     0
178
     0
  0
ENDTAB
  0
ENDSEC
  0
SECTION
  2
BLOCKS
  0
BLOCK
  8
0
  2
$MODEL_SPACE
 70
     0
 10
0.0
 20
0.0
 30
0.0
  3
$MODEL_SPACE
  1

  0
ENDBLK
  8
0
  0
BLOCK
 67
     1
  8
0
  2
$PAPER_SPACE
 70
     0
 10
0.0
 20
0.0
 30
0.0
  3
$PAPER_SPACE
  1

  0
ENDBLK
 67
     1
  8
0
  0
BLOCK
  8
OSA
  2
_0
 70
   64
 10
554.024263
 20
504.555625
  0
CIRCLE
  8
OBRYS
 10
554.024263
 20
468.555625
 40
10.000000
  0
ARC
  8
OBRYS
 10
554.024263
 20
468.555625
 40
4.500000
 50
109.471221
 51
70.528779
  0
LINE
  8
OBRYS
 10
552.524263
 20
472.798266
 11
552.524263
 21
474.355625
  0
LINE
  8
OBRYS
 10
552.524263
 20
474.355625
 11
555.524263
 21
474.355625
  0
LINE
  8
OBRYS
 10
555.524263
 20
474.355625
 11
555.524263
 21
472.798266
  0
LINE
  8
OSA
 10
554.024263
 20
468.555625
 11
560.190929
 21
468.555625
  0
LINE
  8
OSA
 10
554.024263
 20
468.555625
 11
547.857596
 21
468.555625
  0
LINE
  8
OSA
 10
554.024263
 20
468.555625
 11
554.024263
 21
474.722292
  0
LINE
  8
OSA
 10
554.024263
 20
468.555625
 11
554.024263
 21
462.388958
  0
INSERT
  8
OSA
  2
Srouby_s_valcovou_hlavou___1
  6
CONTINUOUS
 10
554.024263
 20
440.555625
  0
INSERT
  8
OSA
  2
Srouby_s_valcovou_hlavou___2
  6
CONTINUOUS
 10
527.507758
 20
478.039121
  0
INSERT
  8
OSA
  2
Srouby_s_valcovou_hlavou___3
  6
CONTINUOUS
 10
580.540767
 20
478.039121
  0
LINE
  8
OSA
 10
527.507758
 20
478.039121
 11
534.117131
 21
478.039121
  0
LINE
  8
OSA
 10
527.507758
 20
478.039121
 11
520.898385
 21
478.039121
  0
LINE
  8
OSA
 10
527.507758
 20
478.039121
 11
527.507758
 21
484.648494
  0
LINE
  8
OSA
 10
527.507758
 20
478.039121
 11
527.507758
 21
471.429748
  0
LINE
  8
OSA
 10
580.540767
 20
478.039121
 11
587.150140
 21
478.039121
  0
LINE
  8
OSA
 10
580.540767
 20
478.039121
 11
573.931394
 21
478.039121
  0
LINE
  8
OSA
 10
580.540767
 20
478.039121
 11
580.540767
 21
484.648494
  0
LINE
  8
OSA
 10
580.540767
 20
478.039121
 11
580.540767
 21
471.429748
  0
LINE
  8
OSA
 10
527.507758
 20
531.072129
 11
534.117131
 21
531.072129
  0
LINE
  8
OSA
 10
527.507758
 20
531.072129
 11
520.898385
 21
531.072129
  0
LINE
  8
OSA
 10
527.507758
 20
531.072129
 11
527.507758
 21
537.681502
  0
LINE
  8
OSA
 10
527.507758
 20
531.072129
 11
527.507758
 21
524.462756
  0
LINE
  8
OSA
 10
580.540767
 20
531.072129
 11
580.540767
 21
524.462756
  0
LINE
  8
OSA
 10
580.540767
 20
531.072129
 11
580.540767
 21
537.681502
  0
LINE
  8
OSA
 10
580.540767
 20
531.072129
 11
573.931394
 21
531.072129
  0
LINE
  8
OSA
 10
580.540767
 20
531.072129
 11
587.150140
 21
531.072129
  0
INSERT
  8
OSA
  2
Srouby_s_valcovou_hlavou___4
  6
CONTINUOUS
 10
527.507758
 20
531.072129
  0
INSERT
  8
OSA
  2
Srouby_s_valcovou_hlavou___5
  6
CONTINUOUS
 10
580.540767
 20
531.072129
  0
LINE
  8
0
 62
     2
 10
517.543501
 20
516.191263
 11
517.543501
 21
519.555625
  0
LINE
  8
0
 62
     2
 10
590.505025
 20
516.191263
 11
590.505025
 21
519.555625
  0
ARC
  8
OBRYS
 10
554.024263
 20
468.555625
 40
55.000000
 50
90.000000
 51
270.000000
  0
ARC
  8
OBRYS
 10
529.303001
 20
429.763110
 40
2.000000
 50
57.491906
 51
145.000000
  0
LINE
  8
OBRYS
 10
527.664697
 20
430.910263
 11
523.646364
 21
425.171489
  0
ARC
  8
OBRYS
 10
525.284668
 20
424.024336
 40
2.000000
 50
145.000000
 51
237.162618
  0
ARC
  8
OBRYS
 10
554.024263
 20
468.555625
 40
44.000000
 50
90.000000
 51
270.000000
  0
ARC
  8
OBRYS
 10
509.492974
 20
439.816030
 40
2.000000
 50
212.837382
 51
305.000000
  0
LINE
  8
OBRYS
 10
516.378901
 20
442.196059
 11
510.640127
 21
438.177726
  0
ARC
  8
OBRYS
 10
515.231748
 20
443.834363
 40
2.000000
 50
305.000000
 51
32.508094
  0
LINE
  8
OBRYS
 10
494.863465
 20
458.555625
 11
499.793531
 21
459.388958
  0
LINE
  8
OBRYS
 10
494.863465
 20
478.555625
 11
499.793531
 21
477.722292
  0
ARC
  8
OBRYS
 10
515.231748
 20
493.276887
 40
2.000000
 50
327.491906
 51
55.000000
  0
LINE
  8
OBRYS
 10
516.378901
 20
494.915191
 11
510.640127
 21
498.933524
  0
ARC
  8
OBRYS
 10
509.492974
 20
497.295220
 40
2.000000
 50
55.000000
 51
147.162618
  0
ARC
  8
OBRYS
 10
525.284668
 20
513.086914
 40
2.000000
 50
122.837382
 51
215.000000
  0
LINE
  8
OBRYS
 10
527.664697
 20
506.200987
 11
523.646364
 21
511.939761
  0
ARC
  8
OBRYS
 10
529.303001
 20
507.348140
 40
2.000000
 50
215.000000
 51
302.508094
  0
ARC
  8
OBRYS
 10
578.745525
 20
507.348140
 40
2.000000
 50
237.491906
 51
325.000000
  0
LINE
  8
OBRYS
 10
580.383829
 20
506.200987
 11
584.402162
 21
511.939761
  0
ARC
  8
OBRYS
 10
582.763858
 20
513.086914
 40
2.000000
 50
325.000000
 51
57.162618
  0
ARC
  8
OBRYS
 10
598.555552
 20
497.295220
 40
2.000000
 50
32.837382
 51
125.000000
  0
LINE
  8
OBRYS
 10
591.669625
 20
494.915191
 11
597.408399
 21
498.933524
  0
ARC
  8
OBRYS
 10
592.816778
 20
493.276887
 40
2.000000
 50
125.000000
 51
212.508094
  0
LINE
  8
OBRYS
 10
613.185061
 20
478.555625
 11
608.254994
 21
477.722292
  0
LINE
  8
OBRYS
 10
613.185061
 20
458.555625
 11
608.254994
 21
459.388958
  0
ARC
  8
OBRYS
 10
592.816778
 20
443.834363
 40
2.000000
 50
147.491906
 51
235.000000
  0
LINE
  8
OBRYS
 10
591.669625
 20
442.196059
 11
597.408399
 21
438.177726
  0
ARC
  8
OBRYS
 10
598.555552
 20
439.816030
 40
2.000000
 50
235.000000
 51
327.162618
  0
ARC
  8
OBRYS
 10
554.024263
 20
468.555625
 40
44.000000
 50
270.000000
 51
90.000000
  0
ARC
  8
OBRYS
 10
582.763858
 20
424.024336
 40
2.000000
 50
302.837382
 51
35.000000
  0
LINE
  8
OBRYS
 10
580.383829
 20
430.910263
 11
584.402162
 21
425.171489
  0
ARC
  8
OBRYS
 10
578.745525
 20
429.763110
 40
2.000000
 50
35.000000
 51
122.508094
  0
ARC
  8
OBRYS
 10
554.024263
 20
468.555625
 40
55.000000
 50
270.000000
 51
90.000000
  0
CIRCLE
  8
OBRYS
 10
554.024263
 20
468.555625
 40
17.480000
  0
ARC
  8
OBRYS
 10
554.024263
 20
468.555625
 40
24.000000
 50
90.000000
 51
154.208906
  0
ARC
  8
OSA
 10
554.024263
 20
468.555625
 40
50.000000
 50
90.000000
 51
270.000000
  0
ARC
  8
OBRYS
 10
554.024263
 20
468.555625
 40
40.000000
 50
90.000000
 51
270.000000
  0
ARC
  8
OBRYS
 10
554.024263
 20
468.555625
 40
60.000000
 50
90.000000
 51
270.000000
  0
ARC
  8
OBRYS
 10
554.024263
 20
468.555625
 40
21.000000
 50
90.000000
 51
270.000000
  0
LINE
  8
OSA
 10
554.024263
 20
440.555625
 11
544.024250
 21
440.555625
  0
ARC
  8
OBRYS
 10
554.024246
 20
440.555625
 40
5.000000
 50
90.000000
 51
270.000000
  0
LINE
  8
OSA
 10
554.024263
 20
504.555625
 11
514.024266
 21
504.555625
  0
LINE
  8
OSA
 10
554.024263
 20
468.555625
 11
494.024263
 21
468.555625
  0
ARC
  8
OBRYS
 10
528.043501
 20
519.555625
 40
10.500000
 50
154.169919
 51
179.999994
  0
LINE
  8
0
 62
     2
 10
518.592554
 20
524.130514
 11
523.007308
 21
533.250648
  0
CIRCLE
  8
OBRYS
 10
527.507758
 20
478.039121
 40
5.000000
  0
ARC
  8
OBRYS
 10
527.507758
 20
531.072129
 40
5.000000
 50
269.999964
 51
360.000000
  0
ARC
  8
OBRYS
 10
520.786292
 20
524.072129
 40
2.000000
 50
90.000000
 51
154.169919
  0
LINE
  8
OBRYS
 10
527.507758
 20
526.072129
 11
520.786292
 21
526.072129
  0
CIRCLE
  8
OBRYS
 10
518.668924
 20
503.910964
 40
3.500000
  0
LINE
  8
OSA
 10
554.024263
 20
468.555625
 11
511.597856
 21
426.129218
  0
LINE
  8
OSA
 10
554.024263
 20
468.555625
 11
511.597856
 21
510.982032
  0
CIRCLE
  8
OBRYS
 10
518.668924
 20
433.200286
 40
3.500000
  0
ARC
  8
OBRYS
 10
527.507758
 20
478.039121
 40
5.000000
 50
356.832544
 51
45.000000
  0
ARC
  8
OBRYS
 10
554.024263
 20
468.555625
 40
24.000000
 50
166.432420
 51
263.365562
  0
ARC
  8
OBRYS
 10
554.024263
 20
468.555625
 40
24.000000
 50
276.634438
 51
13.567580
  0
ARC
  8
OBRYS
 10
580.540767
 20
478.039121
 40
5.000000
 50
135.000000
 51
183.167456
  0
CIRCLE
  8
OBRYS
 10
589.379602
 20
433.200286
 40
3.500000
  0
LINE
  8
OSA
 10
554.024263
 20
468.555625
 11
596.450670
 21
510.982032
  0
LINE
  8
OSA
 10
554.024263
 20
468.555625
 11
596.450670
 21
426.129218
  0
CIRCLE
  8
OBRYS
 10
589.379602
 20
503.910964
 40
3.500000
  0
LINE
  8
OBRYS
 10
580.540767
 20
526.072129
 11
587.262234
 21
526.072129
  0
ARC
  8
OBRYS
 10
587.262234
 20
524.072129
 40
2.000000
 50
25.830081
 51
90.000000
  0
ARC
  8
OBRYS
 10
580.540767
 20
531.072129
 40
5.000000
 50
180.000000
 51
270.000036
  0
CIRCLE
  8
OBRYS
 10
580.540767
 20
478.039121
 40
5.000000
  0
LINE
  8
0
 62
     2
 10
589.455971
 20
524.130514
 11
585.041218
 21
533.250648
  0
ARC
  8
OBRYS
 10
580.005025
 20
519.555625
 40
10.500000
 50
0.000006
 51
25.830081
  0
LINE
  8
OSA
 10
554.024263
 20
550.199672
 11
554.024263
 21
408.555625
  0
LINE
  8
OSA
 10
554.024263
 20
468.555625
 11
614.024263
 21
468.555625
  0
LINE
  8
OSA
 10
554.024263
 20
504.555625
 11
594.024259
 21
504.555625
  0
ARC
  8
OBRYS
 10
554.024279
 20
440.555625
 40
5.000000
 50
270.000000
 51
90.000000
  0
LINE
  8
OSA
 10
554.024263
 20
440.555625
 11
564.024276
 21
440.555625
  0
ARC
  8
OBRYS
 10
554.024263
 20
468.555625
 40
21.000000
 50
270.000000
 51
90.000000
  0
ARC
  8
OBRYS
 10
554.024263
 20
468.555625
 40
60.000000
 50
270.000000
 51
90.000000
  0
ARC
  8
OBRYS
 10
554.024263
 20
468.555625
 40
40.000000
 50
270.000000
 51
90.000000
  0
ARC
  8
OSA
 10
554.024263
 20
468.555625
 40
50.000000
 50
270.000000
 51
90.000000
  0
ARC
  8
OBRYS
 10
554.024263
 20
468.555625
 40
24.000000
 50
25.791094
 51
90.000000
  0
ARC
  8
OBRYS
 10
527.507758
 20
531.072129
 40
5.000000
 50
123.511664
 51
154.169919
  0
ARC
  8
OBRYS
 10
580.540767
 20
531.072129
 40
5.000000
 50
25.830081
 51
56.488335
  0
ARC
  8
OBRYS
 10
554.024263
 20
491.027717
 40
53.027909
 50
56.488379
 51
123.511629
  0
LINE
  8
OBRYS
 10
575.540767
 20
531.072129
 11
575.540767
 21
538.175924
  0
ARC
  8
OBRYS
 10
573.540767
 20
538.175924
 40
2.000000
 50
0.000000
 51
67.513406
  0
LINE
  8
OBRYS
 10
532.507758
 20
531.072129
 11
532.507758
 21
538.175924
  0
ARC
  8
OBRYS
 10
534.507758
 20
538.175924
 40
2.000000
 50
112.486594
 51
180.000000
  0
ENDBLK
  8
OSA
  0
BLOCK
  8
OSA
  2
Srouby_s_valcovou_hlavou___1
 70
   66
 10
554.024263
 20
440.555625
  0
LINE
  8
OSA
 62
     2
  6
CONTINUOUS
 10
552.024263
 20
439.400917
 11
552.024263
 21
441.710333
  0
LINE
  8
OSA
 62
     2
  6
CONTINUOUS
 10
552.024263
 20
441.710333
 11
554.024263
 21
442.865041
  0
LINE
  8
OSA
 62
     2
  6
CONTINUOUS
 10
554.024263
 20
442.865041
 11
556.024263
 21
441.710333
  0
LINE
  8
OSA
 62
     2
  6
CONTINUOUS
 10
556.024263
 20
441.710333
 11
556.024263
 21
439.400917
  0
LINE
  8
OSA
 62
     2
  6
CONTINUOUS
 10
556.024263
 20
439.400917
 11
554.024263
 21
438.246210
  0
LINE
  8
OSA
 62
     2
  6
CONTINUOUS
 10
554.024263
 20
438.246210
 11
552.024263
 21
439.400917
  0
CIRCLE
  8
OSA
 62
     2
  6
CONTINUOUS
 10
554.024263
 20
440.555625
 40
2.309415
  0
CIRCLE
  8
OSA
 62
     2
  6
CONTINUOUS
 10
554.024263
 20
440.555625
 40
4.250000
  0
ENDBLK
  8
OSA
  0
BLOCK
  8
OSA
  2
Srouby_s_valcovou_hlavou___2
 70
   66
 10
527.507758
 20
478.039121
  0
LINE
  8
OSA
 62
     2
  6
CONTINUOUS
 10
525.507758
 20
476.884413
 11
525.507758
 21
479.193829
  0
LINE
  8
OSA
 62
     2
  6
CONTINUOUS
 10
525.507758
 20
479.193829
 11
527.507758
 21
480.348536
  0
LINE
  8
OSA
 62
     2
  6
CONTINUOUS
 10
527.507758
 20
480.348536
 11
529.507758
 21
479.193829
  0
LINE
  8
OSA
 62
     2
  6
CONTINUOUS
 10
529.507758
 20
479.193829
 11
529.507758
 21
476.884413
  0
LINE
  8
OSA
 62
     2
  6
CONTINUOUS
 10
529.507758
 20
476.884413
 11
527.507758
 21
475.729705
  0
LINE
  8
OSA
 62
     2
  6
CONTINUOUS
 10
527.507758
 20
475.729705
 11
525.507758
 21
476.884413
  0
CIRCLE
  8
OSA
 62
     2
  6
CONTINUOUS
 10
527.507758
 20
478.039121
 40
2.309415
  0
CIRCLE
  8
OSA
 62
     2
  6
CONTINUOUS
 10
527.507758
 20
478.039121
 40
4.250000
  0
ENDBLK
  8
OSA
  0
BLOCK
  8
OSA
  2
Srouby_s_valcovou_hlavou___3
 70
   66
 10
580.540767
 20
478.039121
  0
LINE
  8
OSA
 62
     2
  6
CONTINUOUS
 10
578.540767
 20
476.884413
 11
578.540767
 21
479.193829
  0
LINE
  8
OSA
 62
     2
  6
CONTINUOUS
 10
578.540767
 20
479.193829
 11
580.540767
 21
480.348536
  0
LINE
  8
OSA
 62
     2
  6
CONTINUOUS
 10
580.540767
 20
480.348536
 11
582.540767
 21
479.193829
  0
LINE
  8
OSA
 62
     2
  6
CONTINUOUS
 10
582.540767
 20
479.193829
 11
582.540767
 21
476.884413
  0
LINE
  8
OSA
 62
     2
  6
CONTINUOUS
 10
582.540767
 20
476.884413
 11
580.540767
 21
475.729705
  0
LINE
  8
OSA
 62
     2
  6
CONTINUOUS
 10
580.540767
 20
475.729705
 11
578.540767
 21
476.884413
  0
CIRCLE
  8
OSA
 62
     2
  6
CONTINUOUS
 10
580.540767
 20
478.039121
 40
2.309415
  0
CIRCLE
  8
OSA
 62
     2
  6
CONTINUOUS
 10
580.540767
 20
478.039121
 40
4.250000
  0
ENDBLK
  8
OSA
  0
BLOCK
  8
OSA
  2
Srouby_s_valcovou_hlavou___4
 70
   66
 10
527.507758
 20
531.072129
  0
LINE
  8
OSA
 62
     2
  6
CONTINUOUS
 10
525.507758
 20
529.917422
 11
525.507758
 21
532.226837
  0
LINE
  8
OSA
 62
     2
  6
CONTINUOUS
 10
525.507758
 20
532.226837
 11
527.507758
 21
533.381545
  0
LINE
  8
OSA
 62
     2
  6
CONTINUOUS
 10
527.507758
 20
533.381545
 11
529.507758
 21
532.226837
  0
LINE
  8
OSA
 62
     2
  6
CONTINUOUS
 10
529.507758
 20
532.226837
 11
529.507758
 21
529.917422
  0
LINE
  8
OSA
 62
     2
  6
CONTINUOUS
 10
529.507758
 20
529.917422
 11
527.507758
 21
528.762714
  0
LINE
  8
OSA
 62
     2
  6
CONTINUOUS
 10
527.507758
 20
528.762714
 11
525.507758
 21
529.917422
  0
CIRCLE
  8
OSA
 62
     2
  6
CONTINUOUS
 10
527.507758
 20
531.072129
 40
2.309415
  0
CIRCLE
  8
OSA
 62
     2
  6
CONTINUOUS
 10
527.507758
 20
531.072129
 40
4.250000
  0
ENDBLK
  8
OSA
  0
BLOCK
  8
OSA
  2
Srouby_s_valcovou_hlavou___5
 70
   66
 10
580.540767
 20
531.072129
  0
LINE
  8
OSA
 62
     2
  6
CONTINUOUS
 10
578.540767
 20
529.917422
 11
578.540767
 21
532.226837
  0
LINE
  8
OSA
 62
     2
  6
CONTINUOUS
 10
578.540767
 20
532.226837
 11
580.540767
 21
533.381545
  0
LINE
  8
OSA
 62
     2
  6
CONTINUOUS
 10
580.540767
 20
533.381545
 11
582.540767
 21
532.226837
  0
LINE
  8
OSA
 62
     2
  6
CONTINUOUS
 10
582.540767
 20
532.226837
 11
582.540767
 21
529.917422
  0
LINE
  8
OSA
 62
     2
  6
CONTINUOUS
 10
582.540767
 20
529.917422
 11
580.540767
 21
528.762714
  0
LINE
  8
OSA
 62
     2
  6
CONTINUOUS
 10
580.540767
 20
528.762714
 11
578.540767
 21
529.917422
  0
CIRCLE
  8
OSA
 62
     2
  6
CONTINUOUS
 10
580.540767
 20
531.072129
 40
2.309415
  0
CIRCLE
  8
OSA
 62
     2
  6
CONTINUOUS
 10
580.540767
 20
531.072129
 40
4.250000
  0
ENDBLK
  8
OSA
  0
BLOCK
  8
OBRYS
  2
_1
 70
   64
 10
313.276967
 20
330.624606
  0
LINE
  8
OBRYS
 10
290.276956
 20
294.143844
 11
290.276956
 21
367.105368
  0
ARC
  8
OBRYS
 10
268.276956
 20
272.624606
 40
2.000000
 50
270.000000
 51
360.000000
  0
LINE
  8
OBRYS
 10
261.276956
 20
270.624606
 11
268.276956
 21
270.624606
  0
ARC
  8
OBRYS
 10
268.276956
 20
388.624606
 40
2.000000
 50
0.000000
 51
90.000000
  0
LINE
  8
OBRYS
 10
261.276956
 20
390.624606
 11
268.276956
 21
390.624606
  0
LINE
  8
OSA
 10
292.044404
 20
330.624606
 11
262.557324
 21
330.624606
  0
LINE
  8
OBRYS
 10
270.276956
 20
272.624606
 11
270.276956
 21
330.624606
  0
LINE
  8
OBRYS
 10
270.276956
 20
388.624606
 11
270.276956
 21
330.624606
  0
LINE
  8
OBRYS
 10
261.276956
 20
330.624606
 11
261.276956
 21
270.624606
  0
LINE
  8
OBRYS
 10
261.276956
 20
390.624606
 11
261.276956
 21
330.624606
  0
LINE
  8
OBRYS
 10
290.276956
 20
361.060230
 11
286.210413
 21
361.060230
  0
ARC
  8
OBRYS
 10
283.276956
 20
354.141110
 40
2.000000
 50
270.000000
 51
360.000000
  0
ARC
  8
OBRYS
 10
283.276956
 20
350.141110
 40
2.000000
 50
90.000000
 51
180.000000
  0
ARC
  8
OBRYS
 10
287.276956
 20
365.105368
 40
2.000000
 50
90.000000
 51
180.000000
  0
LINE
  8
OBRYS
 10
285.276956
 20
365.105368
 11
285.276956
 21
296.143844
  0
ARC
  8
OBRYS
 10
287.276956
 20
296.143844
 40
2.000000
 50
180.000000
 51
270.000000
  0
ARC
  8
OBRYS
 10
283.276956
 20
311.108102
 40
2.000000
 50
180.000000
 51
270.000000
  0
ARC
  8
OBRYS
 10
283.276956
 20
307.108102
 40
2.000000
 50
0.000000
 51
90.000000
  0
LINE
  8
OBRYS
 10
290.276956
 20
300.188982
 11
286.210413
 21
300.188982
  0
LINE
  8
OSA
 10
287.680520
 20
304.108102
 11
277.276956
 21
304.108102
  0
INSERT
  8
OBRYS
  2
Srouby_s_valcovou_hlavou___7
 62
     7
 10
285.276956
 20
304.108102
  0
INSERT
  8
OBRYS
  2
Srouby_s_valcovou_hlavou___8
 62
     7
 10
285.276956
 20
357.141110
  0
LINE
  8
OSA
 10
287.680520
 20
357.141110
 11
277.276956
 21
357.141110
  0
ARC
  8
OBRYS
 10
279.776956
 20
295.388815
 40
1.500000
 50
4.876572
 51
90.000000
  0
ARC
  8
OBRYS
 10
282.766096
 20
295.643844
 40
1.500000
 50
184.876572
 51
270.000000
  0
LINE
  8
OBRYS
 10
271.776956
 20
296.888815
 11
279.776956
 21
296.888815
  0
ARC
  8
OBRYS
 10
271.776956
 20
295.388815
 40
1.500000
 50
90.000000
 51
180.000000
  0
ARC
  8
OBRYS
 10
271.776956
 20
365.860397
 40
1.500000
 50
180.000000
 51
270.000000
  0
LINE
  8
OBRYS
 10
271.776956
 20
364.360397
 11
279.776956
 21
364.360397
  0
ARC
  8
OBRYS
 10
282.766096
 20
365.605368
 40
1.500000
 50
90.000000
 51
175.123428
  0
ARC
  8
OBRYS
 10
279.776956
 20
365.860397
 40
1.500000
 50
270.000000
 51
355.123428
  0
LINE
  8
OBRYS
 10
281.276956
 20
365.425199
 11
281.276956
 21
295.824013
  0
LINE
  8
OBRYS
 10
282.766079
 20
294.143844
 11
290.276956
 21
294.143844
  0
LINE
  8
OBRYS
 10
282.766081
 20
367.105368
 11
290.276956
 21
367.105368
  0
LINE
  8
OBRYS
 10
290.276956
 20
300.188982
 11
308.276957
 21
300.188982
  0
LINE
  8
OBRYS
 10
290.276956
 20
361.060230
 11
308.276957
 21
361.060230
  0
LINE
  8
OBRYS
 10
312.276956
 20
330.624606
 11
312.276956
 21
363.523139
  0
LINE
  8
OBRYS
 10
312.276956
 20
298.143844
 11
312.276956
 21
330.624606
  0
LINE
  8
OBRYS
 10
313.276967
 20
357.124232
 11
313.276967
 21
330.624606
  0
LINE
  8
OBRYS
 10
313.276967
 20
330.624606
 11
313.276978
 21
304.124606
  0
ARC
  8
OBRYS
 10
308.276956
 20
298.143844
 40
4.000000
 50
270.000000
 51
360.000000
  0
ARC
  8
OBRYS
 10
313.249610
 20
358.124232
 40
1.000000
 50
185.995066
 51
270.000000
  0
ARC
  8
OBRYS
 10
308.276956
 20
363.105368
 40
4.000000
 50
5.995066
 51
90.000000
  0
ARC
  8
OBRYS
 10
313.276967
 20
303.124606
 40
1.000000
 50
90.000000
 51
180.000000
  0
LINE
  8
OBRYS
 10
313.276967
 20
357.124232
 11
313.249610
 21
357.124232
  0
LINE
  8
OSA
 10
323.776952
 20
330.624606
 11
282.776959
 21
330.624606
  0
LINE
  8
OBRYS
 10
290.276956
 20
367.105368
 11
308.276956
 21
367.105368
  0
LINE
  8
OBRYS
 10
290.276956
 20
330.624606
 11
290.276956
 21
367.105368
  0
LINE
  8
OBRYS
 10
290.276956
 20
294.143844
 11
290.276956
 21
330.624606
  0
LINE
  8
OBRYS
 10
308.276956
 20
294.143844
 11
290.276956
 21
294.143844
  0
ENDBLK
  8
OBRYS
  0
BLOCK
  8
OBRYS
  2
Srouby_s_valcovou_hlavou___7
 70
   66
 10
285.276956
 20
304.108102
  0
LINE
  8
OBRYS
 10
281.776956
 20
300.358102
 11
281.776956
 21
307.858102
  0
LINE
  8
OBRYS
 10
282.276956
 20
299.858102
 11
285.276956
 21
299.858102
  0
LINE
  8
OBRYS
 10
285.276956
 20
299.858102
 11
285.276956
 21
308.358102
  0
LINE
  8
OBRYS
 10
285.276956
 20
308.358102
 11
282.276956
 21
308.358102
  0
ARC
  8
OBRYS
 10
282.276956
 20
300.358102
 40
0.500000
 50
180.000000
 51
270.000000
  0
ARC
  8
OBRYS
 10
282.276956
 20
307.858102
 40
0.500000
 50
90.000000
 51
180.000000
  0
LINE
  8
OBRYS
 62
     7
  6
DOT
 10
281.776956
 20
301.798686
 11
283.443622
 21
301.798686
  0
LINE
  8
OBRYS
 62
     7
  6
DOT
 10
281.776956
 20
302.953394
 11
283.443622
 21
302.953394
  0
LINE
  8
OBRYS
 62
     7
  6
DOT
 10
281.776956
 20
305.262809
 11
283.443622
 21
305.262809
  0
LINE
  8
OBRYS
 62
     7
  6
DOT
 10
281.776956
 20
306.417517
 11
283.443622
 21
306.417517
  0
ARC
  8
OBRYS
 62
     7
  6
DOT
 10
281.443616
 20
302.376040
 40
0.666673
 50
300.000310
 51
59.999690
  0
ARC
  8
OBRYS
 62
     7
  6
DOT
 10
279.943597
 20
304.108102
 40
2.166692
 50
327.795963
 51
32.204037
  0
ARC
  8
OBRYS
 62
     7
  6
DOT
 10
281.443616
 20
305.840163
 40
0.666673
 50
300.000310
 51
59.999690
  0
ARC
  8
OBRYS
 62
     7
  6
DOT
 10
283.110283
 20
302.376040
 40
0.666673
 50
300.000310
 51
59.999690
  0
ARC
  8
OBRYS
 62
     7
  6
DOT
 10
281.610264
 20
304.108102
 40
2.166692
 50
327.795963
 51
32.204037
  0
ARC
  8
OBRYS
 62
     7
  6
DOT
 10
283.110283
 20
305.840163
 40
0.666673
 50
300.000310
 51
59.999690
  0
LINE
  8
OBRYS
 62
     7
  6
DOT
 10
283.776956
 20
302.376040
 11
284.931664
 21
304.108102
  0
LINE
  8
OBRYS
 62
     7
  6
DOT
 10
284.931664
 20
304.108102
 11
283.776956
 21
305.840163
  0
ENDBLK
  8
OBRYS
  0
BLOCK
  8
OBRYS
  2
Srouby_s_valcovou_hlavou___8
 70
   66
 10
285.276956
 20
357.141110
  0
LINE
  8
OBRYS
 10
281.776956
 20
360.891110
 11
281.776956
 21
353.391110
  0
LINE
  8
OBRYS
 10
282.276956
 20
361.391110
 11
285.276956
 21
361.391110
  0
LINE
  8
OBRYS
 10
285.276956
 20
361.391110
 11
285.276956
 21
352.891110
  0
LINE
  8
OBRYS
 10
285.276956
 20
352.891110
 11
282.276956
 21
352.891110
  0
ARC
  8
OBRYS
 10
282.276956
 20
360.891110
 40
0.500000
 50
90.000000
 51
180.000000
  0
ARC
  8
OBRYS
 10
282.276956
 20
353.391110
 40
0.500000
 50
180.000000
 51
270.000000
  0
LINE
  8
OBRYS
 62
     7
  6
DOT
 10
281.776956
 20
359.450526
 11
283.443622
 21
359.450526
  0
LINE
  8
OBRYS
 62
     7
  6
DOT
 10
281.776956
 20
358.295818
 11
283.443622
 21
358.295818
  0
LINE
  8
OBRYS
 62
     7
  6
DOT
 10
281.776956
 20
355.986402
 11
283.443622
 21
355.986402
  0
LINE
  8
OBRYS
 62
     7
  6
DOT
 10
281.776956
 20
354.831695
 11
283.443622
 21
354.831695
  0
ARC
  8
OBRYS
 62
     7
  6
DOT
 10
281.443616
 20
358.873172
 40
0.666673
 50
300.000310
 51
59.999690
  0
ARC
  8
OBRYS
 62
     7
  6
DOT
 10
279.943597
 20
357.141110
 40
2.166692
 50
327.795963
 51
32.204037
  0
ARC
  8
OBRYS
 62
     7
  6
DOT
 10
281.443616
 20
355.409049
 40
0.666673
 50
300.000310
 51
59.999690
  0
ARC
  8
OBRYS
 62
     7
  6
DOT
 10
283.110283
 20
358.873172
 40
0.666673
 50
300.000310
 51
59.999690
  0
ARC
  8
OBRYS
 62
     7
  6
DOT
 10
281.610264
 20
357.141110
 40
2.166692
 50
327.795963
 51
32.204037
  0
ARC
  8
OBRYS
 62
     7
  6
DOT
 10
283.110283
 20
355.409049
 40
0.666673
 50
300.000310
 51
59.999690
  0
LINE
  8
OBRYS
 62
     7
  6
DOT
 10
283.776956
 20
358.873172
 11
284.931664
 21
357.141110
  0
LINE
  8
OBRYS
 62
     7
  6
DOT
 10
284.931664
 20
357.141110
 11
283.776956
 21
355.409049
  0
ENDBLK
  8
OBRYS
  0
BLOCK
  8
OBRYS
  2
_2
 70
   64
 10
764.834956
 20
504.555625
  0
LINE
  8
OBRYS
 10
787.834967
 20
487.704889
 11
769.834966
 21
487.704889
  0
LINE
  8
OBRYS
 10
787.834967
 20
534.451580
 11
769.834966
 21
534.451580
  0
LINE
  8
OBRYS
 10
787.834967
 20
521.963347
 11
769.834966
 21
521.963347
  0
LINE
  8
OBRYS
 10
765.834967
 20
504.555625
 11
765.834967
 21
540.473396
  0
LINE
  8
OBRYS
 10
765.834967
 20
439.555625
 11
765.834967
 21
504.555625
  0
LINE
  8
OBRYS
 10
764.834956
 20
534.536013
 11
764.834956
 21
504.555625
  0
LINE
  8
OBRYS
 10
764.834956
 20
504.555625
 11
764.834945
 21
474.574863
  0
LINE
  8
OBRYS
 10
787.834967
 20
451.075625
 11
787.834967
 21
435.555625
  0
ARC
  8
OBRYS
 10
769.834967
 20
439.555625
 40
4.000000
 50
180.000000
 51
270.000000
  0
ARC
  8
OBRYS
 10
764.862312
 20
535.536013
 40
1.000000
 50
270.000000
 51
354.004934
  0
ARC
  8
OBRYS
 10
769.834967
 20
540.055625
 40
4.000000
 50
90.000000
 51
174.004934
  0
ARC
  8
OBRYS
 10
764.834956
 20
473.574863
 40
1.000000
 50
0.000000
 51
90.000000
  0
LINE
  8
OBRYS
 10
764.834956
 20
534.536013
 11
764.862312
 21
534.536013
  0
LINE
  8
OSA
 10
754.334970
 20
504.555625
 11
795.334963
 21
504.555625
  0
LINE
  8
OBRYS
 10
787.834967
 20
544.055625
 11
769.834967
 21
544.055625
  0
LINE
  8
OBRYS
 10
787.834967
 20
504.555625
 11
787.834967
 21
544.055625
  0
LINE
  8
OBRYS
 10
787.834967
 20
451.075625
 11
787.834967
 21
504.555625
  0
LINE
  8
OBRYS
 10
769.834967
 20
435.555625
 11
787.834967
 21
435.555625
  0
LINE
  8
OBRYS
 10
787.834967
 20
451.075625
 11
787.834967
 21
435.555625
  0
LINE
  8
OBRYS
 10
787.834967
 20
451.075625
 11
787.834967
 21
468.555625
  0
LINE
  8
OSA
 10
785.993248
 20
440.555625
 11
820.054595
 21
440.555625
  0
LINE
  8
OSA
 10
786.163009
 20
504.555625
 11
815.554598
 21
504.555625
  0
LINE
  8
OBRYS
 10
813.334967
 20
476.555625
 11
813.334967
 21
460.555625
  0
LINE
  8
OBRYS
 10
814.334967
 20
459.388958
 11
816.834967
 21
459.388958
  0
ARC
  8
OBRYS
 10
814.334967
 20
460.388958
 40
1.000000
 50
180.000000
 51
270.000000
  0
LINE
  8
OBRYS
 10
815.334967
 20
458.555625
 11
816.834967
 21
458.555625
  0
ARC
  8
OBRYS
 10
815.334967
 20
460.555625
 40
2.000000
 50
180.000000
 51
270.000000
  0
ARC
  8
OBRYS
 10
815.334967
 20
476.555625
 40
2.000000
 50
90.000000
 51
180.000000
  0
LINE
  8
OBRYS
 10
815.334967
 20
478.555625
 11
816.834967
 21
478.555625
  0
ARC
  8
OBRYS
 10
814.334967
 20
476.722292
 40
1.000000
 50
90.000000
 51
180.000000
  0
LINE
  8
OBRYS
 10
814.334967
 20
477.722292
 11
816.834967
 21
477.722292
  0
LINE
  8
OSA
 10
783.834967
 20
531.072129
 11
800.834967
 21
531.072129
  0
LINE
  8
OBRYS
 10
796.834967
 20
479.497570
 11
796.834967
 21
540.055625
  0
LINE
  8
OBRYS
 10
807.834967
 20
526.555625
 11
807.834967
 21
468.555625
  0
LINE
  8
OBRYS
 10
807.834967
 20
410.555625
 11
807.834967
 21
468.555625
  0
ARC
  8
OBRYS
 10
792.834967
 20
540.055625
 40
4.000000
 50
0.000000
 51
90.000000
  0
ARC
  8
OBRYS
 10
798.834967
 20
497.555625
 40
2.000000
 50
180.000000
 51
270.000000
  0
LINE
  8
OSA
 10
801.054602
 20
418.555625
 11
824.054595
 21
418.555625
  0
LINE
  8
OBRYS
 10
792.834967
 20
544.055625
 11
787.834967
 21
544.055625
  0
LINE
  8
OBRYS
 10
787.834967
 20
468.555625
 11
787.834967
 21
544.055625
  0
LINE
  8
OSA
 10
786.067518
 20
468.555625
 11
815.554598
 21
468.555625
  0
LINE
  8
OBRYS
 10
792.834967
 20
528.072129
 11
792.834967
 21
542.055625
  0
ARC
  8
OBRYS
 10
790.834967
 20
542.055625
 40
2.000000
 50
0.000000
 51
90.000000
  0
LINE
  8
OBRYS
 10
816.834967
 20
528.555625
 11
809.834967
 21
528.555625
  0
ARC
  8
OBRYS
 10
809.834967
 20
526.555625
 40
2.000000
 50
90.000000
 51
180.000000
  0
LINE
  8
OBRYS
 10
816.834967
 20
408.555625
 11
809.834967
 21
408.555625
  0
ARC
  8
OBRYS
 10
809.834967
 20
410.555625
 40
2.000000
 50
180.000000
 51
270.000000
  0
ARC
  8
OBRYS
 10
805.834967
 20
433.555625
 40
2.000000
 50
0.000000
 51
90.000000
  0
ARC
  8
OBRYS
 10
805.834967
 20
497.555625
 40
2.000000
 50
270.000000
 51
360.000000
  0
LINE
  8
OBRYS
 10
798.834967
 20
495.555625
 11
805.834967
 21
495.555625
  0
LINE
  8
OBRYS
 10
805.834967
 20
435.555625
 11
787.834967
 21
435.555625
  0
LINE
  8
OBRYS
 10
815.834967
 20
477.722292
 11
815.834967
 21
459.388958
  0
LINE
  8
OBRYS
 10
816.834967
 20
528.555625
 11
816.834967
 21
477.722292
  0
LINE
  8
OBRYS
 10
816.834967
 20
459.388958
 11
816.834967
 21
408.555625
  0
INSERT
  8
OBRYS
  2
Srouby_s_valcovou_hlavou___10
 62
     7
 10
255.340353
 20
531.072129
  0
ARC
  8
OBRYS
 10
794.834967
 20
526.822129
 40
2.000000
 50
180.000000
 51
270.000000
  0
ARC
  8
OBRYS
 10
794.834967
 20
522.822129
 40
2.000000
 50
0.000000
 51
90.000000
  0
ENDBLK
  8
OBRYS
  0
BLOCK
  8
OBRYS
  2
Srouby_s_valcovou_hlavou___10
 70
   66
 10
255.340353
 20
531.072129
  0
LINE
  8
OBRYS
 10
796.334967
 20
527.322129
 11
796.334967
 21
534.822129
  0
LINE
  8
OBRYS
 10
795.834967
 20
526.822129
 11
792.834967
 21
526.822129
  0
LINE
  8
OBRYS
 10
792.834967
 20
526.822129
 11
792.834967
 21
535.322129
  0
LINE
  8
OBRYS
 10
792.834967
 20
535.322129
 11
795.834967
 21
535.322129
  0
ARC
  8
OBRYS
 10
795.834967
 20
527.322129
 40
0.500000
 50
270.000000
 51
360.000000
  0
ARC
  8
OBRYS
 10
795.834967
 20
534.822129
 40
0.500000
 50
0.000000
 51
90.000000
  0
LINE
  8
OBRYS
 62
     7
  6
DOT
 10
796.334967
 20
528.762714
 11
794.668300
 21
528.762714
  0
LINE
  8
OBRYS
 62
     7
  6
DOT
 10
796.334967
 20
529.917422
 11
794.668300
 21
529.917422
  0
LINE
  8
OBRYS
 62
     7
  6
DOT
 10
796.334967
 20
532.226837
 11
794.668300
 21
532.226837
  0
LINE
  8
OBRYS
 62
     7
  6
DOT
 10
796.334967
 20
533.381545
 11
794.668300
 21
533.381545
  0
ARC
  8
OBRYS
 62
     7
  6
DOT
 10
796.668306
 20
529.340068
 40
0.666673
 50
120.000310
 51
239.999690
  0
ARC
  8
OBRYS
 62
     7
  6
DOT
 10
798.168325
 20
531.072129
 40
2.166692
 50
147.795963
 51
212.204037
  0
ARC
  8
OBRYS
 62
     7
  6
DOT
 10
796.668306
 20
532.804191
 40
0.666673
 50
120.000310
 51
239.999690
  0
ARC
  8
OBRYS
 62
     7
  6
DOT
 10
795.001640
 20
529.340068
 40
0.666673
 50
120.000310
 51
239.999690
  0
ARC
  8
OBRYS
 62
     7
  6
DOT
 10
796.501658
 20
531.072129
 40
2.166692
 50
147.795963
 51
212.204037
  0
ARC
  8
OBRYS
 62
     7
  6
DOT
 10
795.001640
 20
532.804191
 40
0.666673
 50
120.000310
 51
239.999690
  0
LINE
  8
OBRYS
 62
     7
  6
DOT
 10
794.334967
 20
529.340068
 11
793.180259
 21
531.072129
  0
LINE
  8
OBRYS
 62
     7
  6
DOT
 10
793.180259
 20
531.072129
 11
794.334967
 21
532.804191
  0
ENDBLK
  8
OBRYS
  0
BLOCK
  8
OBRYS
  2
_3
 70
   64
 10
313.276967
 20
654.302921
  0
LINE
  8
OBRYS
 10
261.276956
 20
594.302921
 11
261.276956
 21
654.302921
  0
LINE
  8
OBRYS
 10
261.276956
 20
654.302921
 11
261.276956
 21
714.302921
  0
LINE
  8
OBRYS
 10
270.276956
 20
596.302921
 11
270.276956
 21
654.302921
  0
LINE
  8
OBRYS
 10
270.276956
 20
712.302921
 11
270.276956
 21
654.302921
  0
LINE
  8
OSA
 10
292.044404
 20
654.302921
 11
262.557324
 21
654.302921
  0
LINE
  8
OBRYS
 10
261.276956
 20
594.302921
 11
268.276956
 21
594.302921
  0
ARC
  8
OBRYS
 10
268.276956
 20
596.302921
 40
2.000000
 50
270.000000
 51
360.000000
  0
LINE
  8
OBRYS
 10
261.276956
 20
714.302921
 11
268.276956
 21
714.302921
  0
ARC
  8
OBRYS
 10
268.276956
 20
712.302921
 40
2.000000
 50
0.000000
 51
90.000000
  0
LINE
  8
OBRYS
 10
290.276956
 20
690.783683
 11
290.276956
 21
617.822159
  0
ARC
  8
OBRYS
 10
279.776956
 20
619.067130
 40
1.500000
 50
4.876572
 51
90.000000
  0
ARC
  8
OBRYS
 10
282.766096
 20
619.322159
 40
1.500000
 50
184.876572
 51
270.000000
  0
LINE
  8
OBRYS
 10
271.776956
 20
620.567130
 11
279.776956
 21
620.567130
  0
ARC
  8
OBRYS
 10
271.776956
 20
619.067130
 40
1.500000
 50
90.000000
 51
180.000000
  0
ARC
  8
OBRYS
 10
271.776956
 20
689.538712
 40
1.500000
 50
180.000000
 51
270.000000
  0
LINE
  8
OBRYS
 10
271.776956
 20
688.038712
 11
279.776956
 21
688.038712
  0
ARC
  8
OBRYS
 10
282.766096
 20
689.283683
 40
1.500000
 50
90.000000
 51
175.123428
  0
ARC
  8
OBRYS
 10
279.776956
 20
689.538712
 40
1.500000
 50
270.000000
 51
355.123428
  0
LINE
  8
OBRYS
 10
282.766111
 20
617.822159
 11
290.276956
 21
617.822159
  0
LINE
  8
OBRYS
 10
282.766111
 20
690.783683
 11
290.276956
 21
690.783683
  0
LINE
  8
OBRYS
 10
308.276956
 20
690.783683
 11
290.276956
 21
690.783683
  0
LINE
  8
OBRYS
 10
290.276956
 20
690.783683
 11
290.276956
 21
654.302921
  0
LINE
  8
OBRYS
 10
290.276956
 20
654.302921
 11
290.276956
 21
617.822159
  0
LINE
  8
OBRYS
 10
290.276956
 20
617.822159
 11
308.276956
 21
617.822159
  0
LINE
  8
OSA
 10
323.776952
 20
654.302921
 11
282.776959
 21
654.302921
  0
LINE
  8
OBRYS
 10
313.304323
 20
627.802921
 11
313.276967
 21
627.802921
  0
ARC
  8
OBRYS
 10
313.276967
 20
681.802921
 40
1.000000
 50
180.000000
 51
270.000000
  0
ARC
  8
OBRYS
 10
308.276956
 20
621.822159
 40
4.000000
 50
270.000000
 51
354.004934
  0
ARC
  8
OBRYS
 10
313.276967
 20
626.802921
 40
1.000000
 50
90.000000
 51
174.004934
  0
ARC
  8
OBRYS
 10
308.276956
 20
686.783683
 40
4.000000
 50
0.000000
 51
90.000000
  0
LINE
  8
OBRYS
 10
313.276967
 20
654.302921
 11
313.276978
 21
680.802921
  0
LINE
  8
OBRYS
 10
313.304323
 20
627.802921
 11
313.276967
 21
654.302921
  0
LINE
  8
OBRYS
 10
312.276956
 20
686.783683
 11
312.276956
 21
654.302921
  0
LINE
  8
OBRYS
 10
312.276956
 20
654.302921
 11
312.276956
 21
621.404388
  0
ENDBLK
  8
OBRYS
  0
BLOCK
  8
OBRYS
  2
_4
 70
   64
 10
313.276967
 20
504.555625
  0
LINE
  8
OBRYS
 10
290.276956
 20
487.704889
 11
308.276957
 21
487.704889
  0
LINE
  8
OBRYS
 10
290.276956
 20
534.451580
 11
308.276957
 21
534.451580
  0
LINE
  8
OBRYS
 10
290.276956
 20
521.963347
 11
308.276957
 21
521.963347
  0
LINE
  8
OBRYS
 10
312.276956
 20
504.555625
 11
312.276956
 21
540.473396
  0
LINE
  8
OBRYS
 10
312.276956
 20
439.555625
 11
312.276956
 21
504.555625
  0
LINE
  8
OBRYS
 10
313.276967
 20
534.536013
 11
313.276967
 21
504.555625
  0
LINE
  8
OBRYS
 10
313.276967
 20
504.555625
 11
313.276978
 21
474.574863
  0
LINE
  8
OBRYS
 10
290.276956
 20
451.075625
 11
290.276956
 21
435.555625
  0
ARC
  8
OBRYS
 10
308.276956
 20
439.555625
 40
4.000000
 50
270.000000
 51
360.000000
  0
ARC
  8
OBRYS
 10
313.249610
 20
535.536013
 40
1.000000
 50
185.995066
 51
270.000000
  0
ARC
  8
OBRYS
 10
308.276956
 20
540.055625
 40
4.000000
 50
5.995066
 51
90.000000
  0
ARC
  8
OBRYS
 10
313.276967
 20
473.574863
 40
1.000000
 50
90.000000
 51
180.000000
  0
LINE
  8
OBRYS
 10
313.276967
 20
534.536013
 11
313.249610
 21
534.536013
  0
LINE
  8
OSA
 10
323.776952
 20
504.555625
 11
282.776959
 21
504.555625
  0
LINE
  8
OBRYS
 10
290.276956
 20
544.055625
 11
308.276956
 21
544.055625
  0
LINE
  8
OBRYS
 10
290.276956
 20
504.555625
 11
290.276956
 21
544.055625
  0
LINE
  8
OBRYS
 10
290.276956
 20
451.075625
 11
290.276956
 21
504.555625
  0
LINE
  8
OBRYS
 10
308.276956
 20
435.555625
 11
290.276956
 21
435.555625
  0
LINE
  8
OBRYS
 10
290.276956
 20
451.075625
 11
290.276956
 21
435.555625
  0
LINE
  8
OBRYS
 10
290.276956
 20
451.075625
 11
290.276956
 21
468.555625
  0
LINE
  8
OSA
 10
292.118675
 20
440.555625
 11
258.057328
 21
440.555625
  0
LINE
  8
OSA
 10
291.948914
 20
504.555625
 11
262.557324
 21
504.555625
  0
LINE
  8
OBRYS
 10
264.776956
 20
476.555625
 11
264.776956
 21
460.555625
  0
LINE
  8
OBRYS
 10
263.776956
 20
459.388958
 11
261.276956
 21
459.388958
  0
ARC
  8
OBRYS
 10
263.776956
 20
460.388958
 40
1.000000
 50
270.000000
 51
360.000000
  0
LINE
  8
OBRYS
 10
262.776956
 20
458.555625
 11
261.276956
 21
458.555625
  0
ARC
  8
OBRYS
 10
262.776956
 20
460.555625
 40
2.000000
 50
270.000000
 51
360.000000
  0
ARC
  8
OBRYS
 10
262.776956
 20
476.555625
 40
2.000000
 50
0.000000
 51
90.000000
  0
LINE
  8
OBRYS
 10
262.776956
 20
478.555625
 11
261.276956
 21
478.555625
  0
ARC
  8
OBRYS
 10
263.776956
 20
476.722292
 40
1.000000
 50
0.000000
 51
90.000000
  0
LINE
  8
OBRYS
 10
263.776956
 20
477.722292
 11
261.276956
 21
477.722292
  0
LINE
  8
OSA
 10
294.276956
 20
531.072129
 11
277.276956
 21
531.072129
  0
LINE
  8
OBRYS
 10
281.276956
 20
479.497570
 11
281.276956
 21
540.055625
  0
LINE
  8
OBRYS
 10
270.276956
 20
526.555625
 11
270.276956
 21
468.555625
  0
LINE
  8
OBRYS
 10
270.276956
 20
410.555625
 11
270.276956
 21
468.555625
  0
ARC
  8
OBRYS
 10
285.276956
 20
540.055625
 40
4.000000
 50
90.000000
 51
180.000000
  0
ARC
  8
OBRYS
 10
279.276956
 20
497.555625
 40
2.000000
 50
270.000000
 51
360.000000
  0
LINE
  8
OSA
 10
277.057321
 20
418.555625
 11
254.057328
 21
418.555625
  0
LINE
  8
OBRYS
 10
285.276956
 20
544.055625
 11
290.276956
 21
544.055625
  0
LINE
  8
OBRYS
 10
290.276956
 20
468.555625
 11
290.276956
 21
544.055625
  0
LINE
  8
OSA
 10
292.044404
 20
468.555625
 11
262.557324
 21
468.555625
  0
LINE
  8
OBRYS
 10
285.276956
 20
528.072129
 11
285.276956
 21
542.055625
  0
ARC
  8
OBRYS
 10
287.276956
 20
542.055625
 40
2.000000
 50
90.000000
 51
180.000000
  0
LINE
  8
OBRYS
 10
261.276956
 20
528.555625
 11
268.276956
 21
528.555625
  0
ARC
  8
OBRYS
 10
268.276956
 20
526.555625
 40
2.000000
 50
0.000000
 51
90.000000
  0
LINE
  8
OBRYS
 10
261.276956
 20
408.555625
 11
268.276956
 21
408.555625
  0
ARC
  8
OBRYS
 10
268.276956
 20
410.555625
 40
2.000000
 50
270.000000
 51
360.000000
  0
ARC
  8
OBRYS
 10
272.276956
 20
433.555625
 40
2.000000
 50
90.000000
 51
180.000000
  0
ARC
  8
OBRYS
 10
272.276956
 20
497.555625
 40
2.000000
 50
180.000000
 51
270.000000
  0
LINE
  8
OBRYS
 10
279.276956
 20
495.555625
 11
272.276956
 21
495.555625
  0
LINE
  8
OBRYS
 10
272.276956
 20
435.555625
 11
290.276956
 21
435.555625
  0
LINE
  8
OBRYS
 10
262.276956
 20
477.722292
 11
262.276956
 21
459.388958
  0
LINE
  8
OBRYS
 10
261.276956
 20
528.555625
 11
261.276956
 21
477.722292
  0
LINE
  8
OBRYS
 10
261.276956
 20
459.388958
 11
261.276956
 21
408.555625
  0
INSERT
  8
OBRYS
  2
Srouby_s_valcovou_hlavou___12
 62
     7
 10
285.276956
 20
531.072129
  0
ARC
  8
OBRYS
 10
283.276956
 20
526.822129
 40
2.000000
 50
270.000000
 51
360.000000
  0
ARC
  8
OBRYS
 10
283.276956
 20
522.822129
 40
2.000000
 50
90.000000
 51
180.000000
  0
ENDBLK
  8
OBRYS
  0
BLOCK
  8
OBRYS
  2
Srouby_s_valcovou_hlavou___12
 70
   66
 10
285.276956
 20
531.072129
  0
LINE
  8
OBRYS
 10
281.776956
 20
527.322129
 11
281.776956
 21
534.822129
  0
LINE
  8
OBRYS
 10
282.276956
 20
526.822129
 11
285.276956
 21
526.822129
  0
LINE
  8
OBRYS
 10
285.276956
 20
526.822129
 11
285.276956
 21
535.322129
  0
LINE
  8
OBRYS
 10
285.276956
 20
535.322129
 11
282.276956
 21
535.322129
  0
ARC
  8
OBRYS
 10
282.276956
 20
527.322129
 40
0.500000
 50
180.000000
 51
270.000000
  0
ARC
  8
OBRYS
 10
282.276956
 20
534.822129
 40
0.500000
 50
90.000000
 51
180.000000
  0
LINE
  8
OBRYS
 62
     7
  6
DOT
 10
281.776956
 20
528.762714
 11
283.443622
 21
528.762714
  0
LINE
  8
OBRYS
 62
     7
  6
DOT
 10
281.776956
 20
529.917422
 11
283.443622
 21
529.917422
  0
LINE
  8
OBRYS
 62
     7
  6
DOT
 10
281.776956
 20
532.226837
 11
283.443622
 21
532.226837
  0
LINE
  8
OBRYS
 62
     7
  6
DOT
 10
281.776956
 20
533.381545
 11
283.443622
 21
533.381545
  0
ARC
  8
OBRYS
 62
     7
  6
DOT
 10
281.443616
 20
529.340068
 40
0.666673
 50
300.000310
 51
59.999690
  0
ARC
  8
OBRYS
 62
     7
  6
DOT
 10
279.943597
 20
531.072129
 40
2.166692
 50
327.795963
 51
32.204037
  0
ARC
  8
OBRYS
 62
     7
  6
DOT
 10
281.443616
 20
532.804191
 40
0.666673
 50
300.000310
 51
59.999690
  0
ARC
  8
OBRYS
 62
     7
  6
DOT
 10
283.110283
 20
529.340068
 40
0.666673
 50
300.000310
 51
59.999690
  0
ARC
  8
OBRYS
 62
     7
  6
DOT
 10
281.610264
 20
531.072129
 40
2.166692
 50
327.795963
 51
32.204037
  0
ARC
  8
OBRYS
 62
     7
  6
DOT
 10
283.110283
 20
532.804191
 40
0.666673
 50
300.000310
 51
59.999690
  0
LINE
  8
OBRYS
 62
     7
  6
DOT
 10
283.776956
 20
529.340068
 11
284.931664
 21
531.072129
  0
LINE
  8
OBRYS
 62
     7
  6
DOT
 10
284.931664
 20
531.072129
 11
283.776956
 21
532.804191
  0
ENDBLK
  8
OBRYS
  0
BLOCK
  8
OBRYS
  2
_5
 70
   64
 10
364.276967
 20
464.555625
  0
ARC
  8
OBRYS
 10
328.141293
 20
467.577383
 40
2.000000
 50
114.633309
 51
203.759663
  0
ARC
  8
OBRYS
 10
321.276967
 20
464.555625
 40
5.500000
 50
335.721253
 51
23.759663
  0
ARC
  8
OBRYS
 10
300.215069
 20
528.479977
 40
65.000000
 50
294.633309
 51
296.759350
  0
ARC
  8
OBRYS
 10
328.113636
 20
461.471803
 40
2.000000
 50
155.721253
 51
245.522013
  0
ARC
  8
OBRYS
 10
300.352614
 20
400.493728
 40
65.000000
 50
63.363799
 51
65.522013
  0
ARC
  8
OBRYS
 10
367.360789
 20
428.392294
 40
2.000000
 50
245.721253
 51
335.522013
  0
ARC
  8
OBRYS
 10
364.276967
 20
421.555625
 40
5.500000
 50
65.721253
 51
113.759663
  0
ARC
  8
OBRYS
 10
428.338864
 20
400.631273
 40
65.000000
 50
153.363799
 51
155.522013
  0
ARC
  8
OBRYS
 10
361.255209
 20
428.419952
 40
2.000000
 50
204.633309
 51
293.759663
  0
ARC
  8
OBRYS
 10
300.352614
 20
400.493728
 40
65.000000
 50
24.633309
 51
26.759350
  0
ARC
  8
OBRYS
 10
400.412640
 20
461.533867
 40
2.000000
 50
294.633309
 51
23.759663
  0
ARC
  8
OBRYS
 10
407.276967
 20
464.555625
 40
5.500000
 50
155.721253
 51
203.759663
  0
ARC
  8
OBRYS
 10
428.338864
 20
400.631273
 40
65.000000
 50
114.633309
 51
116.759350
  0
ARC
  8
OBRYS
 10
400.440298
 20
467.639447
 40
2.000000
 50
335.721253
 51
65.522013
  0
ARC
  8
OBRYS
 10
428.201319
 20
528.617523
 40
65.000000
 50
243.363799
 51
245.522013
  0
ARC
  8
OBRYS
 10
361.193145
 20
500.718956
 40
2.000000
 50
65.721253
 51
155.522013
  0
ARC
  8
OBRYS
 10
364.276967
 20
507.555625
 40
5.500000
 50
245.721253
 51
293.759663
  0
ARC
  8
OBRYS
 10
300.215069
 20
528.479977
 40
65.000000
 50
333.363799
 51
335.522013
  0
ARC
  8
OBRYS
 10
367.298725
 20
500.691299
 40
2.000000
 50
24.633309
 51
113.759663
  0
ARC
  8
OBRYS
 10
428.201319
 20
528.617523
 40
65.000000
 50
204.633309
 51
206.759350
  0
ARC
  8
OBRYS
 10
364.374226
 20
374.055680
 40
65.000000
 50
108.363799
 51
114.373655
  0
ARC
  8
OBRYS
 10
364.374226
 20
374.055680
 40
65.000000
 50
65.313549
 51
71.759350
  0
ARC
  8
OBRYS
 10
364.276967
 20
464.555625
 40
44.500000
 50
231.525690
 51
260.718202
  0
ARC
  8
OBRYS
 10
356.776967
 20
418.664449
 40
2.000000
 50
260.718202
 51
80.718202
  0
ARC
  8
OBRYS
 10
337.835011
 20
431.282919
 40
2.000000
 50
114.719093
 51
231.525690
  0
ARC
  8
OBRYS
 10
364.276967
 20
464.555625
 40
44.500000
 50
279.281798
 51
308.351160
  0
ARC
  8
OBRYS
 10
371.776967
 20
418.664449
 40
2.000000
 50
99.281798
 51
279.281798
  0
ARC
  8
OBRYS
 10
390.647347
 20
431.226163
 40
2.000000
 50
308.351160
 51
65.157757
  0
ARC
  8
OBRYS
 10
371.776967
 20
510.446801
 40
2.000000
 50
80.718202
 51
260.718202
  0
ARC
  8
OBRYS
 10
364.276967
 20
464.555625
 40
44.500000
 50
51.648840
 51
80.718202
  0
ARC
  8
OBRYS
 10
356.776967
 20
510.446801
 40
2.000000
 50
279.281798
 51
99.281798
  0
ARC
  8
OBRYS
 10
364.276967
 20
464.555625
 40
44.500000
 50
99.281798
 51
128.474310
  0
ARC
  8
OBRYS
 10
331.004261
 20
490.997581
 40
2.000000
 50
24.719093
 51
141.525690
  0
ARC
  8
OBRYS
 10
330.947504
 20
438.185245
 40
2.000000
 50
218.351160
 51
335.157757
  0
ARC
  8
OBRYS
 10
273.777022
 20
464.652884
 40
65.000000
 50
18.240650
 51
24.719093
  0
ARC
  8
OBRYS
 10
273.777022
 20
464.652884
 40
65.000000
 50
335.157757
 51
341.636201
  0
ARC
  8
OBRYS
 10
318.385791
 20
472.055625
 40
2.000000
 50
170.718202
 51
350.718202
  0
ARC
  8
OBRYS
 10
318.385791
 20
457.055625
 40
2.000000
 50
9.281798
 51
189.281798
  0
ARC
  8
OBRYS
 10
364.276967
 20
464.555625
 40
44.500000
 50
141.525690
 51
170.718202
  0
ARC
  8
OBRYS
 10
364.276967
 20
464.555625
 40
44.500000
 50
189.281798
 51
218.351160
  0
ARC
  8
OBRYS
 10
397.606429
 20
438.185245
 40
2.000000
 50
204.842243
 51
321.648840
  0
ARC
  8
OBRYS
 10
364.276967
 20
464.555625
 40
44.500000
 50
321.648840
 51
350.718202
  0
ARC
  8
OBRYS
 10
454.776912
 20
464.652884
 40
65.000000
 50
198.363799
 51
204.842243
  0
ARC
  8
OBRYS
 10
364.276967
 20
464.555625
 40
44.500000
 50
132.363620
 51
137.513230
  0
ARC
  8
OBRYS
 10
337.835011
 20
497.828331
 40
2.000000
 50
128.474310
 51
245.280907
  0
ARC
  8
OBRYS
 10
364.179708
 20
555.055570
 40
65.000000
 50
245.280907
 51
251.759350
  0
ARC
  8
OBRYS
 10
364.276967
 20
464.555625
 40
44.500000
 50
9.281798
 51
38.474310
  0
ARC
  8
OBRYS
 10
410.168142
 20
457.055625
 40
2.000000
 50
350.718202
 51
170.718202
  0
ARC
  8
OBRYS
 10
410.168142
 20
472.055625
 40
2.000000
 50
189.281798
 51
9.281798
  0
ARC
  8
OBRYS
 10
364.276967
 20
464.555625
 40
44.500000
 50
42.486770
 51
47.636380
  0
ARC
  8
OBRYS
 10
397.549673
 20
490.997581
 40
2.000000
 50
38.474310
 51
155.280907
  0
ARC
  8
OBRYS
 10
454.776912
 20
464.652884
 40
65.000000
 50
155.280907
 51
161.759350
  0
ARC
  8
OBRYS
 10
390.647347
 20
497.885088
 40
2.000000
 50
294.842243
 51
51.648840
  0
ARC
  8
OBRYS
 10
364.179708
 20
555.055570
 40
65.000000
 50
288.363799
 51
294.842243
  0
CIRCLE
  8
OBRYS
 10
364.276967
 20
464.555625
 40
48.500000
  0
CIRCLE
  8
OSA
 10
364.276967
 20
464.555625
 40
43.000000
  0
ARC
  8
OBRYS
 10
347.590241
 20
504.718809
 40
12.000000
 50
251.759350
 51
333.363799
  0
ARC
  8
OBRYS
 10
380.877329
 20
504.754582
 40
12.000000
 50
206.759350
 51
288.363799
  0
ARC
  8
OBRYS
 10
324.078010
 20
481.155987
 40
12.000000
 50
296.759350
 51
18.363799
  0
ARC
  8
OBRYS
 10
324.113783
 20
447.868899
 40
12.000000
 50
341.759350
 51
63.363799
  0
ARC
  8
OBRYS
 10
347.676605
 20
424.356668
 40
12.000000
 50
26.759350
 51
108.363799
  0
ARC
  8
OBRYS
 10
380.963693
 20
424.392442
 40
12.000000
 50
71.759350
 51
153.363799
  0
ARC
  8
OBRYS
 10
404.475923
 20
447.955263
 40
12.000000
 50
116.759350
 51
198.363799
  0
ARC
  8
OBRYS
 10
404.440150
 20
481.242351
 40
12.000000
 50
161.759350
 51
243.363799
  0
ARC
  8
OBRYS
 10
364.161697
 20
545.055533
 40
55.000000
 50
252.079214
 51
288.038032
  0
ARC
  8
OBRYS
 10
283.777059
 20
464.440355
 40
55.000000
 50
342.079214
 51
18.038032
  0
ARC
  8
OBRYS
 10
364.392237
 20
384.055718
 40
55.000000
 50
72.079214
 51
108.038032
  0
ARC
  8
OBRYS
 10
444.776874
 20
464.670895
 40
55.000000
 50
162.079214
 51
198.038032
  0
INSERT
  8
OBRYS
  2
Vnitrni_metricky_zavit_M6__14
 62
     7
 10
396.776967
 20
464.555625
  0
INSERT
  8
OBRYS
  2
Vnitrni_metricky_zavit_M6__15
 62
     7
 10
364.276967
 20
497.055625
  0
INSERT
  8
OBRYS
  2
Vnitrni_metricky_zavit_M6__16
 62
     7
 10
331.776967
 20
464.555625
  0
INSERT
  8
OBRYS
  2
Vnitrni_metricky_zavit_M6__17
 62
     7
 10
364.276967
 20
432.055625
  0
INSERT
  8
OBRYS
  2
Vnitrni_metricky_zavit_M6__18
 62
     7
 10
387.257937
 20
441.574655
  0
INSERT
  8
OBRYS
  2
Vnitrni_metricky_zavit_M6__19
 62
     7
 10
341.295996
 20
441.574655
  0
INSERT
  8
OBRYS
  2
Vnitrni_metricky_zavit_M6__20
 62
     7
 10
341.295996
 20
487.536595
  0
INSERT
  8
OBRYS
  2
Vnitrni_metricky_zavit_M6__21
 62
     7
 10
387.257937
 20
487.536595
  0
CIRCLE
  8
OSA
 10
364.276967
 20
464.555625
 40
32.500000
  0
CIRCLE
  8
OBRYS
 10
364.276967
 20
464.555625
 40
23.500000
  0
CIRCLE
  8
OBRYS
 10
364.276967
 20
464.555625
 40
25.000000
  0
ARC
  8
OBRYS
 10
364.276967
 20
464.555625
 40
38.000000
 50
38.893853
 51
51.106147
  0
ARC
  8
OBRYS
 10
364.276967
 20
464.555625
 40
38.000000
 50
308.893853
 51
321.106147
  0
ARC
  8
OBRYS
 10
364.276967
 20
464.555625
 40
38.000000
 50
218.893853
 51
231.106147
  0
ARC
  8
OBRYS
 10
364.276967
 20
464.555625
 40
38.000000
 50
128.893853
 51
141.106147
  0
LINE
  8
OSA
 10
364.276967
 20
464.555625
 11
364.276967
 21
413.555625
  0
LINE
  8
OSA
 10
364.276967
 20
464.555625
 11
415.276967
 21
464.555625
  0
LINE
  8
OSA
 10
364.276967
 20
464.555625
 11
313.276967
 21
464.555625
  0
LINE
  8
OSA
 10
364.276967
 20
464.555625
 11
364.276967
 21
515.555625
  0
INSERT
  8
OBRYS
  2
Srouby_s_valcovou_hlavou___22
 62
     7
 10
364.276967
 20
507.555625
  0
INSERT
  8
OBRYS
  2
Srouby_s_valcovou_hlavou___23
 62
     7
 10
407.276967
 20
464.555625
  0
INSERT
  8
OBRYS
  2
Srouby_s_valcovou_hlavou___24
 62
     7
 10
364.276967
 20
397.371902
  0
INSERT
  8
OBRYS
  2
Srouby_s_valcovou_hlavou___25
 62
     7
 10
321.276967
 20
464.555625
  0
ARC
  8
OBRYS
 10
361.476967
 20
476.355625
 40
0.200000
 50
90.000000
 51
180.000000
  0
LINE
  8
OBRYS
 10
361.476967
 20
476.555625
 11
367.076967
 21
476.555625
  0
LINE
  8
OBRYS
 10
361.276967
 20
473.569503
 11
361.276967
 21
476.355625
  0
ARC
  8
OBRYS
 10
367.076967
 20
476.355625
 40
0.200000
 50
0.000000
 51
90.000000
  0
LINE
  8
OBRYS
 10
367.276967
 20
476.355625
 11
367.276967
 21
473.569503
  0
ARC
  8
OBRYS
 10
364.276967
 20
464.555625
 40
9.500000
 50
108.408480
 51
71.591520
  0
CIRCLE
  8
OBRYS
 10
364.276967
 20
464.555625
 40
15.000000
  0
LINE
  8
OSA
 10
344.661322
 20
484.171270
 11
338.007359
 21
490.825232
  0
LINE
  8
OSA
 10
344.661322
 20
444.939980
 11
338.007359
 21
438.286018
  0
LINE
  8
OSA
 10
383.892612
 20
444.939980
 11
390.546574
 21
438.286018
  0
LINE
  8
OSA
 10
383.892612
 20
484.171270
 11
390.546574
 21
490.825232
  0
ENDBLK
  8
OBRYS
  0
BLOCK
  8
OBRYS
  2
Vnitrni_metricky_zavit_M6__14
 70
   66
 10
396.776967
 20
464.555625
  0
CIRCLE
  8
OBRYS
 10
396.776967
 20
464.555625
 40
2.458800
  0
ARC
  8
OBRYS
 62
     7
 10
396.776967
 20
464.555625
 40
3.000000
 50
220.000000
 51
140.000000
  0
ENDBLK
  8
OBRYS
  0
BLOCK
  8
OBRYS
  2
Vnitrni_metricky_zavit_M6__15
 70
   66
 10
364.276967
 20
497.055625
  0
CIRCLE
  8
OBRYS
 10
364.276967
 20
497.055625
 40
2.458800
  0
ARC
  8
OBRYS
 62
     7
 10
364.276967
 20
497.055625
 40
3.000000
 50
220.000000
 51
140.000000
  0
ENDBLK
  8
OBRYS
  0
BLOCK
  8
OBRYS
  2
Vnitrni_metricky_zavit_M6__16
 70
   66
 10
331.776967
 20
464.555625
  0
CIRCLE
  8
OBRYS
 10
331.776967
 20
464.555625
 40
2.458800
  0
ARC
  8
OBRYS
 62
     7
 10
331.776967
 20
464.555625
 40
3.000000
 50
220.000000
 51
140.000000
  0
ENDBLK
  8
OBRYS
  0
BLOCK
  8
OBRYS
  2
Vnitrni_metricky_zavit_M6__17
 70
   66
 10
364.276967
 20
432.055625
  0
CIRCLE
  8
OBRYS
 10
364.276967
 20
432.055625
 40
2.458800
  0
ARC
  8
OBRYS
 62
     7
 10
364.276967
 20
432.055625
 40
3.000000
 50
220.000000
 51
140.000000
  0
ENDBLK
  8
OBRYS
  0
BLOCK
  8
OBRYS
  2
Vnitrni_metricky_zavit_M6__18
 70
   66
 10
387.257937
 20
441.574655
  0
CIRCLE
  8
OBRYS
 10
387.257937
 20
441.574655
 40
2.458800
  0
ARC
  8
OBRYS
 62
     7
 10
387.257937
 20
441.574655
 40
3.000000
 50
265.000000
 51
185.000000
  0
ENDBLK
  8
OBRYS
  0
BLOCK
  8
OBRYS
  2
Vnitrni_metricky_zavit_M6__19
 70
   66
 10
341.295996
 20
441.574655
  0
CIRCLE
  8
OBRYS
 10
341.295996
 20
441.574655
 40
2.458800
  0
ARC
  8
OBRYS
 62
     7
 10
341.295996
 20
441.574655
 40
3.000000
 50
265.000000
 51
185.000000
  0
ENDBLK
  8
OBRYS
  0
BLOCK
  8
OBRYS
  2
Vnitrni_metricky_zavit_M6__20
 70
   66
 10
341.295996
 20
487.536595
  0
CIRCLE
  8
OBRYS
 10
341.295996
 20
487.536595
 40
2.458800
  0
ARC
  8
OBRYS
 62
     7
 10
341.295996
 20
487.536595
 40
3.000000
 50
265.000000
 51
185.000000
  0
ENDBLK
  8
OBRYS
  0
BLOCK
  8
OBRYS
  2
Vnitrni_metricky_zavit_M6__21
 70
   66
 10
387.257937
 20
487.536595
  0
CIRCLE
  8
OBRYS
 10
387.257937
 20
487.536595
 40
2.458800
  0
ARC
  8
OBRYS
 62
     7
 10
387.257937
 20
487.536595
 40
3.000000
 50
265.000000
 51
185.000000
  0
ENDBLK
  8
OBRYS
  0
BLOCK
  8
OBRYS
  2
Srouby_s_valcovou_hlavou___22
 70
   66
 10
364.276967
 20
507.555625
  0
LINE
  8
OBRYS
 10
361.776967
 20
506.112240
 11
361.776967
 21
508.999010
  0
LINE
  8
OBRYS
 10
361.776967
 20
508.999010
 11
364.276967
 21
510.442394
  0
LINE
  8
OBRYS
 10
364.276967
 20
510.442394
 11
366.776967
 21
508.999010
  0
LINE
  8
OBRYS
 10
366.776967
 20
508.999010
 11
366.776967
 21
506.112240
  0
LINE
  8
OBRYS
 10
366.776967
 20
506.112240
 11
364.276967
 21
504.668856
  0
LINE
  8
OBRYS
 10
364.276967
 20
504.668856
 11
361.776967
 21
506.112240
  0
CIRCLE
  8
OBRYS
 10
364.276967
 20
507.555625
 40
2.886769
  0
CIRCLE
  8
OBRYS
 10
364.276967
 20
507.555625
 40
5.000000
  0
ENDBLK
  8
OBRYS
  0
BLOCK
  8
OBRYS
  2
Srouby_s_valcovou_hlavou___23
 70
   66
 10
407.276967
 20
464.555625
  0
LINE
  8
OBRYS
 10
404.776967
 20
463.112240
 11
404.776967
 21
465.999010
  0
LINE
  8
OBRYS
 10
404.776967
 20
465.999010
 11
407.276967
 21
467.442394
  0
LINE
  8
OBRYS
 10
407.276967
 20
467.442394
 11
409.776967
 21
465.999010
  0
LINE
  8
OBRYS
 10
409.776967
 20
465.999010
 11
409.776967
 21
463.112240
  0
LINE
  8
OBRYS
 10
409.776967
 20
463.112240
 11
407.276967
 21
461.668856
  0
LINE
  8
OBRYS
 10
407.276967
 20
461.668856
 11
404.776967
 21
463.112240
  0
CIRCLE
  8
OBRYS
 10
407.276967
 20
464.555625
 40
2.886769
  0
CIRCLE
  8
OBRYS
 10
407.276967
 20
464.555625
 40
5.000000
  0
ENDBLK
  8
OBRYS
  0
BLOCK
  8
OBRYS
  2
Srouby_s_valcovou_hlavou___24
 70
   66
 10
364.276967
 20
397.371902
  0
LINE
  8
OBRYS
 10
361.776967
 20
420.112240
 11
361.776967
 21
422.999010
  0
LINE
  8
OBRYS
 10
361.776967
 20
422.999010
 11
364.276967
 21
424.442394
  0
LINE
  8
OBRYS
 10
364.276967
 20
424.442394
 11
366.776967
 21
422.999010
  0
LINE
  8
OBRYS
 10
366.776967
 20
422.999010
 11
366.776967
 21
420.112240
  0
LINE
  8
OBRYS
 10
366.776967
 20
420.112240
 11
364.276967
 21
418.668856
  0
LINE
  8
OBRYS
 10
364.276967
 20
418.668856
 11
361.776967
 21
420.112240
  0
CIRCLE
  8
OBRYS
 10
364.276967
 20
421.555625
 40
2.886769
  0
CIRCLE
  8
OBRYS
 10
364.276967
 20
421.555625
 40
5.000000
  0
ENDBLK
  8
OBRYS
  0
BLOCK
  8
OBRYS
  2
Srouby_s_valcovou_hlavou___25
 70
   66
 10
321.276967
 20
464.555625
  0
LINE
  8
OBRYS
 10
318.776967
 20
463.112240
 11
318.776967
 21
465.999010
  0
LINE
  8
OBRYS
 10
318.776967
 20
465.999010
 11
321.276967
 21
467.442394
  0
LINE
  8
OBRYS
 10
321.276967
 20
467.442394
 11
323.776967
 21
465.999010
  0
LINE
  8
OBRYS
 10
323.776967
 20
465.999010
 11
323.776967
 21
463.112240
  0
LINE
  8
OBRYS
 10
323.776967
 20
463.112240
 11
321.276967
 21
461.668856
  0
LINE
  8
OBRYS
 10
321.276967
 20
461.668856
 11
318.776967
 21
463.112240
  0
CIRCLE
  8
OBRYS
 10
321.276967
 20
464.555625
 40
2.886769
  0
CIRCLE
  8
OBRYS
 10
321.276967
 20
464.555625
 40
5.000000
  0
ENDBLK
  8
OBRYS
  0
BLOCK
  8
KOTA
  2
Vnitrni_metricky_zavit_M1_6
 70
   66
 10
364.276967
 20
654.302921
  0
CIRCLE
  8
KOTA
 62
     2
 10
364.276967
 20
654.302921
 40
4.458800
  0
ARC
  8
KOTA
 62
     7
 10
364.276967
 20
654.302921
 40
5.000000
 50
85.000000
 51
5.000000
  0
ENDBLK
  8
KOTA
  0
BLOCK
  8
OBRYS
  2
_7
 70
   64
 10
364.276967
 20
678.302921
  0
ARC
  8
OBRYS
 10
316.776967
 20
679.302921
 40
1.000000
 50
179.999761
 51
270.000000
  0
LINE
  8
OBRYS
 62
     7
  6
DASHDOT
 10
364.276967
 20
698.039198
 11
364.276967
 21
665.852060
  0
LINE
  8
OBRYS
 10
389.276967
 20
692.802921
 11
339.276967
 21
692.802921
  0
ARC
  8
OBRYS
 10
319.905428
 20
688.302921
 40
2.000000
 50
270.000000
 51
291.047672
  0
LINE
  8
OBRYS
 10
333.219159
 20
692.802921
 11
339.276967
 21
692.802921
  0
LINE
  8
OBRYS
 10
333.219159
 20
692.802921
 11
330.599715
 21
686.302921
  0
LINE
  8
OBRYS
 10
341.016140
 20
692.802921
 11
334.482494
 21
686.302921
  0
LINE
  8
OBRYS
 10
331.002707
 20
687.302921
 11
325.474216
 21
687.302921
  0
LINE
  8
OBRYS
 10
358.763668
 20
687.302921
 11
369.790265
 21
687.302921
  0
LINE
  8
OBRYS
 10
358.763668
 20
687.302921
 11
352.657828
 21
687.302921
  0
LINE
  8
OBRYS
 10
361.105619
 20
686.302921
 11
358.763668
 21
687.302921
  0
LINE
  8
OBRYS
 10
367.448315
 20
686.302921
 11
369.790265
 21
687.302921
  0
LINE
  8
OBRYS
 10
369.790265
 20
687.302921
 11
375.896106
 21
687.302921
  0
LINE
  8
OBRYS
 10
397.551227
 20
687.302921
 11
403.079718
 21
687.302921
  0
LINE
  8
OBRYS
 10
387.537794
 20
692.802921
 11
394.071440
 21
686.302921
  0
LINE
  8
OBRYS
 10
395.334775
 20
692.802921
 11
397.954218
 21
686.302921
  0
LINE
  8
OBRYS
 10
395.334775
 20
692.802921
 11
389.276967
 21
692.802921
  0
LINE
  8
OBRYS
 10
364.276967
 20
686.302921
 11
410.276967
 21
686.302921
  0
ARC
  8
OBRYS
 10
408.648506
 20
688.302921
 40
2.000000
 50
248.952328
 51
270.000000
  0
LINE
  8
OBRYS
 10
403.079718
 20
687.302921
 11
407.930216
 21
686.436357
  0
LINE
  8
OBRYS
 10
325.474216
 20
687.302921
 11
320.623717
 21
686.436357
  0
ARC
  8
OBRYS
 10
319.905428
 20
688.302921
 40
2.000000
 50
270.000000
 51
291.047672
  0
LINE
  8
OBRYS
 10
389.276967
 20
694.802921
 11
388.776967
 21
695.302921
  0
LINE
  8
OBRYS
 10
389.276967
 20
694.802921
 11
389.276967
 21
692.802921
  0
LINE
  8
OBRYS
 10
339.276967
 20
694.802921
 11
339.776967
 21
695.302921
  0
LINE
  8
OBRYS
 10
339.276967
 20
694.802921
 11
339.276967
 21
692.802921
  0
LINE
  8
OBRYS
 10
388.776967
 20
695.302921
 11
339.776967
 21
695.302921
  0
LINE
  8
OBRYS
 10
339.276967
 20
694.802921
 11
389.276967
 21
694.802921
  0
LINE
  8
OBRYS
 10
364.276967
 20
686.302921
 11
317.776967
 21
686.302921
  0
LINE
  8
OBRYS
 10
315.776967
 20
679.302921
 11
315.776967
 21
684.302921
  0
ARC
  8
OBRYS
 10
317.776967
 20
684.302921
 40
2.000000
 50
90.000000
 51
180.000000
  0
ARC
  8
OBRYS
 10
410.776967
 20
684.302921
 40
2.000000
 50
0.000000
 51
90.000000
  0
LINE
  8
OBRYS
 10
412.776967
 20
679.302921
 11
412.776967
 21
684.302921
  0
ARC
  8
OBRYS
 10
411.776967
 20
679.302921
 40
1.000000
 50
270.000000
 51
360.000000
  0
ENDBLK
  8
OBRYS
  0
BLOCK
  8
OBRYS
  2
_8
 70
   64
 10
150.529671
 20
464.555625
  0
ARC
  8
OBRYS
 10
144.529671
 20
511.055625
 40
2.000000
 50
90.000000
 51
180.000000
  0
ARC
  8
OBRYS
 10
144.529671
 20
418.055625
 40
2.000000
 50
180.000000
 51
270.000000
  0
LINE
  8
OBRYS
 10
149.529671
 20
416.055625
 11
144.529671
 21
416.055625
  0
LINE
  8
OBRYS
 10
142.529671
 20
464.555625
 11
142.529671
 21
418.055625
  0
LINE
  8
OBRYS
 10
134.029671
 20
439.555625
 11
134.029671
 21
489.555625
  0
LINE
  8
OBRYS
 10
133.529671
 20
489.055625
 11
133.529671
 21
440.055625
  0
LINE
  8
OBRYS
 10
134.029671
 20
439.555625
 11
136.029671
 21
439.555625
  0
LINE
  8
OBRYS
 10
134.029671
 20
439.555625
 11
133.529671
 21
440.055625
  0
LINE
  8
OBRYS
 10
134.029671
 20
489.555625
 11
136.029671
 21
489.555625
  0
LINE
  8
OBRYS
 10
134.029671
 20
489.555625
 11
133.529671
 21
489.055625
  0
ARC
  8
OBRYS
 10
140.529671
 20
420.184086
 40
2.000000
 50
0.000000
 51
21.047672
  0
LINE
  8
OBRYS
 10
141.529671
 20
425.752874
 11
142.396235
 21
420.902376
  0
LINE
  8
OBRYS
 10
141.529671
 20
503.358376
 11
142.396235
 21
508.208875
  0
ARC
  8
OBRYS
 10
140.529671
 20
508.927164
 40
2.000000
 50
338.952328
 51
360.000000
  0
LINE
  8
OBRYS
 10
142.529671
 20
464.555625
 11
142.529671
 21
510.555625
  0
LINE
  8
OBRYS
 10
136.029671
 20
495.613433
 11
136.029671
 21
489.555625
  0
LINE
  8
OBRYS
 10
136.029671
 20
495.613433
 11
142.529671
 21
498.232877
  0
LINE
  8
OBRYS
 10
136.029671
 20
487.816452
 11
142.529671
 21
494.350098
  0
LINE
  8
OBRYS
 10
141.529671
 20
497.829885
 11
141.529671
 21
503.358376
  0
LINE
  8
OBRYS
 10
141.529671
 20
470.068923
 11
141.529671
 21
476.174764
  0
LINE
  8
OBRYS
 10
142.529671
 20
467.726973
 11
141.529671
 21
470.068923
  0
LINE
  8
OBRYS
 10
142.529671
 20
461.384277
 11
141.529671
 21
459.042327
  0
LINE
  8
OBRYS
 10
141.529671
 20
459.042327
 11
141.529671
 21
452.936486
  0
LINE
  8
OBRYS
 10
141.529671
 20
459.042327
 11
141.529671
 21
470.068923
  0
LINE
  8
OBRYS
 10
141.529671
 20
431.281365
 11
141.529671
 21
425.752874
  0
LINE
  8
OBRYS
 10
136.029671
 20
441.294798
 11
142.529671
 21
434.761152
  0
LINE
  8
OBRYS
 10
136.029671
 20
433.497817
 11
142.529671
 21
430.878374
  0
LINE
  8
OBRYS
 10
136.029671
 20
433.497817
 11
136.029671
 21
439.555625
  0
ARC
  8
OBRYS
 10
140.529671
 20
420.184086
 40
2.000000
 50
0.000000
 51
21.047672
  0
LINE
  8
OBRYS
 10
136.029671
 20
489.555625
 11
136.029671
 21
439.555625
  0
LINE
  8
OBRYS
 62
     7
  6
DASHDOT
 10
130.793394
 20
464.555625
 11
162.980532
 21
464.555625
  0
ARC
  8
OBRYS
 10
149.529671
 20
417.055625
 40
1.000000
 50
269.999761
 51
360.000000
  0
LINE
  8
OBRYS
 10
148.029671
 20
513.055625
 11
144.529671
 21
513.055625
  0
ENDBLK
  8
OBRYS
  0
BLOCK
  8
OBRYS
  2
_9
 70
   64
 10
713.834956
 20
464.555625
  0
CIRCLE
  8
OBRYS
 10
713.834956
 20
464.555625
 40
48.500000
  0
ARC
  8
OBRYS
 10
711.034956
 20
476.355625
 40
0.200000
 50
90.000000
 51
180.000000
  0
LINE
  8
OBRYS
 10
711.034956
 20
476.555625
 11
716.634956
 21
476.555625
  0
LINE
  8
OBRYS
 10
710.834956
 20
473.569503
 11
710.834956
 21
476.355625
  0
ARC
  8
OBRYS
 10
716.634956
 20
476.355625
 40
0.200000
 50
0.000000
 51
90.000000
  0
LINE
  8
OBRYS
 10
716.834956
 20
476.355625
 11
716.834956
 21
473.569503
  0
ARC
  8
OBRYS
 10
713.834956
 20
464.555625
 40
9.500000
 50
108.408480
 51
71.591520
  0
CIRCLE
  8
OBRYS
 10
713.834956
 20
464.555625
 40
15.000000
  0
LINE
  8
OBRYS
 62
     7
  6
DASHDOT
 10
713.834956
 20
464.555625
 11
713.834956
 21
413.555625
  0
LINE
  8
OBRYS
 62
     7
  6
DASHDOT
 10
713.834956
 20
464.555625
 11
764.834956
 21
464.555625
  0
LINE
  8
OBRYS
 62
     7
  6
DASHDOT
 10
713.834956
 20
464.555625
 11
662.834956
 21
464.555625
  0
CIRCLE
  8
OBRYS
 62
     7
  6
DASHDOT
 10
713.834956
 20
464.555625
 40
32.500000
  0
INSERT
  8
OBRYS
  2
Vnitrni_metricky_zavit_M6__27
 62
     7
 10
736.815926
 20
487.536595
  0
INSERT
  8
OBRYS
  2
Vnitrni_metricky_zavit_M6__28
 62
     7
 10
690.853985
 20
487.536595
  0
INSERT
  8
OBRYS
  2
Vnitrni_metricky_zavit_M6__29
 62
     7
 10
690.853985
 20
441.574655
  0
INSERT
  8
OBRYS
  2
Vnitrni_metricky_zavit_M6__30
 62
     7
 10
736.815926
 20
441.574655
  0
INSERT
  8
OBRYS
  2
Vnitrni_metricky_zavit_M6__31
 62
     7
 10
713.834956
 20
432.055625
  0
INSERT
  8
OBRYS
  2
Vnitrni_metricky_zavit_M6__32
 62
     7
 10
681.334956
 20
464.555625
  0
INSERT
  8
OBRYS
  2
Vnitrni_metricky_zavit_M6__33
 62
     7
 10
713.834956
 20
497.055625
  0
INSERT
  8
OBRYS
  2
Vnitrni_metricky_zavit_M6__34
 62
     7
 10
746.334956
 20
464.555625
  0
ARC
  8
OBRYS
 10
713.834956
 20
464.555625
 40
44.000000
 50
223.697711
 51
226.302289
  0
ARC
  8
OBRYS
 10
713.834956
 20
464.555625
 40
44.000000
 50
268.697711
 51
271.302289
  0
ARC
  8
OBRYS
 10
713.834956
 20
464.555625
 40
44.000000
 50
313.697711
 51
316.302289
  0
ARC
  8
OBRYS
 10
713.834956
 20
464.555625
 40
44.000000
 50
358.697711
 51
1.302289
  0
ARC
  8
OBRYS
 10
713.834956
 20
464.555625
 40
44.000000
 50
178.697711
 51
181.302289
  0
ARC
  8
OBRYS
 10
713.834956
 20
464.555625
 40
44.000000
 50
133.697711
 51
136.302289
  0
ARC
  8
OBRYS
 10
697.415887
 20
424.916487
 40
12.000000
 50
26.842582
 51
108.157418
  0
ARC
  8
OBRYS
 10
730.281614
 20
424.970927
 40
12.000000
 50
72.032394
 51
153.091440
  0
ARC
  8
OBRYS
 10
713.950226
 20
384.555718
 40
55.000000
 50
72.347369
 51
107.835349
  0
ARC
  8
OBRYS
 10
753.474094
 20
448.136557
 40
12.000000
 50
116.842582
 51
198.157418
  0
ARC
  8
OBRYS
 10
753.419654
 20
481.002283
 40
12.000000
 50
162.032394
 51
243.091440
  0
ARC
  8
OBRYS
 10
793.834863
 20
464.670895
 40
55.000000
 50
162.347369
 51
197.835349
  0
ARC
  8
OBRYS
 10
674.195818
 20
480.974694
 40
12.000000
 50
296.842582
 51
18.157418
  0
ARC
  8
OBRYS
 10
674.250258
 20
448.108967
 40
12.000000
 50
342.032394
 51
63.091440
  0
ARC
  8
OBRYS
 10
633.835048
 20
464.440355
 40
55.000000
 50
342.347369
 51
17.835349
  0
ARC
  8
OBRYS
 10
713.719686
 20
544.555533
 40
55.000000
 50
252.347369
 51
287.835349
  0
ARC
  8
OBRYS
 10
697.388298
 20
504.140323
 40
12.000000
 50
252.032394
 51
333.091440
  0
ARC
  8
OBRYS
 10
730.254024
 20
504.194763
 40
12.000000
 50
206.842582
 51
288.157418
  0
ARC
  8
OBRYS
 10
713.834956
 20
464.555625
 40
44.000000
 50
88.697711
 51
91.302289
  0
CIRCLE
  8
OBRYS
 10
713.834956
 20
464.555625
 40
25.000000
  0
CIRCLE
  8
OBRYS
 10
713.834956
 20
464.555625
 40
23.500000
  0
ARC
  8
OBRYS
 10
777.543300
 20
528.126424
 40
65.000000
 50
200.268536
 51
206.842582
  0
ARC
  8
OBRYS
 10
718.444303
 20
506.301929
 40
2.000000
 50
83.699305
 51
200.268536
  0
ARC
  8
OBRYS
 10
650.126612
 20
528.126424
 40
65.000000
 50
333.091440
 51
339.731464
  0
ARC
  8
OBRYS
 10
709.225608
 20
506.301929
 40
2.000000
 50
339.731464
 51
96.300695
  0
ARC
  8
OBRYS
 10
713.834956
 20
464.555625
 40
44.000000
 50
51.300695
 51
83.699305
  0
ARC
  8
OBRYS
 10
713.737697
 20
554.555570
 40
65.000000
 50
288.157418
 51
294.731464
  0
ARC
  8
OBRYS
 10
740.094750
 20
497.334021
 40
2.000000
 50
294.731464
 51
51.300695
  0
ARC
  8
OBRYS
 10
803.834901
 20
464.652884
 40
65.000000
 50
155.392370
 51
162.032394
  0
ARC
  8
OBRYS
 10
746.556519
 20
490.886202
 40
2.000000
 50
38.823139
 51
155.392370
  0
ARC
  8
OBRYS
 10
777.405755
 20
528.263969
 40
65.000000
 50
243.091440
 51
249.731464
  0
ARC
  8
OBRYS
 10
713.834956
 20
464.555625
 40
44.000000
 50
6.300695
 51
38.823139
  0
ARC
  8
OBRYS
 10
755.581260
 20
469.164972
 40
2.000000
 50
249.731464
 51
6.300695
  0
ARC
  8
OBRYS
 10
803.834901
 20
464.652884
 40
65.000000
 50
198.157418
 51
204.731464
  0
ARC
  8
OBRYS
 10
746.613351
 20
438.295831
 40
2.000000
 50
204.731464
 51
321.300695
  0
ARC
  8
OBRYS
 10
713.932215
 20
374.555680
 40
65.000000
 50
65.392370
 51
72.032394
  0
ARC
  8
OBRYS
 10
740.165533
 20
431.834062
 40
2.000000
 50
308.823139
 51
65.392370
  0
ARC
  8
OBRYS
 10
713.834956
 20
464.555625
 40
44.000000
 50
276.300695
 51
308.823139
  0
ARC
  8
OBRYS
 10
777.543300
 20
400.984826
 40
65.000000
 50
153.091440
 51
159.731464
  0
ARC
  8
OBRYS
 10
718.444303
 20
422.809321
 40
2.000000
 50
159.731464
 51
276.300695
  0
ARC
  8
OBRYS
 10
650.126612
 20
400.984826
 40
65.000000
 50
20.268536
 51
26.842582
  0
ARC
  8
OBRYS
 10
709.225608
 20
422.809321
 40
2.000000
 50
263.699305
 51
20.268536
  0
ARC
  8
OBRYS
 10
713.834956
 20
464.555625
 40
44.000000
 50
231.300695
 51
263.699305
  0
ARC
  8
OBRYS
 10
713.932215
 20
374.555680
 40
65.000000
 50
108.157418
 51
114.731464
  0
ARC
  8
OBRYS
 10
687.575162
 20
431.777230
 40
2.000000
 50
114.731464
 51
231.300695
  0
ARC
  8
OBRYS
 10
623.835011
 20
464.458366
 40
65.000000
 50
335.392370
 51
342.032394
  0
ARC
  8
OBRYS
 10
681.113392
 20
438.225048
 40
2.000000
 50
218.823139
 51
335.392370
  0
ARC
  8
OBRYS
 10
713.834956
 20
464.555625
 40
44.000000
 50
186.300695
 51
218.823139
  0
ARC
  8
OBRYS
 10
650.264157
 20
400.847281
 40
65.000000
 50
63.091440
 51
69.731464
  0
ARC
  8
OBRYS
 10
672.088652
 20
459.946278
 40
2.000000
 50
69.731464
 51
186.300695
  0
ARC
  8
OBRYS
 10
650.264157
 20
528.263969
 40
65.000000
 50
290.268536
 51
296.842582
  0
ARC
  8
OBRYS
 10
672.088652
 20
469.164972
 40
2.000000
 50
173.699305
 51
290.268536
  0
ARC
  8
OBRYS
 10
623.835011
 20
464.458366
 40
65.000000
 50
18.157418
 51
24.731464
  0
ARC
  8
OBRYS
 10
713.834956
 20
464.555625
 40
44.000000
 50
141.300695
 51
173.699305
  0
ARC
  8
OBRYS
 10
681.056560
 20
490.815419
 40
2.000000
 50
24.731464
 51
141.300695
  0
ARC
  8
OBRYS
 10
713.737697
 20
554.555570
 40
65.000000
 50
245.392370
 51
252.032394
  0
ARC
  8
OBRYS
 10
713.834956
 20
464.555625
 40
44.000000
 50
96.300695
 51
128.823139
  0
ARC
  8
OBRYS
 10
687.504379
 20
497.277188
 40
2.000000
 50
128.823139
 51
245.392370
  0
ARC
  8
OBRYS
 10
713.834956
 20
464.555625
 40
44.000000
 50
321.300695
 51
353.699305
  0
ARC
  8
OBRYS
 10
777.405755
 20
400.847281
 40
65.000000
 50
110.268536
 51
116.842582
  0
ARC
  8
OBRYS
 10
755.581260
 20
459.946278
 40
2.000000
 50
353.699305
 51
110.268536
  0
ARC
  8
OBRYS
 10
713.834956
 20
464.555625
 40
38.000000
 50
38.893853
 51
51.106147
  0
ARC
  8
OBRYS
 10
713.834956
 20
464.555625
 40
38.000000
 50
353.893853
 51
6.106147
  0
ARC
  8
OBRYS
 10
713.834956
 20
464.555625
 40
38.000000
 50
308.893853
 51
321.106147
  0
ARC
  8
OBRYS
 10
713.834956
 20
464.555625
 40
38.000000
 50
263.893853
 51
276.106147
  0
ARC
  8
OBRYS
 10
713.834956
 20
464.555625
 40
38.000000
 50
218.893853
 51
231.106147
  0
ARC
  8
OBRYS
 10
713.834956
 20
464.555625
 40
38.000000
 50
173.893853
 51
186.106147
  0
ARC
  8
OBRYS
 10
713.834956
 20
464.555625
 40
38.000000
 50
128.893853
 51
141.106147
  0
ARC
  8
OBRYS
 10
713.834956
 20
464.555625
 40
38.000000
 50
83.893853
 51
96.106147
  0
LINE
  8
OBRYS
 62
     7
  6
DASHDOT
 10
713.834956
 20
464.555625
 11
713.834956
 21
515.555625
  0
ENDBLK
  8
OBRYS
  0
BLOCK
  8
OBRYS
  2
Vnitrni_metricky_zavit_M6__27
 70
   66
 10
736.815926
 20
487.536595
  0
CIRCLE
  8
OBRYS
 10
736.815926
 20
487.536595
 40
2.458800
  0
ARC
  8
OBRYS
 62
     7
 10
736.815926
 20
487.536595
 40
3.000000
 50
265.000000
 51
185.000000
  0
ENDBLK
  8
OBRYS
  0
BLOCK
  8
OBRYS
  2
Vnitrni_metricky_zavit_M6__28
 70
   66
 10
690.853985
 20
487.536595
  0
CIRCLE
  8
OBRYS
 10
690.853985
 20
487.536595
 40
2.458800
  0
ARC
  8
OBRYS
 62
     7
 10
690.853985
 20
487.536595
 40
3.000000
 50
265.000000
 51
185.000000
  0
ENDBLK
  8
OBRYS
  0
BLOCK
  8
OBRYS
  2
Vnitrni_metricky_zavit_M6__29
 70
   66
 10
690.853985
 20
441.574655
  0
CIRCLE
  8
OBRYS
 10
690.853985
 20
441.574655
 40
2.458800
  0
ARC
  8
OBRYS
 62
     7
 10
690.853985
 20
441.574655
 40
3.000000
 50
265.000000
 51
185.000000
  0
ENDBLK
  8
OBRYS
  0
BLOCK
  8
OBRYS
  2
Vnitrni_metricky_zavit_M6__30
 70
   66
 10
736.815926
 20
441.574655
  0
CIRCLE
  8
OBRYS
 10
736.815926
 20
441.574655
 40
2.458800
  0
ARC
  8
OBRYS
 62
     7
 10
736.815926
 20
441.574655
 40
3.000000
 50
265.000000
 51
185.000000
  0
ENDBLK
  8
OBRYS
  0
BLOCK
  8
OBRYS
  2
Vnitrni_metricky_zavit_M6__31
 70
   66
 10
713.834956
 20
432.055625
  0
CIRCLE
  8
OBRYS
 10
713.834956
 20
432.055625
 40
2.458800
  0
ARC
  8
OBRYS
 62
     7
 10
713.834956
 20
432.055625
 40
3.000000
 50
220.000000
 51
140.000000
  0
ENDBLK
  8
OBRYS
  0
BLOCK
  8
OBRYS
  2
Vnitrni_metricky_zavit_M6__32
 70
   66
 10
681.334956
 20
464.555625
  0
CIRCLE
  8
OBRYS
 10
681.334956
 20
464.555625
 40
2.458800
  0
ARC
  8
OBRYS
 62
     7
 10
681.334956
 20
464.555625
 40
3.000000
 50
220.000000
 51
140.000000
  0
ENDBLK
  8
OBRYS
  0
BLOCK
  8
OBRYS
  2
Vnitrni_metricky_zavit_M6__33
 70
   66
 10
713.834956
 20
497.055625
  0
CIRCLE
  8
OBRYS
 10
713.834956
 20
497.055625
 40
2.458800
  0
ARC
  8
OBRYS
 62
     7
 10
713.834956
 20
497.055625
 40
3.000000
 50
220.000000
 51
140.000000
  0
ENDBLK
  8
OBRYS
  0
BLOCK
  8
OBRYS
  2
Vnitrni_metricky_zavit_M6__34
 70
   66
 10
746.334956
 20
464.555625
  0
CIRCLE
  8
OBRYS
 10
746.334956
 20
464.555625
 40
2.458800
  0
ARC
  8
OBRYS
 62
     7
 10
746.334956
 20
464.555625
 40
3.000000
 50
220.000000
 51
140.000000
  0
ENDBLK
  8
OBRYS
  0
BLOCK
  8
OBRYS
  2
_10
 70
   64
 10
364.276967
 20
306.624606
  0
ARC
  8
OBRYS
 10
410.776967
 20
300.624606
 40
2.000000
 50
270.000000
 51
360.000000
  0
ARC
  8
OBRYS
 10
317.776967
 20
300.624606
 40
2.000000
 50
180.000000
 51
270.000000
  0
LINE
  8
OBRYS
 10
364.276967
 20
298.624606
 11
317.776967
 21
298.624606
  0
LINE
  8
OBRYS
 10
339.276967
 20
290.124606
 11
389.276967
 21
290.124606
  0
LINE
  8
OBRYS
 10
388.776967
 20
289.624606
 11
339.776967
 21
289.624606
  0
LINE
  8
OBRYS
 10
339.276967
 20
290.124606
 11
339.276967
 21
292.124606
  0
LINE
  8
OBRYS
 10
339.276967
 20
290.124606
 11
339.776967
 21
289.624606
  0
LINE
  8
OBRYS
 10
389.276967
 20
290.124606
 11
389.276967
 21
292.124606
  0
LINE
  8
OBRYS
 10
389.276967
 20
290.124606
 11
388.776967
 21
289.624606
  0
ARC
  8
OBRYS
 10
319.905428
 20
296.624606
 40
2.000000
 50
68.952328
 51
90.000000
  0
LINE
  8
OBRYS
 10
325.474216
 20
297.624606
 11
320.623717
 21
298.491170
  0
LINE
  8
OBRYS
 10
403.079718
 20
297.624606
 11
407.930216
 21
298.491170
  0
ARC
  8
OBRYS
 10
408.648506
 20
296.624606
 40
2.000000
 50
90.000000
 51
111.047672
  0
LINE
  8
OBRYS
 10
364.276967
 20
298.624606
 11
410.276967
 21
298.624606
  0
LINE
  8
OBRYS
 10
395.334775
 20
292.124606
 11
389.276967
 21
292.124606
  0
LINE
  8
OBRYS
 10
395.334775
 20
292.124606
 11
397.954218
 21
298.624606
  0
LINE
  8
OBRYS
 10
387.537794
 20
292.124606
 11
394.071440
 21
298.624606
  0
LINE
  8
OBRYS
 10
397.551227
 20
297.624606
 11
403.079718
 21
297.624606
  0
LINE
  8
OBRYS
 10
369.790265
 20
297.624606
 11
375.896106
 21
297.624606
  0
LINE
  8
OBRYS
 10
367.448315
 20
298.624606
 11
369.790265
 21
297.624606
  0
LINE
  8
OBRYS
 10
361.105619
 20
298.624606
 11
358.763668
 21
297.624606
  0
LINE
  8
OBRYS
 10
358.763668
 20
297.624606
 11
352.657828
 21
297.624606
  0
LINE
  8
OBRYS
 10
358.763668
 20
297.624606
 11
369.790265
 21
297.624606
  0
LINE
  8
OBRYS
 10
331.002707
 20
297.624606
 11
325.474216
 21
297.624606
  0
LINE
  8
OBRYS
 10
341.016140
 20
292.124606
 11
334.482494
 21
298.624606
  0
LINE
  8
OBRYS
 10
333.219159
 20
292.124606
 11
330.599715
 21
298.624606
  0
LINE
  8
OBRYS
 10
333.219159
 20
292.124606
 11
339.276967
 21
292.124606
  0
ARC
  8
OBRYS
 10
319.905428
 20
296.624606
 40
2.000000
 50
68.952328
 51
90.000000
  0
LINE
  8
OBRYS
 10
389.276967
 20
292.124606
 11
339.276967
 21
292.124606
  0
LINE
  8
OBRYS
 62
     7
  6
DASHDOT
 10
364.276967
 20
286.888329
 11
364.276967
 21
319.075467
  0
LINE
  8
OBRYS
 10
412.776967
 20
304.124606
 11
412.776967
 21
300.624606
  0
LINE
  8
OBRYS
 10
315.776967
 20
304.124606
 11
315.776967
 21
300.624606
  0
ENDBLK
  8
OBRYS
  0
ENDSEC
  0
SECTION
  2
ENTITIES
  0
ARC
  8
OBRYS
 10
554.024263
 20
305.115870
 40
5.500000
 50
111.323686
 51
68.676314
  0
LINE
  8
OBRYS
 10
552.024263
 20
310.239345
 11
552.024263
 21
312.215870
  0
LINE
  8
OBRYS
 10
552.024263
 20
312.215870
 11
556.024263
 21
312.215870
  0
LINE
  8
OBRYS
 10
556.024263
 20
312.215870
 11
556.024263
 21
310.239345
  0
CIRCLE
  8
OBRYS
 10
554.024263
 20
305.115870
 40
10.000000
  0
LINE
  8
OSA
 10
554.024263
 20
305.115870
 11
554.024263
 21
291.990873
  0
LINE
  8
OSA
 10
554.024263
 20
305.115870
 11
554.024263
 21
318.240867
  0
LINE
  8
OSA
 10
554.024263
 20
305.115870
 11
540.899265
 21
305.115870
  0
LINE
  8
OSA
 10
554.024263
 20
305.115870
 11
567.149260
 21
305.115870
  0
LINE
  8
OSA
 10
554.024263
 20
331.365865
 11
567.149260
 21
331.365865
  0
LINE
  8
OSA
 10
554.024263
 20
331.365865
 11
540.899265
 21
331.365865
  0
LINE
  8
OSA
 10
554.024263
 20
331.365865
 11
554.024263
 21
344.490862
  0
LINE
  8
OSA
 10
554.024263
 20
331.365865
 11
554.024263
 21
318.240867
  0
LINE
  8
OBRYS
 10
552.524263
 20
335.608505
 11
552.524263
 21
337.165865
  0
LINE
  8
OBRYS
 10
552.524263
 20
337.165865
 11
555.524263
 21
337.165865
  0
LINE
  8
OBRYS
 10
555.524263
 20
337.165865
 11
555.524263
 21
335.608505
  0
ARC
  8
OBRYS
 10
554.024263
 20
331.365865
 40
4.500000
 50
109.471221
 51
70.528779
  0
CIRCLE
  8
OBRYS
 10
554.024263
 20
331.365865
 40
10.000000
  0
INSERT
  8
OSA
  2
_0
  6
CONTINUOUS
 10
554.024263
 20
504.555625
  0
ARC
  8
OBRYS
 10
174.529671
 20
468.555625
 40
60.000000
 50
302.230953
 51
52.554053
  0
ARC
  8
OBRYS
 10
174.529671
 20
468.555625
 40
60.000000
 50
127.445947
 51
237.769047
  0
ARC
  8
OBRYS
 10
174.529671
 20
468.555625
 40
60.000000
 50
241.044976
 51
298.955024
  0
LINE
  8
0
 62
     2
 10
138.048909
 20
496.427168
 11
138.048909
 21
519.555625
  0
LINE
  8
0
 62
     2
 10
211.010433
 20
496.427168
 11
211.010433
 21
519.555625
  0
ARC
  8
OBRYS
 10
148.013167
 20
531.072129
 40
5.000000
 50
123.511664
 51
154.169919
  0
ARC
  8
OBRYS
 10
174.529671
 20
491.027717
 40
53.027909
 50
56.488379
 51
123.511629
  0
ARC
  8
OBRYS
 10
200.510433
 20
519.555625
 40
10.500000
 50
0.000006
 51
25.830081
  0
ARC
  8
OBRYS
 10
148.548909
 20
519.555625
 40
10.500000
 50
154.169919
 51
179.999994
  0
LINE
  8
0
 62
     2
 10
139.097962
 20
524.130514
 11
143.512716
 21
533.250648
  0
ARC
  8
OBRYS
 10
201.046175
 20
531.072129
 40
5.000000
 50
25.830081
 51
56.488335
  0
LINE
  8
0
 62
     2
 10
209.961379
 20
524.130514
 11
205.546626
 21
533.250648
  0
INSERT
  8
OBRYS
  2
_1
 62
     7
 10
313.276967
 20
330.624606
  0
INSERT
  8
OBRYS
  2
_2
 62
     7
 10
764.834956
 20
504.555625
  0
INSERT
  8
OBRYS
  2
_3
 62
     7
 10
313.276967
 20
654.302921
  0
INSERT
  8
OBRYS
  2
_4
 62
     7
 10
313.276967
 20
504.555625
  0
TEXT
  8
NEVIDITELNA
 62
     2
  6
CONTINUOUS
 10
291.732391
 20
772.708862
 40
15.000000
  1
MRP 40A - FT
 50
0.00
 51
0.00
 41
0.80
  0
LINE
  8
OSA
 10
783.834956
 20
504.555625
 11
755.334956
 21
504.555625
  0
LINE
  8
OBRYS
 10
764.834956
 20
504.555625
 11
764.834956
 21
474.574863
  0
LINE
  8
OBRYS
 10
764.834956
 20
504.555625
 11
764.834956
 21
534.536387
  0
LINE
  8
OSA
 10
783.834956
 20
504.555625
 11
755.334956
 21
504.555625
  0
LINE
  8
0
 62
     2
 10
764.834956
 20
534.000489
 11
743.247937
 21
534.000489
  0
LINE
  8
0
 62
     2
 10
764.834956
 20
517.546006
 11
743.239972
 21
517.546006
  0
LINE
  8
0
 62
     2
 10
764.834956
 20
521.010108
 11
743.036050
 21
521.010108
  0
LINE
  8
0
 62
     2
 10
743.834956
 20
520.184522
 11
743.834956
 21
518.523250
  0
POLYLINE
  8
0
 62
     2
 66
    1
  0
VERTEX
  8
0
 62
     2
 10
743.834961
 20
534.478577
  0
VERTEX
  8
0
 62
     2
 10
743.706787
 20
534.340637
  0
VERTEX
  8
0
 62
     2
 10
743.247925
 20
534.000488
  0
VERTEX
  8
0
 62
     2
 10
740.378540
 20
532.003052
  0
VERTEX
  8
0
 62
     2
 10
738.202148
 20
529.249695
  0
VERTEX
  8
0
 62
     2
 10
737.904541
 20
526.636841
  0
VERTEX
  8
0
 62
     2
 10
739.425293
 20
523.954956
  0
VERTEX
  8
0
 62
     2
 10
743.036011
 20
521.010132
  0
VERTEX
  8
0
 62
     2
 10
743.068848
 20
520.966309
  0
VERTEX
  8
0
 62
     2
 10
743.647339
 20
520.518616
  0
VERTEX
  8
0
 62
     2
 10
743.834961
 20
520.184509
  0
SEQEND
  8
0
  0
LINE
  8
0
 62
     2
 10
743.834956
 20
520.184522
 11
743.834956
 21
518.523250
  0
LINE
  8
0
 62
     2
 10
656.834956
 20
534.000489
 11
684.421975
 21
534.000489
  0
LINE
  8
0
 62
     2
 10
656.834956
 20
517.546006
 11
684.429939
 21
517.546006
  0
LINE
  8
0
 62
     2
 10
656.834956
 20
521.010108
 11
684.633861
 21
521.010108
  0
LINE
  8
0
 62
     2
 10
689.863813
 20
531.055625
 11
683.872909
 21
534.514475
  0
LINE
  8
0
 62
     2
 10
683.834956
 20
534.514475
 11
683.834956
 21
534.478569
  0
LINE
  8
0
 62
     2
 10
683.834956
 20
520.184522
 11
683.834956
 21
518.523250
  0
POLYLINE
  8
0
 62
     2
 66
    1
  0
VERTEX
  8
0
 62
     2
 10
683.834961
 20
534.478577
  0
VERTEX
  8
0
 62
     2
 10
683.963135
 20
534.340637
  0
VERTEX
  8
0
 62
     2
 10
684.421997
 20
534.000488
  0
VERTEX
  8
0
 62
     2
 10
687.291382
 20
532.003052
  0
VERTEX
  8
0
 62
     2
 10
689.467773
 20
529.249695
  0
VERTEX
  8
0
 62
     2
 10
689.765381
 20
526.636841
  0
VERTEX
  8
0
 62
     2
 10
688.244629
 20
523.954956
  0
VERTEX
  8
0
 62
     2
 10
684.633911
 20
521.010132
  0
VERTEX
  8
0
 62
     2
 10
684.601074
 20
520.966309
  0
VERTEX
  8
0
 62
     2
 10
684.022583
 20
520.518616
  0
VERTEX
  8
0
 62
     2
 10
683.834961
 20
520.184509
  0
SEQEND
  8
0
  0
LINE
  8
0
 62
     2
 10
683.872909
 20
534.514475
 11
683.834956
 21
534.514475
  0
LINE
  8
0
 62
     2
 10
683.834956
 20
534.514475
 11
683.834956
 21
534.478569
  0
LINE
  8
0
 62
     2
 10
683.834956
 20
520.184522
 11
683.834956
 21
518.523250
  0
LINE
  8
OBRYS
 10
743.834956
 20
534.536387
 11
764.834956
 21
534.536387
  0
LINE
  8
OBRYS
 10
656.834956
 20
534.536387
 11
683.834956
 21
534.536387
  0
LINE
  8
OBRYS
 10
743.834956
 20
534.536387
 11
737.806099
 21
531.055625
  0
LINE
  8
OBRYS
 10
737.806099
 20
531.055625
 11
689.863813
 21
531.055625
  0
LINE
  8
OBRYS
 10
683.834956
 20
534.536387
 11
689.863813
 21
531.055625
  0
LINE
  8
OSA
 62
     2
  6
CONTINUOUS
 10
656.834956
 20
534.536387
 11
656.834956
 21
474.574863
  0
LINE
  8
OSA
 62
     2
  6
CONTINUOUS
 10
764.834956
 20
534.536387
 11
764.834956
 21
474.574863
  0
LINE
  8
OSA
 62
     2
  6
CONTINUOUS
 10
764.834956
 20
533.536387
 11
764.834956
 21
475.574863
  0
LINE
  8
OSA
 62
     2
  6
CONTINUOUS
 10
656.834956
 20
533.536387
 11
656.834956
 21
475.574863
  0
LINE
  8
OSA
 10
713.834956
 20
504.555625
 11
656.834956
 21
504.555625
  0
LINE
  8
OSA
 10
713.834956
 20
504.555625
 11
764.834956
 21
504.555625
  0
LINE
  8
OSA
 10
713.834956
 20
464.555625
 11
713.834956
 21
534.302921
  0
LINE
  8
OSA
 10
364.276967
 20
464.555625
 11
364.276967
 21
534.302921
  0
LINE
  8
OSA
 10
364.276967
 20
504.555625
 11
313.276967
 21
504.555625
  0
LINE
  8
OSA
 10
364.276967
 20
504.555625
 11
421.276967
 21
504.555625
  0
LINE
  8
OSA
 62
     2
  6
CONTINUOUS
 10
421.276967
 20
533.536387
 11
421.276967
 21
475.574863
  0
LINE
  8
OSA
 62
     2
  6
CONTINUOUS
 10
421.276967
 20
534.536387
 11
421.276967
 21
474.574863
  0
LINE
  8
OBRYS
 10
394.276967
 20
534.536387
 11
388.248110
 21
531.055625
  0
LINE
  8
OBRYS
 10
340.305824
 20
531.055625
 11
388.248110
 21
531.055625
  0
LINE
  8
OBRYS
 10
334.276967
 20
534.536387
 11
340.305824
 21
531.055625
  0
LINE
  8
OBRYS
 10
421.276967
 20
534.536387
 11
394.276967
 21
534.536387
  0
LINE
  8
OBRYS
 10
334.276967
 20
534.536387
 11
313.276967
 21
534.536387
  0
LINE
  8
0
 62
     2
 10
394.276967
 20
520.184522
 11
394.276967
 21
518.523250
  0
LINE
  8
0
 62
     2
 10
394.276967
 20
534.514475
 11
394.276967
 21
534.478569
  0
LINE
  8
0
 62
     2
 10
394.239013
 20
534.514475
 11
394.276967
 21
534.514475
  0
POLYLINE
  8
0
 62
     2
 66
    1
  0
VERTEX
  8
0
 62
     2
 10
394.276947
 20
534.478577
  0
VERTEX
  8
0
 62
     2
 10
394.148773
 20
534.340637
  0
VERTEX
  8
0
 62
     2
 10
393.689911
 20
534.000488
  0
VERTEX
  8
0
 62
     2
 10
390.820526
 20
532.003052
  0
VERTEX
  8
0
 62
     2
 10
388.644135
 20
529.249695
  0
VERTEX
  8
0
 62
     2
 10
388.346527
 20
526.636841
  0
VERTEX
  8
0
 62
     2
 10
389.867279
 20
523.954956
  0
VERTEX
  8
0
 62
     2
 10
393.477997
 20
521.010132
  0
VERTEX
  8
0
 62
     2
 10
393.510834
 20
520.966309
  0
VERTEX
  8
0
 62
     2
 10
394.089325
 20
520.518616
  0
VERTEX
  8
0
 62
     2
 10
394.276947
 20
520.184509
  0
SEQEND
  8
0
  0
LINE
  8
0
 62
     2
 10
394.276967
 20
520.184522
 11
394.276967
 21
518.523250
  0
LINE
  8
0
 62
     2
 10
394.276967
 20
534.514475
 11
394.276967
 21
534.478569
  0
LINE
  8
0
 62
     2
 10
388.248110
 20
531.055625
 11
394.239013
 21
534.514475
  0
LINE
  8
0
 62
     2
 10
421.276967
 20
521.010108
 11
393.478062
 21
521.010108
  0
LINE
  8
0
 62
     2
 10
421.276967
 20
517.546006
 11
393.681983
 21
517.546006
  0
LINE
  8
0
 62
     2
 10
421.276967
 20
534.000489
 11
393.689948
 21
534.000489
  0
LINE
  8
0
 62
     2
 10
334.276967
 20
520.184522
 11
334.276967
 21
518.523250
  0
POLYLINE
  8
0
 62
     2
 66
    1
  0
VERTEX
  8
0
 62
     2
 10
334.276947
 20
534.478577
  0
VERTEX
  8
0
 62
     2
 10
334.405121
 20
534.340637
  0
VERTEX
  8
0
 62
     2
 10
334.863983
 20
534.000488
  0
VERTEX
  8
0
 62
     2
 10
337.733368
 20
532.003052
  0
VERTEX
  8
0
 62
     2
 10
339.909760
 20
529.249695
  0
VERTEX
  8
0
 62
     2
 10
340.207367
 20
526.636841
  0
VERTEX
  8
0
 62
     2
 10
338.686615
 20
523.954956
  0
VERTEX
  8
0
 62
     2
 10
335.075897
 20
521.010132
  0
VERTEX
  8
0
 62
     2
 10
335.043060
 20
520.966309
  0
VERTEX
  8
0
 62
     2
 10
334.464569
 20
520.518616
  0
VERTEX
  8
0
 62
     2
 10
334.276947
 20
520.184509
  0
SEQEND
  8
0
  0
LINE
  8
0
 62
     2
 10
334.276967
 20
520.184522
 11
334.276967
 21
518.523250
  0
LINE
  8
0
 62
     2
 10
313.276967
 20
521.010108
 11
335.075872
 21
521.010108
  0
LINE
  8
0
 62
     2
 10
313.276967
 20
517.546006
 11
334.871950
 21
517.546006
  0
LINE
  8
0
 62
     2
 10
313.276967
 20
534.000489
 11
334.863986
 21
534.000489
  0
INSERT
  8
OBRYS
  2
_5
 62
     7
 10
364.276967
 20
464.555625
  0
ARC
  8
OBRYS
 10
360.276967
 20
644.055970
 40
2.000000
 50
0.000000
 51
68.676314
  0
LINE
  8
OBRYS
 10
362.276967
 20
644.055970
 11
362.276967
 21
632.302921
  0
ARC
  8
OBRYS
 10
368.276967
 20
644.055970
 40
2.000000
 50
111.323686
 51
180.000000
  0
LINE
  8
OBRYS
 10
366.276967
 20
644.055970
 11
366.276967
 21
632.302921
  0
ARC
  8
OBRYS
 10
368.276967
 20
632.302921
 40
2.000000
 50
180.000000
 51
270.000000
  0
ARC
  8
OBRYS
 10
360.276967
 20
632.302921
 40
2.000000
 50
270.000000
 51
360.000000
  0
LINE
  8
OSA
 10
364.276967
 20
683.395008
 11
364.276967
 21
609.907139
  0
ARC
  8
OBRYS
 10
322.276967
 20
660.302921
 40
6.000000
 50
180.000000
 51
255.522488
  0
LINE
  8
OBRYS
 10
316.276967
 20
678.302921
 11
316.276967
 21
660.302921
  0
ARC
  8
OBRYS
 10
319.810078
 20
652.692766
 40
2.000000
 50
1.193489
 51
72.039507
  0
ARC
  8
OBRYS
 10
322.276967
 20
660.302921
 40
6.000000
 50
180.000000
 51
252.039507
  0
ARC
  8
OBRYS
 10
320.234866
 20
632.302921
 40
2.000000
 50
270.000000
 51
1.193489
  0
LINE
  8
OBRYS
 10
321.276967
 20
678.302921
 11
322.234432
 21
632.344579
  0
LINE
  8
OBRYS
 10
316.276967
 20
678.302921
 11
316.276967
 21
660.302921
  0
LINE
  8
OBRYS
 10
412.276967
 20
678.302921
 11
412.276967
 21
660.302921
  0
LINE
  8
OBRYS
 10
407.276967
 20
678.302921
 11
406.319501
 21
632.344579
  0
ARC
  8
OBRYS
 10
408.319067
 20
632.302921
 40
2.000000
 50
178.806511
 51
270.000000
  0
ARC
  8
OBRYS
 10
406.276967
 20
660.302921
 40
6.000000
 50
287.960493
 51
360.000000
  0
ARC
  8
OBRYS
 10
408.743856
 20
652.692766
 40
2.000000
 50
107.960493
 51
178.806511
  0
LINE
  8
OBRYS
 10
321.818634
 20
652.302911
 11
313.276967
 21
652.302911
  0
LINE
  8
OBRYS
 10
313.276967
 20
627.802921
 11
313.276967
 21
680.802921
  0
LINE
  8
OBRYS
 10
421.276967
 20
652.302911
 11
406.276967
 21
652.302911
  0
LINE
  8
OBRYS
 10
317.804831
 20
656.302921
 11
313.276967
 21
656.302921
  0
LINE
  8
OBRYS
 10
421.276967
 20
656.302921
 11
410.749103
 21
656.302921
  0
LINE
  8
OBRYS
 10
421.276967
 20
627.802921
 11
421.276967
 21
680.802921
  0
LINE
  8
OBRYS
 10
412.276967
 20
678.302921
 11
412.276967
 21
660.302921
  0
LINE
  8
OBRYS
 10
370.779858
 20
678.302921
 11
370.779858
 21
661.281519
  0
LINE
  8
OBRYS
 10
357.774075
 20
678.302921
 11
357.774075
 21
661.281519
  0
INSERT
  8
KOTA
 66
     1
  2
Vnitrni_metricky_zavit_M1_6
 62
     7
 10
364.276967
 20
654.302921
  0
ATTRIB
  8
KOTA
 10
0.000000
 20
0.000000
 40
2.500000
  1
CSN 02 1034
  2
norma roz.
 70
     1
  0
ATTRIB
  8
KOTA
 10
0.000000
 20
0.000000
 40
2.500000
  1
1
  2
roztec
 70
     1
  0
ATTRIB
  8
KOTA
 10
0.000000
 20
0.000000
 40
2.500000
  1
*NB
  2
puvod
 70
     1
  0
ATTRIB
  8
KOTA
 10
0.000000
 20
0.000000
 40
2.500000
  1
02 1034
  2
tridici znak
 70
     1
  0
SEQEND
  8
KOTA
  0
CIRCLE
  8
OBRYS
 10
364.276967
 20
654.302921
 40
9.000000
  0
LINE
  8
OSA
 10
316.276967
 20
654.302921
 11
412.276967
 21
654.302921
  0
LINE
  8
OBRYS
 10
389.276967
 20
613.802921
 11
339.276967
 21
613.802921
  0
LINE
  8
OBRYS
 10
339.776967
 20
613.302921
 11
388.776967
 21
613.302921
  0
LINE
  8
OBRYS
 10
389.276967
 20
613.802921
 11
389.276967
 21
615.802921
  0
LINE
  8
OBRYS
 10
389.276967
 20
613.802921
 11
388.776967
 21
613.302921
  0
LINE
  8
OBRYS
 10
339.276967
 20
613.802921
 11
339.276967
 21
615.802921
  0
LINE
  8
OBRYS
 10
339.276967
 20
613.802921
 11
339.776967
 21
613.302921
  0
ARC
  8
OBRYS
 10
408.648506
 20
620.302921
 40
2.000000
 50
90.000000
 51
111.047672
  0
LINE
  8
OBRYS
 10
403.079718
 20
621.302921
 11
407.930216
 21
622.169485
  0
LINE
  8
OBRYS
 10
325.474216
 20
621.302921
 11
320.623717
 21
622.169485
  0
ARC
  8
OBRYS
 10
319.905428
 20
620.302921
 40
2.000000
 50
68.952328
 51
90.000000
  0
LINE
  8
OBRYS
 10
333.219159
 20
615.802921
 11
339.276967
 21
615.802921
  0
LINE
  8
OBRYS
 10
333.219159
 20
615.802921
 11
330.599715
 21
622.302921
  0
LINE
  8
OBRYS
 10
341.016140
 20
615.802921
 11
334.482494
 21
622.302921
  0
LINE
  8
OBRYS
 10
331.002707
 20
621.302921
 11
325.474216
 21
621.302921
  0
LINE
  8
OBRYS
 10
358.763668
 20
621.302921
 11
352.657828
 21
621.302921
  0
LINE
  8
OBRYS
 10
361.105619
 20
622.302921
 11
358.763668
 21
621.302921
  0
LINE
  8
OBRYS
 10
367.448315
 20
622.302921
 11
369.790265
 21
621.302921
  0
LINE
  8
OBRYS
 10
369.790265
 20
621.302921
 11
375.896106
 21
621.302921
  0
LINE
  8
OBRYS
 10
369.790265
 20
621.302921
 11
358.763668
 21
621.302921
  0
LINE
  8
OBRYS
 10
397.551227
 20
621.302921
 11
403.079718
 21
621.302921
  0
LINE
  8
OBRYS
 10
387.537794
 20
615.802921
 11
394.071440
 21
622.302921
  0
LINE
  8
OBRYS
 10
395.334775
 20
615.802921
 11
397.954218
 21
622.302921
  0
LINE
  8
OBRYS
 10
395.334775
 20
615.802921
 11
389.276967
 21
615.802921
  0
ARC
  8
OBRYS
 10
408.648506
 20
620.302921
 40
2.000000
 50
90.000000
 51
111.047672
  0
LINE
  8
OBRYS
 10
339.276967
 20
615.802921
 11
389.276967
 21
615.802921
  0
ARC
  8
OBRYS
 10
372.779858
 20
661.281519
 40
2.000000
 50
180.000000
 51
219.376835
  0
ARC
  8
OBRYS
 10
355.774075
 20
661.281519
 40
2.000000
 50
320.623165
 51
360.000000
  0
ARC
  8
OBRYS
 10
406.276967
 20
660.302921
 40
6.000000
 50
284.477512
 51
360.000000
  0
LINE
  8
OSA
 10
554.024263
 20
410.305775
 11
554.024263
 21
536.207726
  0
LINE
  8
OBRYS
 10
410.776967
 20
630.302921
 11
364.276967
 21
630.302921
  0
ARC
  8
OBRYS
 10
410.776967
 20
628.302921
 40
2.000000
 50
0.000000
 51
90.000000
  0
LINE
  8
OBRYS
 10
412.776967
 20
628.302921
 11
412.776967
 21
624.302921
  0
LINE
  8
OBRYS
 10
364.276967
 20
622.302921
 11
410.776967
 21
622.302921
  0
ARC
  8
OBRYS
 10
410.776967
 20
624.302921
 40
2.000000
 50
270.000000
 51
360.000000
  0
LINE
  8
OBRYS
 10
421.276967
 20
627.802921
 11
412.776967
 21
627.802921
  0
LINE
  8
OBRYS
 10
315.776967
 20
627.802921
 11
313.276967
 21
627.802921
  0
LINE
  8
OBRYS
 10
317.776967
 20
630.302921
 11
364.276967
 21
630.302921
  0
ARC
  8
OBRYS
 10
317.776967
 20
628.302921
 40
2.000000
 50
90.000000
 51
180.000000
  0
LINE
  8
OBRYS
 10
315.776967
 20
628.302921
 11
315.776967
 21
624.302921
  0
LINE
  8
OBRYS
 10
364.276967
 20
622.302921
 11
317.776967
 21
622.302921
  0
ARC
  8
OBRYS
 10
317.776967
 20
624.302921
 40
2.000000
 50
180.000000
 51
270.000000
  0
ARC
  8
OBRYS
 10
198.593179
 20
414.555625
 40
2.000000
 50
61.044976
 51
90.000000
  0
LINE
  8
OBRYS
 10
198.593179
 20
416.555625
 11
174.529671
 21
416.555625
  0
ARC
  8
OBRYS
 10
200.529671
 20
418.055625
 40
2.000000
 50
180.000000
 51
270.000000
  0
LINE
  8
OBRYS
 10
198.529671
 20
418.055625
 11
198.529671
 21
464.555625
  0
LINE
  8
OBRYS
 10
200.529671
 20
416.055625
 11
204.529671
 21
416.055625
  0
ARC
  8
OBRYS
 10
204.529671
 20
418.055625
 40
2.000000
 50
270.000000
 51
360.000000
  0
LINE
  8
OBRYS
 10
206.529671
 20
464.555625
 11
206.529671
 21
418.055625
  0
ARC
  8
OBRYS
 10
204.529671
 20
511.055625
 40
2.000000
 50
0.000000
 51
90.000000
  0
LINE
  8
OBRYS
 10
206.529671
 20
464.555625
 11
206.529671
 21
511.055625
  0
LINE
  8
OSA
 10
174.529671
 20
410.305775
 11
174.529671
 21
536.207726
  0
ARC
  8
OBRYS
 10
180.529671
 20
414.555625
 40
1.000000
 50
270.000000
 51
360.000000
  0
LINE
  8
OBRYS
 10
180.529671
 20
413.555625
 11
168.529671
 21
413.555625
  0
ARC
  8
OBRYS
 10
168.529671
 20
414.555625
 40
1.000000
 50
180.000000
 51
270.000000
  0
LINE
  8
OBRYS
 10
181.529671
 20
416.555625
 11
181.529671
 21
414.555625
  0
LINE
  8
OBRYS
 10
167.529671
 20
416.555625
 11
167.529671
 21
414.555625
  0
LINE
  8
OBRYS
 10
165.529671
 20
419.689139
 11
165.529671
 21
416.555625
  0
LINE
  8
OBRYS
 10
165.529671
 20
416.555625
 11
174.529671
 21
416.555625
  0
LINE
  8
OBRYS
 10
183.529671
 20
419.689139
 11
183.529671
 21
416.555625
  0
ARC
  8
OBRYS
 10
168.026779
 20
464.555625
 40
6.502892
 50
270.000000
 51
90.000000
  0
LINE
  8
OSA
 10
145.437584
 20
464.555625
 11
218.925453
 21
464.555625
  0
LINE
  8
OBRYS
 10
150.529671
 20
416.555625
 11
168.529671
 21
416.555625
  0
LINE
  8
OBRYS
 10
150.529671
 20
421.555625
 11
196.488013
 21
422.513091
  0
ARC
  8
OBRYS
 10
196.529671
 20
420.513524
 40
2.000000
 50
0.000000
 51
91.193489
  0
LINE
  8
OBRYS
 10
150.529671
 20
416.555625
 11
168.529671
 21
416.555625
  0
LINE
  8
OBRYS
 10
150.529671
 20
458.052734
 11
167.551072
 21
458.052734
  0
LINE
  8
OBRYS
 10
150.529671
 20
471.058517
 11
167.551072
 21
471.058517
  0
LINE
  8
OBRYS
 10
215.029671
 20
439.555625
 11
215.029671
 21
489.555625
  0
LINE
  8
OBRYS
 10
215.529671
 20
489.055625
 11
215.529671
 21
440.055625
  0
LINE
  8
OBRYS
 10
215.029671
 20
439.555625
 11
213.029671
 21
439.555625
  0
LINE
  8
OBRYS
 10
215.029671
 20
439.555625
 11
215.529671
 21
440.055625
  0
LINE
  8
OBRYS
 10
215.029671
 20
489.555625
 11
213.029671
 21
489.555625
  0
LINE
  8
OBRYS
 10
215.029671
 20
489.555625
 11
215.529671
 21
489.055625
  0
ARC
  8
OBRYS
 10
208.529671
 20
420.184086
 40
2.000000
 50
158.952328
 51
180.000000
  0
LINE
  8
OBRYS
 10
207.529671
 20
425.752874
 11
206.663107
 21
420.902376
  0
LINE
  8
OBRYS
 10
207.529671
 20
503.358376
 11
206.663107
 21
508.208875
  0
ARC
  8
OBRYS
 10
208.529671
 20
508.927164
 40
2.000000
 50
180.000000
 51
201.047672
  0
LINE
  8
OBRYS
 10
213.029671
 20
495.613433
 11
213.029671
 21
489.555625
  0
LINE
  8
OBRYS
 10
213.029671
 20
495.613433
 11
206.529671
 21
498.232877
  0
LINE
  8
OBRYS
 10
213.029671
 20
487.816452
 11
206.529671
 21
494.350098
  0
LINE
  8
OBRYS
 10
207.529671
 20
497.829885
 11
207.529671
 21
503.358376
  0
LINE
  8
OBRYS
 10
207.529671
 20
470.068923
 11
207.529671
 21
476.174764
  0
LINE
  8
OBRYS
 10
206.529671
 20
467.726973
 11
207.529671
 21
470.068923
  0
LINE
  8
OBRYS
 10
206.529671
 20
461.384277
 11
207.529671
 21
459.042327
  0
LINE
  8
OBRYS
 10
207.529671
 20
459.042327
 11
207.529671
 21
452.936486
  0
LINE
  8
OBRYS
 10
207.529671
 20
459.042327
 11
207.529671
 21
470.068923
  0
LINE
  8
OBRYS
 10
207.529671
 20
431.281365
 11
207.529671
 21
425.752874
  0
LINE
  8
OBRYS
 10
213.029671
 20
441.294798
 11
206.529671
 21
434.761152
  0
LINE
  8
OBRYS
 10
213.029671
 20
433.497817
 11
206.529671
 21
430.878374
  0
LINE
  8
OBRYS
 10
213.029671
 20
433.497817
 11
213.029671
 21
439.555625
  0
ARC
  8
OBRYS
 10
208.529671
 20
420.184086
 40
2.000000
 50
158.952328
 51
180.000000
  0
LINE
  8
OBRYS
 10
213.029671
 20
489.555625
 11
213.029671
 21
439.555625
  0
LINE
  8
OBRYS
 10
201.029671
 20
517.546006
 11
201.029671
 21
491.565244
  0
ARC
  8
OBRYS
 10
197.029671
 20
491.565244
 40
4.000000
 50
300.000000
 51
360.000000
  0
LINE
  8
OBRYS
 10
199.029671
 20
488.101142
 11
176.529671
 21
475.110761
  0
ARC
  8
OBRYS
 10
174.529671
 20
478.574863
 40
4.000000
 50
240.000000
 51
300.000000
  0
LINE
  8
OBRYS
 10
172.529671
 20
475.110761
 11
150.029671
 21
488.101142
  0
ARC
  8
OBRYS
 10
152.029671
 20
491.565244
 40
4.000000
 50
180.000000
 51
240.000000
  0
LINE
  8
OBRYS
 10
148.029671
 20
517.546006
 11
148.029671
 21
491.565244
  0
ARC
  8
OBRYS
 10
197.029671
 20
517.546006
 40
4.000000
 50
0.000000
 51
60.000000
  0
LINE
  8
OBRYS
 10
199.029671
 20
521.010108
 11
176.529671
 21
534.000489
  0
ARC
  8
OBRYS
 10
174.529671
 20
530.536387
 40
4.000000
 50
60.000000
 51
120.000000
  0
ARC
  8
OSA
 62
     2
  6
CONTINUOUS
 10
152.029671
 20
517.546006
 40
4.000000
 50
120.000000
 51
180.000000
  0
LINE
  8
OSA
 62
     2
  6
CONTINUOUS
 10
172.529671
 20
534.000489
 11
150.029671
 21
521.010108
  0
CIRCLE
  8
OSA
 62
     2
  6
CONTINUOUS
 10
174.529671
 20
504.555625
 40
21.000000
  0
LINE
  8
OBRYS
 10
198.529671
 20
487.812467
 11
198.529671
 21
464.555625
  0
LINE
  8
OBRYS
 10
201.029671
 20
513.055625
 11
204.529671
 21
513.055625
  0
LINE
  8
OSA
 10
174.529671
 20
504.555625
 11
210.212171
 21
504.555625
  0
LINE
  8
OSA
 10
174.529671
 20
504.555625
 11
139.921520
 21
504.555625
  0
LINE
  8
OBRYS
 10
150.529671
 20
487.812467
 11
150.529671
 21
416.555625
  0
ARC
  8
OBRYS
 10
364.276967
 20
464.555625
 40
49.500000
 50
28.402788
 51
90.000000
  0
LINE
  8
0
 62
     2
 10
421.276967
 20
491.565244
 11
405.758655
 21
491.565244
  0
LINE
  8
0
 62
     2
 10
421.276967
 20
488.101142
 11
407.818425
 21
488.101142
  0
POLYLINE
  8
0
 62
     2
 66
    1
  0
VERTEX
  8
0
 62
     2
 10
394.276947
 20
518.523254
  0
VERTEX
  8
0
 62
     2
 10
394.230072
 20
518.377686
  0
VERTEX
  8
0
 62
     2
 10
393.681976
 20
517.546021
  0
VERTEX
  8
0
 62
     2
 10
392.029877
 20
515.532288
  0
VERTEX
  8
0
 62
     2
 10
389.147308
 20
509.826782
  0
VERTEX
  8
0
 62
     2
 10
388.763184
 20
507.575104
  0
SEQEND
  8
0
  0
LINE
  8
OBRYS
 10
388.248110
 20
531.055625
 11
388.248110
 21
507.864219
  0
ARC
  8
OBRYS
 10
364.276967
 20
464.555625
 40
49.500000
 50
90.000000
 51
151.597212
  0
POLYLINE
  8
0
 62
     2
 66
    1
  0
VERTEX
  8
0
 62
     2
 10
334.276947
 20
518.523254
  0
VERTEX
  8
0
 62
     2
 10
334.323822
 20
518.377686
  0
VERTEX
  8
0
 62
     2
 10
334.871918
 20
517.546021
  0
VERTEX
  8
0
 62
     2
 10
336.524017
 20
515.532288
  0
VERTEX
  8
0
 62
     2
 10
339.406586
 20
509.826782
  0
VERTEX
  8
0
 62
     2
 10
339.790741
 20
507.575073
  0
SEQEND
  8
0
  0
LINE
  8
OBRYS
 10
340.305824
 20
531.055625
 11
340.305824
 21
507.864219
  0
LINE
  8
0
 62
     2
 10
313.276967
 20
491.565244
 11
322.795278
 21
491.565244
  0
LINE
  8
0
 62
     2
 10
313.276967
 20
488.101142
 11
320.735508
 21
488.101142
  0
LINE
  8
OSA
 10
563.475101
 20
504.555625
 11
540.340568
 21
504.555625
  0
LINE
  8
OBRYS
 10
316.276967
 20
678.302921
 11
411.776967
 21
678.302921
  0
INSERT
  8
OBRYS
  2
_7
 62
     7
 10
364.276967
 20
678.302921
  0
LINE
  8
OBRYS
 10
421.276967
 20
680.802921
 11
412.776967
 21
680.802921
  0
LINE
  8
OBRYS
 10
315.776967
 20
680.802921
 11
313.276967
 21
680.802921
  0
INSERT
  8
OBRYS
  2
_8
 62
     7
 10
150.529671
 20
464.555625
  0
LINE
  8
OBRYS
 10
313.276967
 20
474.574863
 11
313.276967
 21
534.536387
  0
LINE
  8
0
 62
     2
 10
313.276967
 20
475.110761
 11
316.939465
 21
475.110761
  0
LINE
  8
OBRYS
 10
316.823149
 20
474.574863
 11
313.276967
 21
474.574863
  0
LINE
  8
0
 62
     2
 10
421.276967
 20
475.110761
 11
411.614469
 21
475.110761
  0
LINE
  8
OBRYS
 10
421.276967
 20
474.574863
 11
411.730785
 21
474.574863
  0
INSERT
  8
OBRYS
  2
_9
 62
     7
 10
713.834956
 20
464.555625
  0
LINE
  8
OBRYS
 10
656.834956
 20
474.574863
 11
666.381137
 21
474.574863
  0
LINE
  8
OBRYS
 10
761.288774
 20
474.574863
 11
764.834956
 21
474.574863
  0
LINE
  8
OBRYS
 10
689.863813
 20
531.055625
 11
689.863813
 21
506.717626
  0
LINE
  8
OBRYS
 10
737.806099
 20
531.055625
 11
737.806099
 21
506.717626
  0
POLYLINE
  8
0
 62
     2
 66
    1
  0
VERTEX
  8
0
 62
     2
 10
683.834961
 20
518.523254
  0
VERTEX
  8
0
 62
     2
 10
683.881836
 20
518.377686
  0
VERTEX
  8
0
 62
     2
 10
684.429932
 20
517.546021
  0
VERTEX
  8
0
 62
     2
 10
686.082031
 20
515.532288
  0
VERTEX
  8
0
 62
     2
 10
688.964600
 20
509.826782
  0
VERTEX
  8
0
 62
     2
 10
689.527893
 20
506.524872
  0
SEQEND
  8
0
  0
LINE
  8
0
 62
     2
 10
656.834956
 20
488.101142
 11
671.433793
 21
488.101142
  0
LINE
  8
0
 62
     2
 10
656.834956
 20
491.565244
 11
673.551827
 21
491.565244
  0
POLYLINE
  8
0
 62
     2
 66
    1
  0
VERTEX
  8
0
 62
     2
 10
743.834961
 20
518.523254
  0
VERTEX
  8
0
 62
     2
 10
743.788086
 20
518.377686
  0
VERTEX
  8
0
 62
     2
 10
743.239990
 20
517.546021
  0
VERTEX
  8
0
 62
     2
 10
741.587891
 20
515.532288
  0
VERTEX
  8
0
 62
     2
 10
738.705322
 20
509.826782
  0
VERTEX
  8
0
 62
     2
 10
738.142029
 20
506.524841
  0
SEQEND
  8
0
  0
LINE
  8
0
 62
     2
 10
764.834956
 20
488.101142
 11
756.236119
 21
488.101142
  0
LINE
  8
0
 62
     2
 10
764.834956
 20
491.565244
 11
754.118085
 21
491.565244
  0
LINE
  8
0
 62
     2
 10
656.834956
 20
475.110761
 11
666.497454
 21
475.110761
  0
LINE
  8
0
 62
     2
 10
764.834956
 20
475.110761
 11
761.172458
 21
475.110761
  0
ARC
  8
OBRYS
 10
317.776967
 20
360.624606
 40
2.000000
 50
90.000000
 51
180.000000
  0
LINE
  8
OBRYS
 10
364.276967
 20
362.624606
 11
317.776967
 21
362.624606
  0
ARC
  8
OBRYS
 10
410.776967
 20
360.624606
 40
2.000000
 50
0.000000
 51
90.000000
  0
LINE
  8
OBRYS
 10
364.276967
 20
362.624606
 11
410.776967
 21
362.624606
  0
LINE
  8
OBRYS
 10
339.276967
 20
369.124606
 11
389.276967
 21
369.124606
  0
ARC
  8
OBRYS
 10
408.648506
 20
364.624606
 40
2.000000
 50
248.952328
 51
270.000000
  0
LINE
  8
OBRYS
 10
395.334775
 20
369.124606
 11
389.276967
 21
369.124606
  0
LINE
  8
OBRYS
 10
395.334775
 20
369.124606
 11
397.954218
 21
362.624606
  0
LINE
  8
OBRYS
 10
387.537794
 20
369.124606
 11
394.071440
 21
362.624606
  0
LINE
  8
OBRYS
 10
397.551227
 20
363.624606
 11
403.079718
 21
363.624606
  0
LINE
  8
OBRYS
 10
369.790265
 20
363.624606
 11
358.763668
 21
363.624606
  0
LINE
  8
OBRYS
 10
369.790265
 20
363.624606
 11
375.896106
 21
363.624606
  0
LINE
  8
OBRYS
 10
367.448315
 20
362.624606
 11
369.790265
 21
363.624606
  0
LINE
  8
OBRYS
 10
361.105619
 20
362.624606
 11
358.763668
 21
363.624606
  0
LINE
  8
OBRYS
 10
358.763668
 20
363.624606
 11
352.657828
 21
363.624606
  0
LINE
  8
OBRYS
 10
331.002707
 20
363.624606
 11
325.474216
 21
363.624606
  0
LINE
  8
OBRYS
 10
341.016140
 20
369.124606
 11
334.482494
 21
362.624606
  0
LINE
  8
OBRYS
 10
333.219159
 20
369.124606
 11
330.599715
 21
362.624606
  0
LINE
  8
OBRYS
 10
333.219159
 20
369.124606
 11
339.276967
 21
369.124606
  0
ARC
  8
OBRYS
 10
319.905428
 20
364.624606
 40
2.000000
 50
270.000000
 51
291.047672
  0
LINE
  8
OBRYS
 10
325.474216
 20
363.624606
 11
320.623717
 21
362.758042
  0
LINE
  8
OBRYS
 10
403.079718
 20
363.624606
 11
407.930216
 21
362.758042
  0
ARC
  8
OBRYS
 10
408.648506
 20
364.624606
 40
2.000000
 50
248.952328
 51
270.000000
  0
LINE
  8
OBRYS
 10
339.276967
 20
371.124606
 11
339.776967
 21
371.624606
  0
LINE
  8
OBRYS
 10
339.276967
 20
371.124606
 11
339.276967
 21
369.124606
  0
LINE
  8
OBRYS
 10
389.276967
 20
371.124606
 11
388.776967
 21
371.624606
  0
LINE
  8
OBRYS
 10
389.276967
 20
371.124606
 11
389.276967
 21
369.124606
  0
LINE
  8
OBRYS
 10
339.776967
 20
371.624606
 11
388.776967
 21
371.624606
  0
LINE
  8
OBRYS
 10
389.276967
 20
371.124606
 11
339.276967
 21
371.124606
  0
LINE
  8
OSA
 10
316.276967
 20
330.624606
 11
412.276967
 21
330.624606
  0
LINE
  8
OBRYS
 10
421.276967
 20
357.124606
 11
421.276967
 21
304.124606
  0
LINE
  8
OSA
 10
364.276967
 20
301.532519
 11
364.276967
 21
375.020388
  0
LINE
  8
0
 62
     2
 10
334.871950
 20
304.124606
 11
313.276967
 21
304.124606
  0
LINE
  8
0
 62
     2
 10
335.075872
 20
306.124606
 11
313.276967
 21
306.124606
  0
LINE
  8
0
 62
     2
 10
313.276967
 20
306.124606
 11
313.276967
 21
328.624606
  0
LINE
  8
0
 62
     2
 10
334.863986
 20
328.624606
 11
313.276967
 21
328.624606
  0
LINE
  8
0
 62
     2
 10
334.863986
 20
332.624606
 11
313.276967
 21
332.624606
  0
LINE
  8
0
 62
     2
 10
313.276967
 20
332.624606
 11
313.276967
 21
355.124606
  0
LINE
  8
0
 62
     2
 10
335.075872
 20
355.124606
 11
313.276967
 21
355.124606
  0
LINE
  8
0
 62
     2
 10
313.276967
 20
357.124606
 11
334.871950
 21
357.124606
  0
LINE
  8
0
 62
     2
 10
340.305824
 20
357.124606
 11
388.248110
 21
357.124606
  0
LINE
  8
0
 62
     2
 10
313.276967
 20
304.124606
 11
313.276967
 21
306.124606
  0
LINE
  8
0
 62
     2
 10
313.276967
 20
328.624606
 11
313.276967
 21
332.624606
  0
LINE
  8
0
 62
     2
 10
313.276967
 20
355.124606
 11
313.276967
 21
357.124606
  0
LINE
  8
0
 62
     2
 10
340.305824
 20
304.661127
 11
340.305824
 21
357.124606
  0
POLYLINE
  8
0
 62
     2
 66
    1
  0
VERTEX
  8
0
 62
     2
 10
389.192505
 20
304.124603
  0
VERTEX
  8
0
 62
     2
 10
388.248108
 20
304.661133
  0
VERTEX
  8
0
 62
     2
 10
383.763916
 20
305.202789
  0
VERTEX
  8
0
 62
     2
 10
374.079163
 20
305.880249
  0
VERTEX
  8
0
 62
     2
 10
364.276978
 20
306.104950
  0
VERTEX
  8
0
 62
     2
 10
354.474792
 20
305.880249
  0
VERTEX
  8
0
 62
     2
 10
344.790039
 20
305.202789
  0
VERTEX
  8
0
 62
     2
 10
340.305817
 20
304.661133
  0
VERTEX
  8
0
 62
     2
 10
339.361420
 20
304.124603
  0
SEQEND
  8
0
  0
POLYLINE
  8
0
 62
     2
 66
    1
  0
VERTEX
  8
0
 62
     2
 10
388.248108
 20
357.124603
  0
VERTEX
  8
0
 62
     2
 10
389.147339
 20
357.124603
  0
VERTEX
  8
0
 62
     2
 10
392.029846
 20
357.124603
  0
VERTEX
  8
0
 62
     2
 10
393.681976
 20
357.124603
  0
VERTEX
  8
0
 62
     2
 10
394.230133
 20
357.037201
  0
VERTEX
  8
0
 62
     2
 10
394.485992
 20
356.778809
  0
VERTEX
  8
0
 62
     2
 10
394.438354
 20
356.360687
  0
VERTEX
  8
0
 62
     2
 10
394.089355
 20
355.801147
  0
VERTEX
  8
0
 62
     2
 10
393.510803
 20
355.184906
  0
VERTEX
  8
0
 62
     2
 10
393.478058
 20
355.124603
  0
VERTEX
  8
0
 62
     2
 10
389.867249
 20
350.023956
  0
VERTEX
  8
0
 62
     2
 10
388.346588
 20
345.378815
  0
VERTEX
  8
0
 62
     2
 10
388.644165
 20
340.853241
  0
VERTEX
  8
0
 62
     2
 10
390.820496
 20
336.084259
  0
VERTEX
  8
0
 62
     2
 10
393.689941
 20
332.624603
  0
VERTEX
  8
0
 62
     2
 10
394.148743
 20
331.860687
  0
VERTEX
  8
0
 62
     2
 10
394.310333
 20
331.042725
  0
VERTEX
  8
0
 62
     2
 10
394.239014
 20
330.624603
  0
VERTEX
  8
0
 62
     2
 10
394.310333
 20
330.206512
  0
VERTEX
  8
0
 62
     2
 10
394.148743
 20
329.388550
  0
VERTEX
  8
0
 62
     2
 10
393.689941
 20
328.624603
  0
VERTEX
  8
0
 62
     2
 10
390.820496
 20
325.164978
  0
VERTEX
  8
0
 62
     2
 10
388.644165
 20
320.395996
  0
VERTEX
  8
0
 62
     2
 10
388.346588
 20
315.870422
  0
VERTEX
  8
0
 62
     2
 10
389.867249
 20
311.225281
  0
VERTEX
  8
0
 62
     2
 10
393.478058
 20
306.124603
  0
VERTEX
  8
0
 62
     2
 10
393.510803
 20
306.064301
  0
VERTEX
  8
0
 62
     2
 10
394.089355
 20
305.448090
  0
VERTEX
  8
0
 62
     2
 10
394.438354
 20
304.888550
  0
VERTEX
  8
0
 62
     2
 10
394.485992
 20
304.470428
  0
VERTEX
  8
0
 62
     2
 10
394.230133
 20
304.212036
  0
VERTEX
  8
0
 62
     2
 10
393.681976
 20
304.124603
  0
VERTEX
  8
0
 62
     2
 10
392.029846
 20
304.124603
  0
VERTEX
  8
0
 62
     2
 10
389.192505
 20
304.124603
  0
SEQEND
  8
0
  0
LINE
  8
0
 62
     2
 10
388.248110
 20
304.661127
 11
388.248110
 21
357.124606
  0
POLYLINE
  8
0
 62
     2
 66
    1
  0
VERTEX
  8
0
 62
     2
 10
340.305817
 20
357.124603
  0
VERTEX
  8
0
 62
     2
 10
339.406616
 20
357.124603
  0
VERTEX
  8
0
 62
     2
 10
336.524078
 20
357.124603
  0
VERTEX
  8
0
 62
     2
 10
334.871948
 20
357.124603
  0
VERTEX
  8
0
 62
     2
 10
334.323792
 20
357.037201
  0
VERTEX
  8
0
 62
     2
 10
334.067963
 20
356.778809
  0
VERTEX
  8
0
 62
     2
 10
334.115570
 20
356.360687
  0
VERTEX
  8
0
 62
     2
 10
334.464569
 20
355.801147
  0
VERTEX
  8
0
 62
     2
 10
335.043121
 20
355.184906
  0
VERTEX
  8
0
 62
     2
 10
335.075867
 20
355.124603
  0
VERTEX
  8
0
 62
     2
 10
338.686676
 20
350.023956
  0
VERTEX
  8
0
 62
     2
 10
340.207336
 20
345.378815
  0
VERTEX
  8
0
 62
     2
 10
339.909760
 20
340.853241
  0
VERTEX
  8
0
 62
     2
 10
337.733429
 20
336.084259
  0
VERTEX
  8
0
 62
     2
 10
334.863983
 20
332.624603
  0
VERTEX
  8
0
 62
     2
 10
334.405182
 20
331.860687
  0
VERTEX
  8
0
 62
     2
 10
334.243591
 20
331.042725
  0
VERTEX
  8
0
 62
     2
 10
334.314911
 20
330.624603
  0
VERTEX
  8
0
 62
     2
 10
334.243591
 20
330.206512
  0
VERTEX
  8
0
 62
     2
 10
334.405182
 20
329.388550
  0
VERTEX
  8
0
 62
     2
 10
334.863983
 20
328.624603
  0
VERTEX
  8
0
 62
     2
 10
337.733429
 20
325.164978
  0
VERTEX
  8
0
 62
     2
 10
339.909760
 20
320.395996
  0
VERTEX
  8
0
 62
     2
 10
340.207336
 20
315.870422
  0
VERTEX
  8
0
 62
     2
 10
338.686676
 20
311.225281
  0
VERTEX
  8
0
 62
     2
 10
335.075867
 20
306.124603
  0
VERTEX
  8
0
 62
     2
 10
335.043121
 20
306.064301
  0
VERTEX
  8
0
 62
     2
 10
334.464569
 20
305.448090
  0
VERTEX
  8
0
 62
     2
 10
334.115570
 20
304.888550
  0
VERTEX
  8
0
 62
     2
 10
334.067963
 20
304.470428
  0
VERTEX
  8
0
 62
     2
 10
334.323792
 20
304.212036
  0
VERTEX
  8
0
 62
     2
 10
334.871948
 20
304.124603
  0
VERTEX
  8
0
 62
     2
 10
336.524078
 20
304.124603
  0
VERTEX
  8
0
 62
     2
 10
339.361420
 20
304.124603
  0
SEQEND
  8
0
  0
LINE
  8
OSA
 10
422.776963
 20
330.624606
 11
305.776970
 21
330.624606
  0
LINE
  8
0
 62
     2
 10
421.276967
 20
357.124606
 11
393.681983
 21
357.124606
  0
LINE
  8
0
 62
     2
 10
393.478062
 20
355.124606
 11
421.276967
 21
355.124606
  0
LINE
  8
0
 62
     2
 10
393.689948
 20
332.624606
 11
421.276967
 21
332.624606
  0
LINE
  8
0
 62
     2
 10
393.689948
 20
328.624606
 11
421.276967
 21
328.624606
  0
LINE
  8
0
 62
     2
 10
393.478062
 20
306.124606
 11
421.276967
 21
306.124606
  0
LINE
  8
0
 62
     2
 10
393.681983
 20
304.124606
 11
421.276967
 21
304.124606
  0
LINE
  8
OBRYS
 10
412.776967
 20
357.124606
 11
412.776967
 21
360.624606
  0
LINE
  8
OBRYS
 10
315.776967
 20
357.124606
 11
315.776967
 21
360.624606
  0
INSERT
  8
OBRYS
  2
_10
 62
     7
 10
364.276967
 20
306.624606
  0
ENDSEC
  0
EOF

