  0
SECTION
  2
HEADER
  9
$ACADVER
  1
AC1009
  9
$INSBASE
 10
0.0
 20
0.0
 30
0.0
  9
$LIMMIN
 10
0.0
 20
0.0
  9
$LIMMAX
 10
430.0000
 20
307.0000
  9
$EXTMIN
 10
99999999999999998000000000000000000000.0000
 20
99999999999999998000000000000000000000.0000
  9
$EXTMAX
 10
99999999999999998000000000000000000000.0000
 20
99999999999999998000000000000000000000.0000
  9
$VIEWCTR
 10
457.5241
 20
537.2766
  9
$VIEWSIZE
 40
792.2745
  9
$DIMLFAC
 40
0.6667
  9
$MEASUREMENT
 70
     1
  9
$DWGCODEPAGE
 3
ANSI_1250
  9
$CLAYER
  8
OBRYS
  9
$CELTYPE
  6
BYLAYER
  9
$CECOLOR
 62
  256
  9
$ORTHOMODE
 70
     0
  9
$REGENMODE
 70
     1
  9
$FILLMODE
 70
     1
  9
$QTEXTMODE
 70
     0
  9
$MIRRTEXT
 70
     1
  9
$DRAGMODE
 70
     2
  9
$LTSCALE
 40
1.0
  9
$OSMODE
 70
    37
  9
$ATTMODE
 70
     1
  9
$TEXTSIZE
 40
2.5
  9
$TRACEWID
 40
1.0
  9
$TEXTSTYLE
  7
STANDARD
  9
$CLAYER
  8
0
  9
$CELTYPE
  6
BYLAYER
  9
$CECOLOR
 62
   256
  9
$DIMSCALE
 40
1.0
  9
$DIMASZ
 40
2.5
  9
$DIMEXO
 40
0.625
  9
$DIMDLI
 40
3.75
  9
$DIMRND
 40
0.0
  9
$DIMDLE
 40
0.0
  9
$DIMEXE
 40
1.25
  9
$DIMTP
 40
0.0
  9
$DIMTM
 40
0.0
  9
$DIMTXT
 40
2.5
  9
$DIMCEN
 40
2.5
  9
$DIMTSZ
 40
0.0
  9
$DIMTOL
 70
     0
  9
$DIMLIM
 70
     0
  9
$DIMTIH
 70
     0
  9
$DIMTOH
 70
     0
  9
$DIMSE1
 70
     0
  9
$DIMSE2
 70
     0
  9
$DIMTAD
 70
     1
  9
$DIMZIN
 70
     8
  9
$DIMBLK
  1

  9
$DIMASO
 70
     1
  9
$DIMSHO
 70
     1
  9
$DIMPOST
  1

  9
$DIMAPOST
  1

  9
$DIMALT
 70
     0
  9
$DIMALTD
 70
     3
  9
$DIMALTF
 40
0.03937007874016
  9
$DIMTOFL
 70
     1
  9
$DIMTVP
 40
0.0
  9
$DIMTIX
 70
     0
  9
$DIMSOXD
 70
     0
  9
$DIMSAH
 70
     0
  9
$DIMBLK1
  1

  9
$DIMBLK2
  1

  9
$DIMSTYLE
  2
ISO-25
  9
$DIMCLRD
 70
     0
  9
$DIMCLRE
 70
     0
  9
$DIMCLRT
 70
     0
  9
$DIMTFAC
 40
1.0
  9
$DIMGAP
 40
0.625
  9
$LUNITS
 70
     2
  9
$LUPREC
 70
     4
  9
$SKETCHINC
 40
1.0
  9
$FILLETRAD
 40
10.0
  9
$AUNITS
 70
     0
  9
$AUPREC
 70
     0
  9
$MENU
  1
.
  9
$ELEVATION
 40
0.0
  9
$PELEVATION
 40
0.0
  9
$THICKNESS
 40
0.0
  9
$LIMCHECK
 70
     0
  9
$BLIPMODE
 70
     0
  9
$CHAMFERA
 40
10.0
  9
$CHAMFERB
 40
10.0
  9
$SKPOLY
 70
     0
  9
$TDCREATE
 40
2451579.5163292708
  9
$TDUPDATE
 40
2451579.6904035881
  9
$TDINDWG
 40
0.0082924769
  9
$TDUSRTIMER
 40
0.0082825116
  9
$USRTIMER
 70
     1
  9
$ANGBASE
 50
0.0
  9
$ANGDIR
 70
     0
  9
$PDMODE
 70
     0
  9
$PDSIZE
 40
0.0
  9
$PLINEWID
 40
0.0
  9
$COORDS
 70
     1
  9
$SPLFRAME
 70
     0
  9
$SPLINETYPE
 70
     6
  9
$SPLINESEGS
 70
     8
  9
$ATTDIA
 70
     0
  9
$ATTREQ
 70
     1
  9
$SURFTAB1
 70
     6
  9
$SURFTAB2
 70
     6
  9
$SURFTYPE
 70
     6
  9
$SURFU
 70
     6
  9
$SURFV
 70
     6
  9
$UCSNAME
  2

  9
$UCSORG
 10
0.0
 20
0.0
 30
0.0
  9
$UCSXDIR
 10
1.0
 20
0.0
 30
0.0
  9
$UCSYDIR
 10
0.0
 20
1.0
 30
0.0
  9
$PUCSNAME
  2

  9
$PUCSORG
 10
0.0
 20
0.0
 30
0.0
  9
$PUCSXDIR
 10
1.0
 20
0.0
 30
0.0
  9
$PUCSYDIR
 10
0.0
 20
1.0
 30
0.0
  9
$USERI1
 70
     0
  9
$USERI2
 70
     0
  9
$USERI3
 70
     0
  9
$USERI4
 70
     0
  9
$USERI5
 70
     0
  9
$USERR1
 40
0.0
  9
$USERR2
 40
0.0
  9
$USERR3
 40
0.0
  9
$USERR4
 40
0.0
  9
$USERR5
 40
0.0
  9
$WORLDVIEW
 70
     1
  9
$SHADEDGE
 70
     3
  9
$SHADEDIF
 70
    70
  9
$TILEMODE
 70
     1
  9
$MAXACTVP
 70
    64
  9
$PLIMCHECK
 70
     0
  9
$PEXTMIN
 10
1.0000000000000000E+020
 20
1.0000000000000000E+020
 30
1.0000000000000000E+020
  9
$PEXTMAX
 10
-1.0000000000000000E+020
 20
-1.0000000000000000E+020
 30
-1.0000000000000000E+020
  9
$PLIMMIN
 10
0.0
 20
0.0
  9
$PLIMMAX
 10
420.0
 20
297.0
  9
$UNITMODE
 70
     0
  9
$VISRETAIN
 70
     1
  9
$PLINEGEN
 70
     0
  9
$PSLTSCALE
 70
     1
  0
ENDSEC
  0
SECTION
  2
TABLES
  0
TABLE
  2
VPORT
 70
     2
  0
VPORT
  2
*ACTIVE
 70
     0
 10
0.0
 20
0.0
 11
1.0
 21
1.0
 12
457.5241
 22
537.2766
 13
0.0
 23
0.0
 14
10.0
 24
10.0
 15
10.0
 25
10.0
 16
0.0
 26
0.0
 36
1.0
 17
0.0
 27
0.0
 37
0.0
 40
792.2745
 41
1.6916
 42
50.0
 43
0.0
 44
0.0
 50
0.0
 51
0.0
 71
     0
 72
   100
 73
     1
 74
     3
 75
     0
 76
     0
 77
     0
 78
     0
  0
ENDTAB
  0
TABLE
  2
LTYPE
 70
     7
  0
LTYPE
  2
CONTINUOUS
 70
     0
  3
Solid line
 72
    65
 73
     0
 40
0.0
  0
LTYPE
  2
HIDDEN2
 70
     0
  3
Hidden (.5x) _ _ _ _ _ _ _ _ _ _ _ _ _ _ _ _ _
 72
    65
 73
     2
 40
5.1
 49
3.5
 49
-1.6
  0
LTYPE
  2
DASHDOT
 70
     0
  3
Dash dot __ . __ . __ . __ . __ . __ . __ . __
 72
    65
 73
     4
 40
10.4
 49
6.2
 49
-2.1
 49
0.0
 49
-2.1
  0
LTYPE
  2
DOT
 70
     0
  3
Dot . . . . . . . . . . . . . . . . . . . . . .
 72
    65
 73
     2
 40
2.2
 49
1.1
 49
-1.1
  0
LTYPE
  2
DASHED
 70
     0
  3
Dashed __ __ __ __ __ __ __ __ __ __ __ __ __ _
 72
    65
 73
     2
 40
11.049999999999979
 49
8.699999999999999
 49
-2.3499999999999979
  0
LTYPE
  2
PHANTOM2
 70
     0
  3
Phantom (.5x) ___ _ _ ___ _ _ ___ _ _ ___ _ _
 72
    65
 73
     6
 40
18.3
 49
7.8
 49
-2.1
 49
2.1
 49
-2.1
 49
2.1
 49
-2.1
  0
LTYPE
  2
CENTER
 70
     0
  3
Center ____ _ ____ _ ____ _ ____ _ ____ _ ____
 72
    65
 73
     4
 40
14.1
 49
7.8
 49
-2.1
 49
2.1
 49
-2.1
  0
ENDTAB
  0
TABLE
  2
LAYER
 70
     7
  0
LAYER
  2
0
 70
    64
 62
     7
  6
CONTINUOUS
  0
LAYER
  2
OBRYS
 70
    64
 62
     2
  6
CONTINUOUS
  0
LAYER
  2
OSA
 70
    64
 62
     7
  6
DASHDOT
  0
LAYER
  2
KOTA
 70
    64
 62
     3
  6
CONTINUOUS
  0
LAYER
  2
SRAFY
 70
    64
 62
     7
  6
CONTINUOUS
  0
LAYER
  2
POMOC
 70
    64
 62
     1
  6
DOT
  0
LAYER
  2
NEVIDITELNA
 70
    64
 62
     4
  6
HIDDEN2
  0
ENDTAB
  0
TABLE
  2
STYLE
 70
     1
  0
STYLE
  2
STANDARD
 70
     0
 40
0.0
 41
1.0
 50
0.0
 71
     0
 42
2.5
  3
txt
  4

  0
ENDTAB
  0
TABLE
  2
VIEW
 70
     0
  0
ENDTAB
  0
TABLE
  2
UCS
 70
     0
  0
ENDTAB
  0
TABLE
  2
APPID
 70
     1
  0
APPID
  2
ACAD
 70
     0
  0
ENDTAB
  0
TABLE
  2
DIMSTYLE
 70
     1
  0
DIMSTYLE
  2
ISO-25
 70
     0
  3

  4

  5

  6

  7

 40
1.0
 41
2.5
 42
0.625
 43
3.75
 44
1.25
 45
0.0
 46
0.0
 47
0.0
 48
0.0
140
2.5
141
2.5
142
0.0
143
0.03937007874016
144
1.0
145
0.0
146
1.0
147
0.625
 71
     0
 72
     0
 73
     0
 74
     0
 75
     0
 76
     0
 77
     1
 78
     8
170
     0
171
     3
172
     1
173
     0
174
     0
175
     0
176
     0
177
     0
178
     0
  0
ENDTAB
  0
ENDSEC
  0
SECTION
  2
BLOCKS
  0
BLOCK
  8
0
  2
$MODEL_SPACE
 70
     0
 10
0.0
 20
0.0
 30
0.0
  3
$MODEL_SPACE
  1

  0
ENDBLK
  8
0
  0
BLOCK
 67
     1
  8
0
  2
$PAPER_SPACE
 70
     0
 10
0.0
 20
0.0
 30
0.0
  3
$PAPER_SPACE
  1

  0
ENDBLK
 67
     1
  8
0
  0
BLOCK
  8
OBRYS
  2
_0
 70
   64
 10
364.276967
 20
241.808329
  0
LINE
  8
OBRYS
 62
     7
  6
DASHDOT
 10
364.276967
 20
231.499391
 11
364.276967
 21
248.328329
  0
LINE
  8
OBRYS
 62
     7
  6
DASHDOT
 10
364.276967
 20
231.499391
 11
364.276967
 21
248.328329
  0
ARC
  8
OBRYS
 10
317.276967
 20
240.808329
 40
1.000000
 50
90.000000
 51
180.000000
  0
ARC
  8
OBRYS
 10
318.276967
 20
238.792797
 40
2.000000
 50
180.000000
 51
234.246113
  0
LINE
  8
OBRYS
 10
321.253451
 20
234.185260
 11
317.108357
 21
237.169728
  0
ARC
  8
OBRYS
 10
322.422061
 20
235.808329
 40
2.000000
 50
234.246113
 51
270.000000
  0
ARC
  8
OBRYS
 10
318.276967
 20
237.560563
 40
2.000000
 50
180.000000
 51
234.246113
  0
LINE
  8
OBRYS
 10
319.542015
 20
234.185260
 11
317.108357
 21
235.937494
  0
ARC
  8
OBRYS
 10
320.710625
 20
235.808329
 40
2.000000
 50
234.246113
 51
270.000000
  0
ARC
  8
OBRYS
 10
320.276967
 20
228.808329
 40
4.000000
 50
180.000000
 51
270.000000
  0
ARC
  8
OBRYS
 10
408.276967
 20
228.808329
 40
4.000000
 50
270.000000
 51
360.000000
  0
LINE
  8
OBRYS
 10
316.276967
 20
228.808329
 11
316.276967
 21
240.808327
  0
LINE
  8
OBRYS
 10
320.276967
 20
224.808329
 11
335.110719
 21
224.808329
  0
LINE
  8
OBRYS
 10
320.710625
 20
233.808329
 11
324.470575
 21
233.808329
  0
ARC
  8
OBRYS
 10
329.276967
 20
232.808329
 40
3.650000
 50
183.260549
 51
270.981644
  0
LINE
  8
OBRYS
 10
317.254019
 20
237.768329
 11
321.074865
 21
237.768329
  0
LINE
  8
OBRYS
 10
318.167088
 20
241.808329
 11
317.276967
 21
241.808329
  0
LINE
  8
OBRYS
 10
408.276967
 20
224.808329
 11
401.443215
 21
224.808329
  0
LINE
  8
OBRYS
 10
412.276967
 20
228.808329
 11
412.276967
 21
234.016173
  0
ENDBLK
  8
OBRYS
  0
BLOCK
  8
OBRYS
  2
_1
 70
   64
 10
364.276967
 20
307.808329
  0
LINE
  8
OBRYS
 62
     7
  6
DASHDOT
 10
364.276967
 20
318.117267
 11
364.276967
 21
301.288329
  0
LINE
  8
OBRYS
 62
     7
  6
DASHDOT
 10
364.276967
 20
318.117267
 11
364.276967
 21
301.288329
  0
ARC
  8
OBRYS
 10
317.276967
 20
308.808329
 40
1.000000
 50
180.000000
 51
270.000000
  0
ARC
  8
OBRYS
 10
318.276967
 20
310.823862
 40
2.000000
 50
125.753887
 51
180.000000
  0
LINE
  8
OBRYS
 10
321.253451
 20
315.431398
 11
317.108357
 21
312.446930
  0
ARC
  8
OBRYS
 10
322.422061
 20
313.808329
 40
2.000000
 50
90.000000
 51
125.753887
  0
ARC
  8
OBRYS
 10
318.276967
 20
312.056095
 40
2.000000
 50
125.753887
 51
180.000000
  0
LINE
  8
OBRYS
 10
319.542015
 20
315.431398
 11
317.108357
 21
313.679164
  0
ARC
  8
OBRYS
 10
320.710625
 20
313.808329
 40
2.000000
 50
90.000000
 51
125.753887
  0
ARC
  8
OBRYS
 10
320.276967
 20
320.808329
 40
4.000000
 50
90.000000
 51
180.000000
  0
ARC
  8
OBRYS
 10
408.276967
 20
320.808329
 40
4.000000
 50
0.000000
 51
90.000000
  0
LINE
  8
OBRYS
 10
316.276967
 20
320.808329
 11
316.276967
 21
308.808332
  0
LINE
  8
OBRYS
 10
320.276967
 20
324.808329
 11
335.110719
 21
324.808329
  0
LINE
  8
OBRYS
 10
320.710625
 20
315.808329
 11
324.470575
 21
315.808329
  0
ARC
  8
OBRYS
 10
329.276967
 20
316.808329
 40
3.650000
 50
89.018356
 51
176.739451
  0
LINE
  8
OBRYS
 10
317.254019
 20
311.848329
 11
321.074865
 21
311.848329
  0
LINE
  8
OBRYS
 10
318.167088
 20
307.808329
 11
317.276967
 21
307.808329
  0
LINE
  8
OBRYS
 10
408.276967
 20
324.808329
 11
401.443215
 21
324.808329
  0
LINE
  8
OBRYS
 10
412.276967
 20
320.808329
 11
412.276967
 21
315.600485
  0
ENDBLK
  8
OBRYS
  0
BLOCK
  8
OSA
  2
_2
 70
   64
 10
404.276967
 20
274.808329
  0
CIRCLE
  8
OBRYS
 10
368.276967
 20
274.808329
 40
10.000000
  0
ARC
  8
OBRYS
 10
368.276967
 20
274.808329
 40
4.500000
 50
19.471221
 51
340.528779
  0
LINE
  8
OBRYS
 10
372.519607
 20
276.308329
 11
374.076967
 21
276.308329
  0
LINE
  8
OBRYS
 10
374.076967
 20
276.308329
 11
374.076967
 21
273.308329
  0
LINE
  8
OBRYS
 10
374.076967
 20
273.308329
 11
372.519607
 21
273.308329
  0
LINE
  8
OSA
 10
368.276967
 20
274.808329
 11
368.276967
 21
268.641662
  0
LINE
  8
OSA
 10
368.276967
 20
274.808329
 11
368.276967
 21
280.974996
  0
LINE
  8
OSA
 10
368.276967
 20
274.808329
 11
374.443633
 21
274.808329
  0
LINE
  8
OSA
 10
368.276967
 20
274.808329
 11
362.110300
 21
274.808329
  0
INSERT
  8
OSA
  2
Srouby_s_valcovou_hlavou___1
  6
CONTINUOUS
 10
340.276967
 20
274.808329
  0
INSERT
  8
OSA
  2
Srouby_s_valcovou_hlavou___2
  6
CONTINUOUS
 10
377.760463
 20
301.324833
  0
INSERT
  8
OSA
  2
Srouby_s_valcovou_hlavou___3
  6
CONTINUOUS
 10
377.760463
 20
248.291825
  0
LINE
  8
OSA
 10
377.760463
 20
301.324833
 11
377.760463
 21
294.715460
  0
LINE
  8
OSA
 10
377.760463
 20
301.324833
 11
377.760463
 21
307.934206
  0
LINE
  8
OSA
 10
377.760463
 20
301.324833
 11
384.369836
 21
301.324833
  0
LINE
  8
OSA
 10
377.760463
 20
301.324833
 11
371.151090
 21
301.324833
  0
LINE
  8
OSA
 10
377.760463
 20
248.291825
 11
377.760463
 21
241.682452
  0
LINE
  8
OSA
 10
377.760463
 20
248.291825
 11
377.760463
 21
254.901198
  0
LINE
  8
OSA
 10
377.760463
 20
248.291825
 11
384.369836
 21
248.291825
  0
LINE
  8
OSA
 10
377.760463
 20
248.291825
 11
371.151090
 21
248.291825
  0
LINE
  8
OSA
 10
430.793471
 20
301.324833
 11
430.793471
 21
294.715460
  0
LINE
  8
OSA
 10
430.793471
 20
301.324833
 11
430.793471
 21
307.934206
  0
LINE
  8
OSA
 10
430.793471
 20
301.324833
 11
437.402844
 21
301.324833
  0
LINE
  8
OSA
 10
430.793471
 20
301.324833
 11
424.184098
 21
301.324833
  0
LINE
  8
OSA
 10
430.793471
 20
248.291825
 11
424.184098
 21
248.291825
  0
LINE
  8
OSA
 10
430.793471
 20
248.291825
 11
437.402844
 21
248.291825
  0
LINE
  8
OSA
 10
430.793471
 20
248.291825
 11
430.793471
 21
254.901198
  0
LINE
  8
OSA
 10
430.793471
 20
248.291825
 11
430.793471
 21
241.682452
  0
INSERT
  8
OSA
  2
Srouby_s_valcovou_hlavou___4
  6
CONTINUOUS
 10
430.793471
 20
301.324833
  0
INSERT
  8
OSA
  2
Srouby_s_valcovou_hlavou___5
  6
CONTINUOUS
 10
430.793471
 20
248.291825
  0
LINE
  8
0
 62
     2
 10
415.912605
 20
311.289091
 11
419.276967
 21
311.289091
  0
LINE
  8
0
 62
     2
 10
415.912605
 20
238.327567
 11
419.276967
 21
238.327567
  0
ARC
  8
OBRYS
 10
368.276967
 20
274.808329
 40
55.000000
 50
0.000000
 51
180.000000
  0
ARC
  8
OBRYS
 10
329.484452
 20
299.529591
 40
2.000000
 50
327.491906
 51
55.000000
  0
LINE
  8
OBRYS
 10
330.631605
 20
301.167895
 11
324.892831
 21
305.186228
  0
ARC
  8
OBRYS
 10
323.745678
 20
303.547924
 40
2.000000
 50
55.000000
 51
147.162618
  0
ARC
  8
OBRYS
 10
368.276967
 20
274.808329
 40
44.000000
 50
0.000000
 51
180.000000
  0
ARC
  8
OBRYS
 10
339.537372
 20
319.339618
 40
2.000000
 50
122.837382
 51
215.000000
  0
LINE
  8
OBRYS
 10
341.917401
 20
312.453691
 11
337.899068
 21
318.192465
  0
ARC
  8
OBRYS
 10
343.555705
 20
313.600844
 40
2.000000
 50
215.000000
 51
302.508094
  0
LINE
  8
OBRYS
 10
358.276967
 20
333.969127
 11
359.110300
 21
329.039060
  0
LINE
  8
OBRYS
 10
378.276967
 20
333.969127
 11
377.443633
 21
329.039060
  0
ARC
  8
OBRYS
 10
392.998229
 20
313.600844
 40
2.000000
 50
237.491906
 51
325.000000
  0
LINE
  8
OBRYS
 10
394.636533
 20
312.453691
 11
398.654866
 21
318.192465
  0
ARC
  8
OBRYS
 10
397.016562
 20
319.339618
 40
2.000000
 50
325.000000
 51
57.162618
  0
ARC
  8
OBRYS
 10
412.808256
 20
303.547924
 40
2.000000
 50
32.837382
 51
125.000000
  0
LINE
  8
OBRYS
 10
405.922329
 20
301.167895
 11
411.661103
 21
305.186228
  0
ARC
  8
OBRYS
 10
407.069482
 20
299.529591
 40
2.000000
 50
125.000000
 51
212.508094
  0
ARC
  8
OBRYS
 10
407.069482
 20
250.087067
 40
2.000000
 50
147.491906
 51
235.000000
  0
LINE
  8
OBRYS
 10
405.922329
 20
248.448763
 11
411.661103
 21
244.430430
  0
ARC
  8
OBRYS
 10
412.808256
 20
246.068734
 40
2.000000
 50
235.000000
 51
327.162618
  0
ARC
  8
OBRYS
 10
397.016562
 20
230.277040
 40
2.000000
 50
302.837382
 51
35.000000
  0
LINE
  8
OBRYS
 10
394.636533
 20
237.162967
 11
398.654866
 21
231.424193
  0
ARC
  8
OBRYS
 10
392.998229
 20
236.015814
 40
2.000000
 50
35.000000
 51
122.508094
  0
LINE
  8
OBRYS
 10
378.276967
 20
215.647531
 11
377.443633
 21
220.577598
  0
LINE
  8
OBRYS
 10
358.276967
 20
215.647531
 11
359.110300
 21
220.577598
  0
ARC
  8
OBRYS
 10
343.555705
 20
236.015814
 40
2.000000
 50
57.491906
 51
145.000000
  0
LINE
  8
OBRYS
 10
341.917401
 20
237.162967
 11
337.899068
 21
231.424193
  0
ARC
  8
OBRYS
 10
339.537372
 20
230.277040
 40
2.000000
 50
145.000000
 51
237.162618
  0
ARC
  8
OBRYS
 10
368.276967
 20
274.808329
 40
44.000000
 50
180.000000
 51
360.000000
  0
ARC
  8
OBRYS
 10
323.745678
 20
246.068734
 40
2.000000
 50
212.837382
 51
305.000000
  0
LINE
  8
OBRYS
 10
330.631605
 20
248.448763
 11
324.892831
 21
244.430430
  0
ARC
  8
OBRYS
 10
329.484452
 20
250.087067
 40
2.000000
 50
305.000000
 51
32.508094
  0
ARC
  8
OBRYS
 10
368.276967
 20
274.808329
 40
55.000000
 50
180.000000
 51
360.000000
  0
CIRCLE
  8
OBRYS
 10
368.276967
 20
274.808329
 40
17.480000
  0
ARC
  8
OBRYS
 10
368.276967
 20
274.808329
 40
24.000000
 50
0.000000
 51
64.208906
  0
ARC
  8
OSA
 10
368.276967
 20
274.808329
 40
50.000000
 50
0.000000
 51
180.000000
  0
ARC
  8
OBRYS
 10
368.276967
 20
274.808329
 40
40.000000
 50
0.000000
 51
180.000000
  0
ARC
  8
OBRYS
 10
368.276967
 20
274.808329
 40
60.000000
 50
0.000000
 51
180.000000
  0
ARC
  8
OBRYS
 10
368.276967
 20
274.808329
 40
21.000000
 50
0.000000
 51
180.000000
  0
LINE
  8
OSA
 10
340.276967
 20
274.808329
 11
340.276967
 21
284.808342
  0
ARC
  8
OBRYS
 10
340.276967
 20
274.808346
 40
5.000000
 50
0.000000
 51
180.000000
  0
LINE
  8
OSA
 10
404.276967
 20
274.808329
 11
404.276967
 21
314.808326
  0
LINE
  8
OSA
 10
368.276967
 20
274.808329
 11
368.276967
 21
334.808329
  0
ARC
  8
OBRYS
 10
419.276967
 20
300.789091
 40
10.500000
 50
64.169919
 51
89.999994
  0
LINE
  8
0
 62
     2
 10
423.851856
 20
310.240038
 11
432.971990
 21
305.825284
  0
CIRCLE
  8
OBRYS
 10
377.760463
 20
301.324833
 40
5.000000
  0
ARC
  8
OBRYS
 10
430.793471
 20
301.324833
 40
5.000000
 50
179.999964
 51
270.000000
  0
ARC
  8
OBRYS
 10
423.793471
 20
308.046300
 40
2.000000
 50
0.000000
 51
64.169919
  0
LINE
  8
OBRYS
 10
425.793471
 20
301.324833
 11
425.793471
 21
308.046300
  0
CIRCLE
  8
OBRYS
 10
403.632306
 20
310.163668
 40
3.500000
  0
LINE
  8
OSA
 10
368.276967
 20
274.808329
 11
325.850560
 21
317.234736
  0
LINE
  8
OSA
 10
368.276967
 20
274.808329
 11
410.703374
 21
317.234736
  0
CIRCLE
  8
OBRYS
 10
332.921628
 20
310.163668
 40
3.500000
  0
ARC
  8
OBRYS
 10
377.760463
 20
301.324833
 40
5.000000
 50
266.832544
 51
315.000000
  0
ARC
  8
OBRYS
 10
368.276967
 20
274.808329
 40
24.000000
 50
76.432420
 51
173.365562
  0
ARC
  8
OBRYS
 10
368.276967
 20
274.808329
 40
24.000000
 50
186.634438
 51
283.567580
  0
ARC
  8
OBRYS
 10
377.760463
 20
248.291825
 40
5.000000
 50
45.000000
 51
93.167456
  0
CIRCLE
  8
OBRYS
 10
332.921628
 20
239.452990
 40
3.500000
  0
LINE
  8
OSA
 10
368.276967
 20
274.808329
 11
410.703374
 21
232.381922
  0
LINE
  8
OSA
 10
368.276967
 20
274.808329
 11
325.850560
 21
232.381922
  0
CIRCLE
  8
OBRYS
 10
403.632306
 20
239.452990
 40
3.500000
  0
LINE
  8
OBRYS
 10
425.793471
 20
248.291825
 11
425.793471
 21
241.570358
  0
ARC
  8
OBRYS
 10
423.793471
 20
241.570358
 40
2.000000
 50
295.830081
 51
360.000000
  0
ARC
  8
OBRYS
 10
430.793471
 20
248.291825
 40
5.000000
 50
90.000000
 51
180.000036
  0
CIRCLE
  8
OBRYS
 10
377.760463
 20
248.291825
 40
5.000000
  0
LINE
  8
0
 62
     2
 10
423.851856
 20
239.376620
 11
432.971990
 21
243.791374
  0
ARC
  8
OBRYS
 10
419.276967
 20
248.827567
 40
10.500000
 50
270.000006
 51
295.830081
  0
LINE
  8
OSA
 10
449.921014
 20
274.808329
 11
308.276967
 21
274.808329
  0
LINE
  8
OSA
 10
368.276967
 20
274.808329
 11
368.276967
 21
214.808329
  0
LINE
  8
OSA
 10
404.276967
 20
274.808329
 11
404.276967
 21
234.808333
  0
ARC
  8
OBRYS
 10
340.276967
 20
274.808313
 40
5.000000
 50
180.000000
 51
360.000000
  0
LINE
  8
OSA
 10
340.276967
 20
274.808329
 11
340.276967
 21
264.808316
  0
ARC
  8
OBRYS
 10
368.276967
 20
274.808329
 40
21.000000
 50
180.000000
 51
360.000000
  0
ARC
  8
OBRYS
 10
368.276967
 20
274.808329
 40
60.000000
 50
180.000000
 51
360.000000
  0
ARC
  8
OBRYS
 10
368.276967
 20
274.808329
 40
40.000000
 50
180.000000
 51
360.000000
  0
ARC
  8
OSA
 10
368.276967
 20
274.808329
 40
50.000000
 50
180.000000
 51
360.000000
  0
ARC
  8
OBRYS
 10
368.276967
 20
274.808329
 40
24.000000
 50
295.791094
 51
360.000000
  0
ARC
  8
OBRYS
 10
430.793471
 20
301.324833
 40
5.000000
 50
33.511664
 51
64.169919
  0
ARC
  8
OBRYS
 10
430.793471
 20
248.291825
 40
5.000000
 50
295.830081
 51
326.488335
  0
ARC
  8
OBRYS
 10
390.749058
 20
274.808329
 40
53.027909
 50
326.488379
 51
33.511629
  0
LINE
  8
OBRYS
 10
430.793471
 20
253.291825
 11
437.897266
 21
253.291825
  0
ARC
  8
OBRYS
 10
437.897266
 20
255.291825
 40
2.000000
 50
270.000000
 51
337.513406
  0
LINE
  8
OBRYS
 10
430.793471
 20
296.324833
 11
437.897266
 21
296.324833
  0
ARC
  8
OBRYS
 10
437.897266
 20
294.324833
 40
2.000000
 50
22.486594
 51
90.000000
  0
ENDBLK
  8
OSA
  0
BLOCK
  8
OSA
  2
Srouby_s_valcovou_hlavou___1
 70
   66
 10
340.276967
 20
274.808329
  0
LINE
  8
OSA
 62
     2
  6
CONTINUOUS
 10
339.122259
 20
276.808329
 11
341.431675
 21
276.808329
  0
LINE
  8
OSA
 62
     2
  6
CONTINUOUS
 10
341.431675
 20
276.808329
 11
342.586382
 21
274.808329
  0
LINE
  8
OSA
 62
     2
  6
CONTINUOUS
 10
342.586382
 20
274.808329
 11
341.431675
 21
272.808329
  0
LINE
  8
OSA
 62
     2
  6
CONTINUOUS
 10
341.431675
 20
272.808329
 11
339.122259
 21
272.808329
  0
LINE
  8
OSA
 62
     2
  6
CONTINUOUS
 10
339.122259
 20
272.808329
 11
337.967551
 21
274.808329
  0
LINE
  8
OSA
 62
     2
  6
CONTINUOUS
 10
337.967551
 20
274.808329
 11
339.122259
 21
276.808329
  0
CIRCLE
  8
OSA
 62
     2
  6
CONTINUOUS
 10
340.276967
 20
274.808329
 40
2.309415
  0
CIRCLE
  8
OSA
 62
     2
  6
CONTINUOUS
 10
340.276967
 20
274.808329
 40
4.250000
  0
ENDBLK
  8
OSA
  0
BLOCK
  8
OSA
  2
Srouby_s_valcovou_hlavou___2
 70
   66
 10
377.760463
 20
301.324833
  0
LINE
  8
OSA
 62
     2
  6
CONTINUOUS
 10
376.605755
 20
303.324833
 11
378.915170
 21
303.324833
  0
LINE
  8
OSA
 62
     2
  6
CONTINUOUS
 10
378.915170
 20
303.324833
 11
380.069878
 21
301.324833
  0
LINE
  8
OSA
 62
     2
  6
CONTINUOUS
 10
380.069878
 20
301.324833
 11
378.915170
 21
299.324833
  0
LINE
  8
OSA
 62
     2
  6
CONTINUOUS
 10
378.915170
 20
299.324833
 11
376.605755
 21
299.324833
  0
LINE
  8
OSA
 62
     2
  6
CONTINUOUS
 10
376.605755
 20
299.324833
 11
375.451047
 21
301.324833
  0
LINE
  8
OSA
 62
     2
  6
CONTINUOUS
 10
375.451047
 20
301.324833
 11
376.605755
 21
303.324833
  0
CIRCLE
  8
OSA
 62
     2
  6
CONTINUOUS
 10
377.760463
 20
301.324833
 40
2.309415
  0
CIRCLE
  8
OSA
 62
     2
  6
CONTINUOUS
 10
377.760463
 20
301.324833
 40
4.250000
  0
ENDBLK
  8
OSA
  0
BLOCK
  8
OSA
  2
Srouby_s_valcovou_hlavou___3
 70
   66
 10
377.760463
 20
248.291825
  0
LINE
  8
OSA
 62
     2
  6
CONTINUOUS
 10
376.605755
 20
250.291825
 11
378.915170
 21
250.291825
  0
LINE
  8
OSA
 62
     2
  6
CONTINUOUS
 10
378.915170
 20
250.291825
 11
380.069878
 21
248.291825
  0
LINE
  8
OSA
 62
     2
  6
CONTINUOUS
 10
380.069878
 20
248.291825
 11
378.915170
 21
246.291825
  0
LINE
  8
OSA
 62
     2
  6
CONTINUOUS
 10
378.915170
 20
246.291825
 11
376.605755
 21
246.291825
  0
LINE
  8
OSA
 62
     2
  6
CONTINUOUS
 10
376.605755
 20
246.291825
 11
375.451047
 21
248.291825
  0
LINE
  8
OSA
 62
     2
  6
CONTINUOUS
 10
375.451047
 20
248.291825
 11
376.605755
 21
250.291825
  0
CIRCLE
  8
OSA
 62
     2
  6
CONTINUOUS
 10
377.760463
 20
248.291825
 40
2.309415
  0
CIRCLE
  8
OSA
 62
     2
  6
CONTINUOUS
 10
377.760463
 20
248.291825
 40
4.250000
  0
ENDBLK
  8
OSA
  0
BLOCK
  8
OSA
  2
Srouby_s_valcovou_hlavou___4
 70
   66
 10
430.793471
 20
301.324833
  0
LINE
  8
OSA
 62
     2
  6
CONTINUOUS
 10
429.638763
 20
303.324833
 11
431.948179
 21
303.324833
  0
LINE
  8
OSA
 62
     2
  6
CONTINUOUS
 10
431.948179
 20
303.324833
 11
433.102887
 21
301.324833
  0
LINE
  8
OSA
 62
     2
  6
CONTINUOUS
 10
433.102887
 20
301.324833
 11
431.948179
 21
299.324833
  0
LINE
  8
OSA
 62
     2
  6
CONTINUOUS
 10
431.948179
 20
299.324833
 11
429.638763
 21
299.324833
  0
LINE
  8
OSA
 62
     2
  6
CONTINUOUS
 10
429.638763
 20
299.324833
 11
428.484056
 21
301.324833
  0
LINE
  8
OSA
 62
     2
  6
CONTINUOUS
 10
428.484056
 20
301.324833
 11
429.638763
 21
303.324833
  0
CIRCLE
  8
OSA
 62
     2
  6
CONTINUOUS
 10
430.793471
 20
301.324833
 40
2.309415
  0
CIRCLE
  8
OSA
 62
     2
  6
CONTINUOUS
 10
430.793471
 20
301.324833
 40
4.250000
  0
ENDBLK
  8
OSA
  0
BLOCK
  8
OSA
  2
Srouby_s_valcovou_hlavou___5
 70
   66
 10
430.793471
 20
248.291825
  0
LINE
  8
OSA
 62
     2
  6
CONTINUOUS
 10
429.638763
 20
250.291825
 11
431.948179
 21
250.291825
  0
LINE
  8
OSA
 62
     2
  6
CONTINUOUS
 10
431.948179
 20
250.291825
 11
433.102887
 21
248.291825
  0
LINE
  8
OSA
 62
     2
  6
CONTINUOUS
 10
433.102887
 20
248.291825
 11
431.948179
 21
246.291825
  0
LINE
  8
OSA
 62
     2
  6
CONTINUOUS
 10
431.948179
 20
246.291825
 11
429.638763
 21
246.291825
  0
LINE
  8
OSA
 62
     2
  6
CONTINUOUS
 10
429.638763
 20
246.291825
 11
428.484056
 21
248.291825
  0
LINE
  8
OSA
 62
     2
  6
CONTINUOUS
 10
428.484056
 20
248.291825
 11
429.638763
 21
250.291825
  0
CIRCLE
  8
OSA
 62
     2
  6
CONTINUOUS
 10
430.793471
 20
248.291825
 40
2.309415
  0
CIRCLE
  8
OSA
 62
     2
  6
CONTINUOUS
 10
430.793471
 20
248.291825
 40
4.250000
  0
ENDBLK
  8
OSA
  0
BLOCK
  8
OBRYS
  2
_3
 70
   64
 10
202.313784
 20
515.555625
  0
LINE
  8
OBRYS
 10
165.833022
 20
538.555636
 11
238.794546
 21
538.555636
  0
ARC
  8
OBRYS
 10
144.313784
 20
560.555636
 40
2.000000
 50
180.000000
 51
270.000000
  0
LINE
  8
OBRYS
 10
142.313784
 20
567.555636
 11
142.313784
 21
560.555636
  0
ARC
  8
OBRYS
 10
260.313784
 20
560.555636
 40
2.000000
 50
270.000000
 51
360.000000
  0
LINE
  8
OBRYS
 10
262.313784
 20
567.555636
 11
262.313784
 21
560.555636
  0
LINE
  8
OSA
 10
202.313784
 20
536.788187
 11
202.313784
 21
566.275268
  0
LINE
  8
OBRYS
 10
144.313784
 20
558.555636
 11
202.313784
 21
558.555636
  0
LINE
  8
OBRYS
 10
260.313784
 20
558.555636
 11
202.313784
 21
558.555636
  0
LINE
  8
OBRYS
 10
202.313784
 20
567.555636
 11
142.313784
 21
567.555636
  0
LINE
  8
OBRYS
 10
262.313784
 20
567.555636
 11
202.313784
 21
567.555636
  0
LINE
  8
OBRYS
 10
232.749408
 20
538.555636
 11
232.749408
 21
542.622179
  0
ARC
  8
OBRYS
 10
225.830289
 20
545.555636
 40
2.000000
 50
180.000000
 51
270.000000
  0
ARC
  8
OBRYS
 10
221.830289
 20
545.555636
 40
2.000000
 50
0.000000
 51
90.000000
  0
ARC
  8
OBRYS
 10
236.794546
 20
541.555636
 40
2.000000
 50
0.000000
 51
90.000000
  0
LINE
  8
OBRYS
 10
236.794546
 20
543.555636
 11
167.833022
 21
543.555636
  0
ARC
  8
OBRYS
 10
167.833022
 20
541.555636
 40
2.000000
 50
90.000000
 51
180.000000
  0
ARC
  8
OBRYS
 10
182.797280
 20
545.555636
 40
2.000000
 50
90.000000
 51
180.000000
  0
ARC
  8
OBRYS
 10
178.797280
 20
545.555636
 40
2.000000
 50
270.000000
 51
360.000000
  0
LINE
  8
OBRYS
 10
171.878160
 20
538.555636
 11
171.878160
 21
542.622179
  0
LINE
  8
OSA
 10
175.797280
 20
541.152072
 11
175.797280
 21
551.555636
  0
INSERT
  8
OBRYS
  2
Srouby_s_valcovou_hlavou___7
 62
     7
 10
175.797280
 20
543.555636
  0
INSERT
  8
OBRYS
  2
Srouby_s_valcovou_hlavou___8
 62
     7
 10
228.830289
 20
543.555636
  0
LINE
  8
OSA
 10
228.830289
 20
541.152072
 11
228.830289
 21
551.555636
  0
ARC
  8
OBRYS
 10
167.077994
 20
549.055636
 40
1.500000
 50
274.876572
 51
360.000000
  0
ARC
  8
OBRYS
 10
167.333022
 20
546.066496
 40
1.500000
 50
94.876572
 51
180.000000
  0
LINE
  8
OBRYS
 10
168.577994
 20
557.055636
 11
168.577994
 21
549.055636
  0
ARC
  8
OBRYS
 10
167.077994
 20
557.055636
 40
1.500000
 50
0.000000
 51
90.000000
  0
ARC
  8
OBRYS
 10
237.549575
 20
557.055636
 40
1.500000
 50
90.000000
 51
180.000000
  0
LINE
  8
OBRYS
 10
236.049575
 20
557.055636
 11
236.049575
 21
549.055636
  0
ARC
  8
OBRYS
 10
237.294546
 20
546.066496
 40
1.500000
 50
0.000000
 51
85.123428
  0
ARC
  8
OBRYS
 10
237.549575
 20
549.055636
 40
1.500000
 50
180.000000
 51
265.123428
  0
LINE
  8
OBRYS
 10
237.114378
 20
547.555636
 11
167.513191
 21
547.555636
  0
LINE
  8
OBRYS
 10
165.833022
 20
546.066513
 11
165.833022
 21
538.555636
  0
LINE
  8
OBRYS
 10
238.794546
 20
546.066511
 11
238.794546
 21
538.555636
  0
LINE
  8
OBRYS
 10
171.878160
 20
538.555636
 11
171.878160
 21
520.555635
  0
LINE
  8
OBRYS
 10
232.749408
 20
538.555636
 11
232.749408
 21
520.555635
  0
LINE
  8
OBRYS
 10
202.313784
 20
516.555636
 11
235.212317
 21
516.555636
  0
LINE
  8
OBRYS
 10
169.833022
 20
516.555636
 11
202.313784
 21
516.555636
  0
LINE
  8
OBRYS
 10
228.813410
 20
515.555625
 11
202.313784
 21
515.555625
  0
LINE
  8
OBRYS
 10
202.313784
 20
515.555625
 11
175.813784
 21
515.555614
  0
ARC
  8
OBRYS
 10
169.833022
 20
520.555636
 40
4.000000
 50
180.000000
 51
270.000000
  0
ARC
  8
OBRYS
 10
229.813410
 20
515.582982
 40
1.000000
 50
95.995066
 51
180.000000
  0
ARC
  8
OBRYS
 10
234.794546
 20
520.555636
 40
4.000000
 50
275.995066
 51
360.000000
  0
ARC
  8
OBRYS
 10
174.813784
 20
515.555625
 40
1.000000
 50
0.000000
 51
90.000000
  0
LINE
  8
OBRYS
 10
228.813410
 20
515.555625
 11
228.813410
 21
515.582982
  0
LINE
  8
OSA
 10
202.313784
 20
505.055640
 11
202.313784
 21
546.055633
  0
LINE
  8
OBRYS
 10
238.794546
 20
538.555636
 11
238.794546
 21
520.555636
  0
LINE
  8
OBRYS
 10
202.313784
 20
538.555636
 11
238.794546
 21
538.555636
  0
LINE
  8
OBRYS
 10
165.833022
 20
538.555636
 11
202.313784
 21
538.555636
  0
LINE
  8
OBRYS
 10
165.833022
 20
520.555636
 11
165.833022
 21
538.555636
  0
ENDBLK
  8
OBRYS
  0
BLOCK
  8
OBRYS
  2
Srouby_s_valcovou_hlavou___7
 70
   66
 10
175.797280
 20
543.555636
  0
LINE
  8
OBRYS
 10
172.047280
 20
547.055636
 11
179.547280
 21
547.055636
  0
LINE
  8
OBRYS
 10
171.547280
 20
546.555636
 11
171.547280
 21
543.555636
  0
LINE
  8
OBRYS
 10
171.547280
 20
543.555636
 11
180.047280
 21
543.555636
  0
LINE
  8
OBRYS
 10
180.047280
 20
543.555636
 11
180.047280
 21
546.555636
  0
ARC
  8
OBRYS
 10
172.047280
 20
546.555636
 40
0.500000
 50
90.000000
 51
180.000000
  0
ARC
  8
OBRYS
 10
179.547280
 20
546.555636
 40
0.500000
 50
0.000000
 51
90.000000
  0
LINE
  8
OBRYS
 62
     7
  6
DOT
 10
173.487864
 20
547.055636
 11
173.487864
 21
545.388969
  0
LINE
  8
OBRYS
 62
     7
  6
DOT
 10
174.642572
 20
547.055636
 11
174.642572
 21
545.388969
  0
LINE
  8
OBRYS
 62
     7
  6
DOT
 10
176.951988
 20
547.055636
 11
176.951988
 21
545.388969
  0
LINE
  8
OBRYS
 62
     7
  6
DOT
 10
178.106695
 20
547.055636
 11
178.106695
 21
545.388969
  0
ARC
  8
OBRYS
 62
     7
  6
DOT
 10
174.065218
 20
547.388976
 40
0.666673
 50
210.000310
 51
329.999690
  0
ARC
  8
OBRYS
 62
     7
  6
DOT
 10
175.797280
 20
548.888994
 40
2.166692
 50
237.795963
 51
302.204037
  0
ARC
  8
OBRYS
 62
     7
  6
DOT
 10
177.529342
 20
547.388976
 40
0.666673
 50
210.000310
 51
329.999690
  0
ARC
  8
OBRYS
 62
     7
  6
DOT
 10
174.065218
 20
545.722309
 40
0.666673
 50
210.000310
 51
329.999690
  0
ARC
  8
OBRYS
 62
     7
  6
DOT
 10
175.797280
 20
547.222328
 40
2.166692
 50
237.795963
 51
302.204037
  0
ARC
  8
OBRYS
 62
     7
  6
DOT
 10
177.529342
 20
545.722309
 40
0.666673
 50
210.000310
 51
329.999690
  0
LINE
  8
OBRYS
 62
     7
  6
DOT
 10
174.065218
 20
545.055636
 11
175.797280
 21
543.900928
  0
LINE
  8
OBRYS
 62
     7
  6
DOT
 10
175.797280
 20
543.900928
 11
177.529342
 21
545.055636
  0
ENDBLK
  8
OBRYS
  0
BLOCK
  8
OBRYS
  2
Srouby_s_valcovou_hlavou___8
 70
   66
 10
228.830289
 20
543.555636
  0
LINE
  8
OBRYS
 10
232.580289
 20
547.055636
 11
225.080289
 21
547.055636
  0
LINE
  8
OBRYS
 10
233.080289
 20
546.555636
 11
233.080289
 21
543.555636
  0
LINE
  8
OBRYS
 10
233.080289
 20
543.555636
 11
224.580289
 21
543.555636
  0
LINE
  8
OBRYS
 10
224.580289
 20
543.555636
 11
224.580289
 21
546.555636
  0
ARC
  8
OBRYS
 10
232.580289
 20
546.555636
 40
0.500000
 50
0.000000
 51
90.000000
  0
ARC
  8
OBRYS
 10
225.080289
 20
546.555636
 40
0.500000
 50
90.000000
 51
180.000000
  0
LINE
  8
OBRYS
 62
     7
  6
DOT
 10
231.139704
 20
547.055636
 11
231.139704
 21
545.388969
  0
LINE
  8
OBRYS
 62
     7
  6
DOT
 10
229.984996
 20
547.055636
 11
229.984996
 21
545.388969
  0
LINE
  8
OBRYS
 62
     7
  6
DOT
 10
227.675581
 20
547.055636
 11
227.675581
 21
545.388969
  0
LINE
  8
OBRYS
 62
     7
  6
DOT
 10
226.520873
 20
547.055636
 11
226.520873
 21
545.388969
  0
ARC
  8
OBRYS
 62
     7
  6
DOT
 10
230.562350
 20
547.388976
 40
0.666673
 50
210.000310
 51
329.999690
  0
ARC
  8
OBRYS
 62
     7
  6
DOT
 10
228.830289
 20
548.888994
 40
2.166692
 50
237.795963
 51
302.204037
  0
ARC
  8
OBRYS
 62
     7
  6
DOT
 10
227.098227
 20
547.388976
 40
0.666673
 50
210.000310
 51
329.999690
  0
ARC
  8
OBRYS
 62
     7
  6
DOT
 10
230.562350
 20
545.722309
 40
0.666673
 50
210.000310
 51
329.999690
  0
ARC
  8
OBRYS
 62
     7
  6
DOT
 10
228.830289
 20
547.222328
 40
2.166692
 50
237.795963
 51
302.204037
  0
ARC
  8
OBRYS
 62
     7
  6
DOT
 10
227.098227
 20
545.722309
 40
0.666673
 50
210.000310
 51
329.999690
  0
LINE
  8
OBRYS
 62
     7
  6
DOT
 10
230.562350
 20
545.055636
 11
228.830289
 21
543.900928
  0
LINE
  8
OBRYS
 62
     7
  6
DOT
 10
228.830289
 20
543.900928
 11
227.098227
 21
545.055636
  0
ENDBLK
  8
OBRYS
  0
BLOCK
  8
OBRYS
  2
_4
 70
   64
 10
554.024263
 20
515.555625
  0
LINE
  8
OBRYS
 10
494.024263
 20
567.555636
 11
554.024263
 21
567.555636
  0
LINE
  8
OBRYS
 10
554.024263
 20
567.555636
 11
614.024263
 21
567.555636
  0
LINE
  8
OBRYS
 10
496.024263
 20
558.555636
 11
554.024263
 21
558.555636
  0
LINE
  8
OBRYS
 10
612.024263
 20
558.555636
 11
554.024263
 21
558.555636
  0
LINE
  8
OSA
 10
554.024263
 20
536.788187
 11
554.024263
 21
566.275268
  0
LINE
  8
OBRYS
 10
494.024263
 20
567.555636
 11
494.024263
 21
560.555636
  0
ARC
  8
OBRYS
 10
496.024263
 20
560.555636
 40
2.000000
 50
180.000000
 51
270.000000
  0
LINE
  8
OBRYS
 10
614.024263
 20
567.555636
 11
614.024263
 21
560.555636
  0
ARC
  8
OBRYS
 10
612.024263
 20
560.555636
 40
2.000000
 50
270.000000
 51
360.000000
  0
LINE
  8
OBRYS
 10
590.505025
 20
538.555636
 11
517.543501
 21
538.555636
  0
ARC
  8
OBRYS
 10
518.788472
 20
549.055636
 40
1.500000
 50
274.876572
 51
360.000000
  0
ARC
  8
OBRYS
 10
519.043501
 20
546.066496
 40
1.500000
 50
94.876572
 51
180.000000
  0
LINE
  8
OBRYS
 10
520.288472
 20
557.055636
 11
520.288472
 21
549.055636
  0
ARC
  8
OBRYS
 10
518.788472
 20
557.055636
 40
1.500000
 50
0.000000
 51
90.000000
  0
ARC
  8
OBRYS
 10
589.260053
 20
557.055636
 40
1.500000
 50
90.000000
 51
180.000000
  0
LINE
  8
OBRYS
 10
587.760053
 20
557.055636
 11
587.760053
 21
549.055636
  0
ARC
  8
OBRYS
 10
589.005025
 20
546.066496
 40
1.500000
 50
0.000000
 51
85.123428
  0
ARC
  8
OBRYS
 10
589.260053
 20
549.055636
 40
1.500000
 50
180.000000
 51
265.123428
  0
LINE
  8
OBRYS
 10
517.543501
 20
546.066481
 11
517.543501
 21
538.555636
  0
LINE
  8
OBRYS
 10
590.505025
 20
546.066481
 11
590.505025
 21
538.555636
  0
LINE
  8
OBRYS
 10
590.505025
 20
520.555636
 11
590.505025
 21
538.555636
  0
LINE
  8
OBRYS
 10
590.505025
 20
538.555636
 11
554.024263
 21
538.555636
  0
LINE
  8
OBRYS
 10
554.024263
 20
538.555636
 11
517.543501
 21
538.555636
  0
LINE
  8
OBRYS
 10
517.543501
 20
538.555636
 11
517.543501
 21
520.555636
  0
LINE
  8
OSA
 10
554.024263
 20
505.055640
 11
554.024263
 21
546.055633
  0
LINE
  8
OBRYS
 10
527.524263
 20
515.528269
 11
527.524263
 21
515.555625
  0
ARC
  8
OBRYS
 10
581.524263
 20
515.555625
 40
1.000000
 50
90.000000
 51
180.000000
  0
ARC
  8
OBRYS
 10
521.543501
 20
520.555636
 40
4.000000
 50
180.000000
 51
264.004934
  0
ARC
  8
OBRYS
 10
526.524263
 20
515.555625
 40
1.000000
 50
0.000000
 51
84.004934
  0
ARC
  8
OBRYS
 10
586.505025
 20
520.555636
 40
4.000000
 50
270.000000
 51
360.000000
  0
LINE
  8
OBRYS
 10
554.024263
 20
515.555625
 11
580.524263
 21
515.555614
  0
LINE
  8
OBRYS
 10
527.524263
 20
515.528269
 11
554.024263
 21
515.555625
  0
LINE
  8
OBRYS
 10
586.505025
 20
516.555636
 11
554.024263
 21
516.555636
  0
LINE
  8
OBRYS
 10
554.024263
 20
516.555636
 11
521.125730
 21
516.555636
  0
ENDBLK
  8
OBRYS
  0
BLOCK
  8
OBRYS
  2
_5
 70
   64
 10
404.276967
 20
515.555625
  0
LINE
  8
OBRYS
 10
387.426231
 20
538.555636
 11
387.426231
 21
520.555635
  0
LINE
  8
OBRYS
 10
434.172921
 20
538.555636
 11
434.172921
 21
520.555635
  0
LINE
  8
OBRYS
 10
421.684689
 20
538.555636
 11
421.684689
 21
520.555635
  0
LINE
  8
OBRYS
 10
404.276967
 20
516.555636
 11
440.194738
 21
516.555636
  0
LINE
  8
OBRYS
 10
339.276967
 20
516.555636
 11
404.276967
 21
516.555636
  0
LINE
  8
OBRYS
 10
434.257355
 20
515.555625
 11
404.276967
 21
515.555625
  0
LINE
  8
OBRYS
 10
404.276967
 20
515.555625
 11
374.296205
 21
515.555614
  0
LINE
  8
OBRYS
 10
350.796967
 20
538.555636
 11
335.276967
 21
538.555636
  0
ARC
  8
OBRYS
 10
339.276967
 20
520.555636
 40
4.000000
 50
180.000000
 51
270.000000
  0
ARC
  8
OBRYS
 10
435.257355
 20
515.582982
 40
1.000000
 50
95.995066
 51
180.000000
  0
ARC
  8
OBRYS
 10
439.776967
 20
520.555636
 40
4.000000
 50
275.995066
 51
360.000000
  0
ARC
  8
OBRYS
 10
373.296205
 20
515.555625
 40
1.000000
 50
0.000000
 51
90.000000
  0
LINE
  8
OBRYS
 10
434.257355
 20
515.555625
 11
434.257355
 21
515.582982
  0
LINE
  8
OSA
 10
404.276967
 20
505.055640
 11
404.276967
 21
546.055633
  0
LINE
  8
OBRYS
 10
443.776967
 20
538.555636
 11
443.776967
 21
520.555636
  0
LINE
  8
OBRYS
 10
404.276967
 20
538.555636
 11
443.776967
 21
538.555636
  0
LINE
  8
OBRYS
 10
350.796967
 20
538.555636
 11
404.276967
 21
538.555636
  0
LINE
  8
OBRYS
 10
335.276967
 20
520.555636
 11
335.276967
 21
538.555636
  0
LINE
  8
OBRYS
 10
350.796967
 20
538.555636
 11
335.276967
 21
538.555636
  0
LINE
  8
OBRYS
 10
350.796967
 20
538.555636
 11
368.276967
 21
538.555636
  0
LINE
  8
OSA
 10
340.276967
 20
536.713917
 11
340.276967
 21
570.775264
  0
LINE
  8
OSA
 10
404.276967
 20
536.883678
 11
404.276967
 21
566.275268
  0
LINE
  8
OBRYS
 10
376.276967
 20
564.055636
 11
360.276967
 21
564.055636
  0
LINE
  8
OBRYS
 10
359.110300
 20
565.055636
 11
359.110300
 21
567.555636
  0
ARC
  8
OBRYS
 10
360.110300
 20
565.055636
 40
1.000000
 50
180.000000
 51
270.000000
  0
LINE
  8
OBRYS
 10
358.276967
 20
566.055636
 11
358.276967
 21
567.555636
  0
ARC
  8
OBRYS
 10
360.276967
 20
566.055636
 40
2.000000
 50
180.000000
 51
270.000000
  0
ARC
  8
OBRYS
 10
376.276967
 20
566.055636
 40
2.000000
 50
270.000000
 51
360.000000
  0
LINE
  8
OBRYS
 10
378.276967
 20
566.055636
 11
378.276967
 21
567.555636
  0
ARC
  8
OBRYS
 10
376.443633
 20
565.055636
 40
1.000000
 50
270.000000
 51
360.000000
  0
LINE
  8
OBRYS
 10
377.443633
 20
565.055636
 11
377.443633
 21
567.555636
  0
LINE
  8
OSA
 10
430.793471
 20
534.555636
 11
430.793471
 21
551.555636
  0
LINE
  8
OBRYS
 10
379.218912
 20
547.555636
 11
439.776967
 21
547.555636
  0
LINE
  8
OBRYS
 10
426.276967
 20
558.555636
 11
368.276967
 21
558.555636
  0
LINE
  8
OBRYS
 10
310.276967
 20
558.555636
 11
368.276967
 21
558.555636
  0
ARC
  8
OBRYS
 10
439.776967
 20
543.555636
 40
4.000000
 50
0.000000
 51
90.000000
  0
ARC
  8
OBRYS
 10
397.276967
 20
549.555636
 40
2.000000
 50
180.000000
 51
270.000000
  0
LINE
  8
OSA
 10
318.276967
 20
551.775271
 11
318.276967
 21
574.775264
  0
LINE
  8
OBRYS
 10
443.776967
 20
543.555636
 11
443.776967
 21
538.555636
  0
LINE
  8
OBRYS
 10
368.276967
 20
538.555636
 11
443.776967
 21
538.555636
  0
LINE
  8
OSA
 10
368.276967
 20
536.788187
 11
368.276967
 21
566.275268
  0
LINE
  8
OBRYS
 10
427.793471
 20
543.555636
 11
441.776967
 21
543.555636
  0
ARC
  8
OBRYS
 10
441.776967
 20
541.555636
 40
2.000000
 50
0.000000
 51
90.000000
  0
LINE
  8
OBRYS
 10
428.276967
 20
567.555636
 11
428.276967
 21
560.555636
  0
ARC
  8
OBRYS
 10
426.276967
 20
560.555636
 40
2.000000
 50
270.000000
 51
360.000000
  0
LINE
  8
OBRYS
 10
308.276967
 20
567.555636
 11
308.276967
 21
560.555636
  0
ARC
  8
OBRYS
 10
310.276967
 20
560.555636
 40
2.000000
 50
180.000000
 51
270.000000
  0
ARC
  8
OBRYS
 10
333.276967
 20
556.555636
 40
2.000000
 50
0.000000
 51
90.000000
  0
ARC
  8
OBRYS
 10
397.276967
 20
556.555636
 40
2.000000
 50
90.000000
 51
180.000000
  0
LINE
  8
OBRYS
 10
395.276967
 20
549.555636
 11
395.276967
 21
556.555636
  0
LINE
  8
OBRYS
 10
335.276967
 20
556.555636
 11
335.276967
 21
538.555636
  0
LINE
  8
OBRYS
 10
377.443633
 20
566.555636
 11
359.110300
 21
566.555636
  0
LINE
  8
OBRYS
 10
428.276967
 20
567.555636
 11
377.443633
 21
567.555636
  0
LINE
  8
OBRYS
 10
359.110300
 20
567.555636
 11
308.276967
 21
567.555636
  0
INSERT
  8
OBRYS
  2
Srouby_s_valcovou_hlavou___10
 62
     7
 10
430.793471
 20
543.555636
  0
ARC
  8
OBRYS
 10
426.543471
 20
545.555636
 40
2.000000
 50
180.000000
 51
270.000000
  0
ARC
  8
OBRYS
 10
422.543471
 20
545.555636
 40
2.000000
 50
0.000000
 51
90.000000
  0
ENDBLK
  8
OBRYS
  0
BLOCK
  8
OBRYS
  2
Srouby_s_valcovou_hlavou___10
 70
   66
 10
430.793471
 20
543.555636
  0
LINE
  8
OBRYS
 10
427.043471
 20
547.055636
 11
434.543471
 21
547.055636
  0
LINE
  8
OBRYS
 10
426.543471
 20
546.555636
 11
426.543471
 21
543.555636
  0
LINE
  8
OBRYS
 10
426.543471
 20
543.555636
 11
435.043471
 21
543.555636
  0
LINE
  8
OBRYS
 10
435.043471
 20
543.555636
 11
435.043471
 21
546.555636
  0
ARC
  8
OBRYS
 10
427.043471
 20
546.555636
 40
0.500000
 50
90.000000
 51
180.000000
  0
ARC
  8
OBRYS
 10
434.543471
 20
546.555636
 40
0.500000
 50
0.000000
 51
90.000000
  0
LINE
  8
OBRYS
 62
     7
  6
DOT
 10
428.484056
 20
547.055636
 11
428.484056
 21
545.388969
  0
LINE
  8
OBRYS
 62
     7
  6
DOT
 10
429.638763
 20
547.055636
 11
429.638763
 21
545.388969
  0
LINE
  8
OBRYS
 62
     7
  6
DOT
 10
431.948179
 20
547.055636
 11
431.948179
 21
545.388969
  0
LINE
  8
OBRYS
 62
     7
  6
DOT
 10
433.102887
 20
547.055636
 11
433.102887
 21
545.388969
  0
ARC
  8
OBRYS
 62
     7
  6
DOT
 10
429.061409
 20
547.388976
 40
0.666673
 50
210.000310
 51
329.999690
  0
ARC
  8
OBRYS
 62
     7
  6
DOT
 10
430.793471
 20
548.888994
 40
2.166692
 50
237.795963
 51
302.204037
  0
ARC
  8
OBRYS
 62
     7
  6
DOT
 10
432.525533
 20
547.388976
 40
0.666673
 50
210.000310
 51
329.999690
  0
ARC
  8
OBRYS
 62
     7
  6
DOT
 10
429.061409
 20
545.722309
 40
0.666673
 50
210.000310
 51
329.999690
  0
ARC
  8
OBRYS
 62
     7
  6
DOT
 10
430.793471
 20
547.222328
 40
2.166692
 50
237.795963
 51
302.204037
  0
ARC
  8
OBRYS
 62
     7
  6
DOT
 10
432.525533
 20
545.722309
 40
0.666673
 50
210.000310
 51
329.999690
  0
LINE
  8
OBRYS
 62
     7
  6
DOT
 10
429.061409
 20
545.055636
 11
430.793471
 21
543.900928
  0
LINE
  8
OBRYS
 62
     7
  6
DOT
 10
430.793471
 20
543.900928
 11
432.525533
 21
545.055636
  0
ENDBLK
  8
OBRYS
  0
BLOCK
  8
OBRYS
  2
_6
 70
   64
 10
701.031222
 20
515.555625
  0
LINE
  8
OBRYS
 10
717.881958
 20
538.555636
 11
717.881958
 21
520.555635
  0
LINE
  8
OBRYS
 10
671.135268
 20
538.555636
 11
671.135268
 21
520.555635
  0
LINE
  8
OBRYS
 10
683.623500
 20
538.555636
 11
683.623500
 21
520.555635
  0
LINE
  8
OBRYS
 10
701.031222
 20
516.555636
 11
665.113451
 21
516.555636
  0
LINE
  8
OBRYS
 10
766.031222
 20
516.555636
 11
701.031222
 21
516.555636
  0
LINE
  8
OBRYS
 10
671.050834
 20
515.555625
 11
701.031222
 21
515.555625
  0
LINE
  8
OBRYS
 10
701.031222
 20
515.555625
 11
731.011984
 21
515.555614
  0
LINE
  8
OBRYS
 10
754.511222
 20
538.555636
 11
770.031222
 21
538.555636
  0
ARC
  8
OBRYS
 10
766.031222
 20
520.555636
 40
4.000000
 50
270.000000
 51
360.000000
  0
ARC
  8
OBRYS
 10
670.050834
 20
515.582982
 40
1.000000
 50
0.000000
 51
84.004934
  0
ARC
  8
OBRYS
 10
665.531222
 20
520.555636
 40
4.000000
 50
180.000000
 51
264.004934
  0
ARC
  8
OBRYS
 10
732.011984
 20
515.555625
 40
1.000000
 50
90.000000
 51
180.000000
  0
LINE
  8
OBRYS
 10
671.050834
 20
515.555625
 11
671.050834
 21
515.582982
  0
LINE
  8
OSA
 10
701.031222
 20
505.055640
 11
701.031222
 21
546.055633
  0
LINE
  8
OBRYS
 10
661.531222
 20
538.555636
 11
661.531222
 21
520.555636
  0
LINE
  8
OBRYS
 10
701.031222
 20
538.555636
 11
661.531222
 21
538.555636
  0
LINE
  8
OBRYS
 10
754.511222
 20
538.555636
 11
701.031222
 21
538.555636
  0
LINE
  8
OBRYS
 10
770.031222
 20
520.555636
 11
770.031222
 21
538.555636
  0
LINE
  8
OBRYS
 10
754.511222
 20
538.555636
 11
770.031222
 21
538.555636
  0
LINE
  8
OBRYS
 10
754.511222
 20
538.555636
 11
737.031222
 21
538.555636
  0
LINE
  8
OSA
 10
765.031222
 20
536.713917
 11
765.031222
 21
570.775264
  0
LINE
  8
OSA
 10
701.031222
 20
536.883678
 11
701.031222
 21
566.275268
  0
LINE
  8
OBRYS
 10
729.031222
 20
564.055636
 11
745.031222
 21
564.055636
  0
LINE
  8
OBRYS
 10
746.197889
 20
565.055636
 11
746.197889
 21
567.555636
  0
ARC
  8
OBRYS
 10
745.197889
 20
565.055636
 40
1.000000
 50
270.000000
 51
360.000000
  0
LINE
  8
OBRYS
 10
747.031222
 20
566.055636
 11
747.031222
 21
567.555636
  0
ARC
  8
OBRYS
 10
745.031222
 20
566.055636
 40
2.000000
 50
270.000000
 51
360.000000
  0
ARC
  8
OBRYS
 10
729.031222
 20
566.055636
 40
2.000000
 50
180.000000
 51
270.000000
  0
LINE
  8
OBRYS
 10
727.031222
 20
566.055636
 11
727.031222
 21
567.555636
  0
ARC
  8
OBRYS
 10
728.864555
 20
565.055636
 40
1.000000
 50
180.000000
 51
270.000000
  0
LINE
  8
OBRYS
 10
727.864555
 20
565.055636
 11
727.864555
 21
567.555636
  0
LINE
  8
OSA
 10
674.514718
 20
534.555636
 11
674.514718
 21
551.555636
  0
LINE
  8
OBRYS
 10
726.089277
 20
547.555636
 11
665.531222
 21
547.555636
  0
LINE
  8
OBRYS
 10
679.031222
 20
558.555636
 11
737.031222
 21
558.555636
  0
LINE
  8
OBRYS
 10
795.031222
 20
558.555636
 11
737.031222
 21
558.555636
  0
ARC
  8
OBRYS
 10
665.531222
 20
543.555636
 40
4.000000
 50
90.000000
 51
180.000000
  0
ARC
  8
OBRYS
 10
708.031222
 20
549.555636
 40
2.000000
 50
270.000000
 51
360.000000
  0
LINE
  8
OSA
 10
787.031222
 20
551.775271
 11
787.031222
 21
574.775264
  0
LINE
  8
OBRYS
 10
661.531222
 20
543.555636
 11
661.531222
 21
538.555636
  0
LINE
  8
OBRYS
 10
737.031222
 20
538.555636
 11
661.531222
 21
538.555636
  0
LINE
  8
OSA
 10
737.031222
 20
536.788187
 11
737.031222
 21
566.275268
  0
LINE
  8
OBRYS
 10
677.514718
 20
543.555636
 11
663.531222
 21
543.555636
  0
ARC
  8
OBRYS
 10
663.531222
 20
541.555636
 40
2.000000
 50
90.000000
 51
180.000000
  0
LINE
  8
OBRYS
 10
677.031222
 20
567.555636
 11
677.031222
 21
560.555636
  0
ARC
  8
OBRYS
 10
679.031222
 20
560.555636
 40
2.000000
 50
180.000000
 51
270.000000
  0
LINE
  8
OBRYS
 10
797.031222
 20
567.555636
 11
797.031222
 21
560.555636
  0
ARC
  8
OBRYS
 10
795.031222
 20
560.555636
 40
2.000000
 50
270.000000
 51
360.000000
  0
ARC
  8
OBRYS
 10
772.031222
 20
556.555636
 40
2.000000
 50
90.000000
 51
180.000000
  0
ARC
  8
OBRYS
 10
708.031222
 20
556.555636
 40
2.000000
 50
0.000000
 51
90.000000
  0
LINE
  8
OBRYS
 10
710.031222
 20
549.555636
 11
710.031222
 21
556.555636
  0
LINE
  8
OBRYS
 10
770.031222
 20
556.555636
 11
770.031222
 21
538.555636
  0
LINE
  8
OBRYS
 10
727.864555
 20
566.555636
 11
746.197889
 21
566.555636
  0
LINE
  8
OBRYS
 10
677.031222
 20
567.555636
 11
727.864555
 21
567.555636
  0
LINE
  8
OBRYS
 10
746.197889
 20
567.555636
 11
797.031222
 21
567.555636
  0
INSERT
  8
OBRYS
  2
Srouby_s_valcovou_hlavou___12
 62
     7
 10
674.514718
 20
6.061022
  0
ARC
  8
OBRYS
 10
678.764718
 20
545.555636
 40
2.000000
 50
270.000000
 51
360.000000
  0
ARC
  8
OBRYS
 10
682.764718
 20
545.555636
 40
2.000000
 50
90.000000
 51
180.000000
  0
ENDBLK
  8
OBRYS
  0
BLOCK
  8
OBRYS
  2
Srouby_s_valcovou_hlavou___12
 70
   66
 10
674.514718
 20
6.061022
  0
LINE
  8
OBRYS
 10
678.264718
 20
547.055636
 11
670.764718
 21
547.055636
  0
LINE
  8
OBRYS
 10
678.764718
 20
546.555636
 11
678.764718
 21
543.555636
  0
LINE
  8
OBRYS
 10
678.764718
 20
543.555636
 11
670.264718
 21
543.555636
  0
LINE
  8
OBRYS
 10
670.264718
 20
543.555636
 11
670.264718
 21
546.555636
  0
ARC
  8
OBRYS
 10
678.264718
 20
546.555636
 40
0.500000
 50
0.000000
 51
90.000000
  0
ARC
  8
OBRYS
 10
670.764718
 20
546.555636
 40
0.500000
 50
90.000000
 51
180.000000
  0
LINE
  8
OBRYS
 62
     7
  6
DOT
 10
676.824133
 20
547.055636
 11
676.824133
 21
545.388969
  0
LINE
  8
OBRYS
 62
     7
  6
DOT
 10
675.669425
 20
547.055636
 11
675.669425
 21
545.388969
  0
LINE
  8
OBRYS
 62
     7
  6
DOT
 10
673.360010
 20
547.055636
 11
673.360010
 21
545.388969
  0
LINE
  8
OBRYS
 62
     7
  6
DOT
 10
672.205302
 20
547.055636
 11
672.205302
 21
545.388969
  0
ARC
  8
OBRYS
 62
     7
  6
DOT
 10
676.246779
 20
547.388976
 40
0.666673
 50
210.000310
 51
329.999690
  0
ARC
  8
OBRYS
 62
     7
  6
DOT
 10
674.514718
 20
548.888994
 40
2.166692
 50
237.795963
 51
302.204037
  0
ARC
  8
OBRYS
 62
     7
  6
DOT
 10
672.782656
 20
547.388976
 40
0.666673
 50
210.000310
 51
329.999690
  0
ARC
  8
OBRYS
 62
     7
  6
DOT
 10
676.246779
 20
545.722309
 40
0.666673
 50
210.000310
 51
329.999690
  0
ARC
  8
OBRYS
 62
     7
  6
DOT
 10
674.514718
 20
547.222328
 40
2.166692
 50
237.795963
 51
302.204037
  0
ARC
  8
OBRYS
 62
     7
  6
DOT
 10
672.782656
 20
545.722309
 40
0.666673
 50
210.000310
 51
329.999690
  0
LINE
  8
OBRYS
 62
     7
  6
DOT
 10
676.246779
 20
545.055636
 11
674.514718
 21
543.900928
  0
LINE
  8
OBRYS
 62
     7
  6
DOT
 10
674.514718
 20
543.900928
 11
672.782656
 21
545.055636
  0
ENDBLK
  8
OBRYS
  0
BLOCK
  8
OBRYS
  2
_7
 70
   64
 10
587.024263
 20
464.555625
  0
LINE
  8
OBRYS
 10
582.024263
 20
393.555625
 11
582.024263
 21
440.756635
  0
LINE
  8
0
  6
DOT
 10
582.024263
 20
392.055625
 11
582.024263
 21
393.555625
  0
LINE
  8
OBRYS
 10
604.024263
 20
393.555625
 11
604.024263
 21
399.555625
  0
LINE
  8
0
  6
DOT
 10
604.024263
 20
392.055625
 11
604.024263
 21
393.555625
  0
LINE
  8
OBRYS
 10
591.272029
 20
512.555625
 11
588.024265
 21
512.555625
  0
LINE
  8
OSA
 10
597.333201
 20
464.555625
 11
580.504263
 21
464.555625
  0
LINE
  8
OSA
 10
597.333201
 20
464.555625
 11
580.504263
 21
464.555625
  0
LINE
  8
OBRYS
 10
604.024263
 20
393.555625
 11
582.024263
 21
393.555625
  0
LINE
  8
OBRYS
 10
588.024263
 20
401.555625
 11
602.024263
 21
401.555625
  0
ARC
  8
OBRYS
 10
588.024263
 20
403.555625
 40
2.000000
 50
180.000000
 51
270.000000
  0
ARC
  8
OBRYS
 10
602.024263
 20
399.555625
 40
2.000000
 50
40.000000
 51
90.000000
  0
ARC
  8
OBRYS
 10
602.024263
 20
399.555625
 40
2.000000
 50
0.000000
 51
40.000000
  0
LINE
  8
OSA
 10
596.024263
 20
388.555625
 11
596.024263
 21
406.555625
  0
LINE
  8
NEVIDITELNA
 10
592.374263
 20
401.555625
 11
592.374263
 21
393.555625
  0
LINE
  8
NEVIDITELNA
 10
599.674263
 20
393.555625
 11
599.674263
 21
401.555625
  0
LINE
  8
OBRYS
 10
587.024263
 20
464.555625
 11
587.024263
 21
511.555625
  0
ARC
  8
OBRYS
 10
588.024263
 20
511.555625
 40
1.000000
 50
90.000000
 51
180.000000
  0
ARC
  8
OBRYS
 10
593.024263
 20
422.700719
 40
2.000000
 50
324.246113
 51
360.000000
  0
ARC
  8
OBRYS
 10
590.039795
 20
510.555625
 40
2.000000
 50
35.753887
 51
90.000000
  0
LINE
  8
OBRYS
 10
594.647331
 20
507.579141
 11
591.662864
 21
511.724235
  0
ARC
  8
OBRYS
 10
593.024263
 20
506.410531
 40
2.000000
 50
0.000000
 51
35.753887
  0
ARC
  8
OBRYS
 10
591.272029
 20
510.555625
 40
2.000000
 50
35.753887
 51
90.000000
  0
LINE
  8
OBRYS
 10
594.647331
 20
509.290577
 11
592.895098
 21
511.724235
  0
LINE
  8
OBRYS
 10
595.024263
 20
508.121967
 11
595.024263
 21
464.555625
  0
ARC
  8
OBRYS
 10
593.024263
 20
508.121967
 40
2.000000
 50
0.000000
 51
35.753887
  0
ARC
  8
OBRYS
 10
593.024263
 20
495.200787
 40
2.000000
 50
0.000000
 51
42.998767
  0
ARC
  8
OBRYS
 10
593.024263
 20
492.372360
 40
2.000000
 50
0.000000
 51
42.998767
  0
ARC
  8
OBRYS
 10
593.024263
 20
491.372360
 40
2.000000
 50
0.000000
 51
42.998767
  0
LINE
  8
OBRYS
 10
591.064263
 20
466.555621
 11
595.024263
 21
466.555621
  0
LINE
  8
OBRYS
 10
591.064263
 20
462.555621
 11
595.024263
 21
462.555621
  0
LINE
  8
OBRYS
 10
594.487000
 20
496.564752
 11
593.186126
 21
497.959828
  0
LINE
  8
OBRYS
 10
594.487000
 20
493.736325
 11
593.186126
 21
495.131401
  0
LINE
  8
OBRYS
 10
592.296497
 20
498.272645
 11
592.296497
 21
496.085453
  0
LINE
  8
OBRYS
 10
594.487000
 20
492.736325
 11
591.660565
 21
495.767436
  0
LINE
  8
OBRYS
 10
591.064263
 20
511.578572
 11
591.064263
 21
498.913010
  0
ARC
  8
OBRYS
 10
590.992021
 20
495.913880
 40
3.000000
 50
42.998767
 51
88.620151
  0
ARC
  8
OBRYS
 10
590.929196
 20
495.085453
 40
1.000000
 50
42.998767
 51
82.237547
  0
LINE
  8
OBRYS
 10
591.064263
 20
496.084583
 11
591.064263
 21
467.358347
  0
ARC
  8
OBRYS
 10
590.992021
 20
493.085453
 40
3.000000
 50
42.998767
 51
88.620151
  0
LINE
  8
OBRYS
 10
592.296497
 20
466.172741
 11
592.296497
 21
462.934949
  0
ARC
  8
OBRYS
 10
593.024263
 20
437.738891
 40
2.000000
 50
317.001233
 51
360.000000
  0
ARC
  8
OBRYS
 10
593.024263
 20
436.738891
 40
2.000000
 50
317.001233
 51
360.000000
  0
ARC
  8
OBRYS
 10
593.024263
 20
433.910463
 40
2.000000
 50
317.001233
 51
360.000000
  0
ARC
  8
OBRYS
 10
521.803191
 20
464.555625
 40
69.261071
 50
339.457583
 51
360.000000
  0
ARC
  8
OBRYS
 10
596.024263
 20
436.742858
 40
10.000000
 50
159.457583
 51
180.000000
  0
LINE
  8
OBRYS
 10
587.024263
 20
464.555625
 11
587.024263
 21
449.416889
  0
ARC
  8
OBRYS
 10
587.024263
 20
440.756635
 40
5.000000
 50
120.000000
 51
180.000000
  0
ARC
  8
OBRYS
 10
582.024263
 20
449.416889
 40
5.000000
 50
300.000000
 51
360.000000
  0
LINE
  8
OBRYS
 10
594.487000
 20
432.546498
 11
586.561526
 21
424.047102
  0
ARC
  8
OBRYS
 10
588.024263
 20
422.683137
 40
2.000000
 50
137.001233
 51
180.000000
  0
LINE
  8
OBRYS
 10
586.024263
 20
403.555621
 11
586.024263
 21
436.742858
  0
LINE
  8
OBRYS
 10
594.487000
 20
435.374925
 11
586.561526
 21
426.875529
  0
ARC
  8
OBRYS
 10
588.024263
 20
425.511564
 40
2.000000
 50
137.001233
 51
180.000000
  0
LINE
  8
OBRYS
 10
594.487000
 20
436.374925
 11
586.561526
 21
427.875529
  0
ARC
  8
OBRYS
 10
588.024263
 20
426.511564
 40
2.000000
 50
137.001233
 51
180.000000
  0
LINE
  8
OBRYS
 10
603.556352
 20
400.841200
 11
590.429286
 21
416.485428
  0
ARC
  8
OBRYS
 10
591.961375
 20
417.771003
 40
2.000000
 50
140.449366
 51
220.000000
  0
LINE
  8
OBRYS
 10
586.482138
 20
414.277014
 11
590.419251
 21
419.044523
  0
ARC
  8
OBRYS
 10
588.024263
 20
413.003494
 40
2.000000
 50
140.449366
 51
180.000000
  0
LINE
  8
OBRYS
 10
594.647331
 20
421.532109
 11
590.743826
 21
416.110574
  0
ARC
  8
OBRYS
 10
593.024263
 20
420.989283
 40
2.000000
 50
324.246113
 51
360.000000
  0
LINE
  8
OBRYS
 10
594.647331
 20
419.820674
 11
591.407008
 21
415.320224
  0
LINE
  8
OBRYS
 10
595.024263
 20
420.989283
 11
595.024263
 21
464.555625
  0
ENDBLK
  8
OBRYS
  0
BLOCK
  8
OBRYS
  2
_8
 70
   64
 10
521.024263
 20
464.555625
  0
LINE
  8
OBRYS
 10
526.024263
 20
393.555625
 11
526.024263
 21
440.756635
  0
LINE
  8
0
  6
DOT
 10
526.024263
 20
392.055625
 11
526.024263
 21
393.555625
  0
LINE
  8
OBRYS
 10
504.024263
 20
393.555625
 11
504.024263
 21
399.555625
  0
LINE
  8
0
  6
DOT
 10
504.024263
 20
392.055625
 11
504.024263
 21
393.555625
  0
LINE
  8
OBRYS
 10
516.776497
 20
512.555625
 11
520.024260
 21
512.555625
  0
LINE
  8
OSA
 10
510.715325
 20
464.555625
 11
527.544263
 21
464.555625
  0
LINE
  8
OSA
 10
510.715325
 20
464.555625
 11
527.544263
 21
464.555625
  0
LINE
  8
OBRYS
 10
504.024263
 20
393.555625
 11
526.024263
 21
393.555625
  0
LINE
  8
OBRYS
 10
520.024263
 20
401.555625
 11
506.024263
 21
401.555625
  0
ARC
  8
OBRYS
 10
520.024263
 20
403.555625
 40
2.000000
 50
270.000000
 51
360.000000
  0
ARC
  8
OBRYS
 10
506.024263
 20
399.555625
 40
2.000000
 50
90.000000
 51
140.000000
  0
ARC
  8
OBRYS
 10
506.024263
 20
399.555625
 40
2.000000
 50
140.000000
 51
180.000000
  0
LINE
  8
OSA
 10
512.024263
 20
388.555625
 11
512.024263
 21
406.555625
  0
LINE
  8
NEVIDITELNA
 10
515.674263
 20
401.555625
 11
515.674263
 21
393.555625
  0
LINE
  8
NEVIDITELNA
 10
508.374263
 20
393.555625
 11
508.374263
 21
401.555625
  0
LINE
  8
OBRYS
 10
521.024263
 20
464.555625
 11
521.024263
 21
511.555625
  0
ARC
  8
OBRYS
 10
520.024263
 20
511.555625
 40
1.000000
 50
0.000000
 51
90.000000
  0
ARC
  8
OBRYS
 10
515.024263
 20
422.700719
 40
2.000000
 50
180.000000
 51
215.753887
  0
ARC
  8
OBRYS
 10
518.008730
 20
510.555625
 40
2.000000
 50
90.000000
 51
144.246113
  0
LINE
  8
OBRYS
 10
513.401194
 20
507.579141
 11
516.385662
 21
511.724235
  0
ARC
  8
OBRYS
 10
515.024263
 20
506.410531
 40
2.000000
 50
144.246113
 51
180.000000
  0
ARC
  8
OBRYS
 10
516.776497
 20
510.555625
 40
2.000000
 50
90.000000
 51
144.246113
  0
LINE
  8
OBRYS
 10
513.401194
 20
509.290577
 11
515.153428
 21
511.724235
  0
LINE
  8
OBRYS
 10
513.024263
 20
508.121967
 11
513.024263
 21
464.555625
  0
ARC
  8
OBRYS
 10
515.024263
 20
508.121967
 40
2.000000
 50
144.246113
 51
180.000000
  0
ARC
  8
OBRYS
 10
515.024263
 20
495.200787
 40
2.000000
 50
137.001233
 51
180.000000
  0
ARC
  8
OBRYS
 10
515.024263
 20
492.372360
 40
2.000000
 50
137.001233
 51
180.000000
  0
ARC
  8
OBRYS
 10
515.024263
 20
491.372360
 40
2.000000
 50
137.001233
 51
180.000000
  0
LINE
  8
OBRYS
 10
516.984263
 20
466.555621
 11
513.024263
 21
466.555621
  0
LINE
  8
OBRYS
 10
516.984263
 20
462.555621
 11
513.024263
 21
462.555621
  0
LINE
  8
OBRYS
 10
513.561526
 20
496.564752
 11
514.862399
 21
497.959828
  0
LINE
  8
OBRYS
 10
513.561526
 20
493.736325
 11
514.862399
 21
495.131401
  0
LINE
  8
OBRYS
 10
515.752029
 20
498.272645
 11
515.752029
 21
496.085453
  0
LINE
  8
OBRYS
 10
513.561526
 20
492.736325
 11
516.387961
 21
495.767436
  0
LINE
  8
OBRYS
 10
516.984263
 20
511.578572
 11
516.984263
 21
498.913010
  0
ARC
  8
OBRYS
 10
517.056505
 20
495.913880
 40
3.000000
 50
91.379849
 51
137.001233
  0
ARC
  8
OBRYS
 10
517.119329
 20
495.085453
 40
1.000000
 50
97.762453
 51
137.001233
  0
LINE
  8
OBRYS
 10
516.984263
 20
496.084583
 11
516.984263
 21
467.358347
  0
ARC
  8
OBRYS
 10
517.056505
 20
493.085453
 40
3.000000
 50
91.379849
 51
137.001233
  0
LINE
  8
OBRYS
 10
515.752029
 20
466.172741
 11
515.752029
 21
462.934949
  0
ARC
  8
OBRYS
 10
515.024263
 20
437.738891
 40
2.000000
 50
180.000000
 51
222.998767
  0
ARC
  8
OBRYS
 10
515.024263
 20
436.738891
 40
2.000000
 50
180.000000
 51
222.998767
  0
ARC
  8
OBRYS
 10
515.024263
 20
433.910463
 40
2.000000
 50
180.000000
 51
222.998767
  0
ARC
  8
OBRYS
 10
586.245334
 20
464.555625
 40
69.261071
 50
180.000000
 51
200.542417
  0
ARC
  8
OBRYS
 10
512.024263
 20
436.742858
 40
10.000000
 50
0.000000
 51
20.542417
  0
LINE
  8
OBRYS
 10
521.024263
 20
464.555625
 11
521.024263
 21
449.416889
  0
ARC
  8
OBRYS
 10
521.024263
 20
440.756635
 40
5.000000
 50
0.000000
 51
60.000000
  0
ARC
  8
OBRYS
 10
526.024263
 20
449.416889
 40
5.000000
 50
180.000000
 51
240.000000
  0
LINE
  8
OBRYS
 10
513.561526
 20
432.546498
 11
521.487000
 21
424.047102
  0
ARC
  8
OBRYS
 10
520.024263
 20
422.683137
 40
2.000000
 50
0.000000
 51
42.998767
  0
LINE
  8
OBRYS
 10
522.024263
 20
403.555621
 11
522.024263
 21
436.742858
  0
LINE
  8
OBRYS
 10
513.561526
 20
435.374925
 11
521.487000
 21
426.875529
  0
ARC
  8
OBRYS
 10
520.024263
 20
425.511564
 40
2.000000
 50
0.000000
 51
42.998767
  0
LINE
  8
OBRYS
 10
513.561526
 20
436.374925
 11
521.487000
 21
427.875529
  0
ARC
  8
OBRYS
 10
520.024263
 20
426.511564
 40
2.000000
 50
0.000000
 51
42.998767
  0
LINE
  8
OBRYS
 10
504.492174
 20
400.841200
 11
517.619239
 21
416.485428
  0
ARC
  8
OBRYS
 10
516.087150
 20
417.771003
 40
2.000000
 50
320.000000
 51
39.550634
  0
LINE
  8
OBRYS
 10
521.566387
 20
414.277014
 11
517.629275
 21
419.044523
  0
ARC
  8
OBRYS
 10
520.024263
 20
413.003494
 40
2.000000
 50
0.000000
 51
39.550634
  0
LINE
  8
OBRYS
 10
513.401194
 20
421.532109
 11
517.304700
 21
416.110574
  0
ARC
  8
OBRYS
 10
515.024263
 20
420.989283
 40
2.000000
 50
180.000000
 51
215.753887
  0
LINE
  8
OBRYS
 10
513.401194
 20
419.820674
 11
516.641518
 21
415.320224
  0
LINE
  8
OBRYS
 10
513.024263
 20
420.989283
 11
513.024263
 21
464.555625
  0
ENDBLK
  8
OBRYS
  0
BLOCK
  8
KOTA
  2
Vnitrni_metricky_zavit_M1_9
 70
   66
 10
554.024263
 20
464.555625
  0
CIRCLE
  8
KOTA
 62
     2
 10
554.024263
 20
464.555625
 40
4.458800
  0
ARC
  8
KOTA
 62
     7
 10
554.024263
 20
464.555625
 40
5.000000
 50
355.000000
 51
275.000000
  0
ENDBLK
  8
KOTA
  0
BLOCK
  8
OBRYS
  2
_10
 70
   64
 10
364.276967
 20
626.302921
  0
ARC
  8
OBRYS
 10
383.276967
 20
606.302921
 40
2.000000
 50
180.000000
 51
270.000000
  0
LINE
  8
OBRYS
 10
381.276967
 20
606.302921
 11
381.276967
 21
626.302921
  0
LINE
  8
OBRYS
 10
408.276967
 20
604.302921
 11
383.276967
 21
604.302921
  0
LINE
  8
OBRYS
 10
412.276967
 20
626.302921
 11
364.276967
 21
626.302921
  0
LINE
  8
OBRYS
 10
381.276967
 20
621.302921
 11
364.276967
 21
621.302921
  0
LINE
  8
OBRYS
 62
     7
  6
DASHDOT
 10
399.276967
 20
612.302921
 11
399.276967
 21
620.952921
  0
LINE
  8
OBRYS
 62
     7
  6
DASHDOT
 10
399.276967
 20
612.302921
 11
399.276967
 21
603.652921
  0
LINE
  8
OBRYS
 62
     7
  6
DASHDOT
 10
399.276967
 20
612.302921
 11
407.926967
 21
612.302921
  0
LINE
  8
OBRYS
 62
     7
  6
DASHDOT
 10
399.276967
 20
612.302921
 11
390.626967
 21
612.302921
  0
CIRCLE
  8
OBRYS
 10
399.276967
 20
612.302921
 40
3.650000
  0
ARC
  8
OBRYS
 10
408.276967
 20
608.302921
 40
4.000000
 50
270.000000
 51
360.000000
  0
LINE
  8
OBRYS
 10
412.276967
 20
626.302921
 11
412.276967
 21
608.302921
  0
LINE
  8
OBRYS
 10
381.276967
 20
613.302921
 11
364.276967
 21
613.302921
  0
LINE
  8
OBRYS
 10
347.276967
 20
613.302921
 11
364.276967
 21
613.302921
  0
LINE
  8
OBRYS
 10
316.276967
 20
626.302921
 11
316.276967
 21
608.302921
  0
ARC
  8
OBRYS
 10
320.276967
 20
608.302921
 40
4.000000
 50
180.000000
 51
270.000000
  0
CIRCLE
  8
OBRYS
 10
329.276967
 20
612.302921
 40
3.650000
  0
LINE
  8
OBRYS
 62
     7
  6
DASHDOT
 10
329.276967
 20
612.302921
 11
337.926967
 21
612.302921
  0
LINE
  8
OBRYS
 62
     7
  6
DASHDOT
 10
329.276967
 20
612.302921
 11
320.626967
 21
612.302921
  0
LINE
  8
OBRYS
 62
     7
  6
DASHDOT
 10
329.276967
 20
612.302921
 11
329.276967
 21
603.652921
  0
LINE
  8
OBRYS
 62
     7
  6
DASHDOT
 10
329.276967
 20
612.302921
 11
329.276967
 21
620.952921
  0
LINE
  8
OBRYS
 10
347.276967
 20
621.302921
 11
364.276967
 21
621.302921
  0
LINE
  8
OBRYS
 10
316.276967
 20
626.302921
 11
364.276967
 21
626.302921
  0
LINE
  8
OBRYS
 62
     7
  6
DASHDOT
 10
364.276967
 20
631.302921
 11
364.276967
 21
605.927405
  0
LINE
  8
OBRYS
 10
320.276967
 20
604.302921
 11
345.276967
 21
604.302921
  0
LINE
  8
OBRYS
 10
347.276967
 20
606.302921
 11
347.276967
 21
626.302921
  0
ARC
  8
OBRYS
 10
345.276967
 20
606.302921
 40
2.000000
 50
270.000000
 51
360.000000
  0
ENDBLK
  8
OBRYS
  0
BLOCK
  8
OBRYS
  2
_11
 70
   64
 10
364.276967
 20
682.302921
  0
ARC
  8
OBRYS
 10
383.276967
 20
702.302921
 40
2.000000
 50
90.000000
 51
180.000000
  0
LINE
  8
OBRYS
 10
381.276967
 20
702.302921
 11
381.276967
 21
682.302921
  0
LINE
  8
OBRYS
 10
408.276967
 20
704.302921
 11
383.276967
 21
704.302921
  0
LINE
  8
OBRYS
 10
412.276967
 20
682.302921
 11
364.276967
 21
682.302921
  0
LINE
  8
OBRYS
 10
381.276967
 20
687.302921
 11
364.276967
 21
687.302921
  0
LINE
  8
OBRYS
 62
     7
  6
DASHDOT
 10
399.276967
 20
696.302921
 11
399.276967
 21
687.652921
  0
LINE
  8
OBRYS
 62
     7
  6
DASHDOT
 10
399.276967
 20
696.302921
 11
399.276967
 21
704.952921
  0
LINE
  8
OBRYS
 62
     7
  6
DASHDOT
 10
399.276967
 20
696.302921
 11
407.926967
 21
696.302921
  0
LINE
  8
OBRYS
 62
     7
  6
DASHDOT
 10
399.276967
 20
696.302921
 11
390.626967
 21
696.302921
  0
CIRCLE
  8
OBRYS
 10
399.276967
 20
696.302921
 40
3.650000
  0
ARC
  8
OBRYS
 10
408.276967
 20
700.302921
 40
4.000000
 50
0.000000
 51
90.000000
  0
LINE
  8
OBRYS
 10
412.276967
 20
682.302921
 11
412.276967
 21
700.302921
  0
LINE
  8
OBRYS
 10
381.276967
 20
695.302921
 11
364.276967
 21
695.302921
  0
LINE
  8
OBRYS
 10
347.276967
 20
695.302921
 11
364.276967
 21
695.302921
  0
LINE
  8
OBRYS
 10
316.276967
 20
682.302921
 11
316.276967
 21
700.302921
  0
ARC
  8
OBRYS
 10
320.276967
 20
700.302921
 40
4.000000
 50
90.000000
 51
180.000000
  0
CIRCLE
  8
OBRYS
 10
329.276967
 20
696.302921
 40
3.650000
  0
LINE
  8
OBRYS
 62
     7
  6
DASHDOT
 10
329.276967
 20
696.302921
 11
337.926967
 21
696.302921
  0
LINE
  8
OBRYS
 62
     7
  6
DASHDOT
 10
329.276967
 20
696.302921
 11
320.626967
 21
696.302921
  0
LINE
  8
OBRYS
 62
     7
  6
DASHDOT
 10
329.276967
 20
696.302921
 11
329.276967
 21
704.952921
  0
LINE
  8
OBRYS
 62
     7
  6
DASHDOT
 10
329.276967
 20
696.302921
 11
329.276967
 21
687.652921
  0
LINE
  8
OBRYS
 10
347.276967
 20
687.302921
 11
364.276967
 21
687.302921
  0
LINE
  8
OBRYS
 10
316.276967
 20
682.302921
 11
364.276967
 21
682.302921
  0
LINE
  8
OBRYS
 62
     7
  6
DASHDOT
 10
364.276967
 20
677.302921
 11
364.276967
 21
702.678437
  0
LINE
  8
OBRYS
 10
320.276967
 20
704.302921
 11
345.276967
 21
704.302921
  0
LINE
  8
OBRYS
 10
347.276967
 20
702.302921
 11
347.276967
 21
682.302921
  0
ARC
  8
OBRYS
 10
345.276967
 20
702.302921
 40
2.000000
 50
0.000000
 51
90.000000
  0
ENDBLK
  8
OBRYS
  0
BLOCK
  8
OBRYS
  2
_12
 70
   64
 10
169.313784
 20
464.555625
  0
LINE
  8
OBRYS
 10
174.313784
 20
393.555625
 11
174.313784
 21
440.756635
  0
LINE
  8
0
  6
DOT
 10
174.313784
 20
392.055625
 11
174.313784
 21
393.555625
  0
LINE
  8
OBRYS
 10
152.313784
 20
393.555625
 11
152.313784
 21
399.555625
  0
LINE
  8
0
  6
DOT
 10
152.313784
 20
392.055625
 11
152.313784
 21
393.555625
  0
LINE
  8
OBRYS
 10
165.066018
 20
512.555625
 11
168.313782
 21
512.555625
  0
LINE
  8
OSA
 10
159.004846
 20
464.555625
 11
175.833784
 21
464.555625
  0
LINE
  8
OSA
 10
159.004846
 20
464.555625
 11
175.833784
 21
464.555625
  0
LINE
  8
OBRYS
 10
152.313784
 20
393.555625
 11
174.313784
 21
393.555625
  0
LINE
  8
OBRYS
 10
168.313784
 20
401.555625
 11
154.313784
 21
401.555625
  0
ARC
  8
OBRYS
 10
168.313784
 20
403.555625
 40
2.000000
 50
270.000000
 51
360.000000
  0
ARC
  8
OBRYS
 10
154.313784
 20
399.555625
 40
2.000000
 50
90.000000
 51
140.000000
  0
ARC
  8
OBRYS
 10
154.313784
 20
399.555625
 40
2.000000
 50
140.000000
 51
180.000000
  0
LINE
  8
OSA
 10
160.313784
 20
388.555625
 11
160.313784
 21
406.555625
  0
LINE
  8
NEVIDITELNA
 10
163.963784
 20
401.555625
 11
163.963784
 21
393.555625
  0
LINE
  8
NEVIDITELNA
 10
156.663784
 20
393.555625
 11
156.663784
 21
401.555625
  0
LINE
  8
OBRYS
 10
169.313784
 20
464.555625
 11
169.313784
 21
511.555625
  0
ARC
  8
OBRYS
 10
168.313784
 20
511.555625
 40
1.000000
 50
0.000000
 51
90.000000
  0
ARC
  8
OBRYS
 10
163.313784
 20
422.700719
 40
2.000000
 50
180.000000
 51
215.753887
  0
ARC
  8
OBRYS
 10
166.298252
 20
510.555625
 40
2.000000
 50
90.000000
 51
144.246113
  0
LINE
  8
OBRYS
 10
161.690716
 20
507.579141
 11
164.675183
 21
511.724235
  0
ARC
  8
OBRYS
 10
163.313784
 20
506.410531
 40
2.000000
 50
144.246113
 51
180.000000
  0
ARC
  8
OBRYS
 10
165.066018
 20
510.555625
 40
2.000000
 50
90.000000
 51
144.246113
  0
LINE
  8
OBRYS
 10
161.690716
 20
509.290577
 11
163.442949
 21
511.724235
  0
LINE
  8
OBRYS
 10
161.313784
 20
508.121967
 11
161.313784
 21
464.555625
  0
ARC
  8
OBRYS
 10
163.313784
 20
508.121967
 40
2.000000
 50
144.246113
 51
180.000000
  0
ARC
  8
OBRYS
 10
163.313784
 20
495.200787
 40
2.000000
 50
137.001233
 51
180.000000
  0
ARC
  8
OBRYS
 10
163.313784
 20
492.372360
 40
2.000000
 50
137.001233
 51
180.000000
  0
ARC
  8
OBRYS
 10
163.313784
 20
491.372360
 40
2.000000
 50
137.001233
 51
180.000000
  0
LINE
  8
OBRYS
 10
165.273784
 20
466.555621
 11
161.313784
 21
466.555621
  0
LINE
  8
OBRYS
 10
165.273784
 20
462.555621
 11
161.313784
 21
462.555621
  0
LINE
  8
OBRYS
 10
161.851048
 20
496.564752
 11
163.151921
 21
497.959828
  0
LINE
  8
OBRYS
 10
161.851048
 20
493.736325
 11
163.151921
 21
495.131401
  0
LINE
  8
OBRYS
 10
164.041551
 20
498.272645
 11
164.041551
 21
496.085453
  0
LINE
  8
OBRYS
 10
161.851048
 20
492.736325
 11
164.677482
 21
495.767436
  0
LINE
  8
OBRYS
 10
165.273784
 20
511.578572
 11
165.273784
 21
498.913010
  0
ARC
  8
OBRYS
 10
165.346026
 20
495.913880
 40
3.000000
 50
91.379849
 51
137.001233
  0
ARC
  8
OBRYS
 10
165.408851
 20
495.085453
 40
1.000000
 50
97.762453
 51
137.001233
  0
LINE
  8
OBRYS
 10
165.273784
 20
496.084583
 11
165.273784
 21
467.358347
  0
ARC
  8
OBRYS
 10
165.346026
 20
493.085453
 40
3.000000
 50
91.379849
 51
137.001233
  0
LINE
  8
OBRYS
 10
164.041551
 20
466.172741
 11
164.041551
 21
462.934949
  0
ARC
  8
OBRYS
 10
163.313784
 20
437.738891
 40
2.000000
 50
180.000000
 51
222.998767
  0
ARC
  8
OBRYS
 10
163.313784
 20
436.738891
 40
2.000000
 50
180.000000
 51
222.998767
  0
ARC
  8
OBRYS
 10
163.313784
 20
433.910463
 40
2.000000
 50
180.000000
 51
222.998767
  0
ARC
  8
OBRYS
 10
234.534856
 20
464.555625
 40
69.261071
 50
180.000000
 51
200.542417
  0
ARC
  8
OBRYS
 10
160.313784
 20
436.742858
 40
10.000000
 50
0.000000
 51
20.542417
  0
LINE
  8
OBRYS
 10
169.313784
 20
464.555625
 11
169.313784
 21
449.416889
  0
ARC
  8
OBRYS
 10
169.313784
 20
440.756635
 40
5.000000
 50
0.000000
 51
60.000000
  0
ARC
  8
OBRYS
 10
174.313784
 20
449.416889
 40
5.000000
 50
180.000000
 51
240.000000
  0
LINE
  8
OBRYS
 10
161.851048
 20
432.546498
 11
169.776521
 21
424.047102
  0
ARC
  8
OBRYS
 10
168.313784
 20
422.683137
 40
2.000000
 50
0.000000
 51
42.998767
  0
LINE
  8
OBRYS
 10
170.313784
 20
403.555621
 11
170.313784
 21
436.742858
  0
LINE
  8
OBRYS
 10
161.851048
 20
435.374925
 11
169.776521
 21
426.875529
  0
ARC
  8
OBRYS
 10
168.313784
 20
425.511564
 40
2.000000
 50
0.000000
 51
42.998767
  0
LINE
  8
OBRYS
 10
161.851048
 20
436.374925
 11
169.776521
 21
427.875529
  0
ARC
  8
OBRYS
 10
168.313784
 20
426.511564
 40
2.000000
 50
0.000000
 51
42.998767
  0
LINE
  8
OBRYS
 10
152.781695
 20
400.841200
 11
165.908761
 21
416.485428
  0
ARC
  8
OBRYS
 10
164.376672
 20
417.771003
 40
2.000000
 50
320.000000
 51
39.550634
  0
LINE
  8
OBRYS
 10
169.855909
 20
414.277014
 11
165.918796
 21
419.044523
  0
ARC
  8
OBRYS
 10
168.313784
 20
413.003494
 40
2.000000
 50
0.000000
 51
39.550634
  0
LINE
  8
OBRYS
 10
161.690716
 20
421.532109
 11
165.594221
 21
416.110574
  0
ARC
  8
OBRYS
 10
163.313784
 20
420.989283
 40
2.000000
 50
180.000000
 51
215.753887
  0
LINE
  8
OBRYS
 10
161.690716
 20
419.820674
 11
164.931039
 21
415.320224
  0
LINE
  8
OBRYS
 10
161.313784
 20
420.989283
 11
161.313784
 21
464.555625
  0
ENDBLK
  8
OBRYS
  0
BLOCK
  8
OBRYS
  2
_13
 70
   64
 10
235.313784
 20
464.555625
  0
LINE
  8
OBRYS
 10
230.313784
 20
393.555625
 11
230.313784
 21
440.756635
  0
LINE
  8
0
  6
DOT
 10
230.313784
 20
392.055625
 11
230.313784
 21
393.555625
  0
LINE
  8
OBRYS
 10
252.313784
 20
393.555625
 11
252.313784
 21
399.555625
  0
LINE
  8
0
  6
DOT
 10
252.313784
 20
392.055625
 11
252.313784
 21
393.555625
  0
LINE
  8
OBRYS
 10
239.561551
 20
512.555625
 11
236.313787
 21
512.555625
  0
LINE
  8
OSA
 10
245.622722
 20
464.555625
 11
228.793784
 21
464.555625
  0
LINE
  8
OSA
 10
245.622722
 20
464.555625
 11
228.793784
 21
464.555625
  0
LINE
  8
OBRYS
 10
252.313784
 20
393.555625
 11
230.313784
 21
393.555625
  0
LINE
  8
OBRYS
 10
236.313784
 20
401.555625
 11
250.313784
 21
401.555625
  0
ARC
  8
OBRYS
 10
236.313784
 20
403.555625
 40
2.000000
 50
180.000000
 51
270.000000
  0
ARC
  8
OBRYS
 10
250.313784
 20
399.555625
 40
2.000000
 50
40.000000
 51
90.000000
  0
ARC
  8
OBRYS
 10
250.313784
 20
399.555625
 40
2.000000
 50
0.000000
 51
40.000000
  0
LINE
  8
OSA
 10
244.313784
 20
388.555625
 11
244.313784
 21
406.555625
  0
LINE
  8
NEVIDITELNA
 10
240.663784
 20
401.555625
 11
240.663784
 21
393.555625
  0
LINE
  8
NEVIDITELNA
 10
247.963784
 20
393.555625
 11
247.963784
 21
401.555625
  0
LINE
  8
OBRYS
 10
235.313784
 20
464.555625
 11
235.313784
 21
511.555625
  0
ARC
  8
OBRYS
 10
236.313784
 20
511.555625
 40
1.000000
 50
90.000000
 51
180.000000
  0
ARC
  8
OBRYS
 10
241.313784
 20
422.700719
 40
2.000000
 50
324.246113
 51
360.000000
  0
ARC
  8
OBRYS
 10
238.329317
 20
510.555625
 40
2.000000
 50
35.753887
 51
90.000000
  0
LINE
  8
OBRYS
 10
242.936853
 20
507.579141
 11
239.952385
 21
511.724235
  0
ARC
  8
OBRYS
 10
241.313784
 20
506.410531
 40
2.000000
 50
0.000000
 51
35.753887
  0
ARC
  8
OBRYS
 10
239.561551
 20
510.555625
 40
2.000000
 50
35.753887
 51
90.000000
  0
LINE
  8
OBRYS
 10
242.936853
 20
509.290577
 11
241.184619
 21
511.724235
  0
LINE
  8
OBRYS
 10
243.313784
 20
508.121967
 11
243.313784
 21
464.555625
  0
ARC
  8
OBRYS
 10
241.313784
 20
508.121967
 40
2.000000
 50
0.000000
 51
35.753887
  0
ARC
  8
OBRYS
 10
241.313784
 20
495.200787
 40
2.000000
 50
0.000000
 51
42.998767
  0
ARC
  8
OBRYS
 10
241.313784
 20
492.372360
 40
2.000000
 50
0.000000
 51
42.998767
  0
ARC
  8
OBRYS
 10
241.313784
 20
491.372360
 40
2.000000
 50
0.000000
 51
42.998767
  0
LINE
  8
OBRYS
 10
239.353784
 20
466.555621
 11
243.313784
 21
466.555621
  0
LINE
  8
OBRYS
 10
239.353784
 20
462.555621
 11
243.313784
 21
462.555621
  0
LINE
  8
OBRYS
 10
242.776521
 20
496.564752
 11
241.475648
 21
497.959828
  0
LINE
  8
OBRYS
 10
242.776521
 20
493.736325
 11
241.475648
 21
495.131401
  0
LINE
  8
OBRYS
 10
240.586018
 20
498.272645
 11
240.586018
 21
496.085453
  0
LINE
  8
OBRYS
 10
242.776521
 20
492.736325
 11
239.950086
 21
495.767436
  0
LINE
  8
OBRYS
 10
239.353784
 20
511.578572
 11
239.353784
 21
498.913010
  0
ARC
  8
OBRYS
 10
239.281542
 20
495.913880
 40
3.000000
 50
42.998767
 51
88.620151
  0
ARC
  8
OBRYS
 10
239.218718
 20
495.085453
 40
1.000000
 50
42.998767
 51
82.237547
  0
LINE
  8
OBRYS
 10
239.353784
 20
496.084583
 11
239.353784
 21
467.358347
  0
ARC
  8
OBRYS
 10
239.281542
 20
493.085453
 40
3.000000
 50
42.998767
 51
88.620151
  0
LINE
  8
OBRYS
 10
240.586018
 20
466.172741
 11
240.586018
 21
462.934949
  0
ARC
  8
OBRYS
 10
241.313784
 20
437.738891
 40
2.000000
 50
317.001233
 51
360.000000
  0
ARC
  8
OBRYS
 10
241.313784
 20
436.738891
 40
2.000000
 50
317.001233
 51
360.000000
  0
ARC
  8
OBRYS
 10
241.313784
 20
433.910463
 40
2.000000
 50
317.001233
 51
360.000000
  0
ARC
  8
OBRYS
 10
170.092713
 20
464.555625
 40
69.261071
 50
339.457583
 51
360.000000
  0
ARC
  8
OBRYS
 10
244.313784
 20
436.742858
 40
10.000000
 50
159.457583
 51
180.000000
  0
LINE
  8
OBRYS
 10
235.313784
 20
464.555625
 11
235.313784
 21
449.416889
  0
ARC
  8
OBRYS
 10
235.313784
 20
440.756635
 40
5.000000
 50
120.000000
 51
180.000000
  0
ARC
  8
OBRYS
 10
230.313784
 20
449.416889
 40
5.000000
 50
300.000000
 51
360.000000
  0
LINE
  8
OBRYS
 10
242.776521
 20
432.546498
 11
234.851048
 21
424.047102
  0
ARC
  8
OBRYS
 10
236.313784
 20
422.683137
 40
2.000000
 50
137.001233
 51
180.000000
  0
LINE
  8
OBRYS
 10
234.313784
 20
403.555621
 11
234.313784
 21
436.742858
  0
LINE
  8
OBRYS
 10
242.776521
 20
435.374925
 11
234.851047
 21
426.875529
  0
ARC
  8
OBRYS
 10
236.313784
 20
425.511564
 40
2.000000
 50
137.001233
 51
180.000000
  0
LINE
  8
OBRYS
 10
242.776521
 20
436.374925
 11
234.851048
 21
427.875529
  0
ARC
  8
OBRYS
 10
236.313784
 20
426.511564
 40
2.000000
 50
137.001233
 51
180.000000
  0
LINE
  8
OBRYS
 10
251.845873
 20
400.841200
 11
238.718808
 21
416.485428
  0
ARC
  8
OBRYS
 10
240.250897
 20
417.771003
 40
2.000000
 50
140.449366
 51
220.000000
  0
LINE
  8
OBRYS
 10
234.771660
 20
414.277014
 11
238.708772
 21
419.044523
  0
ARC
  8
OBRYS
 10
236.313784
 20
413.003494
 40
2.000000
 50
140.449366
 51
180.000000
  0
LINE
  8
OBRYS
 10
242.936853
 20
421.532109
 11
239.033347
 21
416.110574
  0
ARC
  8
OBRYS
 10
241.313784
 20
420.989283
 40
2.000000
 50
324.246113
 51
360.000000
  0
LINE
  8
OBRYS
 10
242.936853
 20
419.820674
 11
239.696529
 21
415.320224
  0
LINE
  8
OBRYS
 10
243.313784
 20
420.989283
 11
243.313784
 21
464.555625
  0
ENDBLK
  8
OBRYS
  0
BLOCK
  8
OBRYS
  2
_14
 70
   64
 10
364.276967
 20
464.555625
  0
LINE
  8
OSA
 10
364.276967
 20
464.555625
 11
414.484840
 21
464.555625
  0
ARC
  8
OBRYS
 10
364.276967
 20
464.555625
 40
55.000000
 50
251.995547
 51
288.004453
  0
INSERT
  8
OBRYS
  2
__14
 62
     7
 10
362.742691
 20
411.055625
  0
ARC
  8
OBRYS
 10
277.277084
 20
464.422344
 40
60.000000
 50
354.868303
 51
5.387322
  0
ARC
  8
OBRYS
 10
451.276850
 20
464.688906
 40
60.000000
 50
174.868303
 51
185.387322
  0
ARC
  8
OBRYS
 10
364.410248
 20
377.555742
 40
60.000000
 50
84.868303
 51
95.387322
  0
ARC
  8
OBRYS
 10
364.143686
 20
551.555508
 40
60.000000
 50
264.868303
 51
275.387322
  0
LINE
  8
OSA
 10
364.276967
 20
464.555625
 11
364.276967
 21
516.564729
  0
LINE
  8
OSA
 10
364.276967
 20
464.555625
 11
314.069093
 21
464.555625
  0
ARC
  8
OBRYS
 10
399.276967
 20
414.055625
 40
5.500000
 50
0.000496
 51
180.000496
  0
LINE
  8
OBRYS
 10
404.776967
 20
414.055673
 11
404.776967
 21
401.555625
  0
LINE
  8
OBRYS
 10
393.776967
 20
414.055578
 11
393.776967
 21
401.555625
  0
LINE
  8
OBRYS
 10
334.776967
 20
414.055578
 11
334.776967
 21
401.555625
  0
LINE
  8
OBRYS
 10
323.776967
 20
414.055673
 11
323.776967
 21
401.555625
  0
ARC
  8
OBRYS
 10
329.276967
 20
414.055625
 40
5.500000
 50
359.999504
 51
179.999504
  0
LINE
  8
OSA
 10
364.276967
 20
464.555625
 11
364.276967
 21
391.109901
  0
ARC
  8
OBRYS
 10
380.276967
 20
394.555625
 40
1.000000
 50
0.000000
 51
90.000000
  0
LINE
  8
OBRYS
 10
380.276967
 20
395.555625
 11
364.276967
 21
395.555625
  0
ARC
  8
OBRYS
 10
348.276967
 20
394.555625
 40
1.000000
 50
90.000000
 51
180.000000
  0
LINE
  8
OBRYS
 10
348.276967
 20
395.555625
 11
364.276967
 21
395.555625
  0
LINE
  8
OBRYS
 62
     7
  6
DASHDOT
 10
329.276967
 20
419.555625
 11
329.276967
 21
393.555625
  0
LINE
  8
OBRYS
 62
     4
  6
HIDDEN2
 10
402.776967
 20
401.555625
 11
402.776967
 21
393.555625
  0
LINE
  8
OBRYS
 62
     4
  6
HIDDEN2
 10
395.776967
 20
401.555625
 11
395.776967
 21
393.555625
  0
LINE
  8
OBRYS
 62
     4
  6
HIDDEN2
 10
325.776967
 20
401.555625
 11
325.776967
 21
393.555625
  0
LINE
  8
OBRYS
 62
     4
  6
HIDDEN2
 10
332.776967
 20
401.555625
 11
332.776967
 21
393.555625
  0
ARC
  8
OBRYS
 10
390.214392
 20
457.055625
 40
2.000000
 50
90.000000
 51
163.872380
  0
LINE
  8
OBRYS
 10
396.776973
 20
459.055625
 11
390.214392
 21
459.055625
  0
ARC
  8
OBRYS
 10
371.776967
 20
438.618200
 40
2.000000
 50
106.127620
 51
180.000000
  0
LINE
  8
OBRYS
 10
369.776967
 20
432.055619
 11
369.776967
 21
438.618200
  0
ARC
  8
OBRYS
 10
356.776967
 20
438.618200
 40
2.000000
 50
0.000000
 51
73.872380
  0
LINE
  8
OBRYS
 10
358.776967
 20
432.055619
 11
358.776967
 21
438.618200
  0
ARC
  8
OBRYS
 10
338.339542
 20
457.055625
 40
2.000000
 50
16.127620
 51
90.000000
  0
LINE
  8
OBRYS
 10
331.776961
 20
459.055625
 11
338.339542
 21
459.055625
  0
ARC
  8
OBRYS
 10
338.339542
 20
472.055625
 40
2.000000
 50
270.000000
 51
343.872380
  0
LINE
  8
OBRYS
 10
331.776961
 20
470.055625
 11
338.339542
 21
470.055625
  0
ARC
  8
OBRYS
 10
356.776967
 20
490.493050
 40
2.000000
 50
286.127620
 51
360.000000
  0
LINE
  8
OBRYS
 10
358.776967
 20
497.055631
 11
358.776967
 21
490.493050
  0
ARC
  8
OBRYS
 10
390.214392
 20
472.055625
 40
2.000000
 50
196.127620
 51
270.000000
  0
LINE
  8
OBRYS
 10
396.776973
 20
470.055625
 11
390.214392
 21
470.055625
  0
ARC
  8
OBRYS
 10
371.776967
 20
490.493050
 40
2.000000
 50
180.000000
 51
253.872380
  0
LINE
  8
OBRYS
 10
369.776967
 20
497.055631
 11
369.776967
 21
490.493050
  0
LINE
  8
OBRYS
 10
381.276967
 20
399.555625
 11
347.276967
 21
399.555625
  0
LINE
  8
OBRYS
 10
384.846772
 20
401.555625
 11
382.282898
 21
401.555625
  0
LINE
  8
OBRYS
 10
343.707162
 20
401.555625
 11
346.271035
 21
401.555625
  0
ARC
  8
OBRYS
 10
387.276967
 20
403.555625
 40
2.000000
 50
180.000000
 51
270.000000
  0
ARC
  8
OBRYS
 10
341.276967
 20
403.555625
 40
2.000000
 50
270.000000
 51
360.000000
  0
ARC
  8
OBRYS
 10
364.276967
 20
432.055625
 40
5.500000
 50
180.000000
 51
360.000000
  0
ARC
  8
OBRYS
 10
396.776967
 20
464.555625
 40
5.500000
 50
270.000000
 51
90.000000
  0
ARC
  8
OBRYS
 10
331.776967
 20
464.555625
 40
5.500000
 50
90.000000
 51
270.000000
  0
ARC
  8
OBRYS
 10
364.276967
 20
497.055625
 40
5.500000
 50
0.000000
 51
180.000000
  0
LINE
  8
OBRYS
 62
     7
  6
DASHDOT
 10
399.276967
 20
419.555625
 11
399.276967
 21
393.555625
  0
CIRCLE
  8
OSA
 10
364.276967
 20
464.555625
 40
32.500000
  0
CIRCLE
  8
OBRYS
 10
364.276967
 20
464.555625
 40
42.500000
  0
ARC
  8
OBRYS
 10
364.123177
 20
464.555625
 40
51.408811
 50
290.284353
 51
293.402256
  0
ARC
  8
OBRYS
 10
364.430757
 20
464.555625
 40
51.408811
 50
246.597744
 51
249.715647
  0
LINE
  8
OBRYS
 10
385.276967
 20
418.476888
 11
385.276967
 21
403.555625
  0
ARC
  8
OBRYS
 10
387.276967
 20
418.476888
 40
2.000000
 50
116.525876
 51
180.000000
  0
LINE
  8
OBRYS
 10
381.276967
 20
415.288496
 11
381.276967
 21
393.555625
  0
ARC
  8
OBRYS
 10
379.276967
 20
415.288496
 40
2.000000
 50
0.000000
 51
106.933533
  0
ARC
  8
OBRYS
 10
349.276967
 20
415.288496
 40
2.000000
 50
73.066467
 51
180.000000
  0
LINE
  8
OBRYS
 10
347.276967
 20
415.288496
 11
347.276967
 21
393.555625
  0
ARC
  8
OBRYS
 10
341.276967
 20
418.476888
 40
2.000000
 50
0.000000
 51
63.474124
  0
LINE
  8
OBRYS
 10
343.276967
 20
418.476888
 11
343.276967
 21
403.555625
  0
LINE
  8
OBRYS
 10
395.709925
 20
435.951095
 11
401.935209
 21
429.725810
  0
LINE
  8
OBRYS
 10
392.881497
 20
433.122667
 11
399.112770
 21
426.891395
  0
LINE
  8
OBRYS
 10
335.672436
 20
433.122667
 11
329.441164
 21
426.891395
  0
LINE
  8
OBRYS
 10
332.844009
 20
435.951095
 11
326.618724
 21
429.725810
  0
LINE
  8
OBRYS
 10
366.276967
 20
507.008540
 11
366.276967
 21
512.513940
  0
LINE
  8
OBRYS
 10
362.276967
 20
507.008540
 11
362.276967
 21
512.513940
  0
LINE
  8
OBRYS
 10
335.672436
 20
495.988583
 11
331.779530
 21
499.881489
  0
LINE
  8
OBRYS
 10
332.844009
 20
493.160156
 11
328.951103
 21
497.053061
  0
LINE
  8
OBRYS
 10
321.824052
 20
466.555621
 11
316.318651
 21
466.555620
  0
LINE
  8
OBRYS
 10
321.824052
 20
462.555621
 11
316.318652
 21
462.555620
  0
LINE
  8
OBRYS
 10
392.881497
 20
495.988583
 11
396.774403
 21
499.881489
  0
LINE
  8
OBRYS
 10
395.709925
 20
493.160156
 11
399.602830
 21
497.053061
  0
LINE
  8
OBRYS
 10
406.729882
 20
466.555629
 11
412.235282
 21
466.555630
  0
LINE
  8
OBRYS
 10
406.729882
 20
462.555629
 11
412.235282
 21
462.555630
  0
ARC
  8
OBRYS
 10
364.276967
 20
464.555625
 40
48.500000
 50
0.000000
 51
180.000000
  0
ARC
  8
OBRYS
 10
364.276967
 20
464.555625
 40
55.000000
 50
292.446351
 51
331.862473
  0
ARC
  8
OBRYS
 10
364.276967
 20
464.555625
 40
55.000000
 50
208.137527
 51
247.553649
  0
LINE
  8
OSA
 62
     2
  6
CONTINUOUS
 10
315.776967
 20
393.555625
 11
347.276967
 21
393.555625
  0
LINE
  8
OBRYS
 10
315.776967
 20
464.555625
 11
315.776967
 21
393.555625
  0
LINE
  8
OSA
 62
     2
  6
CONTINUOUS
 10
381.276967
 20
393.555625
 11
412.776967
 21
393.555625
  0
LINE
  8
OBRYS
 10
412.776967
 20
464.555625
 11
412.776967
 21
393.555625
  0
LINE
  8
OBRYS
 10
387.276967
 20
401.555625
 11
410.776967
 21
401.555625
  0
ARC
  8
OBRYS
 10
410.776967
 20
399.555625
 40
2.000000
 50
0.000000
 51
90.000000
  0
LINE
  8
OBRYS
 10
317.776967
 20
401.555625
 11
341.276967
 21
401.555625
  0
ARC
  8
OBRYS
 10
317.776967
 20
399.555625
 40
2.000000
 50
90.000000
 51
180.000000
  0
INSERT
  8
OBRYS
  2
Srouby_s_valcovou_hlavou___15
 62
     7
 10
364.276967
 20
432.055625
  0
INSERT
  8
OBRYS
  2
Srouby_s_valcovou_hlavou___16
 62
     7
 10
396.776967
 20
464.555625
  0
INSERT
  8
OBRYS
  2
Srouby_s_valcovou_hlavou___17
 62
     7
 10
364.276967
 20
497.055625
  0
INSERT
  8
OBRYS
  2
Srouby_s_valcovou_hlavou___18
 62
     7
 10
331.776967
 20
464.555625
  0
ARC
  8
OBRYS
 10
361.476967
 20
476.355625
 40
0.200000
 50
90.000000
 51
180.000000
  0
LINE
  8
OBRYS
 10
361.476967
 20
476.555625
 11
367.076967
 21
476.555625
  0
LINE
  8
OBRYS
 10
361.276967
 20
473.569503
 11
361.276967
 21
476.355625
  0
ARC
  8
OBRYS
 10
367.076967
 20
476.355625
 40
0.200000
 50
0.000000
 51
90.000000
  0
LINE
  8
OBRYS
 10
367.276967
 20
476.355625
 11
367.276967
 21
473.569503
  0
ARC
  8
OBRYS
 10
364.276967
 20
464.555625
 40
9.500000
 50
108.408480
 51
71.591520
  0
CIRCLE
  8
OBRYS
 10
364.276967
 20
464.555625
 40
15.000000
  0
CIRCLE
  8
OBRYS
 10
364.276967
 20
464.555625
 40
23.500000
  0
CIRCLE
  8
OBRYS
 10
364.276967
 20
464.555625
 40
25.000000
  0
ENDBLK
  8
OBRYS
  0
BLOCK
  8
OBRYS
  2
__14
 70
   64
 10
362.742691
 20
411.055625
  0
INSERT
  8
OBRYS
  2
*X__19
 10
0.000000
 20
0.000000
  0
INSERT
  8
OBRYS
  2
*X__20
 10
0.000000
 20
0.000000
  0
LINE
  8
OBRYS
 10
368.888166
 20
411.055625
 11
368.888166
 21
421.055625
  0
LINE
  8
OBRYS
 10
368.118935
 20
421.055625
 11
368.118935
 21
411.055625
  0
ARC
  8
OBRYS
 10
368.118935
 20
417.978702
 40
3.076923
 50
90.000000
 51
180.000000
  0
LINE
  8
OBRYS
 10
365.042012
 20
417.978702
 11
365.042012
 21
414.132548
  0
ARC
  8
OBRYS
 10
368.118935
 20
414.132548
 40
3.076923
 50
180.000000
 51
270.000000
  0
ARC
  8
OBRYS
 10
368.888166
 20
417.978702
 40
3.076923
 50
0.000000
 51
90.000000
  0
LINE
  8
OBRYS
 10
371.965089
 20
414.132548
 11
371.965089
 21
417.978702
  0
ARC
  8
OBRYS
 10
368.888166
 20
414.132548
 40
3.076923
 50
270.000000
 51
360.000000
  0
LINE
  8
OBRYS
 10
359.665768
 20
421.055625
 11
359.665768
 21
411.055625
  0
LINE
  8
OBRYS
 10
363.511921
 20
414.901779
 11
363.511921
 21
413.363317
  0
LINE
  8
OBRYS
 10
363.511921
 20
414.901779
 11
362.742691
 21
414.901779
  0
LINE
  8
OBRYS
 10
363.511921
 20
413.363317
 11
362.742691
 21
413.363317
  0
LINE
  8
OBRYS
 10
362.742691
 20
413.363317
 11
362.742691
 21
411.055625
  0
LINE
  8
OBRYS
 10
362.742691
 20
421.055625
 11
362.742691
 21
414.901779
  0
LINE
  8
OBRYS
 10
359.665768
 20
421.055625
 11
362.742691
 21
421.055625
  0
LINE
  8
OBRYS
 10
362.742691
 20
411.055625
 11
359.665768
 21
411.055625
  0
LINE
  8
OBRYS
 10
358.896537
 20
421.055625
 11
358.896537
 21
413.363317
  0
LINE
  8
OBRYS
 10
358.896537
 20
413.363317
 11
355.819614
 21
413.363317
  0
LINE
  8
OBRYS
 10
355.819614
 20
413.363317
 11
358.896537
 21
421.055625
  0
INSERT
  8
OBRYS
  2
*X__21
 10
0.000000
 20
0.000000
  0
INSERT
  8
OBRYS
  2
*X__22
 10
0.000000
 20
0.000000
  0
ENDBLK
  8
OBRYS
  0
BLOCK
  8
OBRYS
  2
Srouby_s_valcovou_hlavou___15
 70
   66
 10
364.276967
 20
432.055625
  0
LINE
  8
OBRYS
 10
361.776967
 20
430.612240
 11
361.776967
 21
433.499010
  0
LINE
  8
OBRYS
 10
361.776967
 20
433.499010
 11
364.276967
 21
434.942394
  0
LINE
  8
OBRYS
 10
364.276967
 20
434.942394
 11
366.776967
 21
433.499010
  0
LINE
  8
OBRYS
 10
366.776967
 20
433.499010
 11
366.776967
 21
430.612240
  0
LINE
  8
OBRYS
 10
366.776967
 20
430.612240
 11
364.276967
 21
429.168856
  0
LINE
  8
OBRYS
 10
364.276967
 20
429.168856
 11
361.776967
 21
430.612240
  0
CIRCLE
  8
OBRYS
 10
364.276967
 20
432.055625
 40
2.886769
  0
CIRCLE
  8
OBRYS
 10
364.276967
 20
432.055625
 40
5.000000
  0
ENDBLK
  8
OBRYS
  0
BLOCK
  8
OBRYS
  2
Srouby_s_valcovou_hlavou___16
 70
   66
 10
396.776967
 20
464.555625
  0
LINE
  8
OBRYS
 10
394.276967
 20
463.112240
 11
394.276967
 21
465.999010
  0
LINE
  8
OBRYS
 10
394.276967
 20
465.999010
 11
396.776967
 21
467.442394
  0
LINE
  8
OBRYS
 10
396.776967
 20
467.442394
 11
399.276967
 21
465.999010
  0
LINE
  8
OBRYS
 10
399.276967
 20
465.999010
 11
399.276967
 21
463.112240
  0
LINE
  8
OBRYS
 10
399.276967
 20
463.112240
 11
396.776967
 21
461.668856
  0
LINE
  8
OBRYS
 10
396.776967
 20
461.668856
 11
394.276967
 21
463.112240
  0
CIRCLE
  8
OBRYS
 10
396.776967
 20
464.555625
 40
2.886769
  0
CIRCLE
  8
OBRYS
 10
396.776967
 20
464.555625
 40
5.000000
  0
ENDBLK
  8
OBRYS
  0
BLOCK
  8
OBRYS
  2
Srouby_s_valcovou_hlavou___17
 70
   66
 10
364.276967
 20
497.055625
  0
LINE
  8
OBRYS
 10
361.776967
 20
495.612240
 11
361.776967
 21
498.499010
  0
LINE
  8
OBRYS
 10
361.776967
 20
498.499010
 11
364.276967
 21
499.942394
  0
LINE
  8
OBRYS
 10
364.276967
 20
499.942394
 11
366.776967
 21
498.499010
  0
LINE
  8
OBRYS
 10
366.776967
 20
498.499010
 11
366.776967
 21
495.612240
  0
LINE
  8
OBRYS
 10
366.776967
 20
495.612240
 11
364.276967
 21
494.168856
  0
LINE
  8
OBRYS
 10
364.276967
 20
494.168856
 11
361.776967
 21
495.612240
  0
CIRCLE
  8
OBRYS
 10
364.276967
 20
497.055625
 40
2.886769
  0
CIRCLE
  8
OBRYS
 10
364.276967
 20
497.055625
 40
5.000000
  0
ENDBLK
  8
OBRYS
  0
BLOCK
  8
OBRYS
  2
Srouby_s_valcovou_hlavou___18
 70
   66
 10
331.776967
 20
464.555625
  0
LINE
  8
OBRYS
 10
329.276967
 20
463.112240
 11
329.276967
 21
465.999010
  0
LINE
  8
OBRYS
 10
329.276967
 20
465.999010
 11
331.776967
 21
467.442394
  0
LINE
  8
OBRYS
 10
331.776967
 20
467.442394
 11
334.276967
 21
465.999010
  0
LINE
  8
OBRYS
 10
334.276967
 20
465.999010
 11
334.276967
 21
463.112240
  0
LINE
  8
OBRYS
 10
334.276967
 20
463.112240
 11
331.776967
 21
461.668856
  0
LINE
  8
OBRYS
 10
331.776967
 20
461.668856
 11
329.276967
 21
463.112240
  0
CIRCLE
  8
OBRYS
 10
331.776967
 20
464.555625
 40
2.886769
  0
CIRCLE
  8
OBRYS
 10
331.776967
 20
464.555625
 40
5.000000
  0
ENDBLK
  8
OBRYS
  0
BLOCK
  8
OBRYS
  2
*X__19
 70
   65
 10
0.0
 20
0.0
  0
LINE
  8
OBRYS
 62
     0
 10
368.118134
 20
411.176117
 11
367.999359
 21
411.057312
  0
LINE
  8
OBRYS
 62
     0
 10
367.723602
 20
411.081360
 11
368.116730
 21
411.474518
  0
LINE
  8
OBRYS
 62
     0
 10
368.118134
 20
411.772919
 11
367.469025
 21
411.123779
  0
LINE
  8
OBRYS
 62
     0
 10
367.231415
 20
411.186005
 11
368.116730
 21
412.071320
  0
LINE
  8
OBRYS
 62
     0
 10
368.118134
 20
412.369720
 11
367.009430
 21
411.260956
  0
LINE
  8
OBRYS
 62
     0
 10
366.800079
 20
411.351471
 11
368.116730
 21
412.668121
  0
LINE
  8
OBRYS
 62
     0
 10
368.118134
 20
412.966522
 11
366.604950
 21
411.453308
  0
LINE
  8
OBRYS
 62
     0
 10
366.418243
 20
411.566437
 11
368.118134
 21
413.266327
  0
LINE
  8
OBRYS
 62
     0
 10
368.116730
 20
413.564728
 11
366.244293
 21
411.692291
  0
LINE
  8
OBRYS
 62
     0
 10
366.081696
 20
411.826660
 11
368.118134
 21
413.863129
  0
LINE
  8
OBRYS
 62
     0
 10
368.116730
 20
414.161530
 11
365.927521
 21
411.972321
  0
LINE
  8
OBRYS
 62
     0
 10
365.784698
 20
412.126465
 11
368.118134
 21
414.459930
  0
LINE
  8
OBRYS
 62
     0
 10
368.116730
 20
414.758331
 11
365.651764
 21
412.293335
  0
LINE
  8
OBRYS
 62
     0
 10
365.530121
 20
412.468719
 11
368.118134
 21
415.056732
  0
LINE
  8
OBRYS
 62
     0
 10
368.116730
 20
415.355103
 11
365.418427
 21
412.656799
  0
LINE
  8
OBRYS
 62
     0
 10
365.319427
 20
412.854797
 11
368.118134
 21
415.653503
  0
LINE
  8
OBRYS
 62
     0
 10
368.118134
 20
415.953339
 11
365.231720
 21
413.066925
  0
LINE
  8
OBRYS
 62
     0
 10
365.156769
 20
413.291779
 11
368.116730
 21
416.251740
  0
LINE
  8
OBRYS
 62
     0
 10
368.118134
 20
416.550140
 11
365.100189
 21
413.532196
  0
LINE
  8
OBRYS
 62
     0
 10
365.059174
 20
413.790985
 11
368.116730
 21
416.848511
  0
LINE
  8
OBRYS
 62
     0
 10
368.118134
 20
417.146912
 11
365.040802
 21
414.069611
  0
LINE
  8
OBRYS
 62
     0
 10
365.040802
 20
414.369415
 11
368.116730
 21
417.445313
  0
LINE
  8
OBRYS
 62
     0
 10
368.118134
 20
417.743713
 11
365.040802
 21
414.666382
  0
LINE
  8
OBRYS
 62
     0
 10
365.040802
 20
414.966217
 11
368.116730
 21
418.042114
  0
LINE
  8
OBRYS
 62
     0
 10
368.118134
 20
418.340515
 11
365.040802
 21
415.263184
  0
LINE
  8
OBRYS
 62
     0
 10
365.040802
 20
415.563019
 11
368.116730
 21
418.638916
  0
LINE
  8
OBRYS
 62
     0
 10
368.118134
 20
418.937317
 11
365.040802
 21
415.859985
  0
LINE
  8
OBRYS
 62
     0
 10
365.040802
 20
416.159790
 11
368.118134
 21
419.237122
  0
LINE
  8
OBRYS
 62
     0
 10
368.116730
 20
419.535522
 11
365.039398
 21
416.458191
  0
LINE
  8
OBRYS
 62
     0
 10
365.040802
 20
416.756592
 11
368.118134
 21
419.833923
  0
LINE
  8
OBRYS
 62
     0
 10
368.116730
 20
420.132324
 11
365.040802
 21
417.056427
  0
LINE
  8
OBRYS
 62
     0
 10
365.040802
 20
417.353394
 11
368.118134
 21
420.430725
  0
LINE
  8
OBRYS
 62
     0
 10
368.116730
 20
420.729126
 11
365.040802
 21
417.653198
  0
LINE
  8
OBRYS
 62
     0
 10
365.040802
 20
417.950195
 11
368.118134
 21
421.027527
  0
LINE
  8
OBRYS
 62
     0
 10
367.833893
 20
421.043091
 11
365.053558
 21
418.262726
  0
LINE
  8
OBRYS
 62
     0
 10
365.107269
 20
418.613464
 11
367.481720
 21
420.987915
  0
LINE
  8
OBRYS
 62
     0
 10
367.063141
 20
420.869141
 11
365.227509
 21
419.033478
  0
LINE
  8
OBRYS
 62
     0
 10
365.513153
 20
419.618958
 11
366.476227
 21
420.582062
  0
LINE
  8
OBRYS
 62
     0
 10
366.213226
 20
411.714935
 11
365.699860
 21
412.228302
  0
LINE
  8
OBRYS
 62
     0
 10
365.277008
 20
412.950958
 11
366.935883
 21
411.292084
  0
LINE
  8
OBRYS
 62
     0
 10
367.379913
 20
411.144989
 11
365.129913
 21
413.395020
  0
LINE
  8
OBRYS
 62
     0
 10
365.063446
 20
413.761292
 11
367.746185
 21
411.078522
  0
LINE
  8
OBRYS
 62
     0
 10
368.067230
 20
411.057312
 11
365.042206
 21
414.082336
  0
LINE
  8
OBRYS
 62
     0
 10
365.040802
 20
414.380737
 11
368.116730
 21
411.304810
  0
LINE
  8
OBRYS
 62
     0
 10
368.118134
 20
411.603210
 11
365.040802
 21
414.680542
  0
LINE
  8
OBRYS
 62
     0
 10
365.040802
 20
414.977509
 11
368.116730
 21
411.901611
  0
LINE
  8
OBRYS
 62
     0
 10
368.118134
 20
412.200012
 11
365.040802
 21
415.277344
  0
LINE
  8
OBRYS
 62
     0
 10
365.040802
 20
415.574310
 11
368.116730
 21
412.498413
  0
LINE
  8
OBRYS
 62
     0
 10
368.118134
 20
412.796814
 11
365.040802
 21
415.874146
  0
LINE
  8
OBRYS
 62
     0
 10
365.039398
 20
416.172546
 11
368.116730
 21
413.095215
  0
LINE
  8
OBRYS
 62
     0
 10
368.118134
 20
413.393616
 11
365.040802
 21
416.470917
  0
LINE
  8
OBRYS
 62
     0
 10
365.039398
 20
416.769318
 11
368.116730
 21
413.691986
  0
LINE
  8
OBRYS
 62
     0
 10
368.116730
 20
413.991821
 11
365.040802
 21
417.067719
  0
LINE
  8
OBRYS
 62
     0
 10
365.040802
 20
417.367554
 11
368.118134
 21
414.290222
  0
LINE
  8
OBRYS
 62
     0
 10
368.116730
 20
414.588623
 11
365.040802
 21
417.664520
  0
LINE
  8
OBRYS
 62
     0
 10
365.040802
 20
417.964355
 11
368.118134
 21
414.887024
  0
LINE
  8
OBRYS
 62
     0
 10
368.116730
 20
415.185425
 11
365.052155
 21
418.250000
  0
LINE
  8
OBRYS
 62
     0
 10
365.087494
 20
418.514465
 11
368.118134
 21
415.483795
  0
LINE
  8
OBRYS
 62
     0
 10
368.116730
 20
415.782196
 11
365.141205
 21
418.757721
  0
LINE
  8
OBRYS
 62
     0
 10
365.210541
 20
418.988220
 11
368.118134
 21
416.080597
  0
LINE
  8
OBRYS
 62
     0
 10
368.116730
 20
416.378998
 11
365.293976
 21
419.201782
  0
LINE
  8
OBRYS
 62
     0
 10
365.391510
 20
419.404022
 11
368.118134
 21
416.677399
  0
LINE
  8
OBRYS
 62
     0
 10
368.118134
 20
416.977234
 11
365.500458
 21
419.594940
  0
LINE
  8
OBRYS
 62
     0
 10
365.617828
 20
419.774536
 11
368.116730
 21
417.275604
  0
LINE
  8
OBRYS
 62
     0
 10
368.118134
 20
417.574005
 11
365.749359
 21
419.942810
  0
LINE
  8
OBRYS
 62
     0
 10
365.889313
 20
420.099792
 11
368.116730
 21
417.872406
  0
LINE
  8
OBRYS
 62
     0
 10
368.118134
 20
418.170807
 11
366.040680
 21
420.248291
  0
LINE
  8
OBRYS
 62
     0
 10
366.200470
 20
420.385468
 11
368.116730
 21
418.469208
  0
LINE
  8
OBRYS
 62
     0
 10
368.118134
 20
418.767609
 11
366.373016
 21
420.512756
  0
LINE
  8
OBRYS
 62
     0
 10
366.554047
 20
420.628723
 11
368.116730
 21
419.066010
  0
LINE
  8
OBRYS
 62
     0
 10
368.118134
 20
419.364410
 11
366.747772
 21
420.734772
  0
LINE
  8
OBRYS
 62
     0
 10
366.954254
 20
420.828125
 11
368.118134
 21
419.664215
  0
LINE
  8
OBRYS
 62
     0
 10
368.116730
 20
419.962616
 11
367.172028
 21
420.907318
  0
LINE
  8
OBRYS
 62
     0
 10
367.406769
 20
420.972382
 11
368.118134
 21
420.261017
  0
LINE
  8
OBRYS
 62
     0
 10
368.116730
 20
420.559418
 11
367.655670
 21
421.020447
  0
LINE
  8
OBRYS
 62
     0
 10
367.925812
 20
421.050140
 11
368.118134
 21
420.857819
  0
ENDBLK
  8
OBRYS
  0
BLOCK
  8
OBRYS
  2
*X__20
 70
   65
 10
0.0
 20
0.0
  0
LINE
  8
OBRYS
 62
     0
 10
371.425995
 20
412.393768
 11
370.625519
 21
411.593323
  0
LINE
  8
OBRYS
 62
     0
 10
369.994781
 20
411.262390
 11
371.756927
 21
413.024506
  0
LINE
  8
OBRYS
 62
     0
 10
371.888458
 20
413.453003
 11
369.566315
 21
411.130859
  0
LINE
  8
OBRYS
 62
     0
 10
369.208527
 20
411.072876
 11
371.946442
 21
413.810791
  0
LINE
  8
OBRYS
 62
     0
 10
371.964813
 20
414.126160
 11
368.893158
 21
411.054504
  0
LINE
  8
OBRYS
 62
     0
 10
368.886078
 20
411.347229
 11
371.963409
 21
414.424561
  0
LINE
  8
OBRYS
 62
     0
 10
371.963409
 20
414.724365
 11
368.886078
 21
411.647034
  0
LINE
  8
OBRYS
 62
     0
 10
368.887482
 20
411.945435
 11
371.963409
 21
415.021362
  0
LINE
  8
OBRYS
 62
     0
 10
371.963409
 20
415.321167
 11
368.886078
 21
412.243835
  0
LINE
  8
OBRYS
 62
     0
 10
368.887482
 20
412.542236
 11
371.963409
 21
415.618164
  0
LINE
  8
OBRYS
 62
     0
 10
371.963409
 20
415.917969
 11
368.886078
 21
412.840637
  0
LINE
  8
OBRYS
 62
     0
 10
368.887482
 20
413.139038
 11
371.964813
 21
416.216370
  0
LINE
  8
OBRYS
 62
     0
 10
371.963409
 20
416.514771
 11
368.886078
 21
413.437439
  0
LINE
  8
OBRYS
 62
     0
 10
368.887482
 20
413.735840
 11
371.964813
 21
416.813171
  0
LINE
  8
OBRYS
 62
     0
 10
371.963409
 20
417.111572
 11
368.886078
 21
414.034241
  0
LINE
  8
OBRYS
 62
     0
 10
368.886078
 20
414.334045
 11
371.963409
 21
417.411377
  0
LINE
  8
OBRYS
 62
     0
 10
371.963409
 20
417.708374
 11
368.887482
 21
414.632446
  0
LINE
  8
OBRYS
 62
     0
 10
368.886078
 20
414.930847
 11
371.963409
 21
418.008179
  0
LINE
  8
OBRYS
 62
     0
 10
371.947845
 20
418.289612
 11
368.887482
 21
415.229248
  0
LINE
  8
OBRYS
 62
     0
 10
368.886078
 20
415.527649
 11
371.909637
 21
418.551239
  0
LINE
  8
OBRYS
 62
     0
 10
371.854523
 20
418.793060
 11
368.887482
 21
415.826050
  0
LINE
  8
OBRYS
 62
     0
 10
368.886078
 20
416.124451
 11
371.782379
 21
419.020752
  0
LINE
  8
OBRYS
 62
     0
 10
371.697540
 20
419.232880
 11
368.887482
 21
416.422852
  0
LINE
  8
OBRYS
 62
     0
 10
368.886078
 20
416.721252
 11
371.598541
 21
419.433716
  0
LINE
  8
OBRYS
 62
     0
 10
371.486786
 20
419.621796
 11
368.886078
 21
417.021057
  0
LINE
  8
OBRYS
 62
     0
 10
368.887482
 20
417.319458
 11
371.366608
 21
419.798584
  0
LINE
  8
OBRYS
 62
     0
 10
371.235077
 20
419.966858
 11
368.886078
 21
417.617859
  0
LINE
  8
OBRYS
 62
     0
 10
368.887482
 20
417.916260
 11
371.093658
 21
420.122437
  0
LINE
  8
OBRYS
 62
     0
 10
370.940887
 20
420.269501
 11
368.886078
 21
418.214661
  0
LINE
  8
OBRYS
 62
     0
 10
368.887482
 20
418.513062
 11
370.779694
 21
420.405273
  0
LINE
  8
OBRYS
 62
     0
 10
370.605743
 20
420.531128
 11
368.886078
 21
418.811462
  0
LINE
  8
OBRYS
 62
     0
 10
368.887482
 20
419.109863
 11
370.421906
 21
420.644287
  0
LINE
  8
OBRYS
 62
     0
 10
370.226715
 20
420.748932
 11
368.886078
 21
419.408264
  0
LINE
  8
OBRYS
 62
     0
 10
368.887482
 20
419.706665
 11
370.020233
 21
420.839447
  0
LINE
  8
OBRYS
 62
     0
 10
369.798248
 20
420.917206
 11
368.887482
 21
420.006470
  0
LINE
  8
OBRYS
 62
     0
 10
368.886078
 20
420.304871
 11
369.562042
 21
420.980865
  0
LINE
  8
OBRYS
 62
     0
 10
369.310333
 20
421.026123
 11
368.887482
 21
420.603271
  0
LINE
  8
OBRYS
 62
     0
 10
368.886078
 20
420.901672
 11
369.037384
 21
421.052979
  0
LINE
  8
OBRYS
 62
     0
 10
368.962433
 20
411.055908
 11
368.886078
 21
411.132263
  0
LINE
  8
OBRYS
 62
     0
 10
368.887482
 20
411.430664
 11
369.241058
 21
411.077118
  0
LINE
  8
OBRYS
 62
     0
 10
369.498444
 20
411.116730
 11
368.886078
 21
411.729065
  0
LINE
  8
OBRYS
 62
     0
 10
368.887482
 20
412.027466
 11
369.738861
 21
411.176117
  0
LINE
  8
OBRYS
 62
     0
 10
369.962250
 20
411.249664
 11
368.886078
 21
412.325867
  0
LINE
  8
OBRYS
 62
     0
 10
368.887482
 20
412.624268
 11
370.174408
 21
411.337341
  0
LINE
  8
OBRYS
 62
     0
 10
370.371002
 20
411.437744
 11
368.886078
 21
412.922668
  0
LINE
  8
OBRYS
 62
     0
 10
368.886078
 20
413.222473
 11
370.559052
 21
411.549469
  0
LINE
  8
OBRYS
 62
     0
 10
370.735870
 20
411.672516
 11
368.887482
 21
413.520874
  0
LINE
  8
OBRYS
 62
     0
 10
368.886078
 20
413.819275
 11
370.899872
 21
411.805450
  0
LINE
  8
OBRYS
 62
     0
 10
371.055450
 20
411.949677
 11
368.887482
 21
414.117676
  0
LINE
  8
OBRYS
 62
     0
 10
368.886078
 20
414.416077
 11
371.199738
 21
412.102417
  0
LINE
  8
OBRYS
 62
     0
 10
371.334076
 20
412.267883
 11
368.887482
 21
414.714478
  0
LINE
  8
OBRYS
 62
     0
 10
368.886078
 20
415.012878
 11
371.457123
 21
412.441833
  0
LINE
  8
OBRYS
 62
     0
 10
371.570221
 20
412.628510
 11
368.887482
 21
415.311279
  0
LINE
  8
OBRYS
 62
     0
 10
368.886078
 20
415.609680
 11
371.672089
 21
412.823669
  0
LINE
  8
OBRYS
 62
     0
 10
371.761139
 20
413.034393
 11
368.886078
 21
415.909485
  0
LINE
  8
OBRYS
 62
     0
 10
368.887482
 20
416.207886
 11
371.837555
 21
413.257843
  0
LINE
  8
OBRYS
 62
     0
 10
371.896942
 20
413.495422
 11
368.886078
 21
416.506287
  0
LINE
  8
OBRYS
 62
     0
 10
368.887482
 20
416.804688
 11
371.940765
 21
413.751404
  0
LINE
  8
OBRYS
 62
     0
 10
371.962006
 20
414.027161
 11
368.886078
 21
417.103088
  0
LINE
  8
OBRYS
 62
     0
 10
368.887482
 20
417.401489
 11
371.963409
 21
414.325562
  0
LINE
  8
OBRYS
 62
     0
 10
371.963409
 20
414.622559
 11
368.886078
 21
417.699890
  0
LINE
  8
OBRYS
 62
     0
 10
368.887482
 20
417.998291
 11
371.963409
 21
414.922363
  0
LINE
  8
OBRYS
 62
     0
 10
371.963409
 20
415.219360
 11
368.886078
 21
418.296692
  0
LINE
  8
OBRYS
 62
     0
 10
368.886078
 20
418.596497
 11
371.963409
 21
415.519165
  0
LINE
  8
OBRYS
 62
     0
 10
371.964813
 20
415.817566
 11
368.887482
 21
418.894897
  0
LINE
  8
OBRYS
 62
     0
 10
368.886078
 20
419.193298
 11
371.963409
 21
416.115967
  0
LINE
  8
OBRYS
 62
     0
 10
371.964813
 20
416.414368
 11
368.887482
 21
419.491699
  0
LINE
  8
OBRYS
 62
     0
 10
368.886078
 20
419.790100
 11
371.963409
 21
416.712769
  0
LINE
  8
OBRYS
 62
     0
 10
371.963409
 20
417.012573
 11
368.887482
 21
420.088501
  0
LINE
  8
OBRYS
 62
     0
 10
368.886078
 20
420.386902
 11
371.963409
 21
417.309570
  0
LINE
  8
OBRYS
 62
     0
 10
371.963409
 20
417.609375
 11
368.887482
 21
420.685272
  0
LINE
  8
OBRYS
 62
     0
 10
368.886078
 20
420.983673
 11
371.963409
 21
417.906372
  0
LINE
  8
OBRYS
 62
     0
 10
371.954926
 20
418.214661
 11
369.123627
 21
421.045898
  0
LINE
  8
OBRYS
 62
     0
 10
369.468719
 20
421.000671
 11
371.908234
 21
418.561127
  0
LINE
  8
OBRYS
 62
     0
 10
371.800751
 20
418.965607
 11
369.873199
 21
420.893188
  0
LINE
  8
OBRYS
 62
     0
 10
370.417633
 20
420.648529
 11
371.556122
 21
419.510071
  0
ENDBLK
  8
OBRYS
  0
BLOCK
  8
OBRYS
  2
*X__21
 70
   65
 10
0.0
 20
0.0
  0
LINE
  8
OBRYS
 62
     0
 10
362.743317
 20
411.235962
 11
362.562286
 21
411.054932
  0
LINE
  8
OBRYS
 62
     0
 10
362.262482
 20
411.054932
 11
362.741913
 21
411.534363
  0
LINE
  8
OBRYS
 62
     0
 10
362.743317
 20
411.832764
 11
361.964081
 21
411.053528
  0
LINE
  8
OBRYS
 62
     0
 10
361.665680
 20
411.054932
 11
362.741913
 21
412.131165
  0
LINE
  8
OBRYS
 62
     0
 10
362.743317
 20
412.429565
 11
361.367279
 21
411.053528
  0
LINE
  8
OBRYS
 62
     0
 10
361.068878
 20
411.054932
 11
362.741913
 21
412.727966
  0
LINE
  8
OBRYS
 62
     0
 10
363.376862
 20
413.362946
 11
363.511200
 21
413.497284
  0
LINE
  8
OBRYS
 62
     0
 10
363.512604
 20
413.795685
 11
363.078461
 21
413.361511
  0
LINE
  8
OBRYS
 62
     0
 10
362.743317
 20
413.026367
 11
360.770477
 21
411.053528
  0
LINE
  8
OBRYS
 62
     0
 10
360.472076
 20
411.054932
 11
362.741913
 21
413.324768
  0
LINE
  8
OBRYS
 62
     0
 10
362.778656
 20
413.361511
 11
363.511200
 21
414.094086
  0
LINE
  8
OBRYS
 62
     0
 10
363.512604
 20
414.392487
 11
360.173676
 21
411.053528
  0
LINE
  8
OBRYS
 62
     0
 10
359.875275
 20
411.054932
 11
363.511200
 21
414.690887
  0
LINE
  8
OBRYS
 62
     0
 10
363.423553
 20
414.900177
 11
359.665985
 21
411.142609
  0
LINE
  8
OBRYS
 62
     0
 10
359.665985
 20
411.442444
 11
363.123749
 21
414.900177
  0
LINE
  8
OBRYS
 62
     0
 10
362.825348
 20
414.901611
 11
359.664581
 21
411.740845
  0
LINE
  8
OBRYS
 62
     0
 10
359.665985
 20
412.039246
 11
362.743317
 21
415.116547
  0
LINE
  8
OBRYS
 62
     0
 10
362.741913
 20
415.414948
 11
359.665985
 21
412.339050
  0
LINE
  8
OBRYS
 62
     0
 10
359.665985
 20
412.636017
 11
362.743317
 21
415.713348
  0
LINE
  8
OBRYS
 62
     0
 10
362.741913
 20
416.011749
 11
359.665985
 21
412.935852
  0
LINE
  8
OBRYS
 62
     0
 10
359.665985
 20
413.232819
 11
362.743317
 21
416.310150
  0
LINE
  8
OBRYS
 62
     0
 10
362.741913
 20
416.608551
 11
359.665985
 21
413.532654
  0
LINE
  8
OBRYS
 62
     0
 10
359.665985
 20
413.829620
 11
362.743317
 21
416.906952
  0
LINE
  8
OBRYS
 62
     0
 10
362.743317
 20
417.206757
 11
359.665985
 21
414.129456
  0
LINE
  8
OBRYS
 62
     0
 10
359.664581
 20
414.427826
 11
362.741913
 21
417.505157
  0
LINE
  8
OBRYS
 62
     0
 10
362.743317
 20
417.803558
 11
359.665985
 21
414.726227
  0
LINE
  8
OBRYS
 62
     0
 10
359.665985
 20
415.026062
 11
362.741913
 21
418.101959
  0
LINE
  8
OBRYS
 62
     0
 10
362.743317
 20
418.400360
 11
359.665985
 21
415.323029
  0
LINE
  8
OBRYS
 62
     0
 10
359.665985
 20
415.622864
 11
362.741913
 21
418.698761
  0
LINE
  8
OBRYS
 62
     0
 10
362.743317
 20
418.997162
 11
359.665985
 21
415.919830
  0
LINE
  8
OBRYS
 62
     0
 10
359.665985
 20
416.219635
 11
362.741913
 21
419.295563
  0
LINE
  8
OBRYS
 62
     0
 10
362.743317
 20
419.593964
 11
359.665985
 21
416.516632
  0
LINE
  8
OBRYS
 62
     0
 10
359.665985
 20
416.816437
 11
362.743317
 21
419.893768
  0
LINE
  8
OBRYS
 62
     0
 10
362.741913
 20
420.192169
 11
359.664581
 21
417.114838
  0
LINE
  8
OBRYS
 62
     0
 10
359.665985
 20
417.413239
 11
362.743317
 21
420.490570
  0
LINE
  8
OBRYS
 62
     0
 10
362.741913
 20
420.788971
 11
359.665985
 21
417.713043
  0
LINE
  8
OBRYS
 62
     0
 10
359.665985
 20
418.010040
 11
362.709381
 21
421.053436
  0
LINE
  8
OBRYS
 62
     0
 10
362.410980
 20
421.054840
 11
359.665985
 21
418.309845
  0
LINE
  8
OBRYS
 62
     0
 10
359.665985
 20
418.606842
 11
362.112579
 21
421.053436
  0
LINE
  8
OBRYS
 62
     0
 10
361.814178
 20
421.054840
 11
359.665985
 21
418.906647
  0
LINE
  8
OBRYS
 62
     0
 10
359.665985
 20
419.203644
 11
361.515778
 21
421.053436
  0
LINE
  8
OBRYS
 62
     0
 10
361.217377
 20
421.054840
 11
359.665985
 21
419.503448
  0
LINE
  8
OBRYS
 62
     0
 10
359.664581
 20
419.801849
 11
360.917572
 21
421.054840
  0
LINE
  8
OBRYS
 62
     0
 10
360.619171
 20
421.053436
 11
359.665985
 21
420.100250
  0
LINE
  8
OBRYS
 62
     0
 10
359.664581
 20
420.398651
 11
360.320770
 21
421.054840
  0
LINE
  8
OBRYS
 62
     0
 10
360.022369
 20
421.053436
 11
359.665985
 21
420.697052
  0
LINE
  8
OBRYS
 62
     0
 10
359.665985
 20
420.996857
 11
359.723969
 21
421.054840
  0
LINE
  8
OBRYS
 62
     0
 10
359.790436
 20
411.054932
 11
359.665985
 21
411.179382
  0
LINE
  8
OBRYS
 62
     0
 10
359.664581
 20
411.477783
 11
360.088837
 21
411.053528
  0
LINE
  8
OBRYS
 62
     0
 10
360.387238
 20
411.054932
 11
359.665985
 21
411.776184
  0
LINE
  8
OBRYS
 62
     0
 10
359.665985
 20
412.075989
 11
360.687042
 21
411.054932
  0
LINE
  8
OBRYS
 62
     0
 10
360.985443
 20
411.053528
 11
359.665985
 21
412.372986
  0
LINE
  8
OBRYS
 62
     0
 10
359.665985
 20
412.672791
 11
361.283844
 21
411.054932
  0
LINE
  8
OBRYS
 62
     0
 10
361.582245
 20
411.053528
 11
359.665985
 21
412.969788
  0
LINE
  8
OBRYS
 62
     0
 10
359.665985
 20
413.269592
 11
361.880646
 21
411.054932
  0
LINE
  8
OBRYS
 62
     0
 10
362.179047
 20
411.053528
 11
359.665985
 21
413.566589
  0
LINE
  8
OBRYS
 62
     0
 10
359.665985
 20
413.866394
 11
362.477448
 21
411.054932
  0
LINE
  8
OBRYS
 62
     0
 10
362.741913
 20
411.087463
 11
359.664581
 21
414.164795
  0
LINE
  8
OBRYS
 62
     0
 10
359.665985
 20
414.463196
 11
362.743317
 21
411.385864
  0
LINE
  8
OBRYS
 62
     0
 10
362.741913
 20
411.684265
 11
359.664581
 21
414.761597
  0
LINE
  8
OBRYS
 62
     0
 10
359.665985
 20
415.059998
 11
362.743317
 21
411.982666
  0
LINE
  8
OBRYS
 62
     0
 10
362.743317
 20
412.282471
 11
359.665985
 21
415.359802
  0
LINE
  8
OBRYS
 62
     0
 10
359.665985
 20
415.656799
 11
362.741913
 21
412.580872
  0
LINE
  8
OBRYS
 62
     0
 10
362.743317
 20
412.879272
 11
359.665985
 21
415.956604
  0
LINE
  8
OBRYS
 62
     0
 10
359.665985
 20
416.253601
 11
362.741913
 21
413.177673
  0
LINE
  8
OBRYS
 62
     0
 10
362.857880
 20
413.361511
 11
359.665985
 21
416.553406
  0
LINE
  8
OBRYS
 62
     0
 10
359.664581
 20
416.851807
 11
363.154816
 21
413.361511
  0
LINE
  8
OBRYS
 62
     0
 10
363.454620
 20
413.361511
 11
359.665985
 21
417.150208
  0
LINE
  8
OBRYS
 62
     0
 10
359.664581
 20
417.448608
 11
363.511200
 21
413.601929
  0
LINE
  8
OBRYS
 62
     0
 10
363.511200
 20
413.901764
 11
359.665985
 21
417.747009
  0
LINE
  8
OBRYS
 62
     0
 10
359.665985
 20
418.046814
 11
362.743317
 21
414.969482
  0
LINE
  8
OBRYS
 62
     0
 10
362.811188
 20
414.901611
 11
363.512604
 21
414.200165
  0
LINE
  8
OBRYS
 62
     0
 10
363.511200
 20
414.498535
 11
363.109589
 21
414.900177
  0
LINE
  8
OBRYS
 62
     0
 10
362.741913
 20
415.267883
 11
359.665985
 21
418.343811
  0
LINE
  8
OBRYS
 62
     0
 10
359.665985
 20
418.643616
 11
362.743317
 21
415.566284
  0
LINE
  8
OBRYS
 62
     0
 10
363.409393
 20
414.900177
 11
363.512604
 21
414.796936
  0
LINE
  8
OBRYS
 62
     0
 10
362.741913
 20
415.864685
 11
359.665985
 21
418.940582
  0
LINE
  8
OBRYS
 62
     0
 10
359.665985
 20
419.240417
 11
362.743317
 21
416.163086
  0
LINE
  8
OBRYS
 62
     0
 10
362.741913
 20
416.461487
 11
359.665985
 21
419.537384
  0
LINE
  8
OBRYS
 62
     0
 10
359.665985
 20
419.837219
 11
362.743317
 21
416.759888
  0
LINE
  8
OBRYS
 62
     0
 10
362.741913
 20
417.058289
 11
359.664581
 21
420.135620
  0
LINE
  8
OBRYS
 62
     0
 10
359.665985
 20
420.433990
 11
362.743317
 21
417.356689
  0
LINE
  8
OBRYS
 62
     0
 10
362.743317
 20
417.656494
 11
359.665985
 21
420.733826
  0
LINE
  8
OBRYS
 62
     0
 10
359.665985
 20
421.030792
 11
362.741913
 21
417.954895
  0
LINE
  8
OBRYS
 62
     0
 10
362.743317
 20
418.253296
 11
359.941742
 21
421.054840
  0
LINE
  8
OBRYS
 62
     0
 10
360.240143
 20
421.053436
 11
362.741913
 21
418.551697
  0
LINE
  8
OBRYS
 62
     0
 10
362.743317
 20
418.850098
 11
360.538544
 21
421.054840
  0
LINE
  8
OBRYS
 62
     0
 10
360.836945
 20
421.053436
 11
362.741913
 21
419.148499
  0
LINE
  8
OBRYS
 62
     0
 10
362.743317
 20
419.446869
 11
361.135345
 21
421.054840
  0
LINE
  8
OBRYS
 62
     0
 10
361.433746
 20
421.053436
 11
362.741913
 21
419.745270
  0
LINE
  8
OBRYS
 62
     0
 10
362.743317
 20
420.043671
 11
361.732147
 21
421.054840
  0
LINE
  8
OBRYS
 62
     0
 10
362.031952
 20
421.054840
 11
362.743317
 21
420.343506
  0
LINE
  8
OBRYS
 62
     0
 10
362.741913
 20
420.641907
 11
362.330353
 21
421.053436
  0
LINE
  8
OBRYS
 62
     0
 10
362.628754
 20
421.054840
 11
362.743317
 21
420.940308
  0
ENDBLK
  8
OBRYS
  0
BLOCK
  8
OBRYS
  2
*X__22
 70
   65
 10
0.0
 20
0.0
  0
LINE
  8
OBRYS
 62
     0
 10
358.896637
 20
413.659912
 11
358.599640
 21
413.362946
  0
LINE
  8
OBRYS
 62
     0
 10
358.301239
 20
413.361511
 11
358.896637
 21
413.956909
  0
LINE
  8
OBRYS
 62
     0
 10
358.896637
 20
414.256714
 11
358.002838
 21
413.362946
  0
LINE
  8
OBRYS
 62
     0
 10
357.704437
 20
413.361511
 11
358.896637
 21
414.553711
  0
LINE
  8
OBRYS
 62
     0
 10
358.896637
 20
414.853516
 11
357.404633
 21
413.361511
  0
LINE
  8
OBRYS
 62
     0
 10
357.107635
 20
413.361511
 11
358.896637
 21
415.150513
  0
LINE
  8
OBRYS
 62
     0
 10
358.896637
 20
415.450317
 11
356.807831
 21
413.361511
  0
LINE
  8
OBRYS
 62
     0
 10
356.510834
 20
413.361511
 11
358.896637
 21
415.747314
  0
LINE
  8
OBRYS
 62
     0
 10
358.896637
 20
416.047119
 11
356.211029
 21
413.361511
  0
LINE
  8
OBRYS
 62
     0
 10
355.912628
 20
413.362946
 11
358.895233
 21
416.345520
  0
LINE
  8
OBRYS
 62
     0
 10
358.896637
 20
416.643921
 11
355.956512
 21
413.703766
  0
LINE
  8
OBRYS
 62
     0
 10
356.154449
 20
414.201569
 11
358.896637
 21
416.943726
  0
LINE
  8
OBRYS
 62
     0
 10
358.896637
 20
417.240723
 11
356.355316
 21
414.699371
  0
LINE
  8
OBRYS
 62
     0
 10
356.553314
 20
415.197174
 11
358.896637
 21
417.540527
  0
LINE
  8
OBRYS
 62
     0
 10
358.896637
 20
417.837494
 11
356.752716
 21
415.693573
  0
LINE
  8
OBRYS
 62
     0
 10
356.952118
 20
416.192780
 11
358.896637
 21
418.137329
  0
LINE
  8
OBRYS
 62
     0
 10
358.896637
 20
418.434296
 11
357.151520
 21
416.689178
  0
LINE
  8
OBRYS
 62
     0
 10
357.349518
 20
417.186981
 11
358.896637
 21
418.734131
  0
LINE
  8
OBRYS
 62
     0
 10
358.895233
 20
419.032532
 11
357.547455
 21
417.684784
  0
LINE
  8
OBRYS
 62
     0
 10
357.748322
 20
418.182587
 11
358.896637
 21
419.330933
  0
LINE
  8
OBRYS
 62
     0
 10
358.896637
 20
419.630737
 11
357.946259
 21
418.680389
  0
LINE
  8
OBRYS
 62
     0
 10
358.145721
 20
419.176758
 11
358.896637
 21
419.927704
  0
LINE
  8
OBRYS
 62
     0
 10
358.896637
 20
420.227539
 11
358.345123
 21
419.675995
  0
LINE
  8
OBRYS
 62
     0
 10
358.544525
 20
420.172363
 11
358.896637
 21
420.524506
  0
LINE
  8
OBRYS
 62
     0
 10
358.896637
 20
420.824341
 11
358.742462
 21
420.670166
  0
LINE
  8
OBRYS
 62
     0
 10
355.990448
 20
413.361511
 11
355.868805
 21
413.483154
  0
LINE
  8
OBRYS
 62
     0
 10
355.953644
 20
413.698120
 11
356.288849
 21
413.362946
  0
LINE
  8
OBRYS
 62
     0
 10
356.587250
 20
413.361511
 11
356.038483
 21
413.910248
  0
LINE
  8
OBRYS
 62
     0
 10
356.124786
 20
414.123779
 11
356.885651
 21
413.362946
  0
LINE
  8
OBRYS
 62
     0
 10
357.184052
 20
413.361511
 11
356.209625
 21
414.335907
  0
LINE
  8
OBRYS
 62
     0
 10
356.294464
 20
414.550873
 11
357.483856
 21
413.361511
  0
LINE
  8
OBRYS
 62
     0
 10
357.780853
 20
413.361511
 11
356.379364
 21
414.763000
  0
LINE
  8
OBRYS
 62
     0
 10
356.465607
 20
414.976563
 11
358.080658
 21
413.361511
  0
LINE
  8
OBRYS
 62
     0
 10
358.379059
 20
413.362946
 11
356.551849
 21
415.190094
  0
LINE
  8
OBRYS
 62
     0
 10
356.635284
 20
415.403656
 11
358.677460
 21
413.361511
  0
LINE
  8
OBRYS
 62
     0
 10
358.896637
 20
413.442139
 11
356.721588
 21
415.617188
  0
LINE
  8
OBRYS
 62
     0
 10
356.806427
 20
415.829315
 11
358.896637
 21
413.739105
  0
LINE
  8
OBRYS
 62
     0
 10
358.896637
 20
414.038940
 11
356.892670
 21
416.042877
  0
LINE
  8
OBRYS
 62
     0
 10
356.977570
 20
416.255005
 11
358.896637
 21
414.335907
  0
LINE
  8
OBRYS
 62
     0
 10
358.896637
 20
414.635742
 11
357.062408
 21
416.469971
  0
LINE
  8
OBRYS
 62
     0
 10
357.147247
 20
416.682098
 11
358.896637
 21
414.932709
  0
LINE
  8
OBRYS
 62
     0
 10
358.896637
 20
415.232513
 11
357.233551
 21
416.895630
  0
LINE
  8
OBRYS
 62
     0
 10
357.318390
 20
417.107788
 11
358.895233
 21
415.530914
  0
LINE
  8
OBRYS
 62
     0
 10
358.896637
 20
415.829315
 11
357.403229
 21
417.322723
  0
LINE
  8
OBRYS
 62
     0
 10
357.489471
 20
417.536285
 11
358.896637
 21
416.129150
  0
LINE
  8
OBRYS
 62
     0
 10
358.896637
 20
416.426117
 11
357.574371
 21
417.748413
  0
LINE
  8
OBRYS
 62
     0
 10
357.660614
 20
417.961945
 11
358.896637
 21
416.725922
  0
LINE
  8
OBRYS
 62
     0
 10
358.896637
 20
417.022919
 11
357.744049
 21
418.175507
  0
LINE
  8
OBRYS
 62
     0
 10
357.830292
 20
418.389038
 11
358.896637
 21
417.322723
  0
LINE
  8
OBRYS
 62
     0
 10
358.896637
 20
417.619720
 11
357.915192
 21
418.601196
  0
LINE
  8
OBRYS
 62
     0
 10
358.001434
 20
418.814728
 11
358.896637
 21
417.919525
  0
LINE
  8
OBRYS
 62
     0
 10
358.895233
 20
418.217926
 11
358.084869
 21
419.028290
  0
LINE
  8
OBRYS
 62
     0
 10
358.171173
 20
419.241821
 11
358.896637
 21
418.516327
  0
LINE
  8
OBRYS
 62
     0
 10
358.896637
 20
418.816132
 11
358.257416
 21
419.455383
  0
LINE
  8
OBRYS
 62
     0
 10
358.342255
 20
419.667511
 11
358.896637
 21
419.113129
  0
LINE
  8
OBRYS
 62
     0
 10
358.896637
 20
419.412933
 11
358.427094
 21
419.882446
  0
LINE
  8
OBRYS
 62
     0
 10
358.511993
 20
420.094604
 11
358.896637
 21
419.709930
  0
LINE
  8
OBRYS
 62
     0
 10
358.896637
 20
420.009735
 11
358.598236
 21
420.308136
  0
LINE
  8
OBRYS
 62
     0
 10
358.683075
 20
420.520264
 11
358.896637
 21
420.306732
  0
LINE
  8
OBRYS
 62
     0
 10
358.896637
 20
420.606537
 11
358.769379
 21
420.733826
  0
LINE
  8
OBRYS
 62
     0
 10
358.852814
 20
420.947357
 11
358.895233
 21
420.904938
  0
ENDBLK
  8
OBRYS
  0
BLOCK
  8
OBRYS
  2
_15
 70
   64
 10
741.031222
 20
464.555625
  0
LINE
  8
OSA
 10
741.031222
 20
464.555625
 11
791.239095
 21
464.555625
  0
ARC
  8
OBRYS
 10
741.031222
 20
464.555625
 40
55.000000
 50
251.995547
 51
288.004453
  0
INSERT
  8
OBRYS
  2
__24
 62
     7
 10
739.496946
 20
411.055625
  0
ARC
  8
OBRYS
 10
654.031339
 20
464.422344
 40
60.000000
 50
354.868303
 51
5.387322
  0
ARC
  8
OBRYS
 10
828.031105
 20
464.688906
 40
60.000000
 50
174.868303
 51
185.387322
  0
ARC
  8
OBRYS
 10
741.164503
 20
377.555742
 40
60.000000
 50
84.868303
 51
95.387322
  0
ARC
  8
OBRYS
 10
740.897941
 20
551.555508
 40
60.000000
 50
264.868303
 51
275.387322
  0
LINE
  8
OSA
 10
741.031222
 20
464.555625
 11
741.031222
 21
516.564729
  0
LINE
  8
OSA
 10
741.031222
 20
464.555625
 11
690.823349
 21
464.555625
  0
ARC
  8
OBRYS
 10
776.031222
 20
414.055625
 40
5.500000
 50
0.000496
 51
180.000496
  0
LINE
  8
OBRYS
 10
781.531222
 20
414.055673
 11
781.531222
 21
401.555625
  0
LINE
  8
OBRYS
 10
770.531222
 20
414.055578
 11
770.531222
 21
401.555625
  0
LINE
  8
OBRYS
 10
711.531222
 20
414.055578
 11
711.531222
 21
401.555625
  0
LINE
  8
OBRYS
 10
700.531222
 20
414.055673
 11
700.531222
 21
401.555625
  0
ARC
  8
OBRYS
 10
706.031222
 20
414.055625
 40
5.500000
 50
359.999504
 51
179.999504
  0
LINE
  8
OSA
 10
741.031222
 20
464.555625
 11
741.031222
 21
391.109901
  0
ARC
  8
OBRYS
 10
757.031222
 20
394.555625
 40
1.000000
 50
0.000000
 51
90.000000
  0
LINE
  8
OBRYS
 10
757.031222
 20
395.555625
 11
741.031222
 21
395.555625
  0
ARC
  8
OBRYS
 10
725.031222
 20
394.555625
 40
1.000000
 50
90.000000
 51
180.000000
  0
LINE
  8
OBRYS
 10
725.031222
 20
395.555625
 11
741.031222
 21
395.555625
  0
LINE
  8
OBRYS
 62
     7
  6
DASHDOT
 10
706.031222
 20
419.555625
 11
706.031222
 21
393.555625
  0
LINE
  8
OBRYS
 62
     4
  6
HIDDEN2
 10
779.531222
 20
401.555625
 11
779.531222
 21
393.555625
  0
LINE
  8
OBRYS
 62
     4
  6
HIDDEN2
 10
772.531222
 20
401.555625
 11
772.531222
 21
393.555625
  0
LINE
  8
OBRYS
 62
     4
  6
HIDDEN2
 10
702.531222
 20
401.555625
 11
702.531222
 21
393.555625
  0
LINE
  8
OBRYS
 62
     4
  6
HIDDEN2
 10
709.531222
 20
401.555625
 11
709.531222
 21
393.555625
  0
ARC
  8
OBRYS
 10
766.968647
 20
457.055625
 40
2.000000
 50
90.000000
 51
163.872380
  0
LINE
  8
OBRYS
 10
773.531228
 20
459.055625
 11
766.968647
 21
459.055625
  0
ARC
  8
OBRYS
 10
748.531222
 20
438.618200
 40
2.000000
 50
106.127620
 51
180.000000
  0
LINE
  8
OBRYS
 10
746.531222
 20
432.055619
 11
746.531222
 21
438.618200
  0
ARC
  8
OBRYS
 10
733.531222
 20
438.618200
 40
2.000000
 50
0.000000
 51
73.872380
  0
LINE
  8
OBRYS
 10
735.531222
 20
432.055619
 11
735.531222
 21
438.618200
  0
ARC
  8
OBRYS
 10
715.093797
 20
457.055625
 40
2.000000
 50
16.127620
 51
90.000000
  0
LINE
  8
OBRYS
 10
708.531216
 20
459.055625
 11
715.093797
 21
459.055625
  0
ARC
  8
OBRYS
 10
715.093797
 20
472.055625
 40
2.000000
 50
270.000000
 51
343.872380
  0
LINE
  8
OBRYS
 10
708.531216
 20
470.055625
 11
715.093797
 21
470.055625
  0
ARC
  8
OBRYS
 10
733.531222
 20
490.493050
 40
2.000000
 50
286.127620
 51
360.000000
  0
LINE
  8
OBRYS
 10
735.531222
 20
497.055631
 11
735.531222
 21
490.493050
  0
ARC
  8
OBRYS
 10
766.968647
 20
472.055625
 40
2.000000
 50
196.127620
 51
270.000000
  0
LINE
  8
OBRYS
 10
773.531228
 20
470.055625
 11
766.968647
 21
470.055625
  0
ARC
  8
OBRYS
 10
748.531222
 20
490.493050
 40
2.000000
 50
180.000000
 51
253.872380
  0
LINE
  8
OBRYS
 10
746.531222
 20
497.055631
 11
746.531222
 21
490.493050
  0
LINE
  8
OBRYS
 10
758.031222
 20
399.555625
 11
724.031222
 21
399.555625
  0
LINE
  8
OBRYS
 10
761.601027
 20
401.555625
 11
759.037154
 21
401.555625
  0
LINE
  8
OBRYS
 10
720.461417
 20
401.555625
 11
723.025291
 21
401.555625
  0
ARC
  8
OBRYS
 10
764.031222
 20
403.555625
 40
2.000000
 50
180.000000
 51
270.000000
  0
ARC
  8
OBRYS
 10
718.031222
 20
403.555625
 40
2.000000
 50
270.000000
 51
360.000000
  0
ARC
  8
OBRYS
 10
741.031222
 20
432.055625
 40
5.500000
 50
180.000000
 51
360.000000
  0
ARC
  8
OBRYS
 10
773.531222
 20
464.555625
 40
5.500000
 50
270.000000
 51
90.000000
  0
ARC
  8
OBRYS
 10
708.531222
 20
464.555625
 40
5.500000
 50
90.000000
 51
270.000000
  0
ARC
  8
OBRYS
 10
741.031222
 20
497.055625
 40
5.500000
 50
0.000000
 51
180.000000
  0
LINE
  8
OBRYS
 62
     7
  6
DASHDOT
 10
776.031222
 20
419.555625
 11
776.031222
 21
393.555625
  0
CIRCLE
  8
OSA
 10
741.031222
 20
464.555625
 40
32.500000
  0
CIRCLE
  8
OBRYS
 10
741.031222
 20
464.555625
 40
42.500000
  0
ARC
  8
OBRYS
 10
740.877432
 20
464.555625
 40
51.408811
 50
290.284353
 51
293.402256
  0
ARC
  8
OBRYS
 10
741.185012
 20
464.555625
 40
51.408811
 50
246.597744
 51
249.715647
  0
LINE
  8
OBRYS
 10
762.031222
 20
418.476888
 11
762.031222
 21
403.555625
  0
ARC
  8
OBRYS
 10
764.031222
 20
418.476888
 40
2.000000
 50
116.525876
 51
180.000000
  0
LINE
  8
OBRYS
 10
758.031222
 20
415.288496
 11
758.031222
 21
393.555625
  0
ARC
  8
OBRYS
 10
756.031222
 20
415.288496
 40
2.000000
 50
0.000000
 51
106.933533
  0
ARC
  8
OBRYS
 10
726.031222
 20
415.288496
 40
2.000000
 50
73.066467
 51
180.000000
  0
LINE
  8
OBRYS
 10
724.031222
 20
415.288496
 11
724.031222
 21
393.555625
  0
ARC
  8
OBRYS
 10
718.031222
 20
418.476888
 40
2.000000
 50
0.000000
 51
63.474124
  0
LINE
  8
OBRYS
 10
720.031222
 20
418.476888
 11
720.031222
 21
403.555625
  0
LINE
  8
OBRYS
 10
772.464180
 20
435.951095
 11
778.689465
 21
429.725810
  0
LINE
  8
OBRYS
 10
769.635753
 20
433.122667
 11
775.867025
 21
426.891395
  0
LINE
  8
OBRYS
 10
712.426691
 20
433.122667
 11
706.195419
 21
426.891395
  0
LINE
  8
OBRYS
 10
709.598264
 20
435.951095
 11
703.372979
 21
429.725810
  0
LINE
  8
OBRYS
 10
743.031222
 20
507.008540
 11
743.031222
 21
512.513940
  0
LINE
  8
OBRYS
 10
739.031222
 20
507.008540
 11
739.031222
 21
512.513940
  0
LINE
  8
OBRYS
 10
712.426691
 20
495.988583
 11
708.533786
 21
499.881489
  0
LINE
  8
OBRYS
 10
709.598264
 20
493.160156
 11
705.705359
 21
497.053061
  0
LINE
  8
OBRYS
 10
698.578307
 20
466.555621
 11
693.072907
 21
466.555620
  0
LINE
  8
OBRYS
 10
698.578307
 20
462.555621
 11
693.072907
 21
462.555620
  0
LINE
  8
OBRYS
 10
769.635753
 20
495.988583
 11
773.528658
 21
499.881489
  0
LINE
  8
OBRYS
 10
772.464180
 20
493.160156
 11
776.357086
 21
497.053061
  0
LINE
  8
OBRYS
 10
783.484137
 20
466.555629
 11
788.989537
 21
466.555630
  0
LINE
  8
OBRYS
 10
783.484137
 20
462.555629
 11
788.989537
 21
462.555630
  0
ARC
  8
OBRYS
 10
741.031222
 20
464.555625
 40
48.500000
 50
0.000000
 51
180.000000
  0
ARC
  8
OBRYS
 10
741.031222
 20
464.555625
 40
55.000000
 50
292.446351
 51
331.862473
  0
ARC
  8
OBRYS
 10
741.031222
 20
464.555625
 40
55.000000
 50
208.137527
 51
247.553649
  0
LINE
  8
OSA
 62
     2
  6
CONTINUOUS
 10
692.531222
 20
393.555625
 11
724.031222
 21
393.555625
  0
LINE
  8
OBRYS
 10
692.531222
 20
464.555625
 11
692.531222
 21
393.555625
  0
LINE
  8
OSA
 62
     2
  6
CONTINUOUS
 10
758.031222
 20
393.555625
 11
789.531222
 21
393.555625
  0
LINE
  8
OBRYS
 10
789.531222
 20
464.555625
 11
789.531222
 21
393.555625
  0
LINE
  8
OBRYS
 10
764.031222
 20
401.555625
 11
787.531222
 21
401.555625
  0
ARC
  8
OBRYS
 10
787.531222
 20
399.555625
 40
2.000000
 50
0.000000
 51
90.000000
  0
LINE
  8
OBRYS
 10
694.531222
 20
401.555625
 11
718.031222
 21
401.555625
  0
ARC
  8
OBRYS
 10
694.531222
 20
399.555625
 40
2.000000
 50
90.000000
 51
180.000000
  0
INSERT
  8
OBRYS
  2
Srouby_s_valcovou_hlavou___25
 62
     7
 10
741.031222
 20
432.055625
  0
INSERT
  8
OBRYS
  2
Srouby_s_valcovou_hlavou___26
 62
     7
 10
773.531222
 20
464.555625
  0
INSERT
  8
OBRYS
  2
Srouby_s_valcovou_hlavou___27
 62
     7
 10
741.031222
 20
497.055625
  0
INSERT
  8
OBRYS
  2
Srouby_s_valcovou_hlavou___28
 62
     7
 10
708.531222
 20
464.555625
  0
ARC
  8
OBRYS
 10
738.231222
 20
476.355625
 40
0.200000
 50
90.000000
 51
180.000000
  0
LINE
  8
OBRYS
 10
738.231222
 20
476.555625
 11
743.831222
 21
476.555625
  0
LINE
  8
OBRYS
 10
738.031222
 20
473.569503
 11
738.031222
 21
476.355625
  0
ARC
  8
OBRYS
 10
743.831222
 20
476.355625
 40
0.200000
 50
0.000000
 51
90.000000
  0
LINE
  8
OBRYS
 10
744.031222
 20
476.355625
 11
744.031222
 21
473.569503
  0
ARC
  8
OBRYS
 10
741.031222
 20
464.555625
 40
9.500000
 50
108.408480
 51
71.591520
  0
CIRCLE
  8
OBRYS
 10
741.031222
 20
464.555625
 40
15.000000
  0
CIRCLE
  8
OBRYS
 10
741.031222
 20
464.555625
 40
23.500000
  0
CIRCLE
  8
OBRYS
 10
741.031222
 20
464.555625
 40
25.000000
  0
ENDBLK
  8
OBRYS
  0
BLOCK
  8
OBRYS
  2
__24
 70
   64
 10
739.496946
 20
411.055625
  0
INSERT
  8
OBRYS
  2
*X__29
 10
0.000000
 20
0.000000
  0
INSERT
  8
OBRYS
  2
*X__30
 10
0.000000
 20
0.000000
  0
LINE
  8
OBRYS
 10
745.642421
 20
411.055625
 11
745.642421
 21
421.055625
  0
LINE
  8
OBRYS
 10
744.873191
 20
421.055625
 11
744.873191
 21
411.055625
  0
ARC
  8
OBRYS
 10
744.873191
 20
417.978702
 40
3.076923
 50
90.000000
 51
180.000000
  0
LINE
  8
OBRYS
 10
741.796267
 20
417.978702
 11
741.796267
 21
414.132548
  0
ARC
  8
OBRYS
 10
744.873191
 20
414.132548
 40
3.076923
 50
180.000000
 51
270.000000
  0
ARC
  8
OBRYS
 10
745.642421
 20
417.978702
 40
3.076923
 50
0.000000
 51
90.000000
  0
LINE
  8
OBRYS
 10
748.719344
 20
414.132548
 11
748.719344
 21
417.978702
  0
ARC
  8
OBRYS
 10
745.642421
 20
414.132548
 40
3.076923
 50
270.000000
 51
360.000000
  0
LINE
  8
OBRYS
 10
736.420023
 20
421.055625
 11
736.420023
 21
411.055625
  0
LINE
  8
OBRYS
 10
740.266177
 20
414.901779
 11
740.266177
 21
413.363317
  0
LINE
  8
OBRYS
 10
740.266177
 20
414.901779
 11
739.496946
 21
414.901779
  0
LINE
  8
OBRYS
 10
740.266177
 20
413.363317
 11
739.496946
 21
413.363317
  0
LINE
  8
OBRYS
 10
739.496946
 20
413.363317
 11
739.496946
 21
411.055625
  0
LINE
  8
OBRYS
 10
739.496946
 20
421.055625
 11
739.496946
 21
414.901779
  0
LINE
  8
OBRYS
 10
736.420023
 20
421.055625
 11
739.496946
 21
421.055625
  0
LINE
  8
OBRYS
 10
739.496946
 20
411.055625
 11
736.420023
 21
411.055625
  0
LINE
  8
OBRYS
 10
735.650792
 20
421.055625
 11
735.650792
 21
413.363317
  0
LINE
  8
OBRYS
 10
735.650792
 20
413.363317
 11
732.573869
 21
413.363317
  0
LINE
  8
OBRYS
 10
732.573869
 20
413.363317
 11
735.650792
 21
421.055625
  0
INSERT
  8
OBRYS
  2
*X__31
 10
0.000000
 20
0.000000
  0
INSERT
  8
OBRYS
  2
*X__32
 10
0.000000
 20
0.000000
  0
ENDBLK
  8
OBRYS
  0
BLOCK
  8
OBRYS
  2
Srouby_s_valcovou_hlavou___25
 70
   66
 10
741.031222
 20
432.055625
  0
LINE
  8
OBRYS
 10
738.531222
 20
430.612240
 11
738.531222
 21
433.499010
  0
LINE
  8
OBRYS
 10
738.531222
 20
433.499010
 11
741.031222
 21
434.942394
  0
LINE
  8
OBRYS
 10
741.031222
 20
434.942394
 11
743.531222
 21
433.499010
  0
LINE
  8
OBRYS
 10
743.531222
 20
433.499010
 11
743.531222
 21
430.612240
  0
LINE
  8
OBRYS
 10
743.531222
 20
430.612240
 11
741.031222
 21
429.168856
  0
LINE
  8
OBRYS
 10
741.031222
 20
429.168856
 11
738.531222
 21
430.612240
  0
CIRCLE
  8
OBRYS
 10
741.031222
 20
432.055625
 40
2.886769
  0
CIRCLE
  8
OBRYS
 10
741.031222
 20
432.055625
 40
5.000000
  0
ENDBLK
  8
OBRYS
  0
BLOCK
  8
OBRYS
  2
Srouby_s_valcovou_hlavou___26
 70
   66
 10
773.531222
 20
464.555625
  0
LINE
  8
OBRYS
 10
771.031222
 20
463.112240
 11
771.031222
 21
465.999010
  0
LINE
  8
OBRYS
 10
771.031222
 20
465.999010
 11
773.531222
 21
467.442394
  0
LINE
  8
OBRYS
 10
773.531222
 20
467.442394
 11
776.031222
 21
465.999010
  0
LINE
  8
OBRYS
 10
776.031222
 20
465.999010
 11
776.031222
 21
463.112240
  0
LINE
  8
OBRYS
 10
776.031222
 20
463.112240
 11
773.531222
 21
461.668856
  0
LINE
  8
OBRYS
 10
773.531222
 20
461.668856
 11
771.031222
 21
463.112240
  0
CIRCLE
  8
OBRYS
 10
773.531222
 20
464.555625
 40
2.886769
  0
CIRCLE
  8
OBRYS
 10
773.531222
 20
464.555625
 40
5.000000
  0
ENDBLK
  8
OBRYS
  0
BLOCK
  8
OBRYS
  2
Srouby_s_valcovou_hlavou___27
 70
   66
 10
741.031222
 20
497.055625
  0
LINE
  8
OBRYS
 10
738.531222
 20
495.612240
 11
738.531222
 21
498.499010
  0
LINE
  8
OBRYS
 10
738.531222
 20
498.499010
 11
741.031222
 21
499.942394
  0
LINE
  8
OBRYS
 10
741.031222
 20
499.942394
 11
743.531222
 21
498.499010
  0
LINE
  8
OBRYS
 10
743.531222
 20
498.499010
 11
743.531222
 21
495.612240
  0
LINE
  8
OBRYS
 10
743.531222
 20
495.612240
 11
741.031222
 21
494.168856
  0
LINE
  8
OBRYS
 10
741.031222
 20
494.168856
 11
738.531222
 21
495.612240
  0
CIRCLE
  8
OBRYS
 10
741.031222
 20
497.055625
 40
2.886769
  0
CIRCLE
  8
OBRYS
 10
741.031222
 20
497.055625
 40
5.000000
  0
ENDBLK
  8
OBRYS
  0
BLOCK
  8
OBRYS
  2
Srouby_s_valcovou_hlavou___28
 70
   66
 10
708.531222
 20
464.555625
  0
LINE
  8
OBRYS
 10
706.031222
 20
463.112240
 11
706.031222
 21
465.999010
  0
LINE
  8
OBRYS
 10
706.031222
 20
465.999010
 11
708.531222
 21
467.442394
  0
LINE
  8
OBRYS
 10
708.531222
 20
467.442394
 11
711.031222
 21
465.999010
  0
LINE
  8
OBRYS
 10
711.031222
 20
465.999010
 11
711.031222
 21
463.112240
  0
LINE
  8
OBRYS
 10
711.031222
 20
463.112240
 11
708.531222
 21
461.668856
  0
LINE
  8
OBRYS
 10
708.531222
 20
461.668856
 11
706.031222
 21
463.112240
  0
CIRCLE
  8
OBRYS
 10
708.531222
 20
464.555625
 40
2.886769
  0
CIRCLE
  8
OBRYS
 10
708.531222
 20
464.555625
 40
5.000000
  0
ENDBLK
  8
OBRYS
  0
BLOCK
  8
OBRYS
  2
*X__29
 70
   65
 10
0.0
 20
0.0
  0
LINE
  8
OBRYS
 62
     0
 10
744.872437
 20
411.176117
 11
744.753662
 21
411.057312
  0
LINE
  8
OBRYS
 62
     0
 10
744.477905
 20
411.081360
 11
744.871033
 21
411.474518
  0
LINE
  8
OBRYS
 62
     0
 10
744.872437
 20
411.772919
 11
744.223328
 21
411.123779
  0
LINE
  8
OBRYS
 62
     0
 10
743.985718
 20
411.186005
 11
744.871033
 21
412.071320
  0
LINE
  8
OBRYS
 62
     0
 10
744.872437
 20
412.369720
 11
743.763733
 21
411.260956
  0
LINE
  8
OBRYS
 62
     0
 10
743.554382
 20
411.351471
 11
744.871033
 21
412.668121
  0
LINE
  8
OBRYS
 62
     0
 10
744.872437
 20
412.966522
 11
743.359253
 21
411.453308
  0
LINE
  8
OBRYS
 62
     0
 10
743.172546
 20
411.566437
 11
744.872437
 21
413.266327
  0
LINE
  8
OBRYS
 62
     0
 10
744.871033
 20
413.564728
 11
742.998596
 21
411.692291
  0
LINE
  8
OBRYS
 62
     0
 10
742.835999
 20
411.826660
 11
744.872437
 21
413.863129
  0
LINE
  8
OBRYS
 62
     0
 10
744.871033
 20
414.161530
 11
742.681824
 21
411.972321
  0
LINE
  8
OBRYS
 62
     0
 10
742.539001
 20
412.126465
 11
744.872437
 21
414.459930
  0
LINE
  8
OBRYS
 62
     0
 10
744.871033
 20
414.758331
 11
742.406067
 21
412.293335
  0
LINE
  8
OBRYS
 62
     0
 10
742.284424
 20
412.468719
 11
744.872437
 21
415.056732
  0
LINE
  8
OBRYS
 62
     0
 10
744.871033
 20
415.355103
 11
742.172729
 21
412.656799
  0
LINE
  8
OBRYS
 62
     0
 10
742.073730
 20
412.854797
 11
744.872437
 21
415.653503
  0
LINE
  8
OBRYS
 62
     0
 10
744.872437
 20
415.953339
 11
741.986023
 21
413.066925
  0
LINE
  8
OBRYS
 62
     0
 10
741.911072
 20
413.291779
 11
744.871033
 21
416.251740
  0
LINE
  8
OBRYS
 62
     0
 10
744.872437
 20
416.550140
 11
741.854492
 21
413.532196
  0
LINE
  8
OBRYS
 62
     0
 10
741.813477
 20
413.790985
 11
744.871033
 21
416.848511
  0
LINE
  8
OBRYS
 62
     0
 10
744.872437
 20
417.146912
 11
741.795105
 21
414.069611
  0
LINE
  8
OBRYS
 62
     0
 10
741.795105
 20
414.369415
 11
744.871033
 21
417.445313
  0
LINE
  8
OBRYS
 62
     0
 10
744.872437
 20
417.743713
 11
741.795105
 21
414.666382
  0
LINE
  8
OBRYS
 62
     0
 10
741.795105
 20
414.966217
 11
744.871033
 21
418.042114
  0
LINE
  8
OBRYS
 62
     0
 10
744.872437
 20
418.340515
 11
741.795105
 21
415.263184
  0
LINE
  8
OBRYS
 62
     0
 10
741.795105
 20
415.563019
 11
744.871033
 21
418.638916
  0
LINE
  8
OBRYS
 62
     0
 10
744.872437
 20
418.937317
 11
741.795105
 21
415.859985
  0
LINE
  8
OBRYS
 62
     0
 10
741.795105
 20
416.159790
 11
744.872437
 21
419.237122
  0
LINE
  8
OBRYS
 62
     0
 10
744.871033
 20
419.535522
 11
741.793701
 21
416.458191
  0
LINE
  8
OBRYS
 62
     0
 10
741.795105
 20
416.756592
 11
744.872437
 21
419.833923
  0
LINE
  8
OBRYS
 62
     0
 10
744.871033
 20
420.132324
 11
741.795105
 21
417.056427
  0
LINE
  8
OBRYS
 62
     0
 10
741.795105
 20
417.353394
 11
744.872437
 21
420.430725
  0
LINE
  8
OBRYS
 62
     0
 10
744.871033
 20
420.729126
 11
741.795105
 21
417.653198
  0
LINE
  8
OBRYS
 62
     0
 10
741.795105
 20
417.950195
 11
744.872437
 21
421.027527
  0
LINE
  8
OBRYS
 62
     0
 10
744.588196
 20
421.043091
 11
741.807861
 21
418.262726
  0
LINE
  8
OBRYS
 62
     0
 10
741.861572
 20
418.613464
 11
744.236023
 21
420.987915
  0
LINE
  8
OBRYS
 62
     0
 10
743.817444
 20
420.869141
 11
741.981812
 21
419.033478
  0
LINE
  8
OBRYS
 62
     0
 10
742.267456
 20
419.618958
 11
743.230530
 21
420.582062
  0
LINE
  8
OBRYS
 62
     0
 10
742.967529
 20
411.714935
 11
742.454163
 21
412.228302
  0
LINE
  8
OBRYS
 62
     0
 10
742.031311
 20
412.950958
 11
743.690186
 21
411.292084
  0
LINE
  8
OBRYS
 62
     0
 10
744.134216
 20
411.144989
 11
741.884216
 21
413.395020
  0
LINE
  8
OBRYS
 62
     0
 10
741.817749
 20
413.761292
 11
744.500488
 21
411.078522
  0
LINE
  8
OBRYS
 62
     0
 10
744.821533
 20
411.057312
 11
741.796509
 21
414.082336
  0
LINE
  8
OBRYS
 62
     0
 10
741.795105
 20
414.380737
 11
744.871033
 21
411.304810
  0
LINE
  8
OBRYS
 62
     0
 10
744.872437
 20
411.603210
 11
741.795105
 21
414.680542
  0
LINE
  8
OBRYS
 62
     0
 10
741.795105
 20
414.977509
 11
744.871033
 21
411.901611
  0
LINE
  8
OBRYS
 62
     0
 10
744.872437
 20
412.200012
 11
741.795105
 21
415.277344
  0
LINE
  8
OBRYS
 62
     0
 10
741.795105
 20
415.574310
 11
744.871033
 21
412.498413
  0
LINE
  8
OBRYS
 62
     0
 10
744.872437
 20
412.796814
 11
741.795105
 21
415.874146
  0
LINE
  8
OBRYS
 62
     0
 10
741.793701
 20
416.172546
 11
744.871033
 21
413.095215
  0
LINE
  8
OBRYS
 62
     0
 10
744.872437
 20
413.393616
 11
741.795105
 21
416.470917
  0
LINE
  8
OBRYS
 62
     0
 10
741.793701
 20
416.769318
 11
744.871033
 21
413.691986
  0
LINE
  8
OBRYS
 62
     0
 10
744.871033
 20
413.991821
 11
741.795105
 21
417.067719
  0
LINE
  8
OBRYS
 62
     0
 10
741.795105
 20
417.367554
 11
744.872437
 21
414.290222
  0
LINE
  8
OBRYS
 62
     0
 10
744.871033
 20
414.588623
 11
741.795105
 21
417.664520
  0
LINE
  8
OBRYS
 62
     0
 10
741.795105
 20
417.964355
 11
744.872437
 21
414.887024
  0
LINE
  8
OBRYS
 62
     0
 10
744.871033
 20
415.185425
 11
741.806458
 21
418.250000
  0
LINE
  8
OBRYS
 62
     0
 10
741.841797
 20
418.514465
 11
744.872437
 21
415.483795
  0
LINE
  8
OBRYS
 62
     0
 10
744.871033
 20
415.782196
 11
741.895508
 21
418.757721
  0
LINE
  8
OBRYS
 62
     0
 10
741.964844
 20
418.988220
 11
744.872437
 21
416.080597
  0
LINE
  8
OBRYS
 62
     0
 10
744.871033
 20
416.378998
 11
742.048279
 21
419.201782
  0
LINE
  8
OBRYS
 62
     0
 10
742.145813
 20
419.404022
 11
744.872437
 21
416.677399
  0
LINE
  8
OBRYS
 62
     0
 10
744.872437
 20
416.977234
 11
742.254761
 21
419.594940
  0
LINE
  8
OBRYS
 62
     0
 10
742.372131
 20
419.774536
 11
744.871033
 21
417.275604
  0
LINE
  8
OBRYS
 62
     0
 10
744.872437
 20
417.574005
 11
742.503662
 21
419.942810
  0
LINE
  8
OBRYS
 62
     0
 10
742.643616
 20
420.099792
 11
744.871033
 21
417.872406
  0
LINE
  8
OBRYS
 62
     0
 10
744.872437
 20
418.170807
 11
742.794983
 21
420.248291
  0
LINE
  8
OBRYS
 62
     0
 10
742.954773
 20
420.385468
 11
744.871033
 21
418.469208
  0
LINE
  8
OBRYS
 62
     0
 10
744.872437
 20
418.767609
 11
743.127319
 21
420.512756
  0
LINE
  8
OBRYS
 62
     0
 10
743.308350
 20
420.628723
 11
744.871033
 21
419.066010
  0
LINE
  8
OBRYS
 62
     0
 10
744.872437
 20
419.364410
 11
743.502075
 21
420.734772
  0
LINE
  8
OBRYS
 62
     0
 10
743.708557
 20
420.828125
 11
744.872437
 21
419.664215
  0
LINE
  8
OBRYS
 62
     0
 10
744.871033
 20
419.962616
 11
743.926331
 21
420.907318
  0
LINE
  8
OBRYS
 62
     0
 10
744.161072
 20
420.972382
 11
744.872437
 21
420.261017
  0
LINE
  8
OBRYS
 62
     0
 10
744.871033
 20
420.559418
 11
744.409973
 21
421.020447
  0
LINE
  8
OBRYS
 62
     0
 10
744.680115
 20
421.050140
 11
744.872437
 21
420.857819
  0
ENDBLK
  8
OBRYS
  0
BLOCK
  8
OBRYS
  2
*X__30
 70
   65
 10
0.0
 20
0.0
  0
LINE
  8
OBRYS
 62
     0
 10
748.180298
 20
412.393768
 11
747.379822
 21
411.593323
  0
LINE
  8
OBRYS
 62
     0
 10
746.749084
 20
411.262390
 11
748.511230
 21
413.024506
  0
LINE
  8
OBRYS
 62
     0
 10
748.642761
 20
413.453003
 11
746.320618
 21
411.130859
  0
LINE
  8
OBRYS
 62
     0
 10
745.962830
 20
411.072876
 11
748.700745
 21
413.810791
  0
LINE
  8
OBRYS
 62
     0
 10
748.719116
 20
414.126160
 11
745.647461
 21
411.054504
  0
LINE
  8
OBRYS
 62
     0
 10
745.640381
 20
411.347229
 11
748.717712
 21
414.424561
  0
LINE
  8
OBRYS
 62
     0
 10
748.717712
 20
414.724365
 11
745.640381
 21
411.647034
  0
LINE
  8
OBRYS
 62
     0
 10
745.641785
 20
411.945435
 11
748.717712
 21
415.021362
  0
LINE
  8
OBRYS
 62
     0
 10
748.717712
 20
415.321167
 11
745.640381
 21
412.243835
  0
LINE
  8
OBRYS
 62
     0
 10
745.641785
 20
412.542236
 11
748.717712
 21
415.618164
  0
LINE
  8
OBRYS
 62
     0
 10
748.717712
 20
415.917969
 11
745.640381
 21
412.840637
  0
LINE
  8
OBRYS
 62
     0
 10
745.641785
 20
413.139038
 11
748.719116
 21
416.216370
  0
LINE
  8
OBRYS
 62
     0
 10
748.717712
 20
416.514771
 11
745.640381
 21
413.437439
  0
LINE
  8
OBRYS
 62
     0
 10
745.641785
 20
413.735840
 11
748.719116
 21
416.813171
  0
LINE
  8
OBRYS
 62
     0
 10
748.717712
 20
417.111572
 11
745.640381
 21
414.034241
  0
LINE
  8
OBRYS
 62
     0
 10
745.640381
 20
414.334045
 11
748.717712
 21
417.411377
  0
LINE
  8
OBRYS
 62
     0
 10
748.717712
 20
417.708374
 11
745.641785
 21
414.632446
  0
LINE
  8
OBRYS
 62
     0
 10
745.640381
 20
414.930847
 11
748.717712
 21
418.008179
  0
LINE
  8
OBRYS
 62
     0
 10
748.702148
 20
418.289612
 11
745.641785
 21
415.229248
  0
LINE
  8
OBRYS
 62
     0
 10
745.640381
 20
415.527649
 11
748.663940
 21
418.551239
  0
LINE
  8
OBRYS
 62
     0
 10
748.608826
 20
418.793060
 11
745.641785
 21
415.826050
  0
LINE
  8
OBRYS
 62
     0
 10
745.640381
 20
416.124451
 11
748.536682
 21
419.020752
  0
LINE
  8
OBRYS
 62
     0
 10
748.451843
 20
419.232880
 11
745.641785
 21
416.422852
  0
LINE
  8
OBRYS
 62
     0
 10
745.640381
 20
416.721252
 11
748.352844
 21
419.433716
  0
LINE
  8
OBRYS
 62
     0
 10
748.241089
 20
419.621796
 11
745.640381
 21
417.021057
  0
LINE
  8
OBRYS
 62
     0
 10
745.641785
 20
417.319458
 11
748.120911
 21
419.798584
  0
LINE
  8
OBRYS
 62
     0
 10
747.989380
 20
419.966858
 11
745.640381
 21
417.617859
  0
LINE
  8
OBRYS
 62
     0
 10
745.641785
 20
417.916260
 11
747.847961
 21
420.122437
  0
LINE
  8
OBRYS
 62
     0
 10
747.695190
 20
420.269501
 11
745.640381
 21
418.214661
  0
LINE
  8
OBRYS
 62
     0
 10
745.641785
 20
418.513062
 11
747.533997
 21
420.405273
  0
LINE
  8
OBRYS
 62
     0
 10
747.360046
 20
420.531128
 11
745.640381
 21
418.811462
  0
LINE
  8
OBRYS
 62
     0
 10
745.641785
 20
419.109863
 11
747.176208
 21
420.644287
  0
LINE
  8
OBRYS
 62
     0
 10
746.981018
 20
420.748932
 11
745.640381
 21
419.408264
  0
LINE
  8
OBRYS
 62
     0
 10
745.641785
 20
419.706665
 11
746.774536
 21
420.839447
  0
LINE
  8
OBRYS
 62
     0
 10
746.552551
 20
420.917206
 11
745.641785
 21
420.006470
  0
LINE
  8
OBRYS
 62
     0
 10
745.640381
 20
420.304871
 11
746.316345
 21
420.980865
  0
LINE
  8
OBRYS
 62
     0
 10
746.064636
 20
421.026123
 11
745.641785
 21
420.603271
  0
LINE
  8
OBRYS
 62
     0
 10
745.640381
 20
420.901672
 11
745.791687
 21
421.052979
  0
LINE
  8
OBRYS
 62
     0
 10
745.716736
 20
411.055908
 11
745.640381
 21
411.132263
  0
LINE
  8
OBRYS
 62
     0
 10
745.641785
 20
411.430664
 11
745.995361
 21
411.077118
  0
LINE
  8
OBRYS
 62
     0
 10
746.252747
 20
411.116730
 11
745.640381
 21
411.729065
  0
LINE
  8
OBRYS
 62
     0
 10
745.641785
 20
412.027466
 11
746.493164
 21
411.176117
  0
LINE
  8
OBRYS
 62
     0
 10
746.716553
 20
411.249664
 11
745.640381
 21
412.325867
  0
LINE
  8
OBRYS
 62
     0
 10
745.641785
 20
412.624268
 11
746.928711
 21
411.337341
  0
LINE
  8
OBRYS
 62
     0
 10
747.125305
 20
411.437744
 11
745.640381
 21
412.922668
  0
LINE
  8
OBRYS
 62
     0
 10
745.640381
 20
413.222473
 11
747.313354
 21
411.549469
  0
LINE
  8
OBRYS
 62
     0
 10
747.490173
 20
411.672516
 11
745.641785
 21
413.520874
  0
LINE
  8
OBRYS
 62
     0
 10
745.640381
 20
413.819275
 11
747.654175
 21
411.805450
  0
LINE
  8
OBRYS
 62
     0
 10
747.809753
 20
411.949677
 11
745.641785
 21
414.117676
  0
LINE
  8
OBRYS
 62
     0
 10
745.640381
 20
414.416077
 11
747.954041
 21
412.102417
  0
LINE
  8
OBRYS
 62
     0
 10
748.088379
 20
412.267883
 11
745.641785
 21
414.714478
  0
LINE
  8
OBRYS
 62
     0
 10
745.640381
 20
415.012878
 11
748.211426
 21
412.441833
  0
LINE
  8
OBRYS
 62
     0
 10
748.324524
 20
412.628510
 11
745.641785
 21
415.311279
  0
LINE
  8
OBRYS
 62
     0
 10
745.640381
 20
415.609680
 11
748.426392
 21
412.823669
  0
LINE
  8
OBRYS
 62
     0
 10
748.515442
 20
413.034393
 11
745.640381
 21
415.909485
  0
LINE
  8
OBRYS
 62
     0
 10
745.641785
 20
416.207886
 11
748.591858
 21
413.257843
  0
LINE
  8
OBRYS
 62
     0
 10
748.651245
 20
413.495422
 11
745.640381
 21
416.506287
  0
LINE
  8
OBRYS
 62
     0
 10
745.641785
 20
416.804688
 11
748.695068
 21
413.751404
  0
LINE
  8
OBRYS
 62
     0
 10
748.716309
 20
414.027161
 11
745.640381
 21
417.103088
  0
LINE
  8
OBRYS
 62
     0
 10
745.641785
 20
417.401489
 11
748.717712
 21
414.325562
  0
LINE
  8
OBRYS
 62
     0
 10
748.717712
 20
414.622559
 11
745.640381
 21
417.699890
  0
LINE
  8
OBRYS
 62
     0
 10
745.641785
 20
417.998291
 11
748.717712
 21
414.922363
  0
LINE
  8
OBRYS
 62
     0
 10
748.717712
 20
415.219360
 11
745.640381
 21
418.296692
  0
LINE
  8
OBRYS
 62
     0
 10
745.640381
 20
418.596497
 11
748.717712
 21
415.519165
  0
LINE
  8
OBRYS
 62
     0
 10
748.719116
 20
415.817566
 11
745.641785
 21
418.894897
  0
LINE
  8
OBRYS
 62
     0
 10
745.640381
 20
419.193298
 11
748.717712
 21
416.115967
  0
LINE
  8
OBRYS
 62
     0
 10
748.719116
 20
416.414368
 11
745.641785
 21
419.491699
  0
LINE
  8
OBRYS
 62
     0
 10
745.640381
 20
419.790100
 11
748.717712
 21
416.712769
  0
LINE
  8
OBRYS
 62
     0
 10
748.717712
 20
417.012573
 11
745.641785
 21
420.088501
  0
LINE
  8
OBRYS
 62
     0
 10
745.640381
 20
420.386902
 11
748.717712
 21
417.309570
  0
LINE
  8
OBRYS
 62
     0
 10
748.717712
 20
417.609375
 11
745.641785
 21
420.685272
  0
LINE
  8
OBRYS
 62
     0
 10
745.640381
 20
420.983673
 11
748.717712
 21
417.906372
  0
LINE
  8
OBRYS
 62
     0
 10
748.709229
 20
418.214661
 11
745.877930
 21
421.045898
  0
LINE
  8
OBRYS
 62
     0
 10
746.223022
 20
421.000671
 11
748.662537
 21
418.561127
  0
LINE
  8
OBRYS
 62
     0
 10
748.555054
 20
418.965607
 11
746.627502
 21
420.893188
  0
LINE
  8
OBRYS
 62
     0
 10
747.171936
 20
420.648529
 11
748.310425
 21
419.510071
  0
ENDBLK
  8
OBRYS
  0
BLOCK
  8
OBRYS
  2
*X__31
 70
   65
 10
0.0
 20
0.0
  0
LINE
  8
OBRYS
 62
     0
 10
739.497620
 20
411.235962
 11
739.316589
 21
411.054932
  0
LINE
  8
OBRYS
 62
     0
 10
739.016785
 20
411.054932
 11
739.496216
 21
411.534363
  0
LINE
  8
OBRYS
 62
     0
 10
739.497620
 20
411.832764
 11
738.718384
 21
411.053528
  0
LINE
  8
OBRYS
 62
     0
 10
738.419983
 20
411.054932
 11
739.496216
 21
412.131165
  0
LINE
  8
OBRYS
 62
     0
 10
739.497620
 20
412.429565
 11
738.121582
 21
411.053528
  0
LINE
  8
OBRYS
 62
     0
 10
737.823181
 20
411.054932
 11
739.496216
 21
412.727966
  0
LINE
  8
OBRYS
 62
     0
 10
740.131165
 20
413.362946
 11
740.265503
 21
413.497284
  0
LINE
  8
OBRYS
 62
     0
 10
740.266907
 20
413.795685
 11
739.832764
 21
413.361511
  0
LINE
  8
OBRYS
 62
     0
 10
739.497620
 20
413.026367
 11
737.524780
 21
411.053528
  0
LINE
  8
OBRYS
 62
     0
 10
737.226379
 20
411.054932
 11
739.496216
 21
413.324768
  0
LINE
  8
OBRYS
 62
     0
 10
739.532959
 20
413.361511
 11
740.265503
 21
414.094086
  0
LINE
  8
OBRYS
 62
     0
 10
740.266907
 20
414.392487
 11
736.927979
 21
411.053528
  0
LINE
  8
OBRYS
 62
     0
 10
736.629578
 20
411.054932
 11
740.265503
 21
414.690887
  0
LINE
  8
OBRYS
 62
     0
 10
740.177856
 20
414.900177
 11
736.420288
 21
411.142609
  0
LINE
  8
OBRYS
 62
     0
 10
736.420288
 20
411.442444
 11
739.878052
 21
414.900177
  0
LINE
  8
OBRYS
 62
     0
 10
739.579651
 20
414.901611
 11
736.418884
 21
411.740845
  0
LINE
  8
OBRYS
 62
     0
 10
736.420288
 20
412.039246
 11
739.497620
 21
415.116547
  0
LINE
  8
OBRYS
 62
     0
 10
739.496216
 20
415.414948
 11
736.420288
 21
412.339050
  0
LINE
  8
OBRYS
 62
     0
 10
736.420288
 20
412.636017
 11
739.497620
 21
415.713348
  0
LINE
  8
OBRYS
 62
     0
 10
739.496216
 20
416.011749
 11
736.420288
 21
412.935852
  0
LINE
  8
OBRYS
 62
     0
 10
736.420288
 20
413.232819
 11
739.497620
 21
416.310150
  0
LINE
  8
OBRYS
 62
     0
 10
739.496216
 20
416.608551
 11
736.420288
 21
413.532654
  0
LINE
  8
OBRYS
 62
     0
 10
736.420288
 20
413.829620
 11
739.497620
 21
416.906952
  0
LINE
  8
OBRYS
 62
     0
 10
739.497620
 20
417.206757
 11
736.420288
 21
414.129456
  0
LINE
  8
OBRYS
 62
     0
 10
736.418884
 20
414.427826
 11
739.496216
 21
417.505157
  0
LINE
  8
OBRYS
 62
     0
 10
739.497620
 20
417.803558
 11
736.420288
 21
414.726227
  0
LINE
  8
OBRYS
 62
     0
 10
736.420288
 20
415.026062
 11
739.496216
 21
418.101959
  0
LINE
  8
OBRYS
 62
     0
 10
739.497620
 20
418.400360
 11
736.420288
 21
415.323029
  0
LINE
  8
OBRYS
 62
     0
 10
736.420288
 20
415.622864
 11
739.496216
 21
418.698761
  0
LINE
  8
OBRYS
 62
     0
 10
739.497620
 20
418.997162
 11
736.420288
 21
415.919830
  0
LINE
  8
OBRYS
 62
     0
 10
736.420288
 20
416.219635
 11
739.496216
 21
419.295563
  0
LINE
  8
OBRYS
 62
     0
 10
739.497620
 20
419.593964
 11
736.420288
 21
416.516632
  0
LINE
  8
OBRYS
 62
     0
 10
736.420288
 20
416.816437
 11
739.497620
 21
419.893768
  0
LINE
  8
OBRYS
 62
     0
 10
739.496216
 20
420.192169
 11
736.418884
 21
417.114838
  0
LINE
  8
OBRYS
 62
     0
 10
736.420288
 20
417.413239
 11
739.497620
 21
420.490570
  0
LINE
  8
OBRYS
 62
     0
 10
739.496216
 20
420.788971
 11
736.420288
 21
417.713043
  0
LINE
  8
OBRYS
 62
     0
 10
736.420288
 20
418.010040
 11
739.463684
 21
421.053436
  0
LINE
  8
OBRYS
 62
     0
 10
739.165283
 20
421.054840
 11
736.420288
 21
418.309845
  0
LINE
  8
OBRYS
 62
     0
 10
736.420288
 20
418.606842
 11
738.866882
 21
421.053436
  0
LINE
  8
OBRYS
 62
     0
 10
738.568481
 20
421.054840
 11
736.420288
 21
418.906647
  0
LINE
  8
OBRYS
 62
     0
 10
736.420288
 20
419.203644
 11
738.270081
 21
421.053436
  0
LINE
  8
OBRYS
 62
     0
 10
737.971680
 20
421.054840
 11
736.420288
 21
419.503448
  0
LINE
  8
OBRYS
 62
     0
 10
736.418884
 20
419.801849
 11
737.671875
 21
421.054840
  0
LINE
  8
OBRYS
 62
     0
 10
737.373474
 20
421.053436
 11
736.420288
 21
420.100250
  0
LINE
  8
OBRYS
 62
     0
 10
736.418884
 20
420.398651
 11
737.075073
 21
421.054840
  0
LINE
  8
OBRYS
 62
     0
 10
736.776672
 20
421.053436
 11
736.420288
 21
420.697052
  0
LINE
  8
OBRYS
 62
     0
 10
736.420288
 20
420.996857
 11
736.478271
 21
421.054840
  0
LINE
  8
OBRYS
 62
     0
 10
736.544739
 20
411.054932
 11
736.420288
 21
411.179382
  0
LINE
  8
OBRYS
 62
     0
 10
736.418884
 20
411.477783
 11
736.843140
 21
411.053528
  0
LINE
  8
OBRYS
 62
     0
 10
737.141541
 20
411.054932
 11
736.420288
 21
411.776184
  0
LINE
  8
OBRYS
 62
     0
 10
736.420288
 20
412.075989
 11
737.441345
 21
411.054932
  0
LINE
  8
OBRYS
 62
     0
 10
737.739746
 20
411.053528
 11
736.420288
 21
412.372986
  0
LINE
  8
OBRYS
 62
     0
 10
736.420288
 20
412.672791
 11
738.038147
 21
411.054932
  0
LINE
  8
OBRYS
 62
     0
 10
738.336548
 20
411.053528
 11
736.420288
 21
412.969788
  0
LINE
  8
OBRYS
 62
     0
 10
736.420288
 20
413.269592
 11
738.634949
 21
411.054932
  0
LINE
  8
OBRYS
 62
     0
 10
738.933350
 20
411.053528
 11
736.420288
 21
413.566589
  0
LINE
  8
OBRYS
 62
     0
 10
736.420288
 20
413.866394
 11
739.231750
 21
411.054932
  0
LINE
  8
OBRYS
 62
     0
 10
739.496216
 20
411.087463
 11
736.418884
 21
414.164795
  0
LINE
  8
OBRYS
 62
     0
 10
736.420288
 20
414.463196
 11
739.497620
 21
411.385864
  0
LINE
  8
OBRYS
 62
     0
 10
739.496216
 20
411.684265
 11
736.418884
 21
414.761597
  0
LINE
  8
OBRYS
 62
     0
 10
736.420288
 20
415.059998
 11
739.497620
 21
411.982666
  0
LINE
  8
OBRYS
 62
     0
 10
739.497620
 20
412.282471
 11
736.420288
 21
415.359802
  0
LINE
  8
OBRYS
 62
     0
 10
736.420288
 20
415.656799
 11
739.496216
 21
412.580872
  0
LINE
  8
OBRYS
 62
     0
 10
739.497620
 20
412.879272
 11
736.420288
 21
415.956604
  0
LINE
  8
OBRYS
 62
     0
 10
736.420288
 20
416.253601
 11
739.496216
 21
413.177673
  0
LINE
  8
OBRYS
 62
     0
 10
739.612183
 20
413.361511
 11
736.420288
 21
416.553406
  0
LINE
  8
OBRYS
 62
     0
 10
736.418884
 20
416.851807
 11
739.909119
 21
413.361511
  0
LINE
  8
OBRYS
 62
     0
 10
740.208923
 20
413.361511
 11
736.420288
 21
417.150208
  0
LINE
  8
OBRYS
 62
     0
 10
736.418884
 20
417.448608
 11
740.265503
 21
413.601929
  0
LINE
  8
OBRYS
 62
     0
 10
740.265503
 20
413.901764
 11
736.420288
 21
417.747009
  0
LINE
  8
OBRYS
 62
     0
 10
736.420288
 20
418.046814
 11
739.497620
 21
414.969482
  0
LINE
  8
OBRYS
 62
     0
 10
739.565491
 20
414.901611
 11
740.266907
 21
414.200165
  0
LINE
  8
OBRYS
 62
     0
 10
740.265503
 20
414.498535
 11
739.863892
 21
414.900177
  0
LINE
  8
OBRYS
 62
     0
 10
739.496216
 20
415.267883
 11
736.420288
 21
418.343811
  0
LINE
  8
OBRYS
 62
     0
 10
736.420288
 20
418.643616
 11
739.497620
 21
415.566284
  0
LINE
  8
OBRYS
 62
     0
 10
740.163696
 20
414.900177
 11
740.266907
 21
414.796936
  0
LINE
  8
OBRYS
 62
     0
 10
739.496216
 20
415.864685
 11
736.420288
 21
418.940582
  0
LINE
  8
OBRYS
 62
     0
 10
736.420288
 20
419.240417
 11
739.497620
 21
416.163086
  0
LINE
  8
OBRYS
 62
     0
 10
739.496216
 20
416.461487
 11
736.420288
 21
419.537384
  0
LINE
  8
OBRYS
 62
     0
 10
736.420288
 20
419.837219
 11
739.497620
 21
416.759888
  0
LINE
  8
OBRYS
 62
     0
 10
739.496216
 20
417.058289
 11
736.418884
 21
420.135620
  0
LINE
  8
OBRYS
 62
     0
 10
736.420288
 20
420.433990
 11
739.497620
 21
417.356689
  0
LINE
  8
OBRYS
 62
     0
 10
739.497620
 20
417.656494
 11
736.420288
 21
420.733826
  0
LINE
  8
OBRYS
 62
     0
 10
736.420288
 20
421.030792
 11
739.496216
 21
417.954895
  0
LINE
  8
OBRYS
 62
     0
 10
739.497620
 20
418.253296
 11
736.696045
 21
421.054840
  0
LINE
  8
OBRYS
 62
     0
 10
736.994446
 20
421.053436
 11
739.496216
 21
418.551697
  0
LINE
  8
OBRYS
 62
     0
 10
739.497620
 20
418.850098
 11
737.292847
 21
421.054840
  0
LINE
  8
OBRYS
 62
     0
 10
737.591248
 20
421.053436
 11
739.496216
 21
419.148499
  0
LINE
  8
OBRYS
 62
     0
 10
739.497620
 20
419.446869
 11
737.889648
 21
421.054840
  0
LINE
  8
OBRYS
 62
     0
 10
738.188049
 20
421.053436
 11
739.496216
 21
419.745270
  0
LINE
  8
OBRYS
 62
     0
 10
739.497620
 20
420.043671
 11
738.486450
 21
421.054840
  0
LINE
  8
OBRYS
 62
     0
 10
738.786255
 20
421.054840
 11
739.497620
 21
420.343506
  0
LINE
  8
OBRYS
 62
     0
 10
739.496216
 20
420.641907
 11
739.084656
 21
421.053436
  0
LINE
  8
OBRYS
 62
     0
 10
739.383057
 20
421.054840
 11
739.497620
 21
420.940308
  0
ENDBLK
  8
OBRYS
  0
BLOCK
  8
OBRYS
  2
*X__32
 70
   65
 10
0.0
 20
0.0
  0
LINE
  8
OBRYS
 62
     0
 10
735.650940
 20
413.659912
 11
735.353943
 21
413.362946
  0
LINE
  8
OBRYS
 62
     0
 10
735.055542
 20
413.361511
 11
735.650940
 21
413.956909
  0
LINE
  8
OBRYS
 62
     0
 10
735.650940
 20
414.256714
 11
734.757141
 21
413.362946
  0
LINE
  8
OBRYS
 62
     0
 10
734.458740
 20
413.361511
 11
735.650940
 21
414.553711
  0
LINE
  8
OBRYS
 62
     0
 10
735.650940
 20
414.853516
 11
734.158936
 21
413.361511
  0
LINE
  8
OBRYS
 62
     0
 10
733.861938
 20
413.361511
 11
735.650940
 21
415.150513
  0
LINE
  8
OBRYS
 62
     0
 10
735.650940
 20
415.450317
 11
733.562134
 21
413.361511
  0
LINE
  8
OBRYS
 62
     0
 10
733.265137
 20
413.361511
 11
735.650940
 21
415.747314
  0
LINE
  8
OBRYS
 62
     0
 10
735.650940
 20
416.047119
 11
732.965332
 21
413.361511
  0
LINE
  8
OBRYS
 62
     0
 10
732.666931
 20
413.362946
 11
735.649536
 21
416.345520
  0
LINE
  8
OBRYS
 62
     0
 10
735.650940
 20
416.643921
 11
732.710815
 21
413.703766
  0
LINE
  8
OBRYS
 62
     0
 10
732.908752
 20
414.201569
 11
735.650940
 21
416.943726
  0
LINE
  8
OBRYS
 62
     0
 10
735.650940
 20
417.240723
 11
733.109619
 21
414.699371
  0
LINE
  8
OBRYS
 62
     0
 10
733.307617
 20
415.197174
 11
735.650940
 21
417.540527
  0
LINE
  8
OBRYS
 62
     0
 10
735.650940
 20
417.837494
 11
733.507019
 21
415.693573
  0
LINE
  8
OBRYS
 62
     0
 10
733.706421
 20
416.192780
 11
735.650940
 21
418.137329
  0
LINE
  8
OBRYS
 62
     0
 10
735.650940
 20
418.434296
 11
733.905823
 21
416.689178
  0
LINE
  8
OBRYS
 62
     0
 10
734.103821
 20
417.186981
 11
735.650940
 21
418.734131
  0
LINE
  8
OBRYS
 62
     0
 10
735.649536
 20
419.032532
 11
734.301758
 21
417.684784
  0
LINE
  8
OBRYS
 62
     0
 10
734.502625
 20
418.182587
 11
735.650940
 21
419.330933
  0
LINE
  8
OBRYS
 62
     0
 10
735.650940
 20
419.630737
 11
734.700562
 21
418.680389
  0
LINE
  8
OBRYS
 62
     0
 10
734.900024
 20
419.176758
 11
735.650940
 21
419.927704
  0
LINE
  8
OBRYS
 62
     0
 10
735.650940
 20
420.227539
 11
735.099426
 21
419.675995
  0
LINE
  8
OBRYS
 62
     0
 10
735.298828
 20
420.172363
 11
735.650940
 21
420.524506
  0
LINE
  8
OBRYS
 62
     0
 10
735.650940
 20
420.824341
 11
735.496765
 21
420.670166
  0
LINE
  8
OBRYS
 62
     0
 10
732.744751
 20
413.361511
 11
732.623108
 21
413.483154
  0
LINE
  8
OBRYS
 62
     0
 10
732.707947
 20
413.698120
 11
733.043152
 21
413.362946
  0
LINE
  8
OBRYS
 62
     0
 10
733.341553
 20
413.361511
 11
732.792786
 21
413.910248
  0
LINE
  8
OBRYS
 62
     0
 10
732.879089
 20
414.123779
 11
733.639954
 21
413.362946
  0
LINE
  8
OBRYS
 62
     0
 10
733.938354
 20
413.361511
 11
732.963928
 21
414.335907
  0
LINE
  8
OBRYS
 62
     0
 10
733.048767
 20
414.550873
 11
734.238159
 21
413.361511
  0
LINE
  8
OBRYS
 62
     0
 10
734.535156
 20
413.361511
 11
733.133667
 21
414.763000
  0
LINE
  8
OBRYS
 62
     0
 10
733.219910
 20
414.976563
 11
734.834961
 21
413.361511
  0
LINE
  8
OBRYS
 62
     0
 10
735.133362
 20
413.362946
 11
733.306152
 21
415.190094
  0
LINE
  8
OBRYS
 62
     0
 10
733.389587
 20
415.403656
 11
735.431763
 21
413.361511
  0
LINE
  8
OBRYS
 62
     0
 10
735.650940
 20
413.442139
 11
733.475891
 21
415.617188
  0
LINE
  8
OBRYS
 62
     0
 10
733.560730
 20
415.829315
 11
735.650940
 21
413.739105
  0
LINE
  8
OBRYS
 62
     0
 10
735.650940
 20
414.038940
 11
733.646973
 21
416.042877
  0
LINE
  8
OBRYS
 62
     0
 10
733.731873
 20
416.255005
 11
735.650940
 21
414.335907
  0
LINE
  8
OBRYS
 62
     0
 10
735.650940
 20
414.635742
 11
733.816711
 21
416.469971
  0
LINE
  8
OBRYS
 62
     0
 10
733.901550
 20
416.682098
 11
735.650940
 21
414.932709
  0
LINE
  8
OBRYS
 62
     0
 10
735.650940
 20
415.232513
 11
733.987854
 21
416.895630
  0
LINE
  8
OBRYS
 62
     0
 10
734.072693
 20
417.107788
 11
735.649536
 21
415.530914
  0
LINE
  8
OBRYS
 62
     0
 10
735.650940
 20
415.829315
 11
734.157532
 21
417.322723
  0
LINE
  8
OBRYS
 62
     0
 10
734.243774
 20
417.536285
 11
735.650940
 21
416.129150
  0
LINE
  8
OBRYS
 62
     0
 10
735.650940
 20
416.426117
 11
734.328674
 21
417.748413
  0
LINE
  8
OBRYS
 62
     0
 10
734.414917
 20
417.961945
 11
735.650940
 21
416.725922
  0
LINE
  8
OBRYS
 62
     0
 10
735.650940
 20
417.022919
 11
734.498352
 21
418.175507
  0
LINE
  8
OBRYS
 62
     0
 10
734.584595
 20
418.389038
 11
735.650940
 21
417.322723
  0
LINE
  8
OBRYS
 62
     0
 10
735.650940
 20
417.619720
 11
734.669495
 21
418.601196
  0
LINE
  8
OBRYS
 62
     0
 10
734.755737
 20
418.814728
 11
735.650940
 21
417.919525
  0
LINE
  8
OBRYS
 62
     0
 10
735.649536
 20
418.217926
 11
734.839172
 21
419.028290
  0
LINE
  8
OBRYS
 62
     0
 10
734.925476
 20
419.241821
 11
735.650940
 21
418.516327
  0
LINE
  8
OBRYS
 62
     0
 10
735.650940
 20
418.816132
 11
735.011719
 21
419.455383
  0
LINE
  8
OBRYS
 62
     0
 10
735.096558
 20
419.667511
 11
735.650940
 21
419.113129
  0
LINE
  8
OBRYS
 62
     0
 10
735.650940
 20
419.412933
 11
735.181396
 21
419.882446
  0
LINE
  8
OBRYS
 62
     0
 10
735.266296
 20
420.094604
 11
735.650940
 21
419.709930
  0
LINE
  8
OBRYS
 62
     0
 10
735.650940
 20
420.009735
 11
735.352539
 21
420.308136
  0
LINE
  8
OBRYS
 62
     0
 10
735.437378
 20
420.520264
 11
735.650940
 21
420.306732
  0
LINE
  8
OBRYS
 62
     0
 10
735.650940
 20
420.606537
 11
735.523682
 21
420.733826
  0
LINE
  8
OBRYS
 62
     0
 10
735.607117
 20
420.947357
 11
735.649536
 21
420.904938
  0
ENDBLK
  8
OBRYS
  0
ENDSEC
  0
SECTION
  2
ENTITIES
  0
ARC
  8
OBRYS
 10
554.024263
 20
303.615863
 40
5.500000
 50
111.323686
 51
68.676314
  0
LINE
  8
OBRYS
 10
552.024263
 20
308.739339
 11
552.024263
 21
310.715863
  0
LINE
  8
OBRYS
 10
552.024263
 20
310.715863
 11
556.024263
 21
310.715863
  0
LINE
  8
OBRYS
 10
556.024263
 20
310.715863
 11
556.024263
 21
308.739339
  0
CIRCLE
  8
OBRYS
 10
554.024263
 20
303.615863
 40
10.000000
  0
LINE
  8
OSA
 10
554.024263
 20
303.615863
 11
554.024263
 21
290.490866
  0
LINE
  8
OSA
 10
554.024263
 20
303.615863
 11
554.024263
 21
316.740861
  0
LINE
  8
OSA
 10
554.024263
 20
303.615863
 11
540.899265
 21
303.615863
  0
LINE
  8
OSA
 10
554.024263
 20
303.615863
 11
567.149260
 21
303.615863
  0
LINE
  8
OSA
 10
554.024263
 20
329.865858
 11
567.149260
 21
329.865858
  0
LINE
  8
OSA
 10
554.024263
 20
329.865858
 11
540.899265
 21
329.865858
  0
LINE
  8
OSA
 10
554.024263
 20
329.865858
 11
554.024263
 21
342.990855
  0
LINE
  8
OSA
 10
554.024263
 20
329.865858
 11
554.024263
 21
316.740861
  0
LINE
  8
OBRYS
 10
552.524263
 20
334.108499
 11
552.524263
 21
335.665858
  0
LINE
  8
OBRYS
 10
552.524263
 20
335.665858
 11
555.524263
 21
335.665858
  0
LINE
  8
OBRYS
 10
555.524263
 20
335.665858
 11
555.524263
 21
334.108499
  0
ARC
  8
OBRYS
 10
554.024263
 20
329.865858
 40
4.500000
 50
109.471221
 51
70.528779
  0
CIRCLE
  8
OBRYS
 10
554.024263
 20
329.865858
 40
10.000000
  0
INSERT
  8
OBRYS
  2
_0
 62
     7
 10
364.276967
 20
241.808329
  0
INSERT
  8
OBRYS
  2
_1
 62
     7
 10
364.276967
 20
307.808329
  0
INSERT
  8
OSA
  2
_2
  6
CONTINUOUS
 10
404.276967
 20
274.808329
  0
ARC
  8
OBRYS
 10
368.276967
 20
654.302921
 40
60.000000
 50
317.166572
 51
322.554053
  0
ARC
  8
OBRYS
 10
368.276967
 20
654.302921
 40
60.000000
 50
236.442690
 51
303.557310
  0
ARC
  8
OBRYS
 10
368.276967
 20
654.302921
 40
60.000000
 50
56.442690
 51
123.557310
  0
ARC
  8
OBRYS
 10
368.276967
 20
654.302921
 40
60.000000
 50
37.445947
 51
42.833428
  0
LINE
  8
0
 62
     2
 10
412.276967
 20
690.783683
 11
419.276967
 21
690.783683
  0
LINE
  8
0
 62
     2
 10
412.276967
 20
617.822159
 11
419.276967
 21
617.822159
  0
ARC
  8
OBRYS
 10
368.276967
 20
654.302921
 40
60.000000
 50
152.181861
 51
207.818139
  0
ARC
  8
OBRYS
 10
430.793471
 20
680.819425
 40
5.000000
 50
33.511664
 51
64.169919
  0
ARC
  8
OBRYS
 10
390.749058
 20
654.302921
 40
53.027909
 50
326.488379
 51
33.511629
  0
ARC
  8
OBRYS
 10
419.276967
 20
628.322159
 40
10.500000
 50
270.000006
 51
295.830081
  0
ARC
  8
OBRYS
 10
419.276967
 20
680.283683
 40
10.500000
 50
64.169919
 51
89.999994
  0
LINE
  8
0
 62
     2
 10
423.851856
 20
689.734630
 11
432.971990
 21
685.319876
  0
ARC
  8
OBRYS
 10
430.793471
 20
627.786417
 40
5.000000
 50
295.830081
 51
326.488335
  0
LINE
  8
0
 62
     2
 10
423.851856
 20
618.871212
 11
432.971990
 21
623.285966
  0
INSERT
  8
OBRYS
  2
_3
 62
     7
 10
202.313784
 20
515.555625
  0
INSERT
  8
OBRYS
  2
_4
 62
     7
 10
554.024263
 20
515.555625
  0
INSERT
  8
OBRYS
  2
_5
 62
     7
 10
404.276967
 20
515.555625
  0
INSERT
  8
OBRYS
  2
_6
 62
     7
 10
701.031222
 20
515.555625
  0
TEXT
  8
NEVIDITELNA
 62
     2
  6
CONTINUOUS
 10
307.772552
 20
771.192627
 40
15.000000
  1
MRP 40A - FT + 2x adaptér
 50
0.00
 51
0.00
 41
0.80
  0
TEXT
  8
NEVIDITELNA
 62
     2
  6
CONTINUOUS
 10
305.525055
 20
797.344360
 40
15.000000
  1
MRP 40A - V
 50
0.00
 51
0.00
 41
0.80
  0
LINE
  8
OBRYS
 10
528.024263
 20
416.055625
 11
526.024263
 21
416.055625
  0
LINE
  8
OBRYS
 10
579.024263
 20
416.055625
 11
582.024263
 21
416.055625
  0
LINE
  8
OBRYS
 10
579.024263
 20
513.055625
 11
584.024263
 21
513.055625
  0
LINE
  8
OBRYS
 10
528.024263
 20
513.055625
 11
524.024263
 21
513.055625
  0
LINE
  8
OBRYS
 10
587.024263
 20
497.829885
 11
586.024263
 21
498.232877
  0
LINE
  8
OBRYS
 10
587.024263
 20
493.344922
 11
586.024263
 21
494.350098
  0
LINE
  8
OBRYS
 10
521.024263
 20
497.829885
 11
522.024263
 21
498.232877
  0
LINE
  8
OBRYS
 10
521.024263
 20
493.344922
 11
522.024263
 21
494.350098
  0
ARC
  8
OBRYS
 10
584.024263
 20
511.055625
 40
2.000000
 50
0.000000
 51
90.000000
  0
LINE
  8
OBRYS
 10
586.024263
 20
464.555625
 11
586.024263
 21
511.055625
  0
LINE
  8
OBRYS
 10
587.024263
 20
459.042327
 11
587.024263
 21
470.068923
  0
LINE
  8
OBRYS
 10
587.024263
 20
459.042327
 11
587.024263
 21
452.936486
  0
LINE
  8
OBRYS
 10
586.024263
 20
461.384277
 11
587.024263
 21
459.042327
  0
LINE
  8
OBRYS
 10
586.024263
 20
467.726973
 11
587.024263
 21
470.068923
  0
LINE
  8
OBRYS
 10
587.024263
 20
497.829885
 11
587.024263
 21
503.358376
  0
ARC
  8
OBRYS
 10
588.024263
 20
508.927164
 40
2.000000
 50
180.000000
 51
201.047672
  0
LINE
  8
OBRYS
 10
587.024263
 20
503.358376
 11
586.157699
 21
508.208875
  0
ARC
  8
OBRYS
 10
524.024263
 20
511.055625
 40
2.000000
 50
90.000000
 51
180.000000
  0
LINE
  8
OBRYS
 10
522.024263
 20
464.555625
 11
522.024263
 21
511.055625
  0
ARC
  8
OBRYS
 10
520.024263
 20
508.927164
 40
2.000000
 50
338.952328
 51
360.000000
  0
LINE
  8
OBRYS
 10
521.024263
 20
503.358376
 11
521.890827
 21
508.208875
  0
LINE
  8
OBRYS
 10
521.024263
 20
459.042327
 11
521.024263
 21
452.936486
  0
LINE
  8
OBRYS
 10
522.024263
 20
461.384277
 11
521.024263
 21
459.042327
  0
LINE
  8
OBRYS
 10
522.024263
 20
467.726973
 11
521.024263
 21
470.068923
  0
LINE
  8
OBRYS
 10
521.024263
 20
470.068923
 11
521.024263
 21
476.174764
  0
LINE
  8
OBRYS
 10
521.024263
 20
470.068923
 11
521.024263
 21
459.042327
  0
LINE
  8
OBRYS
 10
521.024263
 20
497.829885
 11
521.024263
 21
503.358376
  0
ARC
  8
OBRYS
 10
520.024263
 20
508.927164
 40
2.000000
 50
338.952328
 51
360.000000
  0
INSERT
  8
OBRYS
  2
_7
 62
     7
 10
587.024263
 20
464.555625
  0
INSERT
  8
OBRYS
  2
_8
 62
     7
 10
521.024263
 20
464.555625
  0
LINE
  8
OBRYS
 10
586.024263
 20
464.555625
 11
586.024263
 21
446.416889
  0
LINE
  8
OBRYS
 10
522.024263
 20
464.555625
 11
522.024263
 21
446.416889
  0
LINE
  8
OBRYS
 10
580.524263
 20
513.055625
 11
580.524263
 21
515.555625
  0
LINE
  8
OBRYS
 10
580.524263
 20
407.555625
 11
580.524263
 21
416.055625
  0
ARC
  8
OBRYS
 10
579.024263
 20
417.055625
 40
1.000000
 50
180.000000
 51
270.000000
  0
LINE
  8
OBRYS
 62
     7
  6
DASHDOT
 10
597.760540
 20
464.555625
 11
565.573402
 21
464.555625
  0
ARC
  8
OBRYS
 10
579.024263
 20
512.055625
 40
1.000000
 50
89.999761
 51
180.000000
  0
LINE
  8
OBRYS
 10
578.024263
 20
512.555625
 11
578.024263
 21
417.055625
  0
ARC
  8
OBRYS
 10
528.024263
 20
511.055625
 40
2.000000
 50
0.000000
 51
90.000000
  0
LINE
  8
OBRYS
 10
530.024263
 20
511.055625
 11
530.024263
 21
464.555625
  0
LINE
  8
OBRYS
 10
527.524263
 20
513.055625
 11
527.524263
 21
515.555625
  0
LINE
  8
OBRYS
 10
527.524263
 20
407.555625
 11
527.524263
 21
416.055625
  0
ARC
  8
OBRYS
 10
528.024263
 20
418.055625
 40
2.000000
 50
270.000000
 51
360.000000
  0
LINE
  8
OBRYS
 10
530.024263
 20
418.055625
 11
530.024263
 21
464.555625
  0
ARC
  8
OBRYS
 10
560.024263
 20
422.555625
 40
6.000000
 50
194.477512
 51
270.000000
  0
ARC
  8
OBRYS
 10
561.002861
 20
473.058517
 40
2.000000
 50
230.623165
 51
270.000000
  0
ARC
  8
OBRYS
 10
561.002861
 20
456.052734
 40
2.000000
 50
90.000000
 51
129.376835
  0
CIRCLE
  8
OBRYS
 10
554.024263
 20
464.555625
 40
9.000000
  0
INSERT
  8
KOTA
 66
     1
  2
Vnitrni_metricky_zavit_M1_9
 62
     7
 10
554.024263
 20
464.555625
  0
ATTRIB
  8
KOTA
 10
0.000000
 20
0.000000
 40
2.500000
  1
CSN 02 1034
  2
norma roz.
 70
     1
  0
ATTRIB
  8
KOTA
 10
0.000000
 20
0.000000
 40
2.500000
  1
1
  2
roztec
 70
     1
  0
ATTRIB
  8
KOTA
 10
0.000000
 20
0.000000
 40
2.500000
  1
*NB
  2
puvod
 70
     1
  0
ATTRIB
  8
KOTA
 10
0.000000
 20
0.000000
 40
2.500000
  1
02 1034
  2
tridici znak
 70
     1
  0
SEQEND
  8
KOTA
  0
LINE
  8
OBRYS
 10
578.024263
 20
471.058517
 11
561.002861
 21
471.058517
  0
LINE
  8
OBRYS
 10
578.024263
 20
458.052734
 11
561.002861
 21
458.052734
  0
LINE
  8
OBRYS
 10
578.024263
 20
416.555625
 11
560.024263
 21
416.555625
  0
LINE
  8
OBRYS
 10
527.524263
 20
407.555625
 11
580.524263
 21
407.555625
  0
LINE
  8
OBRYS
 10
556.024263
 20
407.555625
 11
556.024263
 21
418.083489
  0
LINE
  8
OBRYS
 10
556.024263
 20
511.027761
 11
556.024263
 21
515.555625
  0
LINE
  8
OBRYS
 10
552.024253
 20
407.555625
 11
552.024253
 21
422.555625
  0
LINE
  8
OBRYS
 10
527.524263
 20
515.555625
 11
580.524263
 21
515.555625
  0
LINE
  8
OBRYS
 10
552.024253
 20
507.013958
 11
552.024253
 21
515.555625
  0
ARC
  8
OBRYS
 10
552.414108
 20
420.088736
 40
2.000000
 50
17.960493
 51
88.806511
  0
ARC
  8
OBRYS
 10
560.024263
 20
422.555625
 40
6.000000
 50
197.960493
 51
270.000000
  0
ARC
  8
OBRYS
 10
532.024263
 20
420.513524
 40
2.000000
 50
88.806511
 51
180.000000
  0
LINE
  8
OBRYS
 10
578.024263
 20
421.555625
 11
532.065920
 21
422.513091
  0
LINE
  8
OBRYS
 10
578.024263
 20
416.555625
 11
560.024263
 21
416.555625
  0
LINE
  8
OBRYS
 10
578.024263
 20
512.555625
 11
560.024263
 21
512.555625
  0
LINE
  8
OBRYS
 10
578.024263
 20
507.555625
 11
532.065920
 21
506.598160
  0
ARC
  8
OBRYS
 10
532.024263
 20
508.597726
 40
2.000000
 50
180.000000
 51
271.193489
  0
ARC
  8
OBRYS
 10
560.024263
 20
506.555625
 40
6.000000
 50
90.000000
 51
162.039507
  0
ARC
  8
OBRYS
 10
552.414108
 20
509.022514
 40
2.000000
 50
271.193489
 51
342.039507
  0
LINE
  8
OBRYS
 10
578.024263
 20
512.555625
 11
560.024263
 21
512.555625
  0
ARC
  8
OBRYS
 10
560.024263
 20
506.555625
 40
6.000000
 50
90.000000
 51
165.522488
  0
LINE
  8
OSA
 10
583.116349
 20
464.555625
 11
509.628481
 21
464.555625
  0
ARC
  8
OBRYS
 10
532.024263
 20
468.555625
 40
2.000000
 50
180.000000
 51
270.000000
  0
ARC
  8
OBRYS
 10
532.024263
 20
460.555625
 40
2.000000
 50
90.000000
 51
180.000000
  0
LINE
  8
OBRYS
 10
543.777312
 20
462.555625
 11
532.024263
 21
462.555625
  0
ARC
  8
OBRYS
 10
543.777312
 20
460.555625
 40
2.000000
 50
21.323686
 51
90.000000
  0
LINE
  8
OBRYS
 10
543.777312
 20
466.555625
 11
532.024263
 21
466.555625
  0
ARC
  8
OBRYS
 10
543.777312
 20
468.555625
 40
2.000000
 50
270.000000
 51
338.676314
  0
LINE
  8
OSA
 10
554.024263
 20
512.555625
 11
554.024263
 21
405.576519
  0
LINE
  8
OBRYS
 10
387.533809
 20
678.302921
 11
315.776967
 21
678.302921
  0
LINE
  8
OBRYS
 10
315.776967
 20
678.302921
 11
315.776967
 21
684.302921
  0
LINE
  8
OBRYS
 10
412.776967
 20
628.302921
 11
412.776967
 21
624.302921
  0
LINE
  8
OBRYS
 10
315.776967
 20
628.302921
 11
315.776967
 21
624.302921
  0
ARC
  8
OBRYS
 10
317.776967
 20
624.302921
 40
2.000000
 50
180.000000
 51
221.409622
  0
ARC
  8
OBRYS
 10
410.776967
 20
624.302921
 40
2.000000
 50
318.590378
 51
360.000000
  0
INSERT
  8
OBRYS
  2
_10
 62
     7
 10
364.276967
 20
626.302921
  0
INSERT
  8
OBRYS
  2
_11
 62
     7
 10
364.276967
 20
682.302921
  0
ARC
  8
OBRYS
 10
410.776967
 20
684.302921
 40
2.000000
 50
0.000000
 51
41.409622
  0
ARC
  8
OBRYS
 10
317.776967
 20
684.302921
 40
2.000000
 50
138.590378
 51
180.000000
  0
LINE
  8
OBRYS
 10
412.776967
 20
680.302921
 11
412.776967
 21
684.302921
  0
LINE
  8
OSA
 10
404.276967
 20
654.302921
 11
404.276967
 21
688.911072
  0
LINE
  8
OSA
 10
404.276967
 20
654.302921
 11
404.276967
 21
618.620421
  0
LINE
  8
OBRYS
 10
387.533809
 20
630.302921
 11
364.276967
 21
630.302921
  0
CIRCLE
  8
OSA
 62
     2
  6
CONTINUOUS
 10
404.276967
 20
654.302921
 40
21.000000
  0
LINE
  8
OSA
 62
     2
  6
CONTINUOUS
 10
433.721831
 20
656.302921
 11
420.731449
 21
678.802921
  0
ARC
  8
OSA
 62
     2
  6
CONTINUOUS
 10
417.267348
 20
676.802921
 40
4.000000
 50
30.000000
 51
90.000000
  0
ARC
  8
OBRYS
 10
430.257729
 20
654.302921
 40
4.000000
 50
330.000000
 51
30.000000
  0
LINE
  8
OBRYS
 10
420.731449
 20
629.802921
 11
433.721831
 21
652.302921
  0
ARC
  8
OBRYS
 10
417.267348
 20
631.802921
 40
4.000000
 50
270.000000
 51
330.000000
  0
LINE
  8
OBRYS
 10
417.267348
 20
680.802921
 11
391.286586
 21
680.802921
  0
ARC
  8
OBRYS
 10
391.286586
 20
676.802921
 40
4.000000
 50
90.000000
 51
150.000000
  0
LINE
  8
OBRYS
 10
374.832103
 20
656.302921
 11
387.822484
 21
678.802921
  0
ARC
  8
OBRYS
 10
378.296205
 20
654.302921
 40
4.000000
 50
150.000000
 51
210.000000
  0
LINE
  8
OBRYS
 10
387.822484
 20
629.802921
 11
374.832103
 21
652.302921
  0
ARC
  8
OBRYS
 10
391.286586
 20
631.802921
 40
4.000000
 50
210.000000
 51
270.000000
  0
LINE
  8
OBRYS
 10
417.267348
 20
627.802921
 11
391.286586
 21
627.802921
  0
LINE
  8
OBRYS
 10
370.779858
 20
678.302921
 11
370.779858
 21
661.281519
  0
LINE
  8
OBRYS
 10
357.774075
 20
678.302921
 11
357.774075
 21
661.281519
  0
LINE
  8
OBRYS
 10
316.276967
 20
678.302921
 11
316.276967
 21
660.302921
  0
ARC
  8
OBRYS
 10
320.234866
 20
632.302921
 40
2.000000
 50
270.000000
 51
1.193489
  0
LINE
  8
OBRYS
 10
321.276967
 20
678.302921
 11
322.234432
 21
632.344579
  0
LINE
  8
OBRYS
 10
316.276967
 20
678.302921
 11
316.276967
 21
660.302921
  0
LINE
  8
OSA
 10
364.276967
 20
683.395008
 11
364.276967
 21
609.907139
  0
ARC
  8
OBRYS
 10
364.276967
 20
660.805813
 40
6.502892
 50
180.000000
 51
360.000000
  0
LINE
  8
OBRYS
 10
319.410480
 20
645.302921
 11
316.276967
 21
645.302921
  0
LINE
  8
OBRYS
 10
316.276967
 20
663.302921
 11
316.276967
 21
654.302921
  0
LINE
  8
OBRYS
 10
319.410480
 20
663.302921
 11
316.276967
 21
663.302921
  0
LINE
  8
OBRYS
 10
316.276967
 20
661.302921
 11
314.276967
 21
661.302921
  0
LINE
  8
OBRYS
 10
316.276967
 20
647.302921
 11
314.276967
 21
647.302921
  0
ARC
  8
OBRYS
 10
314.276967
 20
660.302921
 40
1.000000
 50
90.000000
 51
180.000000
  0
LINE
  8
OBRYS
 10
313.276967
 20
648.302921
 11
313.276967
 21
660.302921
  0
ARC
  8
OBRYS
 10
314.276967
 20
648.302921
 40
1.000000
 50
180.000000
 51
270.000000
  0
LINE
  8
OSA
 10
310.027117
 20
654.302921
 11
435.929068
 21
654.302921
  0
LINE
  8
OBRYS
 10
317.776967
 20
630.302921
 11
364.276967
 21
630.302921
  0
ARC
  8
OBRYS
 10
317.776967
 20
628.302921
 40
2.000000
 50
90.000000
 51
180.000000
  0
LINE
  8
OBRYS
 10
316.276967
 20
630.239413
 11
316.276967
 21
654.302921
  0
ARC
  8
OBRYS
 10
314.276967
 20
630.239413
 40
2.000000
 50
331.044976
 51
360.000000
  0
LINE
  8
OBRYS
 10
315.776967
 20
628.302921
 11
315.776967
 21
626.302921
  0
LINE
  8
OSA
 10
404.276967
 20
265.357491
 11
404.276967
 21
288.492023
  0
LINE
  8
OSA
 10
310.027117
 20
274.808329
 11
435.929068
 21
274.808329
  0
LINE
  8
OSA
 10
364.276967
 20
245.716243
 11
364.276967
 21
319.204111
  0
LINE
  8
OSA
 62
     2
  6
CONTINUOUS
 10
671.050460
 20
407.555625
 11
692.531222
 21
407.555625
  0
LINE
  8
OBRYS
 10
674.531222
 20
440.584482
 11
692.531222
 21
440.584482
  0
POLYLINE
  8
0
 62
     2
 66
    1
  0
VERTEX
  8
0
 62
     2
 10
687.063599
 20
434.555634
  0
VERTEX
  8
0
 62
     2
 10
687.209167
 20
434.602509
  0
VERTEX
  8
0
 62
     2
 10
688.040833
 20
435.150604
  0
VERTEX
  8
0
 62
     2
 10
690.054565
 20
436.802704
  0
VERTEX
  8
0
 62
     2
 10
692.531250
 20
438.053986
  0
SEQEND
  8
0
  0
LINE
  8
OSA
 62
     2
  6
CONTINUOUS
 10
672.050460
 20
407.555625
 11
692.531222
 21
407.555625
  0
LINE
  8
0
 62
     2
 10
730.476086
 20
515.555625
 11
730.476086
 21
511.893127
  0
LINE
  8
0
 62
     2
 10
714.021603
 20
515.555625
 11
714.021603
 21
504.838754
  0
LINE
  8
0
 62
     2
 10
717.485705
 20
515.555625
 11
717.485705
 21
506.956788
  0
POLYLINE
  8
0
 62
     2
 66
    1
  0
VERTEX
  8
0
 62
     2
 10
687.063599
 20
494.555634
  0
VERTEX
  8
0
 62
     2
 10
687.209167
 20
494.508759
  0
VERTEX
  8
0
 62
     2
 10
688.040833
 20
493.960663
  0
VERTEX
  8
0
 62
     2
 10
690.054565
 20
492.308563
  0
VERTEX
  8
0
 62
     2
 10
695.760071
 20
489.425995
  0
VERTEX
  8
0
 62
     2
 10
699.062012
 20
488.862701
  0
SEQEND
  8
0
  0
LINE
  8
OBRYS
 10
674.531222
 20
488.526768
 11
698.869221
 21
488.526768
  0
LINE
  8
OBRYS
 10
731.011984
 20
512.009443
 11
731.011984
 21
515.555625
  0
LINE
  8
OSA
 10
741.031222
 20
464.555625
 11
671.283926
 21
464.555625
  0
LINE
  8
OSA
 10
701.031222
 20
464.555625
 11
701.031222
 21
515.555625
  0
LINE
  8
OSA
 10
701.031222
 20
464.555625
 11
701.031222
 21
407.555625
  0
LINE
  8
OSA
 62
     2
  6
CONTINUOUS
 10
671.050460
 20
515.555625
 11
731.011984
 21
515.555625
  0
LINE
  8
OBRYS
 10
671.050460
 20
434.555625
 11
674.531222
 21
440.584482
  0
LINE
  8
OBRYS
 10
674.531222
 20
488.526768
 11
674.531222
 21
440.584482
  0
LINE
  8
OBRYS
 10
671.050460
 20
494.555625
 11
674.531222
 21
488.526768
  0
LINE
  8
OBRYS
 10
671.050460
 20
407.555625
 11
671.050460
 21
434.555625
  0
LINE
  8
OBRYS
 10
671.050460
 20
494.555625
 11
671.050460
 21
515.555625
  0
LINE
  8
0
 62
     2
 10
685.402326
 20
434.555625
 11
687.063597
 21
434.555625
  0
LINE
  8
0
 62
     2
 10
671.072372
 20
434.555625
 11
671.108278
 21
434.555625
  0
LINE
  8
0
 62
     2
 10
671.072372
 20
434.593579
 11
671.072372
 21
434.555625
  0
POLYLINE
  8
0
 62
     2
 66
    1
  0
VERTEX
  8
0
 62
     2
 10
671.108276
 20
434.555634
  0
VERTEX
  8
0
 62
     2
 10
671.246216
 20
434.683807
  0
VERTEX
  8
0
 62
     2
 10
671.586365
 20
435.142670
  0
VERTEX
  8
0
 62
     2
 10
673.583801
 20
438.012054
  0
VERTEX
  8
0
 62
     2
 10
676.337158
 20
440.188446
  0
VERTEX
  8
0
 62
     2
 10
678.950012
 20
440.486053
  0
VERTEX
  8
0
 62
     2
 10
681.631897
 20
438.965302
  0
VERTEX
  8
0
 62
     2
 10
684.576721
 20
435.354584
  0
VERTEX
  8
0
 62
     2
 10
684.620544
 20
435.321747
  0
VERTEX
  8
0
 62
     2
 10
685.068237
 20
434.743256
  0
VERTEX
  8
0
 62
     2
 10
685.402344
 20
434.555634
  0
SEQEND
  8
0
  0
LINE
  8
0
 62
     2
 10
685.402326
 20
434.555625
 11
687.063597
 21
434.555625
  0
LINE
  8
0
 62
     2
 10
671.072372
 20
434.555625
 11
671.108278
 21
434.555625
  0
LINE
  8
0
 62
     2
 10
674.531222
 20
440.584482
 11
671.072372
 21
434.593579
  0
LINE
  8
0
 62
     2
 10
684.576739
 20
407.555625
 11
684.576739
 21
435.354530
  0
LINE
  8
0
 62
     2
 10
688.040841
 20
407.555625
 11
688.040841
 21
435.150609
  0
LINE
  8
0
 62
     2
 10
671.586358
 20
407.555625
 11
671.586358
 21
435.142644
  0
LINE
  8
0
 62
     2
 10
685.402326
 20
494.555625
 11
687.063597
 21
494.555625
  0
POLYLINE
  8
0
 62
     2
 66
    1
  0
VERTEX
  8
0
 62
     2
 10
671.108276
 20
494.555634
  0
VERTEX
  8
0
 62
     2
 10
671.246216
 20
494.427460
  0
VERTEX
  8
0
 62
     2
 10
671.586365
 20
493.968597
  0
VERTEX
  8
0
 62
     2
 10
673.583801
 20
491.099213
  0
VERTEX
  8
0
 62
     2
 10
676.337158
 20
488.922821
  0
VERTEX
  8
0
 62
     2
 10
678.950012
 20
488.625214
  0
VERTEX
  8
0
 62
     2
 10
681.631897
 20
490.145966
  0
VERTEX
  8
0
 62
     2
 10
684.576721
 20
493.756683
  0
VERTEX
  8
0
 62
     2
 10
684.620544
 20
493.789520
  0
VERTEX
  8
0
 62
     2
 10
685.068237
 20
494.368011
  0
VERTEX
  8
0
 62
     2
 10
685.402344
 20
494.555634
  0
SEQEND
  8
0
  0
LINE
  8
0
 62
     2
 10
685.402326
 20
494.555625
 11
687.063597
 21
494.555625
  0
LINE
  8
0
 62
     2
 10
684.576739
 20
515.555625
 11
684.576739
 21
493.756720
  0
LINE
  8
0
 62
     2
 10
688.040841
 20
515.555625
 11
688.040841
 21
493.960642
  0
LINE
  8
0
 62
     2
 10
671.586358
 20
515.555625
 11
671.586358
 21
493.968606
  0
LINE
  8
OBRYS
 10
701.031222
 20
515.555625
 11
671.050460
 21
515.555625
  0
LINE
  8
OBRYS
 10
701.031222
 20
515.555625
 11
731.011984
 21
515.555625
  0
LINE
  8
OBRYS
 10
170.313784
 20
464.555625
 11
170.313784
 21
446.416889
  0
LINE
  8
OBRYS
 10
175.813784
 20
416.055625
 11
174.313784
 21
416.055625
  0
LINE
  8
OBRYS
 10
234.313784
 20
464.555625
 11
234.313784
 21
446.416889
  0
LINE
  8
OBRYS
 10
228.813784
 20
416.055625
 11
230.313784
 21
416.055625
  0
INSERT
  8
OBRYS
  2
_12
 62
     7
 10
169.313784
 20
464.555625
  0
INSERT
  8
OBRYS
  2
_13
 62
     7
 10
235.313784
 20
464.555625
  0
LINE
  8
OBRYS
 10
175.813784
 20
513.055625
 11
172.313784
 21
513.055625
  0
LINE
  8
OBRYS
 62
     7
  6
DASHDOT
 10
158.577507
 20
464.555625
 11
190.764645
 21
464.555625
  0
ARC
  8
OBRYS
 10
168.313784
 20
508.927164
 40
2.000000
 50
338.952328
 51
360.000000
  0
LINE
  8
OBRYS
 10
169.313784
 20
497.829885
 11
169.313784
 21
503.358376
  0
LINE
  8
OBRYS
 10
169.313784
 20
470.068923
 11
169.313784
 21
459.042327
  0
LINE
  8
OBRYS
 10
169.313784
 20
470.068923
 11
169.313784
 21
476.174764
  0
LINE
  8
OBRYS
 10
170.313784
 20
467.726973
 11
169.313784
 21
470.068923
  0
LINE
  8
OBRYS
 10
170.313784
 20
461.384277
 11
169.313784
 21
459.042327
  0
LINE
  8
OBRYS
 10
169.313784
 20
459.042327
 11
169.313784
 21
452.936486
  0
LINE
  8
OBRYS
 10
169.313784
 20
503.358376
 11
170.180348
 21
508.208875
  0
ARC
  8
OBRYS
 10
168.313784
 20
508.927164
 40
2.000000
 50
338.952328
 51
360.000000
  0
LINE
  8
OBRYS
 10
170.313784
 20
464.555625
 11
170.313784
 21
511.055625
  0
ARC
  8
OBRYS
 10
172.313784
 20
511.055625
 40
2.000000
 50
90.000000
 51
180.000000
  0
LINE
  8
OBRYS
 10
228.813784
 20
513.055625
 11
232.313784
 21
513.055625
  0
LINE
  8
0
 62
     2
 10
175.813784
 20
435.150609
 11
175.813784
 21
407.555625
  0
LINE
  8
0
 62
     2
 10
177.813784
 20
435.354530
 11
177.813784
 21
407.555625
  0
LINE
  8
0
 62
     2
 10
200.313784
 20
435.142644
 11
200.313784
 21
407.555625
  0
LINE
  8
0
 62
     2
 10
204.313784
 20
435.142644
 11
204.313784
 21
407.555625
  0
LINE
  8
0
 62
     2
 10
226.813784
 20
435.354530
 11
226.813784
 21
407.555625
  0
LINE
  8
0
 62
     2
 10
228.813784
 20
407.555625
 11
228.813784
 21
435.150609
  0
LINE
  8
OSA
 10
202.313784
 20
406.055629
 11
202.313784
 21
523.055622
  0
POLYLINE
  8
0
 62
     2
 66
    1
  0
VERTEX
  8
0
 62
     2
 10
228.813782
 20
488.526764
  0
VERTEX
  8
0
 62
     2
 10
228.813782
 20
489.425964
  0
VERTEX
  8
0
 62
     2
 10
228.813782
 20
492.308502
  0
VERTEX
  8
0
 62
     2
 10
228.813782
 20
493.960632
  0
VERTEX
  8
0
 62
     2
 10
228.726379
 20
494.508789
  0
VERTEX
  8
0
 62
     2
 10
228.467987
 20
494.764618
  0
VERTEX
  8
0
 62
     2
 10
228.049866
 20
494.717010
  0
VERTEX
  8
0
 62
     2
 10
227.490326
 20
494.368011
  0
VERTEX
  8
0
 62
     2
 10
226.874084
 20
493.789459
  0
VERTEX
  8
0
 62
     2
 10
226.813782
 20
493.756714
  0
VERTEX
  8
0
 62
     2
 10
221.713135
 20
490.145905
  0
VERTEX
  8
0
 62
     2
 10
217.067993
 20
488.625244
  0
VERTEX
  8
0
 62
     2
 10
212.542419
 20
488.922821
  0
VERTEX
  8
0
 62
     2
 10
207.773438
 20
491.099152
  0
VERTEX
  8
0
 62
     2
 10
204.313782
 20
493.968597
  0
VERTEX
  8
0
 62
     2
 10
203.549866
 20
494.427399
  0
VERTEX
  8
0
 62
     2
 10
202.731903
 20
494.588989
  0
VERTEX
  8
0
 62
     2
 10
202.313782
 20
494.517670
  0
VERTEX
  8
0
 62
     2
 10
201.895691
 20
494.588989
  0
VERTEX
  8
0
 62
     2
 10
201.077728
 20
494.427399
  0
VERTEX
  8
0
 62
     2
 10
200.313782
 20
493.968597
  0
VERTEX
  8
0
 62
     2
 10
196.854156
 20
491.099152
  0
VERTEX
  8
0
 62
     2
 10
192.085175
 20
488.922821
  0
VERTEX
  8
0
 62
     2
 10
187.559601
 20
488.625244
  0
VERTEX
  8
0
 62
     2
 10
182.914459
 20
490.145905
  0
VERTEX
  8
0
 62
     2
 10
177.813782
 20
493.756714
  0
VERTEX
  8
0
 62
     2
 10
177.753479
 20
493.789459
  0
VERTEX
  8
0
 62
     2
 10
177.137268
 20
494.368011
  0
VERTEX
  8
0
 62
     2
 10
176.577728
 20
494.717010
  0
VERTEX
  8
0
 62
     2
 10
176.159607
 20
494.764618
  0
VERTEX
  8
0
 62
     2
 10
175.901215
 20
494.508789
  0
VERTEX
  8
0
 62
     2
 10
175.813782
 20
493.960632
  0
VERTEX
  8
0
 62
     2
 10
175.813782
 20
492.308502
  0
VERTEX
  8
0
 62
     2
 10
175.813782
 20
489.471161
  0
SEQEND
  8
0
  0
LINE
  8
0
 62
     2
 10
176.350305
 20
440.584482
 11
228.813784
 21
440.584482
  0
POLYLINE
  8
0
 62
     2
 66
    1
  0
VERTEX
  8
0
 62
     2
 10
228.813782
 20
440.584473
  0
VERTEX
  8
0
 62
     2
 10
228.813782
 20
439.685242
  0
VERTEX
  8
0
 62
     2
 10
228.813782
 20
436.802734
  0
VERTEX
  8
0
 62
     2
 10
228.813782
 20
435.150604
  0
VERTEX
  8
0
 62
     2
 10
228.726379
 20
434.602448
  0
VERTEX
  8
0
 62
     2
 10
228.467987
 20
434.346588
  0
VERTEX
  8
0
 62
     2
 10
228.049866
 20
434.394226
  0
VERTEX
  8
0
 62
     2
 10
227.490326
 20
434.743225
  0
VERTEX
  8
0
 62
     2
 10
226.874084
 20
435.321777
  0
VERTEX
  8
0
 62
     2
 10
226.813782
 20
435.354523
  0
VERTEX
  8
0
 62
     2
 10
221.713135
 20
438.965332
  0
VERTEX
  8
0
 62
     2
 10
217.067993
 20
440.485992
  0
VERTEX
  8
0
 62
     2
 10
212.542419
 20
440.188416
  0
VERTEX
  8
0
 62
     2
 10
207.773438
 20
438.012085
  0
VERTEX
  8
0
 62
     2
 10
204.313782
 20
435.142639
  0
VERTEX
  8
0
 62
     2
 10
203.549866
 20
434.683838
  0
VERTEX
  8
0
 62
     2
 10
202.731903
 20
434.522247
  0
VERTEX
  8
0
 62
     2
 10
202.313782
 20
434.593567
  0
VERTEX
  8
0
 62
     2
 10
201.895691
 20
434.522247
  0
VERTEX
  8
0
 62
     2
 10
201.077728
 20
434.683838
  0
VERTEX
  8
0
 62
     2
 10
200.313782
 20
435.142639
  0
VERTEX
  8
0
 62
     2
 10
196.854156
 20
438.012085
  0
VERTEX
  8
0
 62
     2
 10
192.085175
 20
440.188416
  0
VERTEX
  8
0
 62
     2
 10
187.559601
 20
440.485992
  0
VERTEX
  8
0
 62
     2
 10
182.914459
 20
438.965332
  0
VERTEX
  8
0
 62
     2
 10
177.813782
 20
435.354523
  0
VERTEX
  8
0
 62
     2
 10
177.753479
 20
435.321777
  0
VERTEX
  8
0
 62
     2
 10
177.137268
 20
434.743225
  0
VERTEX
  8
0
 62
     2
 10
176.577728
 20
434.394226
  0
VERTEX
  8
0
 62
     2
 10
176.159607
 20
434.346588
  0
VERTEX
  8
0
 62
     2
 10
175.901215
 20
434.602448
  0
VERTEX
  8
0
 62
     2
 10
175.813782
 20
435.150604
  0
VERTEX
  8
0
 62
     2
 10
175.813782
 20
436.802734
  0
VERTEX
  8
0
 62
     2
 10
175.813782
 20
439.640076
  0
SEQEND
  8
0
  0
POLYLINE
  8
0
 62
     2
 66
    1
  0
VERTEX
  8
0
 62
     2
 10
175.813782
 20
439.640076
  0
VERTEX
  8
0
 62
     2
 10
176.350311
 20
440.584473
  0
VERTEX
  8
0
 62
     2
 10
176.891968
 20
445.068665
  0
VERTEX
  8
0
 62
     2
 10
177.569427
 20
454.753418
  0
VERTEX
  8
0
 62
     2
 10
177.794128
 20
464.555603
  0
VERTEX
  8
0
 62
     2
 10
177.569427
 20
474.357788
  0
VERTEX
  8
0
 62
     2
 10
176.891968
 20
484.042542
  0
VERTEX
  8
0
 62
     2
 10
176.350311
 20
488.526764
  0
VERTEX
  8
0
 62
     2
 10
175.813782
 20
489.471161
  0
SEQEND
  8
0
  0
LINE
  8
0
 62
     2
 10
176.350305
 20
488.526768
 11
228.813784
 21
488.526768
  0
LINE
  8
0
 62
     2
 10
226.813784
 20
515.555625
 11
228.813784
 21
515.555625
  0
LINE
  8
0
 62
     2
 10
200.313784
 20
515.555625
 11
204.313784
 21
515.555625
  0
LINE
  8
0
 62
     2
 10
175.813784
 20
515.555625
 11
177.813784
 21
515.555625
  0
LINE
  8
0
 62
     2
 10
228.813784
 20
488.526768
 11
228.813784
 21
440.584482
  0
LINE
  8
0
 62
     2
 10
228.813784
 20
515.555625
 11
228.813784
 21
493.960642
  0
LINE
  8
0
 62
     2
 10
226.813784
 20
493.756720
 11
226.813784
 21
515.555625
  0
LINE
  8
0
 62
     2
 10
204.313784
 20
515.555625
 11
226.813784
 21
515.555625
  0
LINE
  8
0
 62
     2
 10
204.313784
 20
493.968606
 11
204.313784
 21
515.555625
  0
LINE
  8
0
 62
     2
 10
200.313784
 20
493.968606
 11
200.313784
 21
515.555625
  0
LINE
  8
0
 62
     2
 10
177.813784
 20
515.555625
 11
200.313784
 21
515.555625
  0
LINE
  8
0
 62
     2
 10
177.813784
 20
493.756720
 11
177.813784
 21
515.555625
  0
LINE
  8
0
 62
     2
 10
175.813784
 20
493.960642
 11
175.813784
 21
515.555625
  0
LINE
  8
OSA
 10
173.221698
 20
464.555625
 11
246.709566
 21
464.555625
  0
LINE
  8
OBRYS
 10
228.813784
 20
407.555625
 11
175.813784
 21
407.555625
  0
LINE
  8
OSA
 10
202.313784
 20
512.555625
 11
202.313784
 21
416.555625
  0
LINE
  8
OBRYS
 10
235.313784
 20
503.358376
 11
234.447220
 21
508.208875
  0
ARC
  8
OBRYS
 10
236.313784
 20
508.927164
 40
2.000000
 50
180.000000
 51
201.047672
  0
LINE
  8
OBRYS
 10
235.313784
 20
497.829885
 11
235.313784
 21
503.358376
  0
LINE
  8
OBRYS
 10
235.313784
 20
470.068923
 11
235.313784
 21
476.174764
  0
LINE
  8
OBRYS
 10
234.313784
 20
467.726973
 11
235.313784
 21
470.068923
  0
LINE
  8
OBRYS
 10
234.313784
 20
461.384277
 11
235.313784
 21
459.042327
  0
LINE
  8
OBRYS
 10
235.313784
 20
459.042327
 11
235.313784
 21
452.936486
  0
LINE
  8
OBRYS
 10
235.313784
 20
459.042327
 11
235.313784
 21
470.068923
  0
LINE
  8
OBRYS
 10
234.313784
 20
464.555625
 11
234.313784
 21
511.055625
  0
ARC
  8
OBRYS
 10
232.313784
 20
511.055625
 40
2.000000
 50
0.000000
 51
90.000000
  0
LINE
  8
OBRYS
 10
169.313784
 20
493.344922
 11
170.313784
 21
494.350098
  0
LINE
  8
OBRYS
 10
169.313784
 20
497.829885
 11
170.313784
 21
498.232877
  0
LINE
  8
OBRYS
 10
235.313784
 20
493.344922
 11
234.313784
 21
494.350098
  0
LINE
  8
OBRYS
 10
235.313784
 20
497.829885
 11
234.313784
 21
498.232877
  0
ARC
  8
OBRYS
 10
364.276967
 20
464.555625
 40
49.500000
 50
348.463638
 51
360.000000
  0
POLYLINE
  8
0
 62
     2
 66
    1
  0
VERTEX
  8
0
 62
     2
 10
418.244598
 20
434.555634
  0
VERTEX
  8
0
 62
     2
 10
418.099030
 20
434.602509
  0
VERTEX
  8
0
 62
     2
 10
417.267365
 20
435.150604
  0
VERTEX
  8
0
 62
     2
 10
415.253632
 20
436.802704
  0
VERTEX
  8
0
 62
     2
 10
412.776978
 20
438.053986
  0
SEQEND
  8
0
  0
LINE
  8
OBRYS
 10
430.776967
 20
440.584482
 11
412.776967
 21
440.584482
  0
LINE
  8
OSA
 62
     2
  6
CONTINUOUS
 10
433.257729
 20
407.555625
 11
412.776967
 21
407.555625
  0
LINE
  8
OSA
 62
     2
  6
CONTINUOUS
 10
434.257729
 20
407.555625
 11
412.776967
 21
407.555625
  0
LINE
  8
OBRYS
 10
374.296205
 20
512.009443
 11
374.296205
 21
515.555625
  0
LINE
  8
0
 62
     2
 10
374.832103
 20
515.555625
 11
374.832103
 21
511.893127
  0
LINE
  8
OBRYS
 10
374.296205
 20
515.555625
 11
434.257729
 21
515.555625
  0
LINE
  8
0
 62
     2
 10
387.822484
 20
515.555625
 11
387.822484
 21
508.097084
  0
LINE
  8
0
 62
     2
 10
391.286586
 20
515.555625
 11
391.286586
 21
506.037314
  0
LINE
  8
OBRYS
 10
430.776967
 20
488.526768
 11
407.585561
 21
488.526768
  0
POLYLINE
  8
0
 62
     2
 66
    1
  0
VERTEX
  8
0
 62
     2
 10
418.244598
 20
494.555634
  0
VERTEX
  8
0
 62
     2
 10
418.099030
 20
494.508759
  0
VERTEX
  8
0
 62
     2
 10
417.267365
 20
493.960663
  0
VERTEX
  8
0
 62
     2
 10
415.253632
 20
492.308563
  0
VERTEX
  8
0
 62
     2
 10
409.548126
 20
489.425995
  0
VERTEX
  8
0
 62
     2
 10
407.296417
 20
489.041840
  0
SEQEND
  8
0
  0
ARC
  8
OBRYS
 10
364.276967
 20
464.555625
 40
49.500000
 50
0.000000
 51
61.597212
  0
LINE
  8
0
 62
     2
 10
433.721831
 20
515.555625
 11
433.721831
 21
493.968606
  0
LINE
  8
0
 62
     2
 10
417.267348
 20
515.555625
 11
417.267348
 21
493.960642
  0
LINE
  8
0
 62
     2
 10
420.731449
 20
515.555625
 11
420.731449
 21
493.756720
  0
LINE
  8
0
 62
     2
 10
419.905863
 20
494.555625
 11
418.244592
 21
494.555625
  0
POLYLINE
  8
0
 62
     2
 66
    1
  0
VERTEX
  8
0
 62
     2
 10
434.199921
 20
494.555634
  0
VERTEX
  8
0
 62
     2
 10
434.061981
 20
494.427460
  0
VERTEX
  8
0
 62
     2
 10
433.721832
 20
493.968597
  0
VERTEX
  8
0
 62
     2
 10
431.724396
 20
491.099213
  0
VERTEX
  8
0
 62
     2
 10
428.971039
 20
488.922821
  0
VERTEX
  8
0
 62
     2
 10
426.358185
 20
488.625214
  0
VERTEX
  8
0
 62
     2
 10
423.676300
 20
490.145966
  0
VERTEX
  8
0
 62
     2
 10
420.731476
 20
493.756683
  0
VERTEX
  8
0
 62
     2
 10
420.687653
 20
493.789520
  0
VERTEX
  8
0
 62
     2
 10
420.239960
 20
494.368011
  0
VERTEX
  8
0
 62
     2
 10
419.905853
 20
494.555634
  0
SEQEND
  8
0
  0
LINE
  8
0
 62
     2
 10
419.905863
 20
494.555625
 11
418.244592
 21
494.555625
  0
LINE
  8
0
 62
     2
 10
433.721831
 20
407.555625
 11
433.721831
 21
435.142644
  0
LINE
  8
0
 62
     2
 10
417.267348
 20
407.555625
 11
417.267348
 21
435.150609
  0
LINE
  8
0
 62
     2
 10
420.731449
 20
407.555625
 11
420.731449
 21
435.354530
  0
LINE
  8
0
 62
     2
 10
430.776967
 20
440.584482
 11
434.235817
 21
434.593579
  0
LINE
  8
0
 62
     2
 10
434.235817
 20
434.555625
 11
434.199911
 21
434.555625
  0
LINE
  8
0
 62
     2
 10
419.905863
 20
434.555625
 11
418.244592
 21
434.555625
  0
POLYLINE
  8
0
 62
     2
 66
    1
  0
VERTEX
  8
0
 62
     2
 10
434.199921
 20
434.555634
  0
VERTEX
  8
0
 62
     2
 10
434.061981
 20
434.683807
  0
VERTEX
  8
0
 62
     2
 10
433.721832
 20
435.142670
  0
VERTEX
  8
0
 62
     2
 10
431.724396
 20
438.012054
  0
VERTEX
  8
0
 62
     2
 10
428.971039
 20
440.188446
  0
VERTEX
  8
0
 62
     2
 10
426.358185
 20
440.486053
  0
VERTEX
  8
0
 62
     2
 10
423.676300
 20
438.965302
  0
VERTEX
  8
0
 62
     2
 10
420.731476
 20
435.354584
  0
VERTEX
  8
0
 62
     2
 10
420.687653
 20
435.321747
  0
VERTEX
  8
0
 62
     2
 10
420.239960
 20
434.743256
  0
VERTEX
  8
0
 62
     2
 10
419.905853
 20
434.555634
  0
SEQEND
  8
0
  0
LINE
  8
0
 62
     2
 10
434.235817
 20
434.593579
 11
434.235817
 21
434.555625
  0
LINE
  8
0
 62
     2
 10
434.235817
 20
434.555625
 11
434.199911
 21
434.555625
  0
LINE
  8
0
 62
     2
 10
419.905863
 20
434.555625
 11
418.244592
 21
434.555625
  0
LINE
  8
OBRYS
 10
434.257729
 20
494.555625
 11
434.257729
 21
515.555625
  0
LINE
  8
OBRYS
 10
434.257729
 20
407.555625
 11
434.257729
 21
434.555625
  0
LINE
  8
OBRYS
 10
434.257729
 20
494.555625
 11
430.776967
 21
488.526768
  0
LINE
  8
OBRYS
 10
430.776967
 20
488.526768
 11
430.776967
 21
440.584482
  0
LINE
  8
OBRYS
 10
434.257729
 20
434.555625
 11
430.776967
 21
440.584482
  0
LINE
  8
OSA
 10
404.276967
 20
464.555625
 11
404.276967
 21
407.555625
  0
LINE
  8
OSA
 10
404.276967
 20
464.555625
 11
404.276967
 21
515.555625
  0
LINE
  8
OSA
 10
364.276967
 20
464.555625
 11
434.024263
 21
464.555625
  0
INSERT
  8
OBRYS
  2
_14
 62
     7
 10
364.276967
 20
464.555625
  0
INSERT
  8
OBRYS
  2
_15
 62
     7
 10
741.031222
 20
464.555625
  0
ENDSEC
  0
EOF

