  0
SECTION
  2
HEADER
  9
$ACADVER
  1
AC1009
  9
$INSBASE
 10
0.0
 20
0.0
 30
0.0
  9
$LIMMIN
 10
0.0
 20
0.0
  9
$LIMMAX
 10
430.0000
 20
307.0000
  9
$EXTMIN
 10
99999999999999998000000000000000000000.0000
 20
99999999999999998000000000000000000000.0000
  9
$EXTMAX
 10
99999999999999998000000000000000000000.0000
 20
99999999999999998000000000000000000000.0000
  9
$VIEWCTR
 10
415.7416
 20
319.1590
  9
$VIEWSIZE
 40
796.2538
  9
$DIMLFAC
 40
0.6667
  9
$MEASUREMENT
 70
     1
  9
$DWGCODEPAGE
 3
ANSI_1250
  9
$CLAYER
  8
OBRYS
  9
$CELTYPE
  6
BYLAYER
  9
$CECOLOR
 62
  256
  9
$ORTHOMODE
 70
     0
  9
$REGENMODE
 70
     1
  9
$FILLMODE
 70
     1
  9
$QTEXTMODE
 70
     0
  9
$MIRRTEXT
 70
     1
  9
$DRAGMODE
 70
     2
  9
$LTSCALE
 40
1.0
  9
$OSMODE
 70
    37
  9
$ATTMODE
 70
     1
  9
$TEXTSIZE
 40
2.5
  9
$TRACEWID
 40
1.0
  9
$TEXTSTYLE
  7
STANDARD
  9
$CLAYER
  8
0
  9
$CELTYPE
  6
BYLAYER
  9
$CECOLOR
 62
   256
  9
$DIMSCALE
 40
1.0
  9
$DIMASZ
 40
2.5
  9
$DIMEXO
 40
0.625
  9
$DIMDLI
 40
3.75
  9
$DIMRND
 40
0.0
  9
$DIMDLE
 40
0.0
  9
$DIMEXE
 40
1.25
  9
$DIMTP
 40
0.0
  9
$DIMTM
 40
0.0
  9
$DIMTXT
 40
2.5
  9
$DIMCEN
 40
2.5
  9
$DIMTSZ
 40
0.0
  9
$DIMTOL
 70
     0
  9
$DIMLIM
 70
     0
  9
$DIMTIH
 70
     0
  9
$DIMTOH
 70
     0
  9
$DIMSE1
 70
     0
  9
$DIMSE2
 70
     0
  9
$DIMTAD
 70
     1
  9
$DIMZIN
 70
     8
  9
$DIMBLK
  1

  9
$DIMASO
 70
     1
  9
$DIMSHO
 70
     1
  9
$DIMPOST
  1

  9
$DIMAPOST
  1

  9
$DIMALT
 70
     0
  9
$DIMALTD
 70
     3
  9
$DIMALTF
 40
0.03937007874016
  9
$DIMTOFL
 70
     1
  9
$DIMTVP
 40
0.0
  9
$DIMTIX
 70
     0
  9
$DIMSOXD
 70
     0
  9
$DIMSAH
 70
     0
  9
$DIMBLK1
  1

  9
$DIMBLK2
  1

  9
$DIMSTYLE
  2
ISO-25
  9
$DIMCLRD
 70
     0
  9
$DIMCLRE
 70
     0
  9
$DIMCLRT
 70
     0
  9
$DIMTFAC
 40
1.0
  9
$DIMGAP
 40
0.625
  9
$LUNITS
 70
     2
  9
$LUPREC
 70
     4
  9
$SKETCHINC
 40
1.0
  9
$FILLETRAD
 40
10.0
  9
$AUNITS
 70
     0
  9
$AUPREC
 70
     0
  9
$MENU
  1
.
  9
$ELEVATION
 40
0.0
  9
$PELEVATION
 40
0.0
  9
$THICKNESS
 40
0.0
  9
$LIMCHECK
 70
     0
  9
$BLIPMODE
 70
     0
  9
$CHAMFERA
 40
10.0
  9
$CHAMFERB
 40
10.0
  9
$SKPOLY
 70
     0
  9
$TDCREATE
 40
2451579.5163292708
  9
$TDUPDATE
 40
2451579.6904035881
  9
$TDINDWG
 40
0.0082924769
  9
$TDUSRTIMER
 40
0.0082825116
  9
$USRTIMER
 70
     1
  9
$ANGBASE
 50
0.0
  9
$ANGDIR
 70
     0
  9
$PDMODE
 70
     0
  9
$PDSIZE
 40
0.0
  9
$PLINEWID
 40
0.0
  9
$COORDS
 70
     1
  9
$SPLFRAME
 70
     0
  9
$SPLINETYPE
 70
     6
  9
$SPLINESEGS
 70
     8
  9
$ATTDIA
 70
     0
  9
$ATTREQ
 70
     1
  9
$SURFTAB1
 70
     6
  9
$SURFTAB2
 70
     6
  9
$SURFTYPE
 70
     6
  9
$SURFU
 70
     6
  9
$SURFV
 70
     6
  9
$UCSNAME
  2

  9
$UCSORG
 10
0.0
 20
0.0
 30
0.0
  9
$UCSXDIR
 10
1.0
 20
0.0
 30
0.0
  9
$UCSYDIR
 10
0.0
 20
1.0
 30
0.0
  9
$PUCSNAME
  2

  9
$PUCSORG
 10
0.0
 20
0.0
 30
0.0
  9
$PUCSXDIR
 10
1.0
 20
0.0
 30
0.0
  9
$PUCSYDIR
 10
0.0
 20
1.0
 30
0.0
  9
$USERI1
 70
     0
  9
$USERI2
 70
     0
  9
$USERI3
 70
     0
  9
$USERI4
 70
     0
  9
$USERI5
 70
     0
  9
$USERR1
 40
0.0
  9
$USERR2
 40
0.0
  9
$USERR3
 40
0.0
  9
$USERR4
 40
0.0
  9
$USERR5
 40
0.0
  9
$WORLDVIEW
 70
     1
  9
$SHADEDGE
 70
     3
  9
$SHADEDIF
 70
    70
  9
$TILEMODE
 70
     1
  9
$MAXACTVP
 70
    64
  9
$PLIMCHECK
 70
     0
  9
$PEXTMIN
 10
1.0000000000000000E+020
 20
1.0000000000000000E+020
 30
1.0000000000000000E+020
  9
$PEXTMAX
 10
-1.0000000000000000E+020
 20
-1.0000000000000000E+020
 30
-1.0000000000000000E+020
  9
$PLIMMIN
 10
0.0
 20
0.0
  9
$PLIMMAX
 10
420.0
 20
297.0
  9
$UNITMODE
 70
     0
  9
$VISRETAIN
 70
     1
  9
$PLINEGEN
 70
     0
  9
$PSLTSCALE
 70
     1
  0
ENDSEC
  0
SECTION
  2
TABLES
  0
TABLE
  2
VPORT
 70
     2
  0
VPORT
  2
*ACTIVE
 70
     0
 10
0.0
 20
0.0
 11
1.0
 21
1.0
 12
415.7416
 22
319.1590
 13
0.0
 23
0.0
 14
10.0
 24
10.0
 15
10.0
 25
10.0
 16
0.0
 26
0.0
 36
1.0
 17
0.0
 27
0.0
 37
0.0
 40
796.2538
 41
1.6916
 42
50.0
 43
0.0
 44
0.0
 50
0.0
 51
0.0
 71
     0
 72
   100
 73
     1
 74
     3
 75
     0
 76
     0
 77
     0
 78
     0
  0
ENDTAB
  0
TABLE
  2
LTYPE
 70
     7
  0
LTYPE
  2
CONTINUOUS
 70
     0
  3
Solid line
 72
    65
 73
     0
 40
0.0
  0
LTYPE
  2
HIDDEN2
 70
     0
  3
Hidden (.5x) _ _ _ _ _ _ _ _ _ _ _ _ _ _ _ _ _
 72
    65
 73
     2
 40
5.1
 49
3.5
 49
-1.6
  0
LTYPE
  2
DASHDOT
 70
     0
  3
Dash dot __ . __ . __ . __ . __ . __ . __ . __
 72
    65
 73
     4
 40
10.4
 49
6.2
 49
-2.1
 49
0.0
 49
-2.1
  0
LTYPE
  2
DOT
 70
     0
  3
Dot . . . . . . . . . . . . . . . . . . . . . .
 72
    65
 73
     2
 40
2.2
 49
1.1
 49
-1.1
  0
LTYPE
  2
DASHED
 70
     0
  3
Dashed __ __ __ __ __ __ __ __ __ __ __ __ __ _
 72
    65
 73
     2
 40
11.049999999999979
 49
8.699999999999999
 49
-2.3499999999999979
  0
LTYPE
  2
PHANTOM2
 70
     0
  3
Phantom (.5x) ___ _ _ ___ _ _ ___ _ _ ___ _ _
 72
    65
 73
     6
 40
18.3
 49
7.8
 49
-2.1
 49
2.1
 49
-2.1
 49
2.1
 49
-2.1
  0
LTYPE
  2
CENTER
 70
     0
  3
Center ____ _ ____ _ ____ _ ____ _ ____ _ ____
 72
    65
 73
     4
 40
14.1
 49
7.8
 49
-2.1
 49
2.1
 49
-2.1
  0
ENDTAB
  0
TABLE
  2
LAYER
 70
     7
  0
LAYER
  2
0
 70
    64
 62
     7
  6
CONTINUOUS
  0
LAYER
  2
OBRYS
 70
    64
 62
     2
  6
CONTINUOUS
  0
LAYER
  2
OSA
 70
    64
 62
     7
  6
DASHDOT
  0
LAYER
  2
KOTA
 70
    64
 62
     3
  6
CONTINUOUS
  0
LAYER
  2
SRAFY
 70
    64
 62
     7
  6
CONTINUOUS
  0
LAYER
  2
POMOC
 70
    64
 62
     1
  6
DOT
  0
LAYER
  2
NEVIDITELNA
 70
    64
 62
     4
  6
HIDDEN2
  0
ENDTAB
  0
TABLE
  2
STYLE
 70
     1
  0
STYLE
  2
STANDARD
 70
     0
 40
0.0
 41
1.0
 50
0.0
 71
     0
 42
2.5
  3
txt
  4

  0
ENDTAB
  0
TABLE
  2
VIEW
 70
     0
  0
ENDTAB
  0
TABLE
  2
UCS
 70
     0
  0
ENDTAB
  0
TABLE
  2
APPID
 70
     1
  0
APPID
  2
ACAD
 70
     0
  0
ENDTAB
  0
TABLE
  2
DIMSTYLE
 70
     1
  0
DIMSTYLE
  2
ISO-25
 70
     0
  3

  4

  5

  6

  7

 40
1.0
 41
2.5
 42
0.625
 43
3.75
 44
1.25
 45
0.0
 46
0.0
 47
0.0
 48
0.0
140
2.5
141
2.5
142
0.0
143
0.03937007874016
144
1.0
145
0.0
146
1.0
147
0.625
 71
     0
 72
     0
 73
     0
 74
     0
 75
     0
 76
     0
 77
     1
 78
     8
170
     0
171
     3
172
     1
173
     0
174
     0
175
     0
176
     0
177
     0
178
     0
  0
ENDTAB
  0
ENDSEC
  0
SECTION
  2
BLOCKS
  0
BLOCK
  8
0
  2
$MODEL_SPACE
 70
     0
 10
0.0
 20
0.0
 30
0.0
  3
$MODEL_SPACE
  1

  0
ENDBLK
  8
0
  0
BLOCK
 67
     1
  8
0
  2
$PAPER_SPACE
 70
     0
 10
0.0
 20
0.0
 30
0.0
  3
$PAPER_SPACE
  1

  0
ENDBLK
 67
     1
  8
0
  0
BLOCK
  8
OBRYS
  2
_0
 70
   64
 10
513.546919
 20
255.225779
  0
LINE
  8
OBRYS
 10
505.546919
 20
180.213535
 11
523.616718
 21
180.879466
  0
LINE
  8
OBRYS
 10
513.546919
 20
199.485718
 11
513.546919
 21
205.146479
  0
ARC
  8
OBRYS
 10
511.546919
 20
199.485721
 40
2.000000
 50
334.425618
 51
360.000000
  0
LINE
  8
OBRYS
 10
513.546919
 20
199.485721
 11
513.546919
 21
225.225779
  0
LINE
  8
OBRYS
 10
513.350970
 20
198.622356
 11
505.546919
 21
180.225779
  0
LINE
  8
OBRYS
 10
505.546919
 20
170.225779
 11
505.546919
 21
180.225779
  0
LINE
  8
OBRYS
 10
505.546919
 20
170.225779
 11
529.546919
 21
170.225779
  0
ARC
  8
OBRYS
 10
518.158575
 20
308.225779
 40
3.000000
 50
90.000000
 51
151.109871
  0
LINE
  8
OBRYS
 10
513.920275
 20
306.754474
 11
515.531932
 21
309.675174
  0
LINE
  8
OBRYS
 62
     7
  6
DASHDOT
 10
514.546919
 20
170.225779
 11
514.546919
 21
180.562743
  0
ARC
  8
OBRYS
 10
516.546919
 20
305.305079
 40
3.000000
 50
151.109871
 51
180.000000
  0
LINE
  8
OBRYS
 62
     4
  6
HIDDEN2
 10
519.046919
 20
170.225779
 11
519.046919
 21
180.719885
  0
LINE
  8
OBRYS
 62
     4
  6
HIDDEN2
 10
510.046919
 20
170.225779
 11
510.046919
 21
180.405599
  0
ARC
  8
OBRYS
 10
523.546919
 20
182.878248
 40
2.000000
 50
271.999998
 51
360.000000
  0
ARC
  8
OBRYS
 10
518.546919
 20
215.012516
 40
5.000000
 50
180.000000
 51
207.224480
  0
LINE
  8
OBRYS
 10
524.993024
 20
191.553433
 11
514.100814
 21
212.725127
  0
ARC
  8
OBRYS
 10
520.546919
 20
189.266044
 40
5.000000
 50
0.000000
 51
27.224480
  0
LINE
  8
OBRYS
 10
514.133757
 20
201.805108
 11
518.994966
 21
201.805108
  0
LINE
  8
OBRYS
 10
516.103003
 20
307.753277
 11
516.103003
 21
309.302735
  0
POLYLINE
  8
OBRYS
 66
    1
  0
VERTEX
  8
OBRYS
 10
513.547058
 20
303.934662
  0
VERTEX
  8
OBRYS
 10
513.920349
 20
305.374115
  0
VERTEX
  8
OBRYS
 10
516.103088
 20
309.302704
  0
VERTEX
  8
OBRYS
 10
516.771790
 20
310.120697
  0
VERTEX
  8
OBRYS
 10
517.227966
 20
310.388153
  0
SEQEND
  8
OBRYS
  0
LINE
  8
OBRYS
 10
515.477449
 20
229.091607
 11
516.103003
 21
229.224604
  0
LINE
  8
OBRYS
 10
513.920275
 20
219.521285
 11
513.920275
 21
229.716240
  0
LINE
  8
OBRYS
 10
513.920275
 20
217.285883
 11
513.920275
 21
212.859188
  0
LINE
  8
OBRYS
 10
513.546919
 20
217.430451
 11
513.920275
 21
216.336579
  0
LINE
  8
OBRYS
 10
513.920275
 20
218.789490
 11
513.546919
 21
219.814366
  0
LINE
  8
OBRYS
 10
525.546919
 20
182.878249
 11
525.546919
 21
214.378821
  0
LINE
  8
OBRYS
 10
513.546919
 20
220.546162
 11
513.920275
 21
219.521285
  0
LINE
  8
OBRYS
 10
513.920275
 20
219.521285
 11
516.103003
 21
216.724243
  0
LINE
  8
OBRYS
 10
524.583145
 20
201.752857
 11
513.920275
 21
216.336579
  0
ARC
  8
OBRYS
 10
520.546919
 20
198.801776
 40
5.000000
 50
0.000000
 51
36.172355
  0
LINE
  8
OBRYS
 10
524.488723
 20
205.246622
 11
513.920275
 21
218.789490
  0
ARC
  8
OBRYS
 10
520.546919
 20
202.170556
 40
5.000000
 50
0.000000
 51
37.967408
  0
LINE
  8
OBRYS
 10
516.103003
 20
216.724243
 11
524.488723
 21
205.978417
  0
ARC
  8
OBRYS
 10
520.546919
 20
202.902351
 40
5.000000
 50
0.000000
 51
37.967408
  0
LINE
  8
OBRYS
 10
513.920275
 20
304.374742
 11
513.920275
 21
305.374178
  0
LINE
  8
OBRYS
 10
513.546919
 20
303.852358
 11
513.546919
 21
303.934697
  0
LINE
  8
OBRYS
 10
515.951911
 20
307.481147
 11
516.324339
 21
307.481147
  0
LINE
  8
OBRYS
 10
518.158575
 20
311.225779
 11
519.698348
 21
311.225779
  0
LINE
  8
OBRYS
 10
517.985271
 20
309.403628
 11
517.787052
 21
309.346894
  0
LINE
  8
OBRYS
 10
517.787052
 20
309.346894
 11
517.685405
 21
309.322183
  0
LINE
  8
OBRYS
 10
517.685405
 20
309.322183
 11
517.317152
 21
309.028005
  0
LINE
  8
OBRYS
 10
517.317152
 20
309.028005
 11
516.815455
 21
308.666969
  0
LINE
  8
OBRYS
 10
516.815455
 20
308.666969
 11
516.771767
 21
308.637896
  0
LINE
  8
OBRYS
 10
516.771767
 20
308.637896
 11
516.512767
 21
308.278311
  0
LINE
  8
OBRYS
 10
516.512767
 20
308.278311
 11
516.204626
 21
307.877665
  0
LINE
  8
OBRYS
 10
516.204626
 20
307.877665
 11
516.103003
 21
307.753277
  0
LINE
  8
OBRYS
 10
516.103003
 20
307.753277
 11
515.951911
 21
307.481147
  0
LINE
  8
OBRYS
 10
515.951911
 20
307.481147
 11
515.010892
 21
305.836244
  0
LINE
  8
OBRYS
 10
523.006701
 20
224.097393
 11
525.546919
 21
214.378821
  0
POLYLINE
  8
OBRYS
 66
    1
  0
VERTEX
  8
OBRYS
 10
516.103088
 20
229.224579
  0
VERTEX
  8
OBRYS
 10
516.110168
 20
229.226044
  0
VERTEX
  8
OBRYS
 10
516.648132
 20
229.624420
  0
VERTEX
  8
OBRYS
 10
517.002075
 20
230.165985
  0
SEQEND
  8
OBRYS
  0
LINE
  8
OBRYS
 10
529.546919
 20
170.225779
 11
529.546919
 21
219.115900
  0
POLYLINE
  8
OBRYS
 66
    1
  0
VERTEX
  8
OBRYS
 10
515.477478
 20
229.091583
  0
VERTEX
  8
OBRYS
 10
514.774597
 20
229.226044
  0
VERTEX
  8
OBRYS
 10
514.028259
 20
229.624420
  0
VERTEX
  8
OBRYS
 10
513.920349
 20
229.716217
  0
VERTEX
  8
OBRYS
 10
513.615540
 20
230.271271
  0
VERTEX
  8
OBRYS
 10
513.547058
 20
230.442596
  0
VERTEX
  8
OBRYS
 10
513.547058
 20
231.141815
  0
VERTEX
  8
OBRYS
 10
513.547058
 20
232.202545
  0
VERTEX
  8
OBRYS
 10
513.547058
 20
233.412750
  0
VERTEX
  8
OBRYS
 10
513.547058
 20
234.598984
  0
SEQEND
  8
OBRYS
  0
LINE
  8
OBRYS
 10
513.546919
 20
225.225779
 11
513.546919
 21
234.599200
  0
LINE
  8
OBRYS
 10
518.729646
 20
310.214151
 11
518.729646
 21
311.225779
  0
LINE
  8
OBRYS
 10
513.546919
 20
305.305079
 11
513.546919
 21
303.852358
  0
ENDBLK
  8
OBRYS
  0
BLOCK
  8
OBRYS
  2
_1
 70
   64
 10
611.546919
 20
255.225779
  0
LINE
  8
OBRYS
 10
619.546919
 20
180.213535
 11
601.477120
 21
180.879466
  0
LINE
  8
OBRYS
 10
611.546919
 20
199.485718
 11
611.546919
 21
205.146479
  0
ARC
  8
OBRYS
 10
613.546919
 20
199.485721
 40
2.000000
 50
180.000000
 51
205.574382
  0
LINE
  8
OBRYS
 10
611.546919
 20
199.485721
 11
611.546919
 21
225.225779
  0
LINE
  8
OBRYS
 10
611.742868
 20
198.622356
 11
619.546919
 21
180.225779
  0
LINE
  8
OBRYS
 10
619.546919
 20
170.225779
 11
619.546919
 21
180.225779
  0
LINE
  8
OBRYS
 10
619.546919
 20
170.225779
 11
595.546919
 21
170.225779
  0
ARC
  8
OBRYS
 10
606.935262
 20
308.225779
 40
3.000000
 50
28.890129
 51
90.000000
  0
LINE
  8
OBRYS
 10
611.173562
 20
306.754474
 11
609.561906
 21
309.675174
  0
LINE
  8
OBRYS
 62
     7
  6
DASHDOT
 10
610.546919
 20
170.225779
 11
610.546919
 21
180.562743
  0
ARC
  8
OBRYS
 10
608.546919
 20
305.305079
 40
3.000000
 50
0.000000
 51
28.890129
  0
LINE
  8
OBRYS
 62
     4
  6
HIDDEN2
 10
606.046919
 20
170.225779
 11
606.046919
 21
180.719885
  0
LINE
  8
OBRYS
 62
     4
  6
HIDDEN2
 10
615.046919
 20
170.225779
 11
615.046919
 21
180.405599
  0
ARC
  8
OBRYS
 10
601.546919
 20
182.878248
 40
2.000000
 50
180.000000
 51
268.000002
  0
ARC
  8
OBRYS
 10
606.546919
 20
215.012516
 40
5.000000
 50
332.775520
 51
360.000000
  0
LINE
  8
OBRYS
 10
600.100814
 20
191.553433
 11
610.993024
 21
212.725127
  0
ARC
  8
OBRYS
 10
604.546919
 20
189.266044
 40
5.000000
 50
152.775520
 51
180.000000
  0
LINE
  8
OBRYS
 10
610.960080
 20
201.805108
 11
606.098871
 21
201.805108
  0
LINE
  8
OBRYS
 10
608.990835
 20
307.753277
 11
608.990835
 21
309.302735
  0
POLYLINE
  8
OBRYS
 66
    1
  0
VERTEX
  8
OBRYS
 10
611.546753
 20
303.934662
  0
VERTEX
  8
OBRYS
 10
611.173462
 20
305.374115
  0
VERTEX
  8
OBRYS
 10
608.990723
 20
309.302704
  0
VERTEX
  8
OBRYS
 10
608.322021
 20
310.120697
  0
VERTEX
  8
OBRYS
 10
607.865845
 20
310.388153
  0
SEQEND
  8
OBRYS
  0
LINE
  8
OBRYS
 10
609.616389
 20
229.091607
 11
608.990835
 21
229.224604
  0
LINE
  8
OBRYS
 10
611.173562
 20
219.521285
 11
611.173562
 21
229.716240
  0
LINE
  8
OBRYS
 10
611.173562
 20
217.285883
 11
611.173562
 21
212.859188
  0
LINE
  8
OBRYS
 10
611.546919
 20
217.430451
 11
611.173562
 21
216.336579
  0
LINE
  8
OBRYS
 10
611.173562
 20
218.789490
 11
611.546919
 21
219.814366
  0
LINE
  8
OBRYS
 10
599.546919
 20
182.878249
 11
599.546919
 21
214.378821
  0
LINE
  8
OBRYS
 10
611.546919
 20
220.546162
 11
611.173562
 21
219.521285
  0
LINE
  8
OBRYS
 10
611.173562
 20
219.521285
 11
608.990835
 21
216.724243
  0
LINE
  8
OBRYS
 10
600.510693
 20
201.752857
 11
611.173562
 21
216.336579
  0
ARC
  8
OBRYS
 10
604.546919
 20
198.801776
 40
5.000000
 50
143.827645
 51
180.000000
  0
LINE
  8
OBRYS
 10
600.605115
 20
205.246622
 11
611.173562
 21
218.789490
  0
ARC
  8
OBRYS
 10
604.546919
 20
202.170556
 40
5.000000
 50
142.032592
 51
180.000000
  0
LINE
  8
OBRYS
 10
608.990835
 20
216.724243
 11
600.605115
 21
205.978417
  0
ARC
  8
OBRYS
 10
604.546919
 20
202.902351
 40
5.000000
 50
142.032592
 51
180.000000
  0
LINE
  8
OBRYS
 10
611.173562
 20
304.374742
 11
611.173562
 21
305.374178
  0
LINE
  8
OBRYS
 10
611.546919
 20
303.852358
 11
611.546919
 21
303.934697
  0
LINE
  8
OBRYS
 10
609.141927
 20
307.481147
 11
608.769498
 21
307.481147
  0
LINE
  8
OBRYS
 10
606.935262
 20
311.225779
 11
605.395489
 21
311.225779
  0
LINE
  8
OBRYS
 10
607.108567
 20
309.403628
 11
607.306786
 21
309.346894
  0
LINE
  8
OBRYS
 10
607.306786
 20
309.346894
 11
607.408433
 21
309.322183
  0
LINE
  8
OBRYS
 10
607.408433
 20
309.322183
 11
607.776686
 21
309.028005
  0
LINE
  8
OBRYS
 10
607.776686
 20
309.028005
 11
608.278383
 21
308.666969
  0
LINE
  8
OBRYS
 10
608.278383
 20
308.666969
 11
608.322070
 21
308.637896
  0
LINE
  8
OBRYS
 10
608.322070
 20
308.637896
 11
608.581070
 21
308.278311
  0
LINE
  8
OBRYS
 10
608.581070
 20
308.278311
 11
608.889212
 21
307.877665
  0
LINE
  8
OBRYS
 10
608.889212
 20
307.877665
 11
608.990835
 21
307.753277
  0
LINE
  8
OBRYS
 10
608.990835
 20
307.753277
 11
609.141927
 21
307.481147
  0
LINE
  8
OBRYS
 10
609.141927
 20
307.481147
 11
610.082946
 21
305.836244
  0
LINE
  8
OBRYS
 10
602.087136
 20
224.097393
 11
599.546919
 21
214.378821
  0
POLYLINE
  8
OBRYS
 66
    1
  0
VERTEX
  8
OBRYS
 10
608.990723
 20
229.224579
  0
VERTEX
  8
OBRYS
 10
608.983643
 20
229.226044
  0
VERTEX
  8
OBRYS
 10
608.445679
 20
229.624420
  0
VERTEX
  8
OBRYS
 10
608.091736
 20
230.165985
  0
SEQEND
  8
OBRYS
  0
LINE
  8
OBRYS
 10
595.546919
 20
170.225779
 11
595.546919
 21
219.115900
  0
POLYLINE
  8
OBRYS
 66
    1
  0
VERTEX
  8
OBRYS
 10
609.616333
 20
229.091583
  0
VERTEX
  8
OBRYS
 10
610.319214
 20
229.226044
  0
VERTEX
  8
OBRYS
 10
611.065552
 20
229.624420
  0
VERTEX
  8
OBRYS
 10
611.173462
 20
229.716217
  0
VERTEX
  8
OBRYS
 10
611.478271
 20
230.271271
  0
VERTEX
  8
OBRYS
 10
611.546753
 20
230.442596
  0
VERTEX
  8
OBRYS
 10
611.546753
 20
231.141815
  0
VERTEX
  8
OBRYS
 10
611.546753
 20
232.202545
  0
VERTEX
  8
OBRYS
 10
611.546753
 20
233.412750
  0
VERTEX
  8
OBRYS
 10
611.546753
 20
234.598984
  0
SEQEND
  8
OBRYS
  0
LINE
  8
OBRYS
 10
611.546919
 20
225.225779
 11
611.546919
 21
234.599200
  0
LINE
  8
OBRYS
 10
606.364191
 20
310.214151
 11
606.364191
 21
311.225779
  0
LINE
  8
OBRYS
 10
611.546919
 20
305.305079
 11
611.546919
 21
303.852358
  0
ENDBLK
  8
OBRYS
  0
BLOCK
  8
OSA
  2
_2
 70
   64
 10
562.546919
 20
305.225779
  0
CIRCLE
  8
OBRYS
 10
562.546919
 20
269.225779
 40
10.000000
  0
ARC
  8
OBRYS
 10
562.546919
 20
269.225779
 40
4.500000
 50
109.471221
 51
70.528779
  0
LINE
  8
OBRYS
 10
561.046919
 20
273.468420
 11
561.046919
 21
275.025779
  0
LINE
  8
OBRYS
 10
561.046919
 20
275.025779
 11
564.046919
 21
275.025779
  0
LINE
  8
OBRYS
 10
564.046919
 20
275.025779
 11
564.046919
 21
273.468420
  0
LINE
  8
OSA
 10
562.546919
 20
269.225779
 11
568.713585
 21
269.225779
  0
LINE
  8
OSA
 10
562.546919
 20
269.225779
 11
556.380252
 21
269.225779
  0
LINE
  8
OSA
 10
562.546919
 20
269.225779
 11
562.546919
 21
275.392446
  0
LINE
  8
OSA
 10
562.546919
 20
269.225779
 11
562.546919
 21
263.059112
  0
INSERT
  8
OSA
  2
Srouby_s_valcovou_hlavou___1
  6
CONTINUOUS
 10
562.546919
 20
241.225779
  0
INSERT
  8
OSA
  2
Srouby_s_valcovou_hlavou___2
  6
CONTINUOUS
 10
536.030414
 20
278.709275
  0
INSERT
  8
OSA
  2
Srouby_s_valcovou_hlavou___3
  6
CONTINUOUS
 10
589.063423
 20
278.709275
  0
LINE
  8
OSA
 10
536.030414
 20
278.709275
 11
542.639787
 21
278.709275
  0
LINE
  8
OSA
 10
536.030414
 20
278.709275
 11
529.421041
 21
278.709275
  0
LINE
  8
OSA
 10
536.030414
 20
278.709275
 11
536.030414
 21
285.318648
  0
LINE
  8
OSA
 10
536.030414
 20
278.709275
 11
536.030414
 21
272.099902
  0
LINE
  8
OSA
 10
589.063423
 20
278.709275
 11
595.672796
 21
278.709275
  0
LINE
  8
OSA
 10
589.063423
 20
278.709275
 11
582.454050
 21
278.709275
  0
LINE
  8
OSA
 10
589.063423
 20
278.709275
 11
589.063423
 21
285.318648
  0
LINE
  8
OSA
 10
589.063423
 20
278.709275
 11
589.063423
 21
272.099902
  0
LINE
  8
OSA
 10
536.030414
 20
331.742283
 11
542.639787
 21
331.742283
  0
LINE
  8
OSA
 10
536.030414
 20
331.742283
 11
529.421041
 21
331.742283
  0
LINE
  8
OSA
 10
536.030414
 20
331.742283
 11
536.030414
 21
338.351656
  0
LINE
  8
OSA
 10
536.030414
 20
331.742283
 11
536.030414
 21
325.132910
  0
LINE
  8
OSA
 10
589.063423
 20
331.742283
 11
589.063423
 21
325.132910
  0
LINE
  8
OSA
 10
589.063423
 20
331.742283
 11
589.063423
 21
338.351656
  0
LINE
  8
OSA
 10
589.063423
 20
331.742283
 11
582.454050
 21
331.742283
  0
LINE
  8
OSA
 10
589.063423
 20
331.742283
 11
595.672796
 21
331.742283
  0
INSERT
  8
OSA
  2
Srouby_s_valcovou_hlavou___4
  6
CONTINUOUS
 10
536.030414
 20
331.742283
  0
INSERT
  8
OSA
  2
Srouby_s_valcovou_hlavou___5
  6
CONTINUOUS
 10
589.063423
 20
331.742283
  0
LINE
  8
0
 62
     2
 10
526.066157
 20
316.861417
 11
526.066157
 21
320.225779
  0
LINE
  8
0
 62
     2
 10
599.027681
 20
316.861417
 11
599.027681
 21
320.225779
  0
ARC
  8
OBRYS
 10
562.546919
 20
269.225779
 40
55.000000
 50
90.000000
 51
270.000000
  0
ARC
  8
OBRYS
 10
537.825657
 20
230.433264
 40
2.000000
 50
57.491906
 51
145.000000
  0
LINE
  8
OBRYS
 10
536.187353
 20
231.580417
 11
532.169020
 21
225.841643
  0
ARC
  8
OBRYS
 10
533.807324
 20
224.694490
 40
2.000000
 50
145.000000
 51
237.162618
  0
ARC
  8
OBRYS
 10
562.546919
 20
269.225779
 40
44.000000
 50
90.000000
 51
270.000000
  0
ARC
  8
OBRYS
 10
518.015630
 20
240.486184
 40
2.000000
 50
212.837382
 51
305.000000
  0
LINE
  8
OBRYS
 10
524.901557
 20
242.866213
 11
519.162783
 21
238.847880
  0
ARC
  8
OBRYS
 10
523.754404
 20
244.504517
 40
2.000000
 50
305.000000
 51
32.508094
  0
LINE
  8
OBRYS
 10
503.386121
 20
259.225779
 11
508.316187
 21
260.059112
  0
LINE
  8
OBRYS
 10
503.386121
 20
279.225779
 11
508.316187
 21
278.392446
  0
ARC
  8
OBRYS
 10
523.754404
 20
293.947041
 40
2.000000
 50
327.491906
 51
55.000000
  0
LINE
  8
OBRYS
 10
524.901557
 20
295.585345
 11
519.162783
 21
299.603678
  0
ARC
  8
OBRYS
 10
518.015630
 20
297.965374
 40
2.000000
 50
55.000000
 51
147.162618
  0
ARC
  8
OBRYS
 10
533.807324
 20
313.757068
 40
2.000000
 50
122.837382
 51
215.000000
  0
LINE
  8
OBRYS
 10
536.187353
 20
306.871141
 11
532.169020
 21
312.609915
  0
ARC
  8
OBRYS
 10
537.825657
 20
308.018294
 40
2.000000
 50
215.000000
 51
302.508094
  0
ARC
  8
OBRYS
 10
587.268181
 20
308.018294
 40
2.000000
 50
237.491906
 51
325.000000
  0
LINE
  8
OBRYS
 10
588.906485
 20
306.871141
 11
592.924818
 21
312.609915
  0
ARC
  8
OBRYS
 10
591.286514
 20
313.757068
 40
2.000000
 50
325.000000
 51
57.162618
  0
ARC
  8
OBRYS
 10
607.078208
 20
297.965374
 40
2.000000
 50
32.837382
 51
125.000000
  0
LINE
  8
OBRYS
 10
600.192281
 20
295.585345
 11
605.931055
 21
299.603678
  0
ARC
  8
OBRYS
 10
601.339434
 20
293.947041
 40
2.000000
 50
125.000000
 51
212.508094
  0
LINE
  8
OBRYS
 10
621.707717
 20
279.225779
 11
616.777650
 21
278.392446
  0
LINE
  8
OBRYS
 10
621.707717
 20
259.225779
 11
616.777650
 21
260.059112
  0
ARC
  8
OBRYS
 10
601.339434
 20
244.504517
 40
2.000000
 50
147.491906
 51
235.000000
  0
LINE
  8
OBRYS
 10
600.192281
 20
242.866213
 11
605.931055
 21
238.847880
  0
ARC
  8
OBRYS
 10
607.078208
 20
240.486184
 40
2.000000
 50
235.000000
 51
327.162618
  0
ARC
  8
OBRYS
 10
562.546919
 20
269.225779
 40
44.000000
 50
270.000000
 51
90.000000
  0
ARC
  8
OBRYS
 10
591.286514
 20
224.694490
 40
2.000000
 50
302.837382
 51
35.000000
  0
LINE
  8
OBRYS
 10
588.906485
 20
231.580417
 11
592.924818
 21
225.841643
  0
ARC
  8
OBRYS
 10
587.268181
 20
230.433264
 40
2.000000
 50
35.000000
 51
122.508094
  0
ARC
  8
OBRYS
 10
562.546919
 20
269.225779
 40
55.000000
 50
270.000000
 51
90.000000
  0
CIRCLE
  8
OBRYS
 10
562.546919
 20
269.225779
 40
17.480000
  0
ARC
  8
OBRYS
 10
562.546919
 20
269.225779
 40
24.000000
 50
90.000000
 51
154.208906
  0
ARC
  8
OSA
 10
562.546919
 20
269.225779
 40
50.000000
 50
90.000000
 51
270.000000
  0
ARC
  8
OBRYS
 10
562.546919
 20
269.225779
 40
40.000000
 50
90.000000
 51
270.000000
  0
ARC
  8
OBRYS
 10
562.546919
 20
269.225779
 40
60.000000
 50
90.000000
 51
270.000000
  0
ARC
  8
OBRYS
 10
562.546919
 20
269.225779
 40
21.000000
 50
90.000000
 51
270.000000
  0
LINE
  8
OSA
 10
562.546919
 20
241.225779
 11
552.546906
 21
241.225779
  0
ARC
  8
OBRYS
 10
562.546902
 20
241.225779
 40
5.000000
 50
90.000000
 51
270.000000
  0
LINE
  8
OSA
 10
562.546919
 20
305.225779
 11
522.546922
 21
305.225779
  0
LINE
  8
OSA
 10
562.546919
 20
269.225779
 11
502.546919
 21
269.225779
  0
ARC
  8
OBRYS
 10
536.566157
 20
320.225779
 40
10.500000
 50
154.169919
 51
179.999994
  0
LINE
  8
0
 62
     2
 10
527.115210
 20
324.800668
 11
531.529964
 21
333.920802
  0
CIRCLE
  8
OBRYS
 10
536.030414
 20
278.709275
 40
5.000000
  0
ARC
  8
OBRYS
 10
536.030414
 20
331.742283
 40
5.000000
 50
269.999964
 51
360.000000
  0
ARC
  8
OBRYS
 10
529.308948
 20
324.742283
 40
2.000000
 50
90.000000
 51
154.169919
  0
LINE
  8
OBRYS
 10
536.030414
 20
326.742283
 11
529.308948
 21
326.742283
  0
CIRCLE
  8
OBRYS
 10
527.191580
 20
304.581118
 40
3.500000
  0
LINE
  8
OSA
 10
562.546919
 20
269.225779
 11
520.120512
 21
226.799372
  0
LINE
  8
OSA
 10
562.546919
 20
269.225779
 11
520.120512
 21
311.652186
  0
CIRCLE
  8
OBRYS
 10
527.191580
 20
233.870440
 40
3.500000
  0
ARC
  8
OBRYS
 10
536.030414
 20
278.709275
 40
5.000000
 50
356.832544
 51
45.000000
  0
ARC
  8
OBRYS
 10
562.546919
 20
269.225779
 40
24.000000
 50
166.432420
 51
263.365562
  0
ARC
  8
OBRYS
 10
562.546919
 20
269.225779
 40
24.000000
 50
276.634438
 51
13.567580
  0
ARC
  8
OBRYS
 10
589.063423
 20
278.709275
 40
5.000000
 50
135.000000
 51
183.167456
  0
CIRCLE
  8
OBRYS
 10
597.902258
 20
233.870440
 40
3.500000
  0
LINE
  8
OSA
 10
562.546919
 20
269.225779
 11
604.973326
 21
311.652186
  0
LINE
  8
OSA
 10
562.546919
 20
269.225779
 11
604.973326
 21
226.799372
  0
CIRCLE
  8
OBRYS
 10
597.902258
 20
304.581118
 40
3.500000
  0
LINE
  8
OBRYS
 10
589.063423
 20
326.742283
 11
595.784890
 21
326.742283
  0
ARC
  8
OBRYS
 10
595.784890
 20
324.742283
 40
2.000000
 50
25.830081
 51
90.000000
  0
ARC
  8
OBRYS
 10
589.063423
 20
331.742283
 40
5.000000
 50
180.000000
 51
270.000036
  0
CIRCLE
  8
OBRYS
 10
589.063423
 20
278.709275
 40
5.000000
  0
LINE
  8
0
 62
     2
 10
597.978627
 20
324.800668
 11
593.563874
 21
333.920802
  0
ARC
  8
OBRYS
 10
588.527681
 20
320.225779
 40
10.500000
 50
0.000006
 51
25.830081
  0
LINE
  8
OSA
 10
562.546919
 20
350.869826
 11
562.546919
 21
209.225779
  0
LINE
  8
OSA
 10
562.546919
 20
269.225779
 11
622.546919
 21
269.225779
  0
LINE
  8
OSA
 10
562.546919
 20
305.225779
 11
602.546915
 21
305.225779
  0
ARC
  8
OBRYS
 10
562.546935
 20
241.225779
 40
5.000000
 50
270.000000
 51
90.000000
  0
LINE
  8
OSA
 10
562.546919
 20
241.225779
 11
572.546932
 21
241.225779
  0
ARC
  8
OBRYS
 10
562.546919
 20
269.225779
 40
21.000000
 50
270.000000
 51
90.000000
  0
ARC
  8
OBRYS
 10
562.546919
 20
269.225779
 40
60.000000
 50
270.000000
 51
90.000000
  0
ARC
  8
OBRYS
 10
562.546919
 20
269.225779
 40
40.000000
 50
270.000000
 51
90.000000
  0
ARC
  8
OSA
 10
562.546919
 20
269.225779
 40
50.000000
 50
270.000000
 51
90.000000
  0
ARC
  8
OBRYS
 10
562.546919
 20
269.225779
 40
24.000000
 50
25.791094
 51
90.000000
  0
ARC
  8
OBRYS
 10
536.030414
 20
331.742283
 40
5.000000
 50
123.511664
 51
154.169919
  0
ARC
  8
OBRYS
 10
589.063423
 20
331.742283
 40
5.000000
 50
25.830081
 51
56.488335
  0
ARC
  8
OBRYS
 10
562.546919
 20
291.697871
 40
53.027909
 50
56.488379
 51
123.511629
  0
LINE
  8
OBRYS
 10
584.063423
 20
331.742283
 11
584.063423
 21
338.846078
  0
ARC
  8
OBRYS
 10
582.063423
 20
338.846078
 40
2.000000
 50
0.000000
 51
67.513406
  0
LINE
  8
OBRYS
 10
541.030414
 20
331.742283
 11
541.030414
 21
338.846078
  0
ARC
  8
OBRYS
 10
543.030414
 20
338.846078
 40
2.000000
 50
112.486594
 51
180.000000
  0
ENDBLK
  8
OSA
  0
BLOCK
  8
OSA
  2
Srouby_s_valcovou_hlavou___1
 70
   66
 10
562.546919
 20
241.225779
  0
LINE
  8
OSA
 62
     2
  6
CONTINUOUS
 10
560.546919
 20
240.071071
 11
560.546919
 21
242.380487
  0
LINE
  8
OSA
 62
     2
  6
CONTINUOUS
 10
560.546919
 20
242.380487
 11
562.546919
 21
243.535195
  0
LINE
  8
OSA
 62
     2
  6
CONTINUOUS
 10
562.546919
 20
243.535195
 11
564.546919
 21
242.380487
  0
LINE
  8
OSA
 62
     2
  6
CONTINUOUS
 10
564.546919
 20
242.380487
 11
564.546919
 21
240.071071
  0
LINE
  8
OSA
 62
     2
  6
CONTINUOUS
 10
564.546919
 20
240.071071
 11
562.546919
 21
238.916364
  0
LINE
  8
OSA
 62
     2
  6
CONTINUOUS
 10
562.546919
 20
238.916364
 11
560.546919
 21
240.071071
  0
CIRCLE
  8
OSA
 62
     2
  6
CONTINUOUS
 10
562.546919
 20
241.225779
 40
2.309415
  0
CIRCLE
  8
OSA
 62
     2
  6
CONTINUOUS
 10
562.546919
 20
241.225779
 40
4.250000
  0
ENDBLK
  8
OSA
  0
BLOCK
  8
OSA
  2
Srouby_s_valcovou_hlavou___2
 70
   66
 10
536.030414
 20
278.709275
  0
LINE
  8
OSA
 62
     2
  6
CONTINUOUS
 10
534.030414
 20
277.554567
 11
534.030414
 21
279.863983
  0
LINE
  8
OSA
 62
     2
  6
CONTINUOUS
 10
534.030414
 20
279.863983
 11
536.030414
 21
281.018690
  0
LINE
  8
OSA
 62
     2
  6
CONTINUOUS
 10
536.030414
 20
281.018690
 11
538.030414
 21
279.863983
  0
LINE
  8
OSA
 62
     2
  6
CONTINUOUS
 10
538.030414
 20
279.863983
 11
538.030414
 21
277.554567
  0
LINE
  8
OSA
 62
     2
  6
CONTINUOUS
 10
538.030414
 20
277.554567
 11
536.030414
 21
276.399859
  0
LINE
  8
OSA
 62
     2
  6
CONTINUOUS
 10
536.030414
 20
276.399859
 11
534.030414
 21
277.554567
  0
CIRCLE
  8
OSA
 62
     2
  6
CONTINUOUS
 10
536.030414
 20
278.709275
 40
2.309415
  0
CIRCLE
  8
OSA
 62
     2
  6
CONTINUOUS
 10
536.030414
 20
278.709275
 40
4.250000
  0
ENDBLK
  8
OSA
  0
BLOCK
  8
OSA
  2
Srouby_s_valcovou_hlavou___3
 70
   66
 10
589.063423
 20
278.709275
  0
LINE
  8
OSA
 62
     2
  6
CONTINUOUS
 10
587.063423
 20
277.554567
 11
587.063423
 21
279.863983
  0
LINE
  8
OSA
 62
     2
  6
CONTINUOUS
 10
587.063423
 20
279.863983
 11
589.063423
 21
281.018690
  0
LINE
  8
OSA
 62
     2
  6
CONTINUOUS
 10
589.063423
 20
281.018690
 11
591.063423
 21
279.863983
  0
LINE
  8
OSA
 62
     2
  6
CONTINUOUS
 10
591.063423
 20
279.863983
 11
591.063423
 21
277.554567
  0
LINE
  8
OSA
 62
     2
  6
CONTINUOUS
 10
591.063423
 20
277.554567
 11
589.063423
 21
276.399859
  0
LINE
  8
OSA
 62
     2
  6
CONTINUOUS
 10
589.063423
 20
276.399859
 11
587.063423
 21
277.554567
  0
CIRCLE
  8
OSA
 62
     2
  6
CONTINUOUS
 10
589.063423
 20
278.709275
 40
2.309415
  0
CIRCLE
  8
OSA
 62
     2
  6
CONTINUOUS
 10
589.063423
 20
278.709275
 40
4.250000
  0
ENDBLK
  8
OSA
  0
BLOCK
  8
OSA
  2
Srouby_s_valcovou_hlavou___4
 70
   66
 10
536.030414
 20
331.742283
  0
LINE
  8
OSA
 62
     2
  6
CONTINUOUS
 10
534.030414
 20
330.587576
 11
534.030414
 21
332.896991
  0
LINE
  8
OSA
 62
     2
  6
CONTINUOUS
 10
534.030414
 20
332.896991
 11
536.030414
 21
334.051699
  0
LINE
  8
OSA
 62
     2
  6
CONTINUOUS
 10
536.030414
 20
334.051699
 11
538.030414
 21
332.896991
  0
LINE
  8
OSA
 62
     2
  6
CONTINUOUS
 10
538.030414
 20
332.896991
 11
538.030414
 21
330.587576
  0
LINE
  8
OSA
 62
     2
  6
CONTINUOUS
 10
538.030414
 20
330.587576
 11
536.030414
 21
329.432868
  0
LINE
  8
OSA
 62
     2
  6
CONTINUOUS
 10
536.030414
 20
329.432868
 11
534.030414
 21
330.587576
  0
CIRCLE
  8
OSA
 62
     2
  6
CONTINUOUS
 10
536.030414
 20
331.742283
 40
2.309415
  0
CIRCLE
  8
OSA
 62
     2
  6
CONTINUOUS
 10
536.030414
 20
331.742283
 40
4.250000
  0
ENDBLK
  8
OSA
  0
BLOCK
  8
OSA
  2
Srouby_s_valcovou_hlavou___5
 70
   66
 10
589.063423
 20
331.742283
  0
LINE
  8
OSA
 62
     2
  6
CONTINUOUS
 10
587.063423
 20
330.587576
 11
587.063423
 21
332.896991
  0
LINE
  8
OSA
 62
     2
  6
CONTINUOUS
 10
587.063423
 20
332.896991
 11
589.063423
 21
334.051699
  0
LINE
  8
OSA
 62
     2
  6
CONTINUOUS
 10
589.063423
 20
334.051699
 11
591.063423
 21
332.896991
  0
LINE
  8
OSA
 62
     2
  6
CONTINUOUS
 10
591.063423
 20
332.896991
 11
591.063423
 21
330.587576
  0
LINE
  8
OSA
 62
     2
  6
CONTINUOUS
 10
591.063423
 20
330.587576
 11
589.063423
 21
329.432868
  0
LINE
  8
OSA
 62
     2
  6
CONTINUOUS
 10
589.063423
 20
329.432868
 11
587.063423
 21
330.587576
  0
CIRCLE
  8
OSA
 62
     2
  6
CONTINUOUS
 10
589.063423
 20
331.742283
 40
2.309415
  0
CIRCLE
  8
OSA
 62
     2
  6
CONTINUOUS
 10
589.063423
 20
331.742283
 40
4.250000
  0
ENDBLK
  8
OSA
  0
BLOCK
  8
OBRYS
  2
_3
 70
   64
 10
817.697805
 20
305.225779
  0
ARC
  8
OBRYS
 10
847.697816
 20
323.492283
 40
2.000000
 50
0.000000
 51
90.000000
  0
ARC
  8
OBRYS
 10
847.697816
 20
327.492283
 40
2.000000
 50
180.000000
 51
270.000000
  0
INSERT
  8
OBRYS
  2
Srouby_s_valcovou_hlavou___7
 62
     7
 10
845.697816
 20
331.742283
  0
LINE
  8
OBRYS
 10
869.697816
 20
260.059112
 11
869.697816
 21
209.225779
  0
LINE
  8
OBRYS
 10
869.697816
 20
329.225779
 11
869.697816
 21
278.392446
  0
LINE
  8
OBRYS
 10
868.697816
 20
278.392446
 11
868.697816
 21
260.059112
  0
LINE
  8
OBRYS
 10
858.697816
 20
236.225779
 11
840.697816
 21
236.225779
  0
LINE
  8
OBRYS
 10
851.697816
 20
296.225779
 11
858.697816
 21
296.225779
  0
ARC
  8
OBRYS
 10
858.697816
 20
298.225779
 40
2.000000
 50
270.000000
 51
360.000000
  0
ARC
  8
OBRYS
 10
858.697816
 20
234.225779
 40
2.000000
 50
0.000000
 51
90.000000
  0
ARC
  8
OBRYS
 10
862.697816
 20
211.225779
 40
2.000000
 50
180.000000
 51
270.000000
  0
LINE
  8
OBRYS
 10
869.697816
 20
209.225779
 11
862.697816
 21
209.225779
  0
ARC
  8
OBRYS
 10
862.697816
 20
327.225779
 40
2.000000
 50
90.000000
 51
180.000000
  0
LINE
  8
OBRYS
 10
869.697816
 20
329.225779
 11
862.697816
 21
329.225779
  0
ARC
  8
OBRYS
 10
843.697816
 20
342.725779
 40
2.000000
 50
0.000000
 51
90.000000
  0
LINE
  8
OBRYS
 10
845.697816
 20
328.742283
 11
845.697816
 21
342.725779
  0
LINE
  8
OSA
 10
838.930367
 20
269.225779
 11
868.417447
 21
269.225779
  0
LINE
  8
OBRYS
 10
840.697816
 20
269.225779
 11
840.697816
 21
344.725779
  0
LINE
  8
OBRYS
 10
845.697816
 20
344.725779
 11
840.697816
 21
344.725779
  0
LINE
  8
OSA
 10
853.917451
 20
219.225779
 11
876.917444
 21
219.225779
  0
ARC
  8
OBRYS
 10
851.697816
 20
298.225779
 40
2.000000
 50
180.000000
 51
270.000000
  0
ARC
  8
OBRYS
 10
845.697816
 20
340.725779
 40
4.000000
 50
0.000000
 51
90.000000
  0
LINE
  8
OBRYS
 10
860.697816
 20
211.225779
 11
860.697816
 21
269.225779
  0
LINE
  8
OBRYS
 10
860.697816
 20
327.225779
 11
860.697816
 21
269.225779
  0
LINE
  8
OBRYS
 10
849.697816
 20
280.167724
 11
849.697816
 21
340.725779
  0
LINE
  8
OSA
 10
836.697816
 20
331.742283
 11
853.697816
 21
331.742283
  0
LINE
  8
OBRYS
 10
867.197816
 20
278.392446
 11
869.697816
 21
278.392446
  0
ARC
  8
OBRYS
 10
867.197816
 20
277.392446
 40
1.000000
 50
90.000000
 51
180.000000
  0
LINE
  8
OBRYS
 10
868.197816
 20
279.225779
 11
869.697816
 21
279.225779
  0
ARC
  8
OBRYS
 10
868.197816
 20
277.225779
 40
2.000000
 50
90.000000
 51
180.000000
  0
ARC
  8
OBRYS
 10
868.197816
 20
261.225779
 40
2.000000
 50
180.000000
 51
270.000000
  0
LINE
  8
OBRYS
 10
868.197816
 20
259.225779
 11
869.697816
 21
259.225779
  0
ARC
  8
OBRYS
 10
867.197816
 20
261.059112
 40
1.000000
 50
180.000000
 51
270.000000
  0
LINE
  8
OBRYS
 10
867.197816
 20
260.059112
 11
869.697816
 21
260.059112
  0
LINE
  8
OBRYS
 10
866.197816
 20
277.225779
 11
866.197816
 21
261.225779
  0
LINE
  8
OSA
 10
839.025858
 20
305.225779
 11
868.417447
 21
305.225779
  0
LINE
  8
OSA
 10
838.856097
 20
241.225779
 11
872.917444
 21
241.225779
  0
LINE
  8
OBRYS
 10
840.697816
 20
251.745779
 11
840.697816
 21
269.225779
  0
LINE
  8
OBRYS
 10
840.697816
 20
251.745779
 11
840.697816
 21
236.225779
  0
LINE
  8
OBRYS
 10
822.697816
 20
236.225779
 11
840.697816
 21
236.225779
  0
LINE
  8
OBRYS
 10
840.697816
 20
251.745779
 11
840.697816
 21
305.225779
  0
LINE
  8
OBRYS
 10
840.697816
 20
305.225779
 11
840.697816
 21
344.725779
  0
LINE
  8
OBRYS
 10
840.697816
 20
344.725779
 11
822.697816
 21
344.725779
  0
LINE
  8
OSA
 10
807.197819
 20
305.225779
 11
848.197812
 21
305.225779
  0
LINE
  8
OBRYS
 10
817.697805
 20
340.247993
 11
817.725161
 21
340.247993
  0
ARC
  8
OBRYS
 10
817.697816
 20
269.203565
 40
1.000000
 50
0.000000
 51
90.000000
  0
ARC
  8
OBRYS
 10
822.697816
 20
340.725779
 40
4.000000
 50
90.000000
 51
174.004934
  0
ARC
  8
OBRYS
 10
817.725161
 20
341.247993
 40
1.000000
 50
270.000000
 51
354.004934
  0
ARC
  8
OBRYS
 10
822.697816
 20
240.225779
 40
4.000000
 50
180.000000
 51
270.000000
  0
LINE
  8
OBRYS
 10
840.697816
 20
251.745779
 11
840.697816
 21
236.225779
  0
LINE
  8
OBRYS
 10
817.697805
 20
305.225779
 11
817.697805
 21
270.203565
  0
LINE
  8
OBRYS
 10
817.697805
 20
340.247993
 11
817.697805
 21
305.225779
  0
LINE
  8
OBRYS
 10
818.697816
 20
240.225779
 11
818.697816
 21
305.225779
  0
LINE
  8
OBRYS
 10
818.697816
 20
305.225779
 11
818.697816
 21
341.143550
  0
LINE
  8
OBRYS
 10
840.697816
 20
322.633501
 11
822.697815
 21
322.633501
  0
LINE
  8
OBRYS
 10
840.697816
 20
335.121734
 11
822.697815
 21
335.121734
  0
LINE
  8
OBRYS
 10
840.697816
 20
288.375043
 11
822.697815
 21
288.375043
  0
ENDBLK
  8
OBRYS
  0
BLOCK
  8
OBRYS
  2
Srouby_s_valcovou_hlavou___7
 70
   66
 10
845.697816
 20
331.742283
  0
LINE
  8
OBRYS
 10
849.197816
 20
327.992283
 11
849.197816
 21
335.492283
  0
LINE
  8
OBRYS
 10
848.697816
 20
327.492283
 11
845.697816
 21
327.492283
  0
LINE
  8
OBRYS
 10
845.697816
 20
327.492283
 11
845.697816
 21
335.992283
  0
LINE
  8
OBRYS
 10
845.697816
 20
335.992283
 11
848.697816
 21
335.992283
  0
ARC
  8
OBRYS
 10
848.697816
 20
327.992283
 40
0.500000
 50
270.000000
 51
360.000000
  0
ARC
  8
OBRYS
 10
848.697816
 20
335.492283
 40
0.500000
 50
0.000000
 51
90.000000
  0
LINE
  8
OBRYS
 62
     7
  6
DOT
 10
849.197816
 20
329.432868
 11
847.531149
 21
329.432868
  0
LINE
  8
OBRYS
 62
     7
  6
DOT
 10
849.197816
 20
330.587576
 11
847.531149
 21
330.587576
  0
LINE
  8
OBRYS
 62
     7
  6
DOT
 10
849.197816
 20
332.896991
 11
847.531149
 21
332.896991
  0
LINE
  8
OBRYS
 62
     7
  6
DOT
 10
849.197816
 20
334.051699
 11
847.531149
 21
334.051699
  0
ARC
  8
OBRYS
 62
     7
  6
DOT
 10
849.531155
 20
330.010222
 40
0.666673
 50
120.000310
 51
239.999690
  0
ARC
  8
OBRYS
 62
     7
  6
DOT
 10
851.031174
 20
331.742283
 40
2.166692
 50
147.795963
 51
212.204037
  0
ARC
  8
OBRYS
 62
     7
  6
DOT
 10
849.531155
 20
333.474345
 40
0.666673
 50
120.000310
 51
239.999690
  0
ARC
  8
OBRYS
 62
     7
  6
DOT
 10
847.864489
 20
330.010222
 40
0.666673
 50
120.000310
 51
239.999690
  0
ARC
  8
OBRYS
 62
     7
  6
DOT
 10
849.364507
 20
331.742283
 40
2.166692
 50
147.795963
 51
212.204037
  0
ARC
  8
OBRYS
 62
     7
  6
DOT
 10
847.864489
 20
333.474345
 40
0.666673
 50
120.000310
 51
239.999690
  0
LINE
  8
OBRYS
 62
     7
  6
DOT
 10
847.197816
 20
330.010222
 11
846.043108
 21
331.742283
  0
LINE
  8
OBRYS
 62
     7
  6
DOT
 10
846.043108
 20
331.742283
 11
847.197816
 21
333.474345
  0
ENDBLK
  8
OBRYS
  0
BLOCK
  8
OBRYS
  2
_4
 70
   64
 10
307.396033
 20
452.181514
  0
LINE
  8
OBRYS
 10
255.396022
 20
392.181514
 11
255.396022
 21
452.181514
  0
LINE
  8
OBRYS
 10
255.396022
 20
452.181514
 11
255.396022
 21
512.181514
  0
LINE
  8
OBRYS
 10
264.396022
 20
394.181514
 11
264.396022
 21
452.181514
  0
LINE
  8
OBRYS
 10
264.396022
 20
510.181514
 11
264.396022
 21
452.181514
  0
LINE
  8
OSA
 10
286.163470
 20
452.181514
 11
256.676390
 21
452.181514
  0
LINE
  8
OBRYS
 10
255.396022
 20
392.181514
 11
262.396022
 21
392.181514
  0
ARC
  8
OBRYS
 10
262.396022
 20
394.181514
 40
2.000000
 50
270.000000
 51
360.000000
  0
LINE
  8
OBRYS
 10
255.396022
 20
512.181514
 11
262.396022
 21
512.181514
  0
ARC
  8
OBRYS
 10
262.396022
 20
510.181514
 40
2.000000
 50
0.000000
 51
90.000000
  0
LINE
  8
OBRYS
 10
284.396022
 20
488.662276
 11
284.396022
 21
415.700751
  0
ARC
  8
OBRYS
 10
273.896022
 20
416.945723
 40
1.500000
 50
4.876572
 51
90.000000
  0
ARC
  8
OBRYS
 10
276.885162
 20
417.200751
 40
1.500000
 50
184.876572
 51
270.000000
  0
LINE
  8
OBRYS
 10
265.896022
 20
418.445723
 11
273.896022
 21
418.445723
  0
ARC
  8
OBRYS
 10
265.896022
 20
416.945723
 40
1.500000
 50
90.000000
 51
180.000000
  0
ARC
  8
OBRYS
 10
265.896022
 20
487.417304
 40
1.500000
 50
180.000000
 51
270.000000
  0
LINE
  8
OBRYS
 10
265.896022
 20
485.917304
 11
273.896022
 21
485.917304
  0
ARC
  8
OBRYS
 10
276.885162
 20
487.162276
 40
1.500000
 50
90.000000
 51
175.123428
  0
ARC
  8
OBRYS
 10
273.896022
 20
487.417304
 40
1.500000
 50
270.000000
 51
355.123428
  0
LINE
  8
OBRYS
 10
276.885177
 20
415.700751
 11
284.396022
 21
415.700751
  0
LINE
  8
OBRYS
 10
276.885176
 20
488.662276
 11
284.396022
 21
488.662276
  0
LINE
  8
OBRYS
 10
302.396022
 20
488.662276
 11
284.396022
 21
488.662276
  0
LINE
  8
OBRYS
 10
284.396022
 20
488.662276
 11
284.396022
 21
452.181514
  0
LINE
  8
OBRYS
 10
284.396022
 20
452.181514
 11
284.396022
 21
415.700751
  0
LINE
  8
OBRYS
 10
284.396022
 20
415.700751
 11
302.396022
 21
415.700751
  0
LINE
  8
OSA
 10
317.896018
 20
452.181514
 11
276.896025
 21
452.181514
  0
LINE
  8
OBRYS
 10
307.396033
 20
421.181888
 11
307.368676
 21
421.181888
  0
ARC
  8
OBRYS
 10
307.396022
 20
484.181514
 40
1.000000
 50
180.000000
 51
270.000000
  0
ARC
  8
OBRYS
 10
302.396022
 20
419.700751
 40
4.000000
 50
270.000000
 51
354.004934
  0
ARC
  8
OBRYS
 10
307.368676
 20
420.181888
 40
1.000000
 50
90.000000
 51
174.004934
  0
ARC
  8
OBRYS
 10
302.396022
 20
484.662276
 40
4.000000
 50
0.000000
 51
90.000000
  0
LINE
  8
OBRYS
 10
307.396033
 20
452.181514
 11
307.396033
 21
483.181514
  0
LINE
  8
OBRYS
 10
307.396033
 20
421.181888
 11
307.396033
 21
452.181514
  0
LINE
  8
OBRYS
 10
306.396022
 20
484.662276
 11
306.396022
 21
452.181514
  0
LINE
  8
OBRYS
 10
306.396022
 20
452.181514
 11
306.396022
 21
419.282980
  0
ENDBLK
  8
OBRYS
  0
BLOCK
  8
OBRYS
  2
_5
 70
   64
 10
307.396033
 20
305.225779
  0
LINE
  8
OBRYS
 10
284.396022
 20
288.375043
 11
302.396023
 21
288.375043
  0
LINE
  8
OBRYS
 10
284.396022
 20
335.121734
 11
302.396023
 21
335.121734
  0
LINE
  8
OBRYS
 10
284.396022
 20
322.633501
 11
302.396023
 21
322.633501
  0
LINE
  8
OBRYS
 10
306.396022
 20
305.225779
 11
306.396022
 21
341.143550
  0
LINE
  8
OBRYS
 10
306.396022
 20
240.225779
 11
306.396022
 21
305.225779
  0
LINE
  8
OBRYS
 10
307.396033
 20
340.247993
 11
307.396033
 21
305.225779
  0
LINE
  8
OBRYS
 10
307.396033
 20
305.225779
 11
307.396033
 21
270.203565
  0
LINE
  8
OBRYS
 10
284.396022
 20
251.745779
 11
284.396022
 21
236.225779
  0
ARC
  8
OBRYS
 10
302.396022
 20
240.225779
 40
4.000000
 50
270.000000
 51
360.000000
  0
ARC
  8
OBRYS
 10
307.368676
 20
341.247993
 40
1.000000
 50
185.995066
 51
270.000000
  0
ARC
  8
OBRYS
 10
302.396022
 20
340.725779
 40
4.000000
 50
5.995066
 51
90.000000
  0
ARC
  8
OBRYS
 10
307.396022
 20
269.203565
 40
1.000000
 50
90.000000
 51
180.000000
  0
LINE
  8
OBRYS
 10
307.396033
 20
340.247993
 11
307.368676
 21
340.247993
  0
LINE
  8
OSA
 10
317.896018
 20
305.225779
 11
276.896025
 21
305.225779
  0
LINE
  8
OBRYS
 10
284.396022
 20
344.725779
 11
302.396022
 21
344.725779
  0
LINE
  8
OBRYS
 10
284.396022
 20
305.225779
 11
284.396022
 21
344.725779
  0
LINE
  8
OBRYS
 10
284.396022
 20
251.745779
 11
284.396022
 21
305.225779
  0
LINE
  8
OBRYS
 10
302.396022
 20
236.225779
 11
284.396022
 21
236.225779
  0
LINE
  8
OBRYS
 10
284.396022
 20
251.745779
 11
284.396022
 21
236.225779
  0
LINE
  8
OBRYS
 10
284.396022
 20
251.745779
 11
284.396022
 21
269.225779
  0
LINE
  8
OSA
 10
286.237741
 20
241.225779
 11
252.176394
 21
241.225779
  0
LINE
  8
OSA
 10
286.067980
 20
305.225779
 11
256.676390
 21
305.225779
  0
LINE
  8
OBRYS
 10
258.896022
 20
277.225779
 11
258.896022
 21
261.225779
  0
LINE
  8
OBRYS
 10
257.896022
 20
260.059112
 11
255.396022
 21
260.059112
  0
ARC
  8
OBRYS
 10
257.896022
 20
261.059112
 40
1.000000
 50
270.000000
 51
360.000000
  0
LINE
  8
OBRYS
 10
256.896022
 20
259.225779
 11
255.396022
 21
259.225779
  0
ARC
  8
OBRYS
 10
256.896022
 20
261.225779
 40
2.000000
 50
270.000000
 51
360.000000
  0
ARC
  8
OBRYS
 10
256.896022
 20
277.225779
 40
2.000000
 50
0.000000
 51
90.000000
  0
LINE
  8
OBRYS
 10
256.896022
 20
279.225779
 11
255.396022
 21
279.225779
  0
ARC
  8
OBRYS
 10
257.896022
 20
277.392446
 40
1.000000
 50
0.000000
 51
90.000000
  0
LINE
  8
OBRYS
 10
257.896022
 20
278.392446
 11
255.396022
 21
278.392446
  0
LINE
  8
OSA
 10
288.396022
 20
331.742283
 11
271.396022
 21
331.742283
  0
LINE
  8
OBRYS
 10
275.396022
 20
280.167724
 11
275.396022
 21
340.725779
  0
LINE
  8
OBRYS
 10
264.396022
 20
327.225779
 11
264.396022
 21
269.225779
  0
LINE
  8
OBRYS
 10
264.396022
 20
211.225779
 11
264.396022
 21
269.225779
  0
ARC
  8
OBRYS
 10
279.396022
 20
340.725779
 40
4.000000
 50
90.000000
 51
180.000000
  0
ARC
  8
OBRYS
 10
273.396022
 20
298.225779
 40
2.000000
 50
270.000000
 51
360.000000
  0
LINE
  8
OSA
 10
271.176386
 20
219.225779
 11
248.176394
 21
219.225779
  0
LINE
  8
OBRYS
 10
279.396022
 20
344.725779
 11
284.396022
 21
344.725779
  0
LINE
  8
OBRYS
 10
284.396022
 20
269.225779
 11
284.396022
 21
344.725779
  0
LINE
  8
OSA
 10
286.163470
 20
269.225779
 11
256.676390
 21
269.225779
  0
LINE
  8
OBRYS
 10
279.396022
 20
328.742283
 11
279.396022
 21
342.725779
  0
ARC
  8
OBRYS
 10
281.396022
 20
342.725779
 40
2.000000
 50
90.000000
 51
180.000000
  0
LINE
  8
OBRYS
 10
255.396022
 20
329.225779
 11
262.396022
 21
329.225779
  0
ARC
  8
OBRYS
 10
262.396022
 20
327.225779
 40
2.000000
 50
0.000000
 51
90.000000
  0
LINE
  8
OBRYS
 10
255.396022
 20
209.225779
 11
262.396022
 21
209.225779
  0
ARC
  8
OBRYS
 10
262.396022
 20
211.225779
 40
2.000000
 50
270.000000
 51
360.000000
  0
ARC
  8
OBRYS
 10
266.396022
 20
234.225779
 40
2.000000
 50
90.000000
 51
180.000000
  0
ARC
  8
OBRYS
 10
266.396022
 20
298.225779
 40
2.000000
 50
180.000000
 51
270.000000
  0
LINE
  8
OBRYS
 10
273.396022
 20
296.225779
 11
266.396022
 21
296.225779
  0
LINE
  8
OBRYS
 10
266.396022
 20
236.225779
 11
284.396022
 21
236.225779
  0
LINE
  8
OBRYS
 10
256.396022
 20
278.392446
 11
256.396022
 21
260.059112
  0
LINE
  8
OBRYS
 10
255.396022
 20
329.225779
 11
255.396022
 21
278.392446
  0
LINE
  8
OBRYS
 10
255.396022
 20
260.059112
 11
255.396022
 21
209.225779
  0
INSERT
  8
OBRYS
  2
Srouby_s_valcovou_hlavou___9
 62
     7
 10
279.396022
 20
331.742283
  0
ARC
  8
OBRYS
 10
277.396022
 20
327.492283
 40
2.000000
 50
270.000000
 51
360.000000
  0
ARC
  8
OBRYS
 10
277.396022
 20
323.492283
 40
2.000000
 50
90.000000
 51
180.000000
  0
ENDBLK
  8
OBRYS
  0
BLOCK
  8
OBRYS
  2
Srouby_s_valcovou_hlavou___9
 70
   66
 10
279.396022
 20
331.742283
  0
LINE
  8
OBRYS
 10
275.896022
 20
327.992283
 11
275.896022
 21
335.492283
  0
LINE
  8
OBRYS
 10
276.396022
 20
327.492283
 11
279.396022
 21
327.492283
  0
LINE
  8
OBRYS
 10
279.396022
 20
327.492283
 11
279.396022
 21
335.992283
  0
LINE
  8
OBRYS
 10
279.396022
 20
335.992283
 11
276.396022
 21
335.992283
  0
ARC
  8
OBRYS
 10
276.396022
 20
327.992283
 40
0.500000
 50
180.000000
 51
270.000000
  0
ARC
  8
OBRYS
 10
276.396022
 20
335.492283
 40
0.500000
 50
90.000000
 51
180.000000
  0
LINE
  8
OBRYS
 62
     7
  6
DOT
 10
275.896022
 20
329.432868
 11
277.562688
 21
329.432868
  0
LINE
  8
OBRYS
 62
     7
  6
DOT
 10
275.896022
 20
330.587576
 11
277.562688
 21
330.587576
  0
LINE
  8
OBRYS
 62
     7
  6
DOT
 10
275.896022
 20
332.896991
 11
277.562688
 21
332.896991
  0
LINE
  8
OBRYS
 62
     7
  6
DOT
 10
275.896022
 20
334.051699
 11
277.562688
 21
334.051699
  0
ARC
  8
OBRYS
 62
     7
  6
DOT
 10
275.562682
 20
330.010222
 40
0.666673
 50
300.000310
 51
59.999690
  0
ARC
  8
OBRYS
 62
     7
  6
DOT
 10
274.062663
 20
331.742283
 40
2.166692
 50
327.795963
 51
32.204037
  0
ARC
  8
OBRYS
 62
     7
  6
DOT
 10
275.562682
 20
333.474345
 40
0.666673
 50
300.000310
 51
59.999690
  0
ARC
  8
OBRYS
 62
     7
  6
DOT
 10
277.229349
 20
330.010222
 40
0.666673
 50
300.000310
 51
59.999690
  0
ARC
  8
OBRYS
 62
     7
  6
DOT
 10
275.729330
 20
331.742283
 40
2.166692
 50
327.795963
 51
32.204037
  0
ARC
  8
OBRYS
 62
     7
  6
DOT
 10
277.229349
 20
333.474345
 40
0.666673
 50
300.000310
 51
59.999690
  0
LINE
  8
OBRYS
 62
     7
  6
DOT
 10
277.896022
 20
330.010222
 11
279.050729
 21
331.742283
  0
LINE
  8
OBRYS
 62
     7
  6
DOT
 10
279.050729
 20
331.742283
 11
277.896022
 21
333.474345
  0
ENDBLK
  8
OBRYS
  0
BLOCK
  8
OBRYS
  2
_6
 70
   64
 10
307.396033
 20
72.929129
  0
LINE
  8
OBRYS
 10
284.396022
 20
36.448367
 11
284.396022
 21
109.409891
  0
ARC
  8
OBRYS
 10
262.396022
 20
14.929129
 40
2.000000
 50
270.000000
 51
360.000000
  0
LINE
  8
OBRYS
 10
255.396022
 20
12.929129
 11
262.396022
 21
12.929129
  0
ARC
  8
OBRYS
 10
262.396022
 20
130.929129
 40
2.000000
 50
0.000000
 51
90.000000
  0
LINE
  8
OBRYS
 10
255.396022
 20
132.929129
 11
262.396022
 21
132.929129
  0
LINE
  8
OSA
 10
286.163470
 20
72.929129
 11
256.676390
 21
72.929129
  0
LINE
  8
OBRYS
 10
264.396022
 20
14.929129
 11
264.396022
 21
72.929129
  0
LINE
  8
OBRYS
 10
264.396022
 20
130.929129
 11
264.396022
 21
72.929129
  0
LINE
  8
OBRYS
 10
255.396022
 20
72.929129
 11
255.396022
 21
12.929129
  0
LINE
  8
OBRYS
 10
255.396022
 20
132.929129
 11
255.396022
 21
72.929129
  0
LINE
  8
OBRYS
 10
284.396022
 20
103.364753
 11
280.329479
 21
103.364753
  0
ARC
  8
OBRYS
 10
277.396022
 20
96.445633
 40
2.000000
 50
270.000000
 51
360.000000
  0
ARC
  8
OBRYS
 10
277.396022
 20
92.445633
 40
2.000000
 50
90.000000
 51
180.000000
  0
ARC
  8
OBRYS
 10
281.396022
 20
107.409891
 40
2.000000
 50
90.000000
 51
180.000000
  0
LINE
  8
OBRYS
 10
279.396022
 20
107.409891
 11
279.396022
 21
38.448367
  0
ARC
  8
OBRYS
 10
281.396022
 20
38.448367
 40
2.000000
 50
180.000000
 51
270.000000
  0
ARC
  8
OBRYS
 10
277.396022
 20
53.412625
 40
2.000000
 50
180.000000
 51
270.000000
  0
ARC
  8
OBRYS
 10
277.396022
 20
49.412625
 40
2.000000
 50
0.000000
 51
90.000000
  0
LINE
  8
OBRYS
 10
284.396022
 20
42.493505
 11
280.329479
 21
42.493505
  0
LINE
  8
OSA
 10
281.799586
 20
46.412625
 11
271.396022
 21
46.412625
  0
INSERT
  8
OBRYS
  2
Srouby_s_valcovou_hlavou___11
 62
     7
 10
279.396022
 20
46.412625
  0
INSERT
  8
OBRYS
  2
Srouby_s_valcovou_hlavou___12
 62
     7
 10
279.396022
 20
99.445633
  0
LINE
  8
OSA
 10
281.799586
 20
99.445633
 11
271.396022
 21
99.445633
  0
ARC
  8
OBRYS
 10
273.896022
 20
37.693338
 40
1.500000
 50
4.876572
 51
90.000000
  0
ARC
  8
OBRYS
 10
276.885162
 20
37.948367
 40
1.500000
 50
184.876572
 51
270.000000
  0
LINE
  8
OBRYS
 10
265.896022
 20
39.193338
 11
273.896022
 21
39.193338
  0
ARC
  8
OBRYS
 10
265.896022
 20
37.693338
 40
1.500000
 50
90.000000
 51
180.000000
  0
ARC
  8
OBRYS
 10
265.896022
 20
108.164920
 40
1.500000
 50
180.000000
 51
270.000000
  0
LINE
  8
OBRYS
 10
265.896022
 20
106.664920
 11
273.896022
 21
106.664920
  0
ARC
  8
OBRYS
 10
276.885162
 20
107.909891
 40
1.500000
 50
90.000000
 51
175.123428
  0
ARC
  8
OBRYS
 10
273.896022
 20
108.164920
 40
1.500000
 50
270.000000
 51
355.123428
  0
LINE
  8
OBRYS
 10
275.396022
 20
107.729722
 11
275.396022
 21
38.128536
  0
LINE
  8
OBRYS
 10
276.885144
 20
36.448367
 11
284.396022
 21
36.448367
  0
LINE
  8
OBRYS
 10
276.885146
 20
109.409891
 11
284.396022
 21
109.409891
  0
LINE
  8
OBRYS
 10
284.396022
 20
42.493505
 11
302.396023
 21
42.493505
  0
LINE
  8
OBRYS
 10
284.396022
 20
103.364753
 11
302.396023
 21
103.364753
  0
LINE
  8
OBRYS
 10
306.396022
 20
72.929129
 11
306.396022
 21
105.827662
  0
LINE
  8
OBRYS
 10
306.396022
 20
40.448367
 11
306.396022
 21
72.929129
  0
LINE
  8
OBRYS
 10
307.396033
 20
103.928755
 11
307.396033
 21
72.929129
  0
LINE
  8
OBRYS
 10
307.396033
 20
72.929129
 11
307.396033
 21
41.929129
  0
ARC
  8
OBRYS
 10
302.396022
 20
40.448367
 40
4.000000
 50
270.000000
 51
360.000000
  0
ARC
  8
OBRYS
 10
307.368676
 20
104.928755
 40
1.000000
 50
185.995066
 51
270.000000
  0
ARC
  8
OBRYS
 10
302.396022
 20
105.409891
 40
4.000000
 50
5.995066
 51
90.000000
  0
ARC
  8
OBRYS
 10
307.396022
 20
40.929129
 40
1.000000
 50
90.000000
 51
180.000000
  0
LINE
  8
OBRYS
 10
307.396033
 20
103.928755
 11
307.368676
 21
103.928755
  0
LINE
  8
OSA
 10
317.896018
 20
72.929129
 11
276.896025
 21
72.929129
  0
LINE
  8
OBRYS
 10
284.396022
 20
109.409891
 11
302.396022
 21
109.409891
  0
LINE
  8
OBRYS
 10
284.396022
 20
72.929129
 11
284.396022
 21
109.409891
  0
LINE
  8
OBRYS
 10
284.396022
 20
36.448367
 11
284.396022
 21
72.929129
  0
LINE
  8
OBRYS
 10
302.396022
 20
36.448367
 11
284.396022
 21
36.448367
  0
ENDBLK
  8
OBRYS
  0
BLOCK
  8
OBRYS
  2
Srouby_s_valcovou_hlavou___11
 70
   66
 10
279.396022
 20
46.412625
  0
LINE
  8
OBRYS
 10
275.896022
 20
42.662625
 11
275.896022
 21
50.162625
  0
LINE
  8
OBRYS
 10
276.396022
 20
42.162625
 11
279.396022
 21
42.162625
  0
LINE
  8
OBRYS
 10
279.396022
 20
42.162625
 11
279.396022
 21
50.662625
  0
LINE
  8
OBRYS
 10
279.396022
 20
50.662625
 11
276.396022
 21
50.662625
  0
ARC
  8
OBRYS
 10
276.396022
 20
42.662625
 40
0.500000
 50
180.000000
 51
270.000000
  0
ARC
  8
OBRYS
 10
276.396022
 20
50.162625
 40
0.500000
 50
90.000000
 51
180.000000
  0
LINE
  8
OBRYS
 62
     7
  6
DOT
 10
275.896022
 20
44.103209
 11
277.562688
 21
44.103209
  0
LINE
  8
OBRYS
 62
     7
  6
DOT
 10
275.896022
 20
45.257917
 11
277.562688
 21
45.257917
  0
LINE
  8
OBRYS
 62
     7
  6
DOT
 10
275.896022
 20
47.567333
 11
277.562688
 21
47.567333
  0
LINE
  8
OBRYS
 62
     7
  6
DOT
 10
275.896022
 20
48.722040
 11
277.562688
 21
48.722040
  0
ARC
  8
OBRYS
 62
     7
  6
DOT
 10
275.562682
 20
44.680563
 40
0.666673
 50
300.000310
 51
59.999690
  0
ARC
  8
OBRYS
 62
     7
  6
DOT
 10
274.062663
 20
46.412625
 40
2.166692
 50
327.795963
 51
32.204037
  0
ARC
  8
OBRYS
 62
     7
  6
DOT
 10
275.562682
 20
48.144686
 40
0.666673
 50
300.000310
 51
59.999690
  0
ARC
  8
OBRYS
 62
     7
  6
DOT
 10
277.229349
 20
44.680563
 40
0.666673
 50
300.000310
 51
59.999690
  0
ARC
  8
OBRYS
 62
     7
  6
DOT
 10
275.729330
 20
46.412625
 40
2.166692
 50
327.795963
 51
32.204037
  0
ARC
  8
OBRYS
 62
     7
  6
DOT
 10
277.229349
 20
48.144686
 40
0.666673
 50
300.000310
 51
59.999690
  0
LINE
  8
OBRYS
 62
     7
  6
DOT
 10
277.896022
 20
44.680563
 11
279.050729
 21
46.412625
  0
LINE
  8
OBRYS
 62
     7
  6
DOT
 10
279.050729
 20
46.412625
 11
277.896022
 21
48.144686
  0
ENDBLK
  8
OBRYS
  0
BLOCK
  8
OBRYS
  2
Srouby_s_valcovou_hlavou___12
 70
   66
 10
279.396022
 20
99.445633
  0
LINE
  8
OBRYS
 10
275.896022
 20
103.195633
 11
275.896022
 21
95.695633
  0
LINE
  8
OBRYS
 10
276.396022
 20
103.695633
 11
279.396022
 21
103.695633
  0
LINE
  8
OBRYS
 10
279.396022
 20
103.695633
 11
279.396022
 21
95.195633
  0
LINE
  8
OBRYS
 10
279.396022
 20
95.195633
 11
276.396022
 21
95.195633
  0
ARC
  8
OBRYS
 10
276.396022
 20
103.195633
 40
0.500000
 50
90.000000
 51
180.000000
  0
ARC
  8
OBRYS
 10
276.396022
 20
95.695633
 40
0.500000
 50
180.000000
 51
270.000000
  0
LINE
  8
OBRYS
 62
     7
  6
DOT
 10
275.896022
 20
101.755049
 11
277.562688
 21
101.755049
  0
LINE
  8
OBRYS
 62
     7
  6
DOT
 10
275.896022
 20
100.600341
 11
277.562688
 21
100.600341
  0
LINE
  8
OBRYS
 62
     7
  6
DOT
 10
275.896022
 20
98.290926
 11
277.562688
 21
98.290926
  0
LINE
  8
OBRYS
 62
     7
  6
DOT
 10
275.896022
 20
97.136218
 11
277.562688
 21
97.136218
  0
ARC
  8
OBRYS
 62
     7
  6
DOT
 10
275.562682
 20
101.177695
 40
0.666673
 50
300.000310
 51
59.999690
  0
ARC
  8
OBRYS
 62
     7
  6
DOT
 10
274.062663
 20
99.445633
 40
2.166692
 50
327.795963
 51
32.204037
  0
ARC
  8
OBRYS
 62
     7
  6
DOT
 10
275.562682
 20
97.713572
 40
0.666673
 50
300.000310
 51
59.999690
  0
ARC
  8
OBRYS
 62
     7
  6
DOT
 10
277.229349
 20
101.177695
 40
0.666673
 50
300.000310
 51
59.999690
  0
ARC
  8
OBRYS
 62
     7
  6
DOT
 10
275.729330
 20
99.445633
 40
2.166692
 50
327.795963
 51
32.204037
  0
ARC
  8
OBRYS
 62
     7
  6
DOT
 10
277.229349
 20
97.713572
 40
0.666673
 50
300.000310
 51
59.999690
  0
LINE
  8
OBRYS
 62
     7
  6
DOT
 10
277.896022
 20
101.177695
 11
279.050729
 21
99.445633
  0
LINE
  8
OBRYS
 62
     7
  6
DOT
 10
279.050729
 20
99.445633
 11
277.896022
 21
97.713572
  0
ENDBLK
  8
OBRYS
  0
BLOCK
  8
OBRYS
  2
_7
 70
   64
 10
368.396033
 20
452.181514
  0
LINE
  8
OBRYS
 10
312.396033
 20
399.181514
 11
312.396033
 21
419.181514
  0
ARC
  8
OBRYS
 10
316.396033
 20
399.181514
 40
4.000000
 50
180.000000
 51
270.000000
  0
LINE
  8
OBRYS
 10
346.896033
 20
399.181514
 11
346.896033
 21
419.181514
  0
LINE
  8
OBRYS
 10
316.396033
 20
395.181514
 11
342.896033
 21
395.181514
  0
ARC
  8
OBRYS
 10
342.896033
 20
399.181514
 40
4.000000
 50
270.000000
 51
360.000000
  0
CIRCLE
  8
OBRYS
 10
325.896033
 20
404.181514
 40
4.650000
  0
LINE
  8
OSA
 10
325.896033
 20
404.181514
 11
335.546033
 21
404.181514
  0
LINE
  8
OSA
 10
325.896033
 20
404.181514
 11
316.246033
 21
404.181514
  0
LINE
  8
OSA
 10
325.896033
 20
404.181514
 11
325.896033
 21
394.531514
  0
LINE
  8
OSA
 10
325.896033
 20
404.181514
 11
325.896033
 21
413.831514
  0
LINE
  8
OSA
 10
368.396033
 20
408.681514
 11
368.396033
 21
424.181514
  0
LINE
  8
OBRYS
 10
312.396033
 20
419.181514
 11
368.396033
 21
419.181514
  0
LINE
  8
OBRYS
 10
346.896033
 20
413.681514
 11
368.396033
 21
413.681514
  0
LINE
  8
OBRYS
 10
389.896033
 20
413.681514
 11
368.396033
 21
413.681514
  0
LINE
  8
OBRYS
 10
424.396033
 20
419.181514
 11
368.396033
 21
419.181514
  0
LINE
  8
OSA
 10
410.896033
 20
404.181514
 11
410.896033
 21
413.831514
  0
LINE
  8
OSA
 10
410.896033
 20
404.181514
 11
410.896033
 21
394.531514
  0
LINE
  8
OSA
 10
410.896033
 20
404.181514
 11
420.546033
 21
404.181514
  0
LINE
  8
OSA
 10
410.896033
 20
404.181514
 11
401.246033
 21
404.181514
  0
CIRCLE
  8
OBRYS
 10
410.896033
 20
404.181514
 40
4.650000
  0
ARC
  8
OBRYS
 10
393.896033
 20
399.181514
 40
4.000000
 50
180.000000
 51
270.000000
  0
LINE
  8
OBRYS
 10
420.396033
 20
395.181514
 11
393.896033
 21
395.181514
  0
LINE
  8
OBRYS
 10
389.896033
 20
399.181514
 11
389.896033
 21
419.181514
  0
ARC
  8
OBRYS
 10
420.396033
 20
399.181514
 40
4.000000
 50
270.000000
 51
360.000000
  0
LINE
  8
OBRYS
 10
424.396033
 20
399.181514
 11
424.396033
 21
419.181514
  0
LINE
  8
OBRYS
 10
389.896033
 20
404.335727
 11
346.896033
 21
404.335727
  0
ENDBLK
  8
OBRYS
  0
BLOCK
  8
OBRYS
  2
_8
 70
   64
 10
368.396033
 20
452.181514
  0
LINE
  8
OBRYS
 10
312.396033
 20
505.181514
 11
312.396033
 21
485.181514
  0
ARC
  8
OBRYS
 10
316.396033
 20
505.181514
 40
4.000000
 50
90.000000
 51
180.000000
  0
LINE
  8
OBRYS
 10
346.896033
 20
505.181514
 11
346.896033
 21
485.181514
  0
LINE
  8
OBRYS
 10
316.396033
 20
509.181514
 11
342.896033
 21
509.181514
  0
ARC
  8
OBRYS
 10
342.896033
 20
505.181514
 40
4.000000
 50
0.000000
 51
90.000000
  0
CIRCLE
  8
OBRYS
 10
325.896033
 20
500.181514
 40
4.650000
  0
LINE
  8
OSA
 10
325.896033
 20
500.181514
 11
335.546033
 21
500.181514
  0
LINE
  8
OSA
 10
325.896033
 20
500.181514
 11
316.246033
 21
500.181514
  0
LINE
  8
OSA
 10
325.896033
 20
500.181514
 11
325.896033
 21
509.831514
  0
LINE
  8
OSA
 10
325.896033
 20
500.181514
 11
325.896033
 21
490.531514
  0
LINE
  8
OSA
 10
368.396033
 20
495.681514
 11
368.396033
 21
480.181514
  0
LINE
  8
OBRYS
 10
312.396033
 20
485.181514
 11
368.396033
 21
485.181514
  0
LINE
  8
OBRYS
 10
346.896033
 20
490.681514
 11
368.396033
 21
490.681514
  0
LINE
  8
OBRYS
 10
389.896033
 20
490.681514
 11
368.396033
 21
490.681514
  0
LINE
  8
OBRYS
 10
424.396033
 20
485.181514
 11
368.396033
 21
485.181514
  0
LINE
  8
OSA
 10
410.896033
 20
500.181514
 11
410.896033
 21
490.531514
  0
LINE
  8
OSA
 10
410.896033
 20
500.181514
 11
410.896033
 21
509.831514
  0
LINE
  8
OSA
 10
410.896033
 20
500.181514
 11
420.546033
 21
500.181514
  0
LINE
  8
OSA
 10
410.896033
 20
500.181514
 11
401.246033
 21
500.181514
  0
CIRCLE
  8
OBRYS
 10
410.896033
 20
500.181514
 40
4.650000
  0
ARC
  8
OBRYS
 10
393.896033
 20
505.181514
 40
4.000000
 50
90.000000
 51
180.000000
  0
LINE
  8
OBRYS
 10
420.396033
 20
509.181514
 11
393.896033
 21
509.181514
  0
LINE
  8
OBRYS
 10
389.896033
 20
505.181514
 11
389.896033
 21
485.181514
  0
ARC
  8
OBRYS
 10
420.396033
 20
505.181514
 40
4.000000
 50
0.000000
 51
90.000000
  0
LINE
  8
OBRYS
 10
424.396033
 20
505.181514
 11
424.396033
 21
485.181514
  0
LINE
  8
OBRYS
 10
389.896033
 20
500.027300
 11
346.896033
 21
500.027300
  0
ENDBLK
  8
OBRYS
  0
BLOCK
  8
OBRYS
  2
_9
 70
   64
 10
368.396033
 20
72.929129
  0
LINE
  8
OBRYS
 10
422.198258
 20
111.929129
 11
422.517148
 21
111.929129
  0
LINE
  8
OBRYS
 10
422.517148
 20
111.929129
 11
422.781064
 21
111.929129
  0
LINE
  8
OBRYS
 10
422.781064
 20
111.929129
 11
422.789275
 21
111.929129
  0
LINE
  8
OBRYS
 10
422.789275
 20
111.929129
 11
422.789275
 21
116.746402
  0
LINE
  8
OBRYS
 10
422.789275
 20
116.746402
 11
422.781064
 21
116.766910
  0
LINE
  8
OBRYS
 10
422.781064
 20
116.766910
 11
422.517148
 21
117.688996
  0
LINE
  8
OBRYS
 10
422.517148
 20
117.688996
 11
422.492436
 21
117.790643
  0
LINE
  8
OBRYS
 10
422.492436
 20
117.790643
 11
422.198258
 21
118.158896
  0
LINE
  8
OBRYS
 10
422.198258
 20
118.158896
 11
421.837223
 21
118.660593
  0
LINE
  8
OBRYS
 10
421.837223
 20
118.660593
 11
421.808150
 21
118.704281
  0
LINE
  8
OBRYS
 10
421.808150
 20
118.704281
 11
421.448565
 21
118.963280
  0
LINE
  8
OBRYS
 10
421.448565
 20
118.963280
 11
421.047919
 21
119.271422
  0
LINE
  8
OBRYS
 10
421.047919
 20
119.271422
 11
420.923531
 21
119.373045
  0
LINE
  8
OBRYS
 10
420.923531
 20
119.373045
 11
420.651400
 21
119.524137
  0
LINE
  8
OBRYS
 10
420.651400
 20
119.524137
 11
417.100099
 21
121.555772
  0
LINE
  8
OBRYS
 10
417.100099
 20
121.555772
 11
416.337012
 21
121.759563
  0
LINE
  8
OBRYS
 10
416.337012
 20
121.759563
 11
415.683782
 21
121.929129
  0
LINE
  8
OBRYS
 10
415.851584
 20
115.886665
 11
416.337012
 21
115.789363
  0
LINE
  8
OBRYS
 10
416.337012
 20
115.789363
 11
416.766623
 21
115.700768
  0
LINE
  8
OBRYS
 10
416.766623
 20
115.700768
 11
417.705396
 21
115.050449
  0
LINE
  8
OBRYS
 10
417.705396
 20
115.050449
 11
418.332664
 21
114.077179
  0
LINE
  8
OBRYS
 10
418.332664
 20
114.077179
 11
418.552932
 21
112.929129
  0
LINE
  8
OBRYS
 10
418.552932
 20
112.929129
 11
418.552932
 21
111.929129
  0
LINE
  8
OBRYS
 10
418.552932
 20
111.929129
 11
420.651400
 21
111.929129
  0
LINE
  8
OBRYS
 10
420.651400
 20
111.929129
 11
421.047919
 21
111.929129
  0
LINE
  8
OBRYS
 10
421.047919
 20
111.929129
 11
421.448565
 21
111.929129
  0
LINE
  8
OBRYS
 10
421.448565
 20
111.929129
 11
421.837223
 21
111.929129
  0
LINE
  8
OBRYS
 10
421.837223
 20
111.929129
 11
424.396033
 21
111.929129
  0
LINE
  8
OBRYS
 10
424.396033
 20
117.317473
 11
424.396033
 21
111.929129
  0
LINE
  8
OBRYS
 10
418.475333
 20
121.929129
 11
398.396033
 21
121.929129
  0
ARC
  8
OBRYS
 10
421.396033
 20
117.317473
 40
3.000000
 50
0.000000
 51
61.109871
  0
LINE
  8
OBRYS
 10
419.924728
 20
121.555772
 11
422.845427
 21
119.944116
  0
LINE
  8
OBRYS
 10
398.396033
 20
121.929129
 11
368.396033
 21
121.929129
  0
LINE
  8
OBRYS
 10
424.396033
 20
113.278623
 11
424.396033
 21
113.358507
  0
ARC
  8
OBRYS
 10
418.475333
 20
118.929129
 40
3.000000
 50
61.109871
 51
90.000000
  0
LINE
  8
OBRYS
 10
393.558641
 20
121.759563
 11
393.558641
 21
115.789363
  0
LINE
  8
OBRYS
 10
395.823118
 20
119.524137
 11
395.823118
 21
111.929129
  0
LINE
  8
OBRYS
 10
381.924297
 20
111.929129
 11
381.924297
 21
119.271422
  0
LINE
  8
OBRYS
 10
416.337012
 20
121.759563
 11
416.337012
 21
115.789363
  0
LINE
  8
OBRYS
 10
420.651400
 20
119.524137
 11
420.651400
 21
111.929129
  0
LINE
  8
OBRYS
 10
415.851584
 20
111.929129
 11
415.851584
 21
117.688996
  0
LINE
  8
OBRYS
 10
415.851584
 20
111.929129
 11
415.851584
 21
115.886665
  0
LINE
  8
OBRYS
 10
381.924297
 20
115.929129
 11
381.924297
 21
111.929129
  0
LINE
  8
OBRYS
 10
404.832322
 20
121.555772
 11
406.897569
 21
119.944116
  0
LINE
  8
OBRYS
 10
407.994012
 20
117.317473
 11
407.994012
 21
116.765668
  0
LINE
  8
OBRYS
 10
405.135338
 20
116.765668
 11
405.135338
 21
117.317473
  0
LINE
  8
OBRYS
 10
404.118050
 20
119.944116
 11
402.201898
 21
121.555772
  0
LINE
  8
OBRYS
 10
401.251010
 20
121.929129
 11
400.429991
 21
121.929129
  0
LINE
  8
OBRYS
 10
406.191360
 20
121.929129
 11
405.246886
 21
121.929129
  0
LINE
  8
OBRYS
 10
415.683782
 20
121.929129
 11
417.104951
 21
121.929129
  0
LINE
  8
OBRYS
 10
403.075650
 20
121.929129
 11
410.497239
 21
121.929129
  0
LINE
  8
OBRYS
 10
393.169802
 20
121.929129
 11
400.429991
 21
121.929129
  0
POLYLINE
  8
OBRYS
 66
    1
  0
VERTEX
  8
OBRYS
 10
410.497192
 20
121.928970
  0
VERTEX
  8
OBRYS
 10
411.032166
 20
121.759415
  0
VERTEX
  8
OBRYS
 10
411.710815
 20
121.555679
  0
VERTEX
  8
OBRYS
 10
414.869141
 20
119.524063
  0
VERTEX
  8
OBRYS
 10
415.091003
 20
119.372940
  0
VERTEX
  8
OBRYS
 10
415.192444
 20
119.271378
  0
VERTEX
  8
OBRYS
 10
415.461792
 20
118.963150
  0
VERTEX
  8
OBRYS
 10
415.651123
 20
118.704239
  0
SEQEND
  8
OBRYS
  0
ARC
  8
OBRYS
 10
412.338224
 20
117.518894
 40
3.518602
 50
2.568501
 51
19.763959
  0
POLYLINE
  8
OBRYS
 66
    1
  0
VERTEX
  8
OBRYS
 10
380.648315
 20
121.928970
  0
VERTEX
  8
OBRYS
 10
380.751648
 20
121.759415
  0
VERTEX
  8
OBRYS
 10
380.948303
 20
121.555679
  0
VERTEX
  8
OBRYS
 10
381.863586
 20
119.524063
  0
VERTEX
  8
OBRYS
 10
381.905212
 20
119.372940
  0
VERTEX
  8
OBRYS
 10
381.924255
 20
119.271378
  0
SEQEND
  8
OBRYS
  0
LINE
  8
OBRYS
 10
417.100099
 20
121.555772
 11
418.544431
 21
121.555772
  0
LINE
  8
OBRYS
 10
404.100527
 20
121.555772
 11
411.710857
 21
121.555772
  0
LINE
  8
OBRYS
 10
393.959159
 20
121.555772
 11
401.376682
 21
121.555772
  0
LINE
  8
OBRYS
 10
368.396033
 20
121.555772
 11
380.948378
 21
121.555772
  0
LINE
  8
OBRYS
 10
420.923531
 20
119.373045
 11
422.472989
 21
119.373045
  0
LINE
  8
OBRYS
 10
415.820196
 20
111.929129
 11
397.895530
 21
111.929129
  0
LINE
  8
OBRYS
 10
422.789275
 20
116.746402
 11
424.396033
 21
116.746402
  0
LINE
  8
OBRYS
 10
397.895530
 20
116.746402
 11
415.820196
 21
116.746402
  0
LINE
  8
OBRYS
 10
368.396033
 20
116.746402
 11
381.070686
 21
116.746402
  0
LINE
  8
OBRYS
 10
413.002930
 20
111.929129
 11
394.721703
 21
111.929129
  0
POLYLINE
  8
OBRYS
 66
    1
  0
VERTEX
  8
OBRYS
 10
393.143555
 20
115.928970
  0
VERTEX
  8
OBRYS
 10
393.558594
 20
115.789322
  0
VERTEX
  8
OBRYS
 10
393.784058
 20
115.700699
  0
VERTEX
  8
OBRYS
 10
394.276794
 20
115.050308
  0
VERTEX
  8
OBRYS
 10
394.606018
 20
114.077042
  0
VERTEX
  8
OBRYS
 10
394.721680
 20
112.928970
  0
VERTEX
  8
OBRYS
 10
394.721680
 20
111.928970
  0
SEQEND
  8
OBRYS
  0
POLYLINE
  8
OBRYS
 66
    1
  0
VERTEX
  8
OBRYS
 10
418.552856
 20
111.928970
  0
VERTEX
  8
OBRYS
 10
418.552856
 20
112.928970
  0
VERTEX
  8
OBRYS
 10
418.332642
 20
114.077042
  0
VERTEX
  8
OBRYS
 10
417.705322
 20
115.050308
  0
VERTEX
  8
OBRYS
 10
416.766602
 20
115.700699
  0
VERTEX
  8
OBRYS
 10
416.336975
 20
115.789322
  0
VERTEX
  8
OBRYS
 10
415.851563
 20
115.886612
  0
SEQEND
  8
OBRYS
  0
LINE
  8
OBRYS
 10
381.924297
 20
115.929129
 11
393.143584
 21
115.929129
  0
POLYLINE
  8
OBRYS
 66
    1
  0
VERTEX
  8
OBRYS
 10
381.924255
 20
115.928970
  0
VERTEX
  8
OBRYS
 10
382.182190
 20
115.928970
  0
VERTEX
  8
OBRYS
 10
383.135315
 20
115.928970
  0
VERTEX
  8
OBRYS
 10
384.247803
 20
115.928970
  0
VERTEX
  8
OBRYS
 10
385.479309
 20
115.928970
  0
VERTEX
  8
OBRYS
 10
386.785156
 20
115.928970
  0
VERTEX
  8
OBRYS
 10
388.118042
 20
115.928970
  0
VERTEX
  8
OBRYS
 10
389.429565
 20
115.928970
  0
VERTEX
  8
OBRYS
 10
390.672241
 20
115.928970
  0
VERTEX
  8
OBRYS
 10
391.801025
 20
115.928970
  0
VERTEX
  8
OBRYS
 10
392.774902
 20
115.928970
  0
VERTEX
  8
OBRYS
 10
393.143555
 20
115.928970
  0
VERTEX
  8
OBRYS
 10
393.558594
 20
115.789322
  0
VERTEX
  8
OBRYS
 10
393.784058
 20
115.700699
  0
VERTEX
  8
OBRYS
 10
394.276794
 20
115.050308
  0
VERTEX
  8
OBRYS
 10
394.606018
 20
114.077042
  0
VERTEX
  8
OBRYS
 10
394.721680
 20
112.928970
  0
VERTEX
  8
OBRYS
 10
394.721680
 20
111.928970
  0
VERTEX
  8
OBRYS
 10
395.823059
 20
111.928970
  0
VERTEX
  8
OBRYS
 10
396.060547
 20
111.928970
  0
VERTEX
  8
OBRYS
 10
396.357788
 20
111.928970
  0
VERTEX
  8
OBRYS
 10
396.702820
 20
111.928970
  0
VERTEX
  8
OBRYS
 10
397.081665
 20
111.928970
  0
VERTEX
  8
OBRYS
 10
397.479248
 20
111.928970
  0
VERTEX
  8
OBRYS
 10
397.879456
 20
111.928970
  0
VERTEX
  8
OBRYS
 10
397.895508
 20
111.928970
  0
VERTEX
  8
OBRYS
 10
397.895508
 20
116.746353
  0
VERTEX
  8
OBRYS
 10
397.879456
 20
116.766861
  0
VERTEX
  8
OBRYS
 10
397.479248
 20
117.688858
  0
VERTEX
  8
OBRYS
 10
397.448425
 20
117.790543
  0
VERTEX
  8
OBRYS
 10
397.081665
 20
118.158829
  0
VERTEX
  8
OBRYS
 10
396.702820
 20
118.660538
  0
VERTEX
  8
OBRYS
 10
396.677002
 20
118.704239
  0
VERTEX
  8
OBRYS
 10
396.357788
 20
118.963150
  0
VERTEX
  8
OBRYS
 10
396.060547
 20
119.271378
  0
VERTEX
  8
OBRYS
 10
395.986084
 20
119.372940
  0
VERTEX
  8
OBRYS
 10
395.823059
 20
119.524063
  0
VERTEX
  8
OBRYS
 10
393.959106
 20
121.555679
  0
VERTEX
  8
OBRYS
 10
393.558594
 20
121.759415
  0
VERTEX
  8
OBRYS
 10
393.169739
 20
121.928970
  0
SEQEND
  8
OBRYS
  0
POLYLINE
  8
OBRYS
 66
    1
  0
VERTEX
  8
OBRYS
 10
381.924255
 20
119.271378
  0
VERTEX
  8
OBRYS
 10
381.904541
 20
118.963150
  0
VERTEX
  8
OBRYS
 10
381.812744
 20
118.704239
  0
VERTEX
  8
OBRYS
 10
381.805298
 20
118.660538
  0
VERTEX
  8
OBRYS
 10
381.630493
 20
118.158829
  0
VERTEX
  8
OBRYS
 10
381.406006
 20
117.790543
  0
VERTEX
  8
OBRYS
 10
381.387146
 20
117.688858
  0
VERTEX
  8
OBRYS
 10
381.085083
 20
116.766861
  0
VERTEX
  8
OBRYS
 10
381.070618
 20
116.746353
  0
VERTEX
  8
OBRYS
 10
381.070618
 20
111.928970
  0
VERTEX
  8
OBRYS
 10
381.085083
 20
111.928970
  0
VERTEX
  8
OBRYS
 10
381.387146
 20
111.928970
  0
VERTEX
  8
OBRYS
 10
381.630493
 20
111.928970
  0
VERTEX
  8
OBRYS
 10
381.805298
 20
111.928970
  0
VERTEX
  8
OBRYS
 10
381.904541
 20
111.928970
  0
VERTEX
  8
OBRYS
 10
381.924255
 20
111.928970
  0
SEQEND
  8
OBRYS
  0
POLYLINE
  8
OBRYS
 66
    1
  0
VERTEX
  8
OBRYS
 10
415.851563
 20
117.688858
  0
VERTEX
  8
OBRYS
 10
415.824524
 20
116.766861
  0
VERTEX
  8
OBRYS
 10
415.820129
 20
116.746353
  0
VERTEX
  8
OBRYS
 10
415.820129
 20
111.928970
  0
VERTEX
  8
OBRYS
 10
415.824524
 20
111.928970
  0
VERTEX
  8
OBRYS
 10
415.851563
 20
111.928970
  0
SEQEND
  8
OBRYS
  0
LINE
  8
OBRYS
 10
415.683782
 20
121.929129
 11
407.614737
 21
121.929129
  0
LINE
  8
OBRYS
 10
413.002930
 20
111.929129
 11
415.851584
 21
111.929129
  0
LINE
  8
OBRYS
 10
410.497239
 20
121.929129
 11
407.614737
 21
121.929129
  0
LINE
  8
OBRYS
 10
380.543449
 20
121.929129
 11
380.648381
 21
121.929129
  0
POLYLINE
  8
OBRYS
 66
    1
  0
VERTEX
  8
OBRYS
 10
417.104919
 20
121.928970
  0
VERTEX
  8
OBRYS
 10
418.544373
 20
121.555679
  0
VERTEX
  8
OBRYS
 10
422.472961
 20
119.372940
  0
VERTEX
  8
OBRYS
 10
423.290955
 20
118.704239
  0
VERTEX
  8
OBRYS
 10
423.558411
 20
118.248062
  0
SEQEND
  8
OBRYS
  0
LINE
  8
OBRYS
 10
402.201898
 20
121.555772
 11
404.832322
 21
121.555772
  0
POLYLINE
  8
OBRYS
 66
    1
  0
VERTEX
  8
OBRYS
 10
406.897522
 20
119.943985
  0
VERTEX
  8
OBRYS
 10
407.479919
 20
119.275284
  0
VERTEX
  8
OBRYS
 10
407.861328
 20
118.361588
  0
VERTEX
  8
OBRYS
 10
407.993958
 20
117.317398
  0
SEQEND
  8
OBRYS
  0
LINE
  8
OBRYS
 10
403.807446
 20
121.929129
 11
404.832322
 21
121.555772
  0
LINE
  8
OBRYS
 10
404.118050
 20
119.944116
 11
406.897569
 21
119.944116
  0
LINE
  8
OBRYS
 10
407.994012
 20
116.765668
 11
405.135338
 21
116.765668
  0
LINE
  8
OBRYS
 10
405.135338
 20
117.317473
 11
407.994012
 21
117.317473
  0
LINE
  8
OBRYS
 10
401.251010
 20
121.929129
 11
403.807446
 21
121.929129
  0
POLYLINE
  8
OBRYS
 66
    1
  0
VERTEX
  8
OBRYS
 10
400.429932
 20
121.928970
  0
VERTEX
  8
OBRYS
 10
401.376648
 20
121.555679
  0
VERTEX
  8
OBRYS
 10
403.960266
 20
119.372940
  0
VERTEX
  8
OBRYS
 10
404.498291
 20
118.704239
  0
VERTEX
  8
OBRYS
 10
404.674133
 20
118.248062
  0
SEQEND
  8
OBRYS
  0
POLYLINE
  8
OBRYS
 66
    1
  0
VERTEX
  8
OBRYS
 10
404.674133
 20
118.248062
  0
VERTEX
  8
OBRYS
 10
404.817322
 20
118.070816
  0
VERTEX
  8
OBRYS
 10
405.053223
 20
117.461685
  0
VERTEX
  8
OBRYS
 10
405.135315
 20
116.765518
  0
SEQEND
  8
OBRYS
  0
POLYLINE
  8
OBRYS
 66
    1
  0
VERTEX
  8
OBRYS
 10
405.135315
 20
117.317398
  0
VERTEX
  8
OBRYS
 10
405.012207
 20
118.361588
  0
VERTEX
  8
OBRYS
 10
404.658386
 20
119.275284
  0
VERTEX
  8
OBRYS
 10
404.117981
 20
119.943985
  0
SEQEND
  8
OBRYS
  0
LINE
  8
OBRYS
 10
402.201898
 20
121.555772
 11
401.251010
 21
121.929129
  0
LINE
  8
OBRYS
 10
400.396033
 20
121.929129
 11
411.396033
 21
121.929129
  0
LINE
  8
OBRYS
 10
380.951743
 20
111.929129
 11
368.277090
 21
111.929129
  0
LINE
  8
OBRYS
 10
370.396033
 20
121.555772
 11
370.396033
 21
116.746402
  0
LINE
  8
OBRYS
 10
366.396033
 20
121.555772
 11
366.396033
 21
116.746402
  0
LINE
  8
OBRYS
 10
355.840323
 20
111.929129
 11
368.514976
 21
111.929129
  0
LINE
  8
OBRYS
 10
336.396033
 20
121.929129
 11
325.396033
 21
121.929129
  0
LINE
  8
OBRYS
 10
334.590167
 20
121.555772
 11
335.541056
 21
121.929129
  0
POLYLINE
  8
OBRYS
 66
    1
  0
VERTEX
  8
OBRYS
 10
331.656738
 20
117.317398
  0
VERTEX
  8
OBRYS
 10
331.779846
 20
118.361588
  0
VERTEX
  8
OBRYS
 10
332.133667
 20
119.275284
  0
VERTEX
  8
OBRYS
 10
332.674072
 20
119.943985
  0
SEQEND
  8
OBRYS
  0
POLYLINE
  8
OBRYS
 66
    1
  0
VERTEX
  8
OBRYS
 10
332.117920
 20
118.248062
  0
VERTEX
  8
OBRYS
 10
331.974731
 20
118.070816
  0
VERTEX
  8
OBRYS
 10
331.738831
 20
117.461685
  0
VERTEX
  8
OBRYS
 10
331.656738
 20
116.765518
  0
SEQEND
  8
OBRYS
  0
POLYLINE
  8
OBRYS
 66
    1
  0
VERTEX
  8
OBRYS
 10
336.362122
 20
121.928970
  0
VERTEX
  8
OBRYS
 10
335.415405
 20
121.555679
  0
VERTEX
  8
OBRYS
 10
332.831787
 20
119.372940
  0
VERTEX
  8
OBRYS
 10
332.293762
 20
118.704239
  0
VERTEX
  8
OBRYS
 10
332.117920
 20
118.248062
  0
SEQEND
  8
OBRYS
  0
LINE
  8
OBRYS
 10
335.541056
 20
121.929129
 11
332.984620
 21
121.929129
  0
LINE
  8
OBRYS
 10
331.656727
 20
117.317473
 11
328.798053
 21
117.317473
  0
LINE
  8
OBRYS
 10
328.798053
 20
116.765668
 11
331.656727
 21
116.765668
  0
LINE
  8
OBRYS
 10
332.674016
 20
119.944116
 11
329.894497
 21
119.944116
  0
LINE
  8
OBRYS
 10
332.984620
 20
121.929129
 11
331.959743
 21
121.555772
  0
POLYLINE
  8
OBRYS
 66
    1
  0
VERTEX
  8
OBRYS
 10
329.894531
 20
119.943985
  0
VERTEX
  8
OBRYS
 10
329.312134
 20
119.275284
  0
VERTEX
  8
OBRYS
 10
328.930725
 20
118.361588
  0
VERTEX
  8
OBRYS
 10
328.798096
 20
117.317398
  0
SEQEND
  8
OBRYS
  0
LINE
  8
OBRYS
 10
334.590167
 20
121.555772
 11
331.959743
 21
121.555772
  0
POLYLINE
  8
OBRYS
 66
    1
  0
VERTEX
  8
OBRYS
 10
319.687134
 20
121.928970
  0
VERTEX
  8
OBRYS
 10
318.247681
 20
121.555679
  0
VERTEX
  8
OBRYS
 10
314.319092
 20
119.372940
  0
VERTEX
  8
OBRYS
 10
313.501099
 20
118.704239
  0
VERTEX
  8
OBRYS
 10
313.233643
 20
118.248062
  0
SEQEND
  8
OBRYS
  0
LINE
  8
OBRYS
 10
356.248616
 20
121.929129
 11
356.143684
 21
121.929129
  0
LINE
  8
OBRYS
 10
326.294826
 20
121.929129
 11
329.177328
 21
121.929129
  0
LINE
  8
OBRYS
 10
323.789136
 20
111.929129
 11
320.940481
 21
111.929129
  0
LINE
  8
OBRYS
 10
321.108284
 20
121.929129
 11
329.177328
 21
121.929129
  0
POLYLINE
  8
OBRYS
 66
    1
  0
VERTEX
  8
OBRYS
 10
320.940491
 20
117.688858
  0
VERTEX
  8
OBRYS
 10
320.967529
 20
116.766861
  0
VERTEX
  8
OBRYS
 10
320.971924
 20
116.746353
  0
VERTEX
  8
OBRYS
 10
320.971924
 20
111.928970
  0
VERTEX
  8
OBRYS
 10
320.967529
 20
111.928970
  0
VERTEX
  8
OBRYS
 10
320.940491
 20
111.928970
  0
SEQEND
  8
OBRYS
  0
POLYLINE
  8
OBRYS
 66
    1
  0
VERTEX
  8
OBRYS
 10
354.867798
 20
119.271378
  0
VERTEX
  8
OBRYS
 10
354.887512
 20
118.963150
  0
VERTEX
  8
OBRYS
 10
354.979309
 20
118.704239
  0
VERTEX
  8
OBRYS
 10
354.986755
 20
118.660538
  0
VERTEX
  8
OBRYS
 10
355.161560
 20
118.158829
  0
VERTEX
  8
OBRYS
 10
355.386047
 20
117.790543
  0
VERTEX
  8
OBRYS
 10
355.404907
 20
117.688858
  0
VERTEX
  8
OBRYS
 10
355.706970
 20
116.766861
  0
VERTEX
  8
OBRYS
 10
355.721436
 20
116.746353
  0
VERTEX
  8
OBRYS
 10
355.721436
 20
111.928970
  0
VERTEX
  8
OBRYS
 10
355.706970
 20
111.928970
  0
VERTEX
  8
OBRYS
 10
355.404907
 20
111.928970
  0
VERTEX
  8
OBRYS
 10
355.161560
 20
111.928970
  0
VERTEX
  8
OBRYS
 10
354.986755
 20
111.928970
  0
VERTEX
  8
OBRYS
 10
354.887512
 20
111.928970
  0
VERTEX
  8
OBRYS
 10
354.867798
 20
111.928970
  0
SEQEND
  8
OBRYS
  0
POLYLINE
  8
OBRYS
 66
    1
  0
VERTEX
  8
OBRYS
 10
354.867798
 20
115.928970
  0
VERTEX
  8
OBRYS
 10
354.609863
 20
115.928970
  0
VERTEX
  8
OBRYS
 10
353.656738
 20
115.928970
  0
VERTEX
  8
OBRYS
 10
352.544250
 20
115.928970
  0
VERTEX
  8
OBRYS
 10
351.312744
 20
115.928970
  0
VERTEX
  8
OBRYS
 10
350.006897
 20
115.928970
  0
VERTEX
  8
OBRYS
 10
348.674011
 20
115.928970
  0
VERTEX
  8
OBRYS
 10
347.362488
 20
115.928970
  0
VERTEX
  8
OBRYS
 10
346.119812
 20
115.928970
  0
VERTEX
  8
OBRYS
 10
344.991028
 20
115.928970
  0
VERTEX
  8
OBRYS
 10
344.017151
 20
115.928970
  0
VERTEX
  8
OBRYS
 10
343.648499
 20
115.928970
  0
VERTEX
  8
OBRYS
 10
343.233459
 20
115.789322
  0
VERTEX
  8
OBRYS
 10
343.007996
 20
115.700699
  0
VERTEX
  8
OBRYS
 10
342.515259
 20
115.050308
  0
VERTEX
  8
OBRYS
 10
342.186035
 20
114.077042
  0
VERTEX
  8
OBRYS
 10
342.070374
 20
112.928970
  0
VERTEX
  8
OBRYS
 10
342.070374
 20
111.928970
  0
VERTEX
  8
OBRYS
 10
340.968994
 20
111.928970
  0
VERTEX
  8
OBRYS
 10
340.731506
 20
111.928970
  0
VERTEX
  8
OBRYS
 10
340.434265
 20
111.928970
  0
VERTEX
  8
OBRYS
 10
340.089233
 20
111.928970
  0
VERTEX
  8
OBRYS
 10
339.710388
 20
111.928970
  0
VERTEX
  8
OBRYS
 10
339.312805
 20
111.928970
  0
VERTEX
  8
OBRYS
 10
338.912598
 20
111.928970
  0
VERTEX
  8
OBRYS
 10
338.896545
 20
111.928970
  0
VERTEX
  8
OBRYS
 10
338.896545
 20
116.746353
  0
VERTEX
  8
OBRYS
 10
338.912598
 20
116.766861
  0
VERTEX
  8
OBRYS
 10
339.312805
 20
117.688858
  0
VERTEX
  8
OBRYS
 10
339.343628
 20
117.790543
  0
VERTEX
  8
OBRYS
 10
339.710388
 20
118.158829
  0
VERTEX
  8
OBRYS
 10
340.089233
 20
118.660538
  0
VERTEX
  8
OBRYS
 10
340.115051
 20
118.704239
  0
VERTEX
  8
OBRYS
 10
340.434265
 20
118.963150
  0
VERTEX
  8
OBRYS
 10
340.731506
 20
119.271378
  0
VERTEX
  8
OBRYS
 10
340.805969
 20
119.372940
  0
VERTEX
  8
OBRYS
 10
340.968994
 20
119.524063
  0
VERTEX
  8
OBRYS
 10
342.832947
 20
121.555679
  0
VERTEX
  8
OBRYS
 10
343.233459
 20
121.759415
  0
VERTEX
  8
OBRYS
 10
343.622314
 20
121.928970
  0
SEQEND
  8
OBRYS
  0
LINE
  8
OBRYS
 10
354.867769
 20
115.929129
 11
343.648482
 21
115.929129
  0
POLYLINE
  8
OBRYS
 66
    1
  0
VERTEX
  8
OBRYS
 10
318.239197
 20
111.928970
  0
VERTEX
  8
OBRYS
 10
318.239197
 20
112.928970
  0
VERTEX
  8
OBRYS
 10
318.459412
 20
114.077042
  0
VERTEX
  8
OBRYS
 10
319.086731
 20
115.050308
  0
VERTEX
  8
OBRYS
 10
320.025452
 20
115.700699
  0
VERTEX
  8
OBRYS
 10
320.455078
 20
115.789322
  0
VERTEX
  8
OBRYS
 10
320.940491
 20
115.886612
  0
SEQEND
  8
OBRYS
  0
POLYLINE
  8
OBRYS
 66
    1
  0
VERTEX
  8
OBRYS
 10
343.648499
 20
115.928970
  0
VERTEX
  8
OBRYS
 10
343.233459
 20
115.789322
  0
VERTEX
  8
OBRYS
 10
343.007996
 20
115.700699
  0
VERTEX
  8
OBRYS
 10
342.515259
 20
115.050308
  0
VERTEX
  8
OBRYS
 10
342.186035
 20
114.077042
  0
VERTEX
  8
OBRYS
 10
342.070374
 20
112.928970
  0
VERTEX
  8
OBRYS
 10
342.070374
 20
111.928970
  0
SEQEND
  8
OBRYS
  0
LINE
  8
OBRYS
 10
323.789136
 20
111.929129
 11
342.070363
 21
111.929129
  0
LINE
  8
OBRYS
 10
368.396033
 20
116.746402
 11
355.721380
 21
116.746402
  0
LINE
  8
OBRYS
 10
338.896535
 20
116.746402
 11
320.971870
 21
116.746402
  0
LINE
  8
OBRYS
 10
314.002791
 20
116.746402
 11
312.396033
 21
116.746402
  0
LINE
  8
OBRYS
 10
320.971870
 20
111.929129
 11
338.896535
 21
111.929129
  0
LINE
  8
OBRYS
 10
315.868535
 20
119.373045
 11
314.319076
 21
119.373045
  0
LINE
  8
OBRYS
 10
368.396033
 20
121.555772
 11
355.843687
 21
121.555772
  0
LINE
  8
OBRYS
 10
342.832906
 20
121.555772
 11
335.415384
 21
121.555772
  0
LINE
  8
OBRYS
 10
332.691538
 20
121.555772
 11
325.081209
 21
121.555772
  0
LINE
  8
OBRYS
 10
319.691967
 20
121.555772
 11
318.247634
 21
121.555772
  0
POLYLINE
  8
OBRYS
 66
    1
  0
VERTEX
  8
OBRYS
 10
356.143738
 20
121.928970
  0
VERTEX
  8
OBRYS
 10
356.040405
 20
121.759415
  0
VERTEX
  8
OBRYS
 10
355.843750
 20
121.555679
  0
VERTEX
  8
OBRYS
 10
354.928467
 20
119.524063
  0
VERTEX
  8
OBRYS
 10
354.886841
 20
119.372940
  0
VERTEX
  8
OBRYS
 10
354.867798
 20
119.271378
  0
SEQEND
  8
OBRYS
  0
ARC
  8
OBRYS
 10
324.453842
 20
117.518894
 40
3.518602
 50
160.236041
 51
177.431499
  0
POLYLINE
  8
OBRYS
 66
    1
  0
VERTEX
  8
OBRYS
 10
326.294861
 20
121.928970
  0
VERTEX
  8
OBRYS
 10
325.759888
 20
121.759415
  0
VERTEX
  8
OBRYS
 10
325.081238
 20
121.555679
  0
VERTEX
  8
OBRYS
 10
321.922913
 20
119.524063
  0
VERTEX
  8
OBRYS
 10
321.701050
 20
119.372940
  0
VERTEX
  8
OBRYS
 10
321.599609
 20
119.271378
  0
VERTEX
  8
OBRYS
 10
321.330261
 20
118.963150
  0
VERTEX
  8
OBRYS
 10
321.140930
 20
118.704239
  0
SEQEND
  8
OBRYS
  0
LINE
  8
OBRYS
 10
343.622263
 20
121.929129
 11
336.362074
 21
121.929129
  0
LINE
  8
OBRYS
 10
333.716415
 20
121.929129
 11
326.294826
 21
121.929129
  0
LINE
  8
OBRYS
 10
321.108284
 20
121.929129
 11
319.687115
 21
121.929129
  0
LINE
  8
OBRYS
 10
330.600705
 20
121.929129
 11
331.545179
 21
121.929129
  0
LINE
  8
OBRYS
 10
335.541056
 20
121.929129
 11
336.362074
 21
121.929129
  0
LINE
  8
OBRYS
 10
332.674016
 20
119.944116
 11
334.590167
 21
121.555772
  0
LINE
  8
OBRYS
 10
331.656727
 20
116.765668
 11
331.656727
 21
117.317473
  0
LINE
  8
OBRYS
 10
328.798053
 20
117.317473
 11
328.798053
 21
116.765668
  0
LINE
  8
OBRYS
 10
331.959743
 20
121.555772
 11
329.894497
 21
119.944116
  0
LINE
  8
OBRYS
 10
354.867769
 20
115.929129
 11
354.867769
 21
111.929129
  0
LINE
  8
OBRYS
 10
320.940481
 20
111.929129
 11
320.940481
 21
115.886665
  0
LINE
  8
OBRYS
 10
320.940481
 20
111.929129
 11
320.940481
 21
117.688996
  0
LINE
  8
OBRYS
 10
316.140665
 20
119.524137
 11
316.140665
 21
111.929129
  0
LINE
  8
OBRYS
 10
320.455054
 20
121.759563
 11
320.455054
 21
115.789363
  0
LINE
  8
OBRYS
 10
354.867769
 20
111.929129
 11
354.867769
 21
119.271422
  0
LINE
  8
OBRYS
 10
340.968947
 20
119.524137
 11
340.968947
 21
111.929129
  0
LINE
  8
OBRYS
 10
343.233425
 20
121.759563
 11
343.233425
 21
115.789363
  0
ARC
  8
OBRYS
 10
318.316733
 20
118.929129
 40
3.000000
 50
90.000000
 51
118.890129
  0
LINE
  8
OBRYS
 10
312.396033
 20
113.278623
 11
312.396033
 21
113.358507
  0
LINE
  8
OBRYS
 10
338.396033
 20
121.929129
 11
368.396033
 21
121.929129
  0
LINE
  8
OBRYS
 10
316.867338
 20
121.555772
 11
313.946638
 21
119.944116
  0
ARC
  8
OBRYS
 10
315.396033
 20
117.317473
 40
3.000000
 50
118.890129
 51
180.000000
  0
LINE
  8
OBRYS
 10
318.316733
 20
121.929129
 11
338.396033
 21
121.929129
  0
LINE
  8
OBRYS
 62
     7
  6
DASHDOT
 10
368.396033
 20
124.238067
 11
368.396033
 21
107.409129
  0
LINE
  8
OBRYS
 10
320.940481
 20
115.886665
 11
320.455054
 21
115.789363
  0
LINE
  8
OBRYS
 10
320.455054
 20
115.789363
 11
320.025442
 21
115.700768
  0
LINE
  8
OBRYS
 10
320.025442
 20
115.700768
 11
319.086669
 21
115.050449
  0
LINE
  8
OBRYS
 10
319.086669
 20
115.050449
 11
318.459401
 21
114.077179
  0
LINE
  8
OBRYS
 10
318.459401
 20
114.077179
 11
318.239134
 21
112.929129
  0
LINE
  8
OBRYS
 10
318.239134
 20
112.929129
 11
318.239134
 21
111.929129
  0
LINE
  8
OBRYS
 10
318.239134
 20
111.929129
 11
316.140665
 21
111.929129
  0
LINE
  8
OBRYS
 10
316.140665
 20
111.929129
 11
315.744147
 21
111.929129
  0
LINE
  8
OBRYS
 10
315.744147
 20
111.929129
 11
315.343501
 21
111.929129
  0
LINE
  8
OBRYS
 10
315.343501
 20
111.929129
 11
314.954842
 21
111.929129
  0
LINE
  8
OBRYS
 10
314.954842
 20
111.929129
 11
312.396033
 21
111.929129
  0
LINE
  8
OBRYS
 10
314.593807
 20
111.929129
 11
314.274917
 21
111.929129
  0
LINE
  8
OBRYS
 10
314.274917
 20
111.929129
 11
314.011001
 21
111.929129
  0
LINE
  8
OBRYS
 10
314.011001
 20
111.929129
 11
314.002791
 21
111.929129
  0
LINE
  8
OBRYS
 10
314.002791
 20
111.929129
 11
314.002791
 21
116.746402
  0
LINE
  8
OBRYS
 10
314.002791
 20
116.746402
 11
314.011001
 21
116.766910
  0
LINE
  8
OBRYS
 10
314.011001
 20
116.766910
 11
314.274917
 21
117.688996
  0
LINE
  8
OBRYS
 10
314.274917
 20
117.688996
 11
314.299629
 21
117.790643
  0
LINE
  8
OBRYS
 10
314.299629
 20
117.790643
 11
314.593807
 21
118.158896
  0
LINE
  8
OBRYS
 10
314.593807
 20
118.158896
 11
314.954842
 21
118.660593
  0
LINE
  8
OBRYS
 10
314.954842
 20
118.660593
 11
314.983916
 21
118.704281
  0
LINE
  8
OBRYS
 10
314.983916
 20
118.704281
 11
315.343501
 21
118.963280
  0
LINE
  8
OBRYS
 10
315.343501
 20
118.963280
 11
315.744147
 21
119.271422
  0
LINE
  8
OBRYS
 10
315.744147
 20
119.271422
 11
315.868535
 21
119.373045
  0
LINE
  8
OBRYS
 10
315.868535
 20
119.373045
 11
316.140665
 21
119.524137
  0
LINE
  8
OBRYS
 10
316.140665
 20
119.524137
 11
319.691967
 21
121.555772
  0
LINE
  8
OBRYS
 10
319.691967
 20
121.555772
 11
320.455054
 21
121.759563
  0
LINE
  8
OBRYS
 10
320.455054
 20
121.759563
 11
321.108284
 21
121.929129
  0
LINE
  8
OBRYS
 10
312.396033
 20
125.929129
 11
312.396033
 21
111.929129
  0
ARC
  8
OBRYS
 10
316.396033
 20
125.929129
 40
4.000000
 50
90.000000
 51
180.000000
  0
LINE
  8
OBRYS
 62
     7
  6
DASHDOT
 10
325.896033
 20
120.929129
 11
325.896033
 21
132.929126
  0
LINE
  8
OBRYS
 62
     7
  6
DASHDOT
 10
325.896033
 20
120.929129
 11
313.896036
 21
120.929129
  0
LINE
  8
OBRYS
 62
     7
  6
DASHDOT
 10
325.896033
 20
120.929129
 11
337.896029
 21
120.929129
  0
ARC
  8
OBRYS
 10
325.896033
 20
120.929129
 40
4.500000
 50
12.839588
 51
167.160412
  0
ARC
  8
OBRYS
 62
     4
  6
HIDDEN2
 10
325.896033
 20
120.929129
 40
4.500000
 50
167.160412
 51
12.839588
  0
LINE
  8
OBRYS
 10
316.396033
 20
129.929129
 11
344.896033
 21
129.929129
  0
LINE
  8
OBRYS
 10
346.896033
 20
127.929129
 11
346.896033
 21
121.929129
  0
ARC
  8
OBRYS
 10
344.896033
 20
127.929129
 40
2.000000
 50
0.000000
 51
90.000000
  0
LINE
  8
OBRYS
 10
341.795846
 20
127.929129
 11
341.795846
 21
121.929129
  0
LINE
  8
OBRYS
 10
394.996219
 20
127.929129
 11
394.996219
 21
121.929129
  0
ARC
  8
OBRYS
 10
391.896033
 20
127.929129
 40
2.000000
 50
90.000000
 51
180.000000
  0
LINE
  8
OBRYS
 10
389.896033
 20
127.929129
 11
389.896033
 21
121.929129
  0
LINE
  8
OBRYS
 10
420.396033
 20
129.929129
 11
391.896033
 21
129.929129
  0
ARC
  8
OBRYS
 62
     4
  6
HIDDEN2
 10
410.896033
 20
120.929129
 40
4.500000
 50
167.160412
 51
12.839588
  0
ARC
  8
OBRYS
 10
410.896033
 20
120.929129
 40
4.500000
 50
12.839588
 51
167.160412
  0
LINE
  8
OBRYS
 62
     7
  6
DASHDOT
 10
410.896033
 20
120.929129
 11
410.896033
 21
132.929126
  0
ARC
  8
OBRYS
 10
420.396033
 20
125.929129
 40
4.000000
 50
0.000000
 51
90.000000
  0
LINE
  8
OBRYS
 10
424.396033
 20
125.929129
 11
424.396033
 21
111.929129
  0
LINE
  8
OBRYS
 62
     7
  6
DASHDOT
 10
410.896033
 20
120.929129
 11
398.896036
 21
120.929129
  0
LINE
  8
OBRYS
 62
     7
  6
DASHDOT
 10
410.896033
 20
120.929129
 11
422.896029
 21
120.929129
  0
ENDBLK
  8
OBRYS
  0
BLOCK
  8
OBRYS
  2
_10
 70
   64
 10
368.396033
 20
72.929129
  0
LINE
  8
OBRYS
 10
422.198258
 20
33.929129
 11
422.517148
 21
33.929129
  0
LINE
  8
OBRYS
 10
422.517148
 20
33.929129
 11
422.781064
 21
33.929129
  0
LINE
  8
OBRYS
 10
422.781064
 20
33.929129
 11
422.789275
 21
33.929129
  0
LINE
  8
OBRYS
 10
422.789275
 20
33.929129
 11
422.789275
 21
29.111857
  0
LINE
  8
OBRYS
 10
422.789275
 20
29.111857
 11
422.781064
 21
29.091348
  0
LINE
  8
OBRYS
 10
422.781064
 20
29.091348
 11
422.517148
 21
28.169262
  0
LINE
  8
OBRYS
 10
422.517148
 20
28.169262
 11
422.492436
 21
28.067615
  0
LINE
  8
OBRYS
 10
422.492436
 20
28.067615
 11
422.198258
 21
27.699362
  0
LINE
  8
OBRYS
 10
422.198258
 20
27.699362
 11
421.837223
 21
27.197665
  0
LINE
  8
OBRYS
 10
421.837223
 20
27.197665
 11
421.808150
 21
27.153977
  0
LINE
  8
OBRYS
 10
421.808150
 20
27.153977
 11
421.448565
 21
26.894978
  0
LINE
  8
OBRYS
 10
421.448565
 20
26.894978
 11
421.047919
 21
26.586836
  0
LINE
  8
OBRYS
 10
421.047919
 20
26.586836
 11
420.923531
 21
26.485213
  0
LINE
  8
OBRYS
 10
420.923531
 20
26.485213
 11
420.651400
 21
26.334121
  0
LINE
  8
OBRYS
 10
420.651400
 20
26.334121
 11
417.100099
 21
24.302486
  0
LINE
  8
OBRYS
 10
417.100099
 20
24.302486
 11
416.337012
 21
24.098695
  0
LINE
  8
OBRYS
 10
416.337012
 20
24.098695
 11
415.683782
 21
23.929129
  0
LINE
  8
OBRYS
 10
415.851584
 20
29.971593
 11
416.337012
 21
30.068895
  0
LINE
  8
OBRYS
 10
416.337012
 20
30.068895
 11
416.766623
 21
30.157490
  0
LINE
  8
OBRYS
 10
416.766623
 20
30.157490
 11
417.705396
 21
30.807809
  0
LINE
  8
OBRYS
 10
417.705396
 20
30.807809
 11
418.332664
 21
31.781079
  0
LINE
  8
OBRYS
 10
418.332664
 20
31.781079
 11
418.552932
 21
32.929129
  0
LINE
  8
OBRYS
 10
418.552932
 20
32.929129
 11
418.552932
 21
33.929129
  0
LINE
  8
OBRYS
 10
418.552932
 20
33.929129
 11
420.651400
 21
33.929129
  0
LINE
  8
OBRYS
 10
420.651400
 20
33.929129
 11
421.047919
 21
33.929129
  0
LINE
  8
OBRYS
 10
421.047919
 20
33.929129
 11
421.448565
 21
33.929129
  0
LINE
  8
OBRYS
 10
421.448565
 20
33.929129
 11
421.837223
 21
33.929129
  0
LINE
  8
OBRYS
 10
421.837223
 20
33.929129
 11
424.396033
 21
33.929129
  0
LINE
  8
OBRYS
 10
424.396033
 20
28.540786
 11
424.396033
 21
33.929129
  0
LINE
  8
OBRYS
 10
418.475333
 20
23.929129
 11
398.396033
 21
23.929129
  0
ARC
  8
OBRYS
 10
421.396033
 20
28.540786
 40
3.000000
 50
298.890129
 51
360.000000
  0
LINE
  8
OBRYS
 10
419.924728
 20
24.302486
 11
422.845427
 21
25.914142
  0
LINE
  8
OBRYS
 10
398.396033
 20
23.929129
 11
368.396033
 21
23.929129
  0
LINE
  8
OBRYS
 10
424.396033
 20
32.579635
 11
424.396033
 21
32.499751
  0
ARC
  8
OBRYS
 10
418.475333
 20
26.929129
 40
3.000000
 50
270.000000
 51
298.890129
  0
LINE
  8
OBRYS
 10
393.558641
 20
24.098695
 11
393.558641
 21
30.068895
  0
LINE
  8
OBRYS
 10
395.823118
 20
26.334121
 11
395.823118
 21
33.929129
  0
LINE
  8
OBRYS
 10
381.924297
 20
33.929129
 11
381.924297
 21
26.586836
  0
LINE
  8
OBRYS
 10
416.337012
 20
24.098695
 11
416.337012
 21
30.068895
  0
LINE
  8
OBRYS
 10
420.651400
 20
26.334121
 11
420.651400
 21
33.929129
  0
LINE
  8
OBRYS
 10
415.851584
 20
33.929129
 11
415.851584
 21
28.169262
  0
LINE
  8
OBRYS
 10
415.851584
 20
33.929129
 11
415.851584
 21
29.971593
  0
LINE
  8
OBRYS
 10
381.924297
 20
29.929129
 11
381.924297
 21
33.929129
  0
LINE
  8
OBRYS
 10
404.832322
 20
24.302486
 11
406.897569
 21
25.914142
  0
LINE
  8
OBRYS
 10
407.994012
 20
28.540786
 11
407.994012
 21
29.092590
  0
LINE
  8
OBRYS
 10
405.135338
 20
29.092590
 11
405.135338
 21
28.540786
  0
LINE
  8
OBRYS
 10
404.118050
 20
25.914142
 11
402.201898
 21
24.302486
  0
LINE
  8
OBRYS
 10
401.251010
 20
23.929129
 11
400.429991
 21
23.929129
  0
LINE
  8
OBRYS
 10
406.191360
 20
23.929129
 11
405.246886
 21
23.929129
  0
LINE
  8
OBRYS
 10
415.683782
 20
23.929129
 11
417.104951
 21
23.929129
  0
LINE
  8
OBRYS
 10
403.075650
 20
23.929129
 11
410.497239
 21
23.929129
  0
LINE
  8
OBRYS
 10
393.169802
 20
23.929129
 11
400.429991
 21
23.929129
  0
POLYLINE
  8
OBRYS
 66
    1
  0
VERTEX
  8
OBRYS
 10
410.497192
 20
23.929285
  0
VERTEX
  8
OBRYS
 10
411.032166
 20
24.098841
  0
VERTEX
  8
OBRYS
 10
411.710815
 20
24.302576
  0
VERTEX
  8
OBRYS
 10
414.869141
 20
26.334192
  0
VERTEX
  8
OBRYS
 10
415.091003
 20
26.485315
  0
VERTEX
  8
OBRYS
 10
415.192444
 20
26.586878
  0
VERTEX
  8
OBRYS
 10
415.461792
 20
26.895105
  0
VERTEX
  8
OBRYS
 10
415.651123
 20
27.154016
  0
SEQEND
  8
OBRYS
  0
ARC
  8
OBRYS
 10
412.338224
 20
28.339364
 40
3.518602
 50
340.236041
 51
357.431499
  0
POLYLINE
  8
OBRYS
 66
    1
  0
VERTEX
  8
OBRYS
 10
380.648315
 20
23.929285
  0
VERTEX
  8
OBRYS
 10
380.751648
 20
24.098841
  0
VERTEX
  8
OBRYS
 10
380.948303
 20
24.302576
  0
VERTEX
  8
OBRYS
 10
381.863586
 20
26.334192
  0
VERTEX
  8
OBRYS
 10
381.905212
 20
26.485315
  0
VERTEX
  8
OBRYS
 10
381.924255
 20
26.586878
  0
SEQEND
  8
OBRYS
  0
LINE
  8
OBRYS
 10
417.100099
 20
24.302486
 11
418.544431
 21
24.302486
  0
LINE
  8
OBRYS
 10
404.100527
 20
24.302486
 11
411.710857
 21
24.302486
  0
LINE
  8
OBRYS
 10
393.959159
 20
24.302486
 11
401.376682
 21
24.302486
  0
LINE
  8
OBRYS
 10
368.396033
 20
24.302486
 11
380.948378
 21
24.302486
  0
LINE
  8
OBRYS
 10
420.923531
 20
26.485213
 11
422.472989
 21
26.485213
  0
LINE
  8
OBRYS
 10
415.820196
 20
33.929129
 11
397.895530
 21
33.929129
  0
LINE
  8
OBRYS
 10
422.789275
 20
29.111857
 11
424.396033
 21
29.111857
  0
LINE
  8
OBRYS
 10
397.895530
 20
29.111857
 11
415.820196
 21
29.111857
  0
LINE
  8
OBRYS
 10
368.396033
 20
29.111857
 11
381.070686
 21
29.111857
  0
LINE
  8
OBRYS
 10
413.002930
 20
33.929129
 11
394.721703
 21
33.929129
  0
POLYLINE
  8
OBRYS
 66
    1
  0
VERTEX
  8
OBRYS
 10
393.143555
 20
29.929285
  0
VERTEX
  8
OBRYS
 10
393.558594
 20
30.068933
  0
VERTEX
  8
OBRYS
 10
393.784058
 20
30.157557
  0
VERTEX
  8
OBRYS
 10
394.276794
 20
30.807947
  0
VERTEX
  8
OBRYS
 10
394.606018
 20
31.781214
  0
VERTEX
  8
OBRYS
 10
394.721680
 20
32.929283
  0
VERTEX
  8
OBRYS
 10
394.721680
 20
33.929283
  0
SEQEND
  8
OBRYS
  0
POLYLINE
  8
OBRYS
 66
    1
  0
VERTEX
  8
OBRYS
 10
418.552856
 20
33.929283
  0
VERTEX
  8
OBRYS
 10
418.552856
 20
32.929283
  0
VERTEX
  8
OBRYS
 10
418.332642
 20
31.781214
  0
VERTEX
  8
OBRYS
 10
417.705322
 20
30.807947
  0
VERTEX
  8
OBRYS
 10
416.766602
 20
30.157557
  0
VERTEX
  8
OBRYS
 10
416.336975
 20
30.068933
  0
VERTEX
  8
OBRYS
 10
415.851563
 20
29.971643
  0
SEQEND
  8
OBRYS
  0
LINE
  8
OBRYS
 10
381.924297
 20
29.929129
 11
393.143584
 21
29.929129
  0
POLYLINE
  8
OBRYS
 66
    1
  0
VERTEX
  8
OBRYS
 10
381.924255
 20
29.929285
  0
VERTEX
  8
OBRYS
 10
382.182190
 20
29.929285
  0
VERTEX
  8
OBRYS
 10
383.135315
 20
29.929285
  0
VERTEX
  8
OBRYS
 10
384.247803
 20
29.929285
  0
VERTEX
  8
OBRYS
 10
385.479309
 20
29.929285
  0
VERTEX
  8
OBRYS
 10
386.785156
 20
29.929285
  0
VERTEX
  8
OBRYS
 10
388.118042
 20
29.929285
  0
VERTEX
  8
OBRYS
 10
389.429565
 20
29.929285
  0
VERTEX
  8
OBRYS
 10
390.672241
 20
29.929285
  0
VERTEX
  8
OBRYS
 10
391.801025
 20
29.929285
  0
VERTEX
  8
OBRYS
 10
392.774902
 20
29.929285
  0
VERTEX
  8
OBRYS
 10
393.143555
 20
29.929285
  0
VERTEX
  8
OBRYS
 10
393.558594
 20
30.068933
  0
VERTEX
  8
OBRYS
 10
393.784058
 20
30.157557
  0
VERTEX
  8
OBRYS
 10
394.276794
 20
30.807947
  0
VERTEX
  8
OBRYS
 10
394.606018
 20
31.781214
  0
VERTEX
  8
OBRYS
 10
394.721680
 20
32.929283
  0
VERTEX
  8
OBRYS
 10
394.721680
 20
33.929283
  0
VERTEX
  8
OBRYS
 10
395.823059
 20
33.929283
  0
VERTEX
  8
OBRYS
 10
396.060547
 20
33.929283
  0
VERTEX
  8
OBRYS
 10
396.357788
 20
33.929283
  0
VERTEX
  8
OBRYS
 10
396.702820
 20
33.929283
  0
VERTEX
  8
OBRYS
 10
397.081665
 20
33.929283
  0
VERTEX
  8
OBRYS
 10
397.479248
 20
33.929283
  0
VERTEX
  8
OBRYS
 10
397.879456
 20
33.929283
  0
VERTEX
  8
OBRYS
 10
397.895508
 20
33.929283
  0
VERTEX
  8
OBRYS
 10
397.895508
 20
29.111902
  0
VERTEX
  8
OBRYS
 10
397.879456
 20
29.091394
  0
VERTEX
  8
OBRYS
 10
397.479248
 20
28.169397
  0
VERTEX
  8
OBRYS
 10
397.448425
 20
28.067713
  0
VERTEX
  8
OBRYS
 10
397.081665
 20
27.699427
  0
VERTEX
  8
OBRYS
 10
396.702820
 20
27.197718
  0
VERTEX
  8
OBRYS
 10
396.677002
 20
27.154016
  0
VERTEX
  8
OBRYS
 10
396.357788
 20
26.895105
  0
VERTEX
  8
OBRYS
 10
396.060547
 20
26.586878
  0
VERTEX
  8
OBRYS
 10
395.986084
 20
26.485315
  0
VERTEX
  8
OBRYS
 10
395.823059
 20
26.334192
  0
VERTEX
  8
OBRYS
 10
393.959106
 20
24.302576
  0
VERTEX
  8
OBRYS
 10
393.558594
 20
24.098841
  0
VERTEX
  8
OBRYS
 10
393.169739
 20
23.929285
  0
SEQEND
  8
OBRYS
  0
POLYLINE
  8
OBRYS
 66
    1
  0
VERTEX
  8
OBRYS
 10
381.924255
 20
26.586878
  0
VERTEX
  8
OBRYS
 10
381.904541
 20
26.895105
  0
VERTEX
  8
OBRYS
 10
381.812744
 20
27.154016
  0
VERTEX
  8
OBRYS
 10
381.805298
 20
27.197718
  0
VERTEX
  8
OBRYS
 10
381.630493
 20
27.699427
  0
VERTEX
  8
OBRYS
 10
381.406006
 20
28.067713
  0
VERTEX
  8
OBRYS
 10
381.387146
 20
28.169397
  0
VERTEX
  8
OBRYS
 10
381.085083
 20
29.091394
  0
VERTEX
  8
OBRYS
 10
381.070618
 20
29.111902
  0
VERTEX
  8
OBRYS
 10
381.070618
 20
33.929283
  0
VERTEX
  8
OBRYS
 10
381.085083
 20
33.929283
  0
VERTEX
  8
OBRYS
 10
381.387146
 20
33.929283
  0
VERTEX
  8
OBRYS
 10
381.630493
 20
33.929283
  0
VERTEX
  8
OBRYS
 10
381.805298
 20
33.929283
  0
VERTEX
  8
OBRYS
 10
381.904541
 20
33.929283
  0
VERTEX
  8
OBRYS
 10
381.924255
 20
33.929283
  0
SEQEND
  8
OBRYS
  0
POLYLINE
  8
OBRYS
 66
    1
  0
VERTEX
  8
OBRYS
 10
415.851563
 20
28.169397
  0
VERTEX
  8
OBRYS
 10
415.824524
 20
29.091394
  0
VERTEX
  8
OBRYS
 10
415.820129
 20
29.111902
  0
VERTEX
  8
OBRYS
 10
415.820129
 20
33.929283
  0
VERTEX
  8
OBRYS
 10
415.824524
 20
33.929283
  0
VERTEX
  8
OBRYS
 10
415.851563
 20
33.929283
  0
SEQEND
  8
OBRYS
  0
LINE
  8
OBRYS
 10
415.683782
 20
23.929129
 11
407.614737
 21
23.929129
  0
LINE
  8
OBRYS
 10
413.002930
 20
33.929129
 11
415.851584
 21
33.929129
  0
LINE
  8
OBRYS
 10
410.497239
 20
23.929129
 11
407.614737
 21
23.929129
  0
LINE
  8
OBRYS
 10
380.543449
 20
23.929129
 11
380.648381
 21
23.929129
  0
POLYLINE
  8
OBRYS
 66
    1
  0
VERTEX
  8
OBRYS
 10
417.104919
 20
23.929285
  0
VERTEX
  8
OBRYS
 10
418.544373
 20
24.302576
  0
VERTEX
  8
OBRYS
 10
422.472961
 20
26.485315
  0
VERTEX
  8
OBRYS
 10
423.290955
 20
27.154016
  0
VERTEX
  8
OBRYS
 10
423.558411
 20
27.610193
  0
SEQEND
  8
OBRYS
  0
LINE
  8
OBRYS
 10
402.201898
 20
24.302486
 11
404.832322
 21
24.302486
  0
POLYLINE
  8
OBRYS
 66
    1
  0
VERTEX
  8
OBRYS
 10
406.897522
 20
25.914270
  0
VERTEX
  8
OBRYS
 10
407.479919
 20
26.582972
  0
VERTEX
  8
OBRYS
 10
407.861328
 20
27.496668
  0
VERTEX
  8
OBRYS
 10
407.993958
 20
28.540857
  0
SEQEND
  8
OBRYS
  0
LINE
  8
OBRYS
 10
403.807446
 20
23.929129
 11
404.832322
 21
24.302486
  0
LINE
  8
OBRYS
 10
404.118050
 20
25.914142
 11
406.897569
 21
25.914142
  0
LINE
  8
OBRYS
 10
407.994012
 20
29.092590
 11
405.135338
 21
29.092590
  0
LINE
  8
OBRYS
 10
405.135338
 20
28.540786
 11
407.994012
 21
28.540786
  0
LINE
  8
OBRYS
 10
401.251010
 20
23.929129
 11
403.807446
 21
23.929129
  0
POLYLINE
  8
OBRYS
 66
    1
  0
VERTEX
  8
OBRYS
 10
400.429932
 20
23.929285
  0
VERTEX
  8
OBRYS
 10
401.376648
 20
24.302576
  0
VERTEX
  8
OBRYS
 10
403.960266
 20
26.485315
  0
VERTEX
  8
OBRYS
 10
404.498291
 20
27.154016
  0
VERTEX
  8
OBRYS
 10
404.674133
 20
27.610193
  0
SEQEND
  8
OBRYS
  0
POLYLINE
  8
OBRYS
 66
    1
  0
VERTEX
  8
OBRYS
 10
404.674133
 20
27.610193
  0
VERTEX
  8
OBRYS
 10
404.817322
 20
27.787439
  0
VERTEX
  8
OBRYS
 10
405.053223
 20
28.396570
  0
VERTEX
  8
OBRYS
 10
405.135315
 20
29.092737
  0
SEQEND
  8
OBRYS
  0
POLYLINE
  8
OBRYS
 66
    1
  0
VERTEX
  8
OBRYS
 10
405.135315
 20
28.540857
  0
VERTEX
  8
OBRYS
 10
405.012207
 20
27.496668
  0
VERTEX
  8
OBRYS
 10
404.658386
 20
26.582972
  0
VERTEX
  8
OBRYS
 10
404.117981
 20
25.914270
  0
SEQEND
  8
OBRYS
  0
LINE
  8
OBRYS
 10
402.201898
 20
24.302486
 11
401.251010
 21
23.929129
  0
LINE
  8
OBRYS
 10
400.396033
 20
23.929129
 11
411.396033
 21
23.929129
  0
LINE
  8
OBRYS
 10
380.951743
 20
33.929129
 11
368.277090
 21
33.929129
  0
LINE
  8
OBRYS
 10
370.396033
 20
24.302486
 11
370.396033
 21
29.111857
  0
LINE
  8
OBRYS
 10
366.396033
 20
24.302486
 11
366.396033
 21
29.111857
  0
LINE
  8
OBRYS
 10
355.840323
 20
33.929129
 11
368.514976
 21
33.929129
  0
LINE
  8
OBRYS
 10
336.396033
 20
23.929129
 11
325.396033
 21
23.929129
  0
LINE
  8
OBRYS
 10
334.590167
 20
24.302486
 11
335.541056
 21
23.929129
  0
POLYLINE
  8
OBRYS
 66
    1
  0
VERTEX
  8
OBRYS
 10
331.656738
 20
28.540857
  0
VERTEX
  8
OBRYS
 10
331.779846
 20
27.496668
  0
VERTEX
  8
OBRYS
 10
332.133667
 20
26.582972
  0
VERTEX
  8
OBRYS
 10
332.674072
 20
25.914270
  0
SEQEND
  8
OBRYS
  0
POLYLINE
  8
OBRYS
 66
    1
  0
VERTEX
  8
OBRYS
 10
332.117920
 20
27.610193
  0
VERTEX
  8
OBRYS
 10
331.974731
 20
27.787439
  0
VERTEX
  8
OBRYS
 10
331.738831
 20
28.396570
  0
VERTEX
  8
OBRYS
 10
331.656738
 20
29.092737
  0
SEQEND
  8
OBRYS
  0
POLYLINE
  8
OBRYS
 66
    1
  0
VERTEX
  8
OBRYS
 10
336.362122
 20
23.929285
  0
VERTEX
  8
OBRYS
 10
335.415405
 20
24.302576
  0
VERTEX
  8
OBRYS
 10
332.831787
 20
26.485315
  0
VERTEX
  8
OBRYS
 10
332.293762
 20
27.154016
  0
VERTEX
  8
OBRYS
 10
332.117920
 20
27.610193
  0
SEQEND
  8
OBRYS
  0
LINE
  8
OBRYS
 10
335.541056
 20
23.929129
 11
332.984620
 21
23.929129
  0
LINE
  8
OBRYS
 10
331.656727
 20
28.540786
 11
328.798053
 21
28.540786
  0
LINE
  8
OBRYS
 10
328.798053
 20
29.092590
 11
331.656727
 21
29.092590
  0
LINE
  8
OBRYS
 10
332.674016
 20
25.914142
 11
329.894497
 21
25.914142
  0
LINE
  8
OBRYS
 10
332.984620
 20
23.929129
 11
331.959743
 21
24.302486
  0
POLYLINE
  8
OBRYS
 66
    1
  0
VERTEX
  8
OBRYS
 10
329.894531
 20
25.914270
  0
VERTEX
  8
OBRYS
 10
329.312134
 20
26.582972
  0
VERTEX
  8
OBRYS
 10
328.930725
 20
27.496668
  0
VERTEX
  8
OBRYS
 10
328.798096
 20
28.540857
  0
SEQEND
  8
OBRYS
  0
LINE
  8
OBRYS
 10
334.590167
 20
24.302486
 11
331.959743
 21
24.302486
  0
POLYLINE
  8
OBRYS
 66
    1
  0
VERTEX
  8
OBRYS
 10
319.687134
 20
23.929285
  0
VERTEX
  8
OBRYS
 10
318.247681
 20
24.302576
  0
VERTEX
  8
OBRYS
 10
314.319092
 20
26.485315
  0
VERTEX
  8
OBRYS
 10
313.501099
 20
27.154016
  0
VERTEX
  8
OBRYS
 10
313.233643
 20
27.610193
  0
SEQEND
  8
OBRYS
  0
LINE
  8
OBRYS
 10
356.248616
 20
23.929129
 11
356.143684
 21
23.929129
  0
LINE
  8
OBRYS
 10
326.294826
 20
23.929129
 11
329.177328
 21
23.929129
  0
LINE
  8
OBRYS
 10
323.789136
 20
33.929129
 11
320.940481
 21
33.929129
  0
LINE
  8
OBRYS
 10
321.108284
 20
23.929129
 11
329.177328
 21
23.929129
  0
POLYLINE
  8
OBRYS
 66
    1
  0
VERTEX
  8
OBRYS
 10
320.940491
 20
28.169397
  0
VERTEX
  8
OBRYS
 10
320.967529
 20
29.091394
  0
VERTEX
  8
OBRYS
 10
320.971924
 20
29.111902
  0
VERTEX
  8
OBRYS
 10
320.971924
 20
33.929283
  0
VERTEX
  8
OBRYS
 10
320.967529
 20
33.929283
  0
VERTEX
  8
OBRYS
 10
320.940491
 20
33.929283
  0
SEQEND
  8
OBRYS
  0
POLYLINE
  8
OBRYS
 66
    1
  0
VERTEX
  8
OBRYS
 10
354.867798
 20
26.586878
  0
VERTEX
  8
OBRYS
 10
354.887512
 20
26.895105
  0
VERTEX
  8
OBRYS
 10
354.979309
 20
27.154016
  0
VERTEX
  8
OBRYS
 10
354.986755
 20
27.197718
  0
VERTEX
  8
OBRYS
 10
355.161560
 20
27.699427
  0
VERTEX
  8
OBRYS
 10
355.386047
 20
28.067713
  0
VERTEX
  8
OBRYS
 10
355.404907
 20
28.169397
  0
VERTEX
  8
OBRYS
 10
355.706970
 20
29.091394
  0
VERTEX
  8
OBRYS
 10
355.721436
 20
29.111902
  0
VERTEX
  8
OBRYS
 10
355.721436
 20
33.929283
  0
VERTEX
  8
OBRYS
 10
355.706970
 20
33.929283
  0
VERTEX
  8
OBRYS
 10
355.404907
 20
33.929283
  0
VERTEX
  8
OBRYS
 10
355.161560
 20
33.929283
  0
VERTEX
  8
OBRYS
 10
354.986755
 20
33.929283
  0
VERTEX
  8
OBRYS
 10
354.887512
 20
33.929283
  0
VERTEX
  8
OBRYS
 10
354.867798
 20
33.929283
  0
SEQEND
  8
OBRYS
  0
POLYLINE
  8
OBRYS
 66
    1
  0
VERTEX
  8
OBRYS
 10
354.867798
 20
29.929285
  0
VERTEX
  8
OBRYS
 10
354.609863
 20
29.929285
  0
VERTEX
  8
OBRYS
 10
353.656738
 20
29.929285
  0
VERTEX
  8
OBRYS
 10
352.544250
 20
29.929285
  0
VERTEX
  8
OBRYS
 10
351.312744
 20
29.929285
  0
VERTEX
  8
OBRYS
 10
350.006897
 20
29.929285
  0
VERTEX
  8
OBRYS
 10
348.674011
 20
29.929285
  0
VERTEX
  8
OBRYS
 10
347.362488
 20
29.929285
  0
VERTEX
  8
OBRYS
 10
346.119812
 20
29.929285
  0
VERTEX
  8
OBRYS
 10
344.991028
 20
29.929285
  0
VERTEX
  8
OBRYS
 10
344.017151
 20
29.929285
  0
VERTEX
  8
OBRYS
 10
343.648499
 20
29.929285
  0
VERTEX
  8
OBRYS
 10
343.233459
 20
30.068933
  0
VERTEX
  8
OBRYS
 10
343.007996
 20
30.157557
  0
VERTEX
  8
OBRYS
 10
342.515259
 20
30.807947
  0
VERTEX
  8
OBRYS
 10
342.186035
 20
31.781214
  0
VERTEX
  8
OBRYS
 10
342.070374
 20
32.929283
  0
VERTEX
  8
OBRYS
 10
342.070374
 20
33.929283
  0
VERTEX
  8
OBRYS
 10
340.968994
 20
33.929283
  0
VERTEX
  8
OBRYS
 10
340.731506
 20
33.929283
  0
VERTEX
  8
OBRYS
 10
340.434265
 20
33.929283
  0
VERTEX
  8
OBRYS
 10
340.089233
 20
33.929283
  0
VERTEX
  8
OBRYS
 10
339.710388
 20
33.929283
  0
VERTEX
  8
OBRYS
 10
339.312805
 20
33.929283
  0
VERTEX
  8
OBRYS
 10
338.912598
 20
33.929283
  0
VERTEX
  8
OBRYS
 10
338.896545
 20
33.929283
  0
VERTEX
  8
OBRYS
 10
338.896545
 20
29.111902
  0
VERTEX
  8
OBRYS
 10
338.912598
 20
29.091394
  0
VERTEX
  8
OBRYS
 10
339.312805
 20
28.169397
  0
VERTEX
  8
OBRYS
 10
339.343628
 20
28.067713
  0
VERTEX
  8
OBRYS
 10
339.710388
 20
27.699427
  0
VERTEX
  8
OBRYS
 10
340.089233
 20
27.197718
  0
VERTEX
  8
OBRYS
 10
340.115051
 20
27.154016
  0
VERTEX
  8
OBRYS
 10
340.434265
 20
26.895105
  0
VERTEX
  8
OBRYS
 10
340.731506
 20
26.586878
  0
VERTEX
  8
OBRYS
 10
340.805969
 20
26.485315
  0
VERTEX
  8
OBRYS
 10
340.968994
 20
26.334192
  0
VERTEX
  8
OBRYS
 10
342.832947
 20
24.302576
  0
VERTEX
  8
OBRYS
 10
343.233459
 20
24.098841
  0
VERTEX
  8
OBRYS
 10
343.622314
 20
23.929285
  0
SEQEND
  8
OBRYS
  0
LINE
  8
OBRYS
 10
354.867769
 20
29.929129
 11
343.648482
 21
29.929129
  0
POLYLINE
  8
OBRYS
 66
    1
  0
VERTEX
  8
OBRYS
 10
318.239197
 20
33.929283
  0
VERTEX
  8
OBRYS
 10
318.239197
 20
32.929283
  0
VERTEX
  8
OBRYS
 10
318.459412
 20
31.781214
  0
VERTEX
  8
OBRYS
 10
319.086731
 20
30.807947
  0
VERTEX
  8
OBRYS
 10
320.025452
 20
30.157557
  0
VERTEX
  8
OBRYS
 10
320.455078
 20
30.068933
  0
VERTEX
  8
OBRYS
 10
320.940491
 20
29.971643
  0
SEQEND
  8
OBRYS
  0
POLYLINE
  8
OBRYS
 66
    1
  0
VERTEX
  8
OBRYS
 10
343.648499
 20
29.929285
  0
VERTEX
  8
OBRYS
 10
343.233459
 20
30.068933
  0
VERTEX
  8
OBRYS
 10
343.007996
 20
30.157557
  0
VERTEX
  8
OBRYS
 10
342.515259
 20
30.807947
  0
VERTEX
  8
OBRYS
 10
342.186035
 20
31.781214
  0
VERTEX
  8
OBRYS
 10
342.070374
 20
32.929283
  0
VERTEX
  8
OBRYS
 10
342.070374
 20
33.929283
  0
SEQEND
  8
OBRYS
  0
LINE
  8
OBRYS
 10
323.789136
 20
33.929129
 11
342.070363
 21
33.929129
  0
LINE
  8
OBRYS
 10
368.396033
 20
29.111857
 11
355.721380
 21
29.111857
  0
LINE
  8
OBRYS
 10
338.896535
 20
29.111857
 11
320.971870
 21
29.111857
  0
LINE
  8
OBRYS
 10
314.002791
 20
29.111857
 11
312.396033
 21
29.111857
  0
LINE
  8
OBRYS
 10
320.971870
 20
33.929129
 11
338.896535
 21
33.929129
  0
LINE
  8
OBRYS
 10
315.868535
 20
26.485213
 11
314.319076
 21
26.485213
  0
LINE
  8
OBRYS
 10
368.396033
 20
24.302486
 11
355.843687
 21
24.302486
  0
LINE
  8
OBRYS
 10
342.832906
 20
24.302486
 11
335.415384
 21
24.302486
  0
LINE
  8
OBRYS
 10
332.691538
 20
24.302486
 11
325.081209
 21
24.302486
  0
LINE
  8
OBRYS
 10
319.691967
 20
24.302486
 11
318.247634
 21
24.302486
  0
POLYLINE
  8
OBRYS
 66
    1
  0
VERTEX
  8
OBRYS
 10
356.143738
 20
23.929285
  0
VERTEX
  8
OBRYS
 10
356.040405
 20
24.098841
  0
VERTEX
  8
OBRYS
 10
355.843750
 20
24.302576
  0
VERTEX
  8
OBRYS
 10
354.928467
 20
26.334192
  0
VERTEX
  8
OBRYS
 10
354.886841
 20
26.485315
  0
VERTEX
  8
OBRYS
 10
354.867798
 20
26.586878
  0
SEQEND
  8
OBRYS
  0
ARC
  8
OBRYS
 10
324.453842
 20
28.339364
 40
3.518602
 50
182.568501
 51
199.763959
  0
POLYLINE
  8
OBRYS
 66
    1
  0
VERTEX
  8
OBRYS
 10
326.294861
 20
23.929285
  0
VERTEX
  8
OBRYS
 10
325.759888
 20
24.098841
  0
VERTEX
  8
OBRYS
 10
325.081238
 20
24.302576
  0
VERTEX
  8
OBRYS
 10
321.922913
 20
26.334192
  0
VERTEX
  8
OBRYS
 10
321.701050
 20
26.485315
  0
VERTEX
  8
OBRYS
 10
321.599609
 20
26.586878
  0
VERTEX
  8
OBRYS
 10
321.330261
 20
26.895105
  0
VERTEX
  8
OBRYS
 10
321.140930
 20
27.154016
  0
SEQEND
  8
OBRYS
  0
LINE
  8
OBRYS
 10
343.622263
 20
23.929129
 11
336.362074
 21
23.929129
  0
LINE
  8
OBRYS
 10
333.716415
 20
23.929129
 11
326.294826
 21
23.929129
  0
LINE
  8
OBRYS
 10
321.108284
 20
23.929129
 11
319.687115
 21
23.929129
  0
LINE
  8
OBRYS
 10
330.600705
 20
23.929129
 11
331.545179
 21
23.929129
  0
LINE
  8
OBRYS
 10
335.541056
 20
23.929129
 11
336.362074
 21
23.929129
  0
LINE
  8
OBRYS
 10
332.674016
 20
25.914142
 11
334.590167
 21
24.302486
  0
LINE
  8
OBRYS
 10
331.656727
 20
29.092590
 11
331.656727
 21
28.540786
  0
LINE
  8
OBRYS
 10
328.798053
 20
28.540786
 11
328.798053
 21
29.092590
  0
LINE
  8
OBRYS
 10
331.959743
 20
24.302486
 11
329.894497
 21
25.914142
  0
LINE
  8
OBRYS
 10
354.867769
 20
29.929129
 11
354.867769
 21
33.929129
  0
LINE
  8
OBRYS
 10
320.940481
 20
33.929129
 11
320.940481
 21
29.971593
  0
LINE
  8
OBRYS
 10
320.940481
 20
33.929129
 11
320.940481
 21
28.169262
  0
LINE
  8
OBRYS
 10
316.140665
 20
26.334121
 11
316.140665
 21
33.929129
  0
LINE
  8
OBRYS
 10
320.455054
 20
24.098695
 11
320.455054
 21
30.068895
  0
LINE
  8
OBRYS
 10
354.867769
 20
33.929129
 11
354.867769
 21
26.586836
  0
LINE
  8
OBRYS
 10
340.968947
 20
26.334121
 11
340.968947
 21
33.929129
  0
LINE
  8
OBRYS
 10
343.233425
 20
24.098695
 11
343.233425
 21
30.068895
  0
ARC
  8
OBRYS
 10
318.316733
 20
26.929129
 40
3.000000
 50
241.109871
 51
270.000000
  0
LINE
  8
OBRYS
 10
312.396033
 20
32.579635
 11
312.396033
 21
32.499751
  0
LINE
  8
OBRYS
 10
338.396033
 20
23.929129
 11
368.396033
 21
23.929129
  0
LINE
  8
OBRYS
 10
316.867338
 20
24.302486
 11
313.946638
 21
25.914142
  0
ARC
  8
OBRYS
 10
315.396033
 20
28.540786
 40
3.000000
 50
180.000000
 51
241.109871
  0
LINE
  8
OBRYS
 10
318.316733
 20
23.929129
 11
338.396033
 21
23.929129
  0
LINE
  8
OBRYS
 62
     7
  6
DASHDOT
 10
368.396033
 20
21.620191
 11
368.396033
 21
38.449129
  0
LINE
  8
OBRYS
 10
320.940481
 20
29.971593
 11
320.455054
 21
30.068895
  0
LINE
  8
OBRYS
 10
320.455054
 20
30.068895
 11
320.025442
 21
30.157490
  0
LINE
  8
OBRYS
 10
320.025442
 20
30.157490
 11
319.086669
 21
30.807809
  0
LINE
  8
OBRYS
 10
319.086669
 20
30.807809
 11
318.459401
 21
31.781079
  0
LINE
  8
OBRYS
 10
318.459401
 20
31.781079
 11
318.239134
 21
32.929129
  0
LINE
  8
OBRYS
 10
318.239134
 20
32.929129
 11
318.239134
 21
33.929129
  0
LINE
  8
OBRYS
 10
318.239134
 20
33.929129
 11
316.140665
 21
33.929129
  0
LINE
  8
OBRYS
 10
316.140665
 20
33.929129
 11
315.744147
 21
33.929129
  0
LINE
  8
OBRYS
 10
315.744147
 20
33.929129
 11
315.343501
 21
33.929129
  0
LINE
  8
OBRYS
 10
315.343501
 20
33.929129
 11
314.954842
 21
33.929129
  0
LINE
  8
OBRYS
 10
314.954842
 20
33.929129
 11
312.396033
 21
33.929129
  0
LINE
  8
OBRYS
 10
314.593807
 20
33.929129
 11
314.274917
 21
33.929129
  0
LINE
  8
OBRYS
 10
314.274917
 20
33.929129
 11
314.011001
 21
33.929129
  0
LINE
  8
OBRYS
 10
314.011001
 20
33.929129
 11
314.002791
 21
33.929129
  0
LINE
  8
OBRYS
 10
314.002791
 20
33.929129
 11
314.002791
 21
29.111857
  0
LINE
  8
OBRYS
 10
314.002791
 20
29.111857
 11
314.011001
 21
29.091348
  0
LINE
  8
OBRYS
 10
314.011001
 20
29.091348
 11
314.274917
 21
28.169262
  0
LINE
  8
OBRYS
 10
314.274917
 20
28.169262
 11
314.299629
 21
28.067615
  0
LINE
  8
OBRYS
 10
314.299629
 20
28.067615
 11
314.593807
 21
27.699362
  0
LINE
  8
OBRYS
 10
314.593807
 20
27.699362
 11
314.954842
 21
27.197665
  0
LINE
  8
OBRYS
 10
314.954842
 20
27.197665
 11
314.983916
 21
27.153977
  0
LINE
  8
OBRYS
 10
314.983916
 20
27.153977
 11
315.343501
 21
26.894978
  0
LINE
  8
OBRYS
 10
315.343501
 20
26.894978
 11
315.744147
 21
26.586836
  0
LINE
  8
OBRYS
 10
315.744147
 20
26.586836
 11
315.868535
 21
26.485213
  0
LINE
  8
OBRYS
 10
315.868535
 20
26.485213
 11
316.140665
 21
26.334121
  0
LINE
  8
OBRYS
 10
316.140665
 20
26.334121
 11
319.691967
 21
24.302486
  0
LINE
  8
OBRYS
 10
319.691967
 20
24.302486
 11
320.455054
 21
24.098695
  0
LINE
  8
OBRYS
 10
320.455054
 20
24.098695
 11
321.108284
 21
23.929129
  0
LINE
  8
OBRYS
 10
312.396033
 20
19.929129
 11
312.396033
 21
33.929129
  0
ARC
  8
OBRYS
 10
316.396033
 20
19.929129
 40
4.000000
 50
180.000000
 51
270.000000
  0
LINE
  8
OBRYS
 62
     7
  6
DASHDOT
 10
325.896033
 20
24.929129
 11
325.896033
 21
12.929133
  0
LINE
  8
OBRYS
 62
     7
  6
DASHDOT
 10
325.896033
 20
24.929129
 11
313.896036
 21
24.929129
  0
LINE
  8
OBRYS
 62
     7
  6
DASHDOT
 10
325.896033
 20
24.929129
 11
337.896029
 21
24.929129
  0
ARC
  8
OBRYS
 10
325.896033
 20
24.929129
 40
4.500000
 50
192.839588
 51
347.160412
  0
ARC
  8
OBRYS
 62
     4
  6
HIDDEN2
 10
325.896033
 20
24.929129
 40
4.500000
 50
347.160412
 51
192.839588
  0
LINE
  8
OBRYS
 10
316.396033
 20
15.929129
 11
344.896033
 21
15.929129
  0
LINE
  8
OBRYS
 10
346.896033
 20
17.929129
 11
346.896033
 21
23.929129
  0
ARC
  8
OBRYS
 10
344.896033
 20
17.929129
 40
2.000000
 50
270.000000
 51
360.000000
  0
LINE
  8
OBRYS
 10
341.795846
 20
17.929129
 11
341.795846
 21
23.929129
  0
LINE
  8
OBRYS
 10
394.996219
 20
17.929129
 11
394.996219
 21
23.929129
  0
ARC
  8
OBRYS
 10
391.896033
 20
17.929129
 40
2.000000
 50
180.000000
 51
270.000000
  0
LINE
  8
OBRYS
 10
389.896033
 20
17.929129
 11
389.896033
 21
23.929129
  0
LINE
  8
OBRYS
 10
420.396033
 20
15.929129
 11
391.896033
 21
15.929129
  0
ARC
  8
OBRYS
 62
     4
  6
HIDDEN2
 10
410.896033
 20
24.929129
 40
4.500000
 50
347.160412
 51
192.839588
  0
ARC
  8
OBRYS
 10
410.896033
 20
24.929129
 40
4.500000
 50
192.839588
 51
347.160412
  0
LINE
  8
OBRYS
 62
     7
  6
DASHDOT
 10
410.896033
 20
24.929129
 11
410.896033
 21
12.929133
  0
ARC
  8
OBRYS
 10
420.396033
 20
19.929129
 40
4.000000
 50
270.000000
 51
360.000000
  0
LINE
  8
OBRYS
 10
424.396033
 20
19.929129
 11
424.396033
 21
33.929129
  0
LINE
  8
OBRYS
 62
     7
  6
DASHDOT
 10
410.896033
 20
24.929129
 11
398.896036
 21
24.929129
  0
LINE
  8
OBRYS
 62
     7
  6
DASHDOT
 10
410.896033
 20
24.929129
 11
422.896029
 21
24.929129
  0
ENDBLK
  8
OBRYS
  0
BLOCK
  8
OBRYS
  2
Srouby_s_valcovou_hlavou__11
 70
   66
 10
719.197805
 20
255.225779
  0
LINE
  8
OBRYS
 10
717.197805
 20
254.071071
 11
717.197805
 21
256.380487
  0
LINE
  8
OBRYS
 10
717.197805
 20
256.380487
 11
719.197805
 21
257.535195
  0
LINE
  8
OBRYS
 10
719.197805
 20
257.535195
 11
721.197805
 21
256.380487
  0
LINE
  8
OBRYS
 10
721.197805
 20
256.380487
 11
721.197805
 21
254.071071
  0
LINE
  8
OBRYS
 10
721.197805
 20
254.071071
 11
719.197805
 21
252.916364
  0
LINE
  8
OBRYS
 10
719.197805
 20
252.916364
 11
717.197805
 21
254.071071
  0
CIRCLE
  8
OBRYS
 10
719.197805
 20
255.225779
 40
2.309415
  0
CIRCLE
  8
OBRYS
 10
719.197805
 20
255.225779
 40
5.000000
  0
ENDBLK
  8
OBRYS
  0
BLOCK
  8
OBRYS
  2
Srouby_s_valcovou_hlavou__12
 70
   66
 10
756.697805
 20
292.725779
  0
LINE
  8
OBRYS
 10
754.697805
 20
291.571071
 11
754.697805
 21
293.880487
  0
LINE
  8
OBRYS
 10
754.697805
 20
293.880487
 11
756.697805
 21
295.035195
  0
LINE
  8
OBRYS
 10
756.697805
 20
295.035195
 11
758.697805
 21
293.880487
  0
LINE
  8
OBRYS
 10
758.697805
 20
293.880487
 11
758.697805
 21
291.571071
  0
LINE
  8
OBRYS
 10
758.697805
 20
291.571071
 11
756.697805
 21
290.416364
  0
LINE
  8
OBRYS
 10
756.697805
 20
290.416364
 11
754.697805
 21
291.571071
  0
CIRCLE
  8
OBRYS
 10
756.697805
 20
292.725779
 40
2.309415
  0
CIRCLE
  8
OBRYS
 10
756.697805
 20
292.725779
 40
5.000000
  0
ENDBLK
  8
OBRYS
  0
BLOCK
  8
OBRYS
  2
Srouby_s_valcovou_hlavou__13
 70
   66
 10
794.197805
 20
255.225779
  0
LINE
  8
OBRYS
 10
792.197805
 20
254.071071
 11
792.197805
 21
256.380487
  0
LINE
  8
OBRYS
 10
792.197805
 20
256.380487
 11
794.197805
 21
257.535195
  0
LINE
  8
OBRYS
 10
794.197805
 20
257.535195
 11
796.197805
 21
256.380487
  0
LINE
  8
OBRYS
 10
796.197805
 20
256.380487
 11
796.197805
 21
254.071071
  0
LINE
  8
OBRYS
 10
796.197805
 20
254.071071
 11
794.197805
 21
252.916364
  0
LINE
  8
OBRYS
 10
794.197805
 20
252.916364
 11
792.197805
 21
254.071071
  0
CIRCLE
  8
OBRYS
 10
794.197805
 20
255.225779
 40
2.309415
  0
CIRCLE
  8
OBRYS
 10
794.197805
 20
255.225779
 40
5.000000
  0
ENDBLK
  8
OBRYS
  0
BLOCK
  8
OBRYS
  2
Srouby_s_valcovou_hlavou__14
 70
   66
 10
756.697805
 20
217.725779
  0
LINE
  8
OBRYS
 10
754.697805
 20
216.571071
 11
754.697805
 21
218.880487
  0
LINE
  8
OBRYS
 10
754.697805
 20
218.880487
 11
756.697805
 21
220.035195
  0
LINE
  8
OBRYS
 10
756.697805
 20
220.035195
 11
758.697805
 21
218.880487
  0
LINE
  8
OBRYS
 10
758.697805
 20
218.880487
 11
758.697805
 21
216.571071
  0
LINE
  8
OBRYS
 10
758.697805
 20
216.571071
 11
756.697805
 21
215.416364
  0
LINE
  8
OBRYS
 10
756.697805
 20
215.416364
 11
754.697805
 21
216.571071
  0
CIRCLE
  8
OBRYS
 10
756.697805
 20
217.725779
 40
2.309415
  0
CIRCLE
  8
OBRYS
 10
756.697805
 20
217.725779
 40
5.000000
  0
ENDBLK
  8
OBRYS
  0
BLOCK
  8
OBRYS
  2
Srouby_s_valcovou_hlavou__15
 70
   66
 10
368.396033
 20
217.725779
  0
LINE
  8
OBRYS
 10
370.396033
 20
216.571071
 11
370.396033
 21
218.880487
  0
LINE
  8
OBRYS
 10
370.396033
 20
218.880487
 11
368.396033
 21
220.035195
  0
LINE
  8
OBRYS
 10
368.396033
 20
220.035195
 11
366.396033
 21
218.880487
  0
LINE
  8
OBRYS
 10
366.396033
 20
218.880487
 11
366.396033
 21
216.571071
  0
LINE
  8
OBRYS
 10
366.396033
 20
216.571071
 11
368.396033
 21
215.416364
  0
LINE
  8
OBRYS
 10
368.396033
 20
215.416364
 11
370.396033
 21
216.571071
  0
CIRCLE
  8
OBRYS
 10
368.396033
 20
217.725779
 40
2.309415
  0
CIRCLE
  8
OBRYS
 10
368.396033
 20
217.725779
 40
5.000000
  0
ENDBLK
  8
OBRYS
  0
BLOCK
  8
OBRYS
  2
Srouby_s_valcovou_hlavou__16
 70
   66
 10
330.896033
 20
255.225779
  0
LINE
  8
OBRYS
 10
332.896033
 20
254.071071
 11
332.896033
 21
256.380487
  0
LINE
  8
OBRYS
 10
332.896033
 20
256.380487
 11
330.896033
 21
257.535195
  0
LINE
  8
OBRYS
 10
330.896033
 20
257.535195
 11
328.896033
 21
256.380487
  0
LINE
  8
OBRYS
 10
328.896033
 20
256.380487
 11
328.896033
 21
254.071071
  0
LINE
  8
OBRYS
 10
328.896033
 20
254.071071
 11
330.896033
 21
252.916364
  0
LINE
  8
OBRYS
 10
330.896033
 20
252.916364
 11
332.896033
 21
254.071071
  0
CIRCLE
  8
OBRYS
 10
330.896033
 20
255.225779
 40
2.309415
  0
CIRCLE
  8
OBRYS
 10
330.896033
 20
255.225779
 40
5.000000
  0
ENDBLK
  8
OBRYS
  0
BLOCK
  8
OBRYS
  2
Srouby_s_valcovou_hlavou__17
 70
   66
 10
368.396033
 20
292.725779
  0
LINE
  8
OBRYS
 10
370.396033
 20
291.571071
 11
370.396033
 21
293.880487
  0
LINE
  8
OBRYS
 10
370.396033
 20
293.880487
 11
368.396033
 21
295.035195
  0
LINE
  8
OBRYS
 10
368.396033
 20
295.035195
 11
366.396033
 21
293.880487
  0
LINE
  8
OBRYS
 10
366.396033
 20
293.880487
 11
366.396033
 21
291.571071
  0
LINE
  8
OBRYS
 10
366.396033
 20
291.571071
 11
368.396033
 21
290.416364
  0
LINE
  8
OBRYS
 10
368.396033
 20
290.416364
 11
370.396033
 21
291.571071
  0
CIRCLE
  8
OBRYS
 10
368.396033
 20
292.725779
 40
2.309415
  0
CIRCLE
  8
OBRYS
 10
368.396033
 20
292.725779
 40
5.000000
  0
ENDBLK
  8
OBRYS
  0
BLOCK
  8
OBRYS
  2
Srouby_s_valcovou_hlavou__18
 70
   66
 10
405.896033
 20
255.225779
  0
LINE
  8
OBRYS
 10
407.896033
 20
254.071071
 11
407.896033
 21
256.380487
  0
LINE
  8
OBRYS
 10
407.896033
 20
256.380487
 11
405.896033
 21
257.535195
  0
LINE
  8
OBRYS
 10
405.896033
 20
257.535195
 11
403.896033
 21
256.380487
  0
LINE
  8
OBRYS
 10
403.896033
 20
256.380487
 11
403.896033
 21
254.071071
  0
LINE
  8
OBRYS
 10
403.896033
 20
254.071071
 11
405.896033
 21
252.916364
  0
LINE
  8
OBRYS
 10
405.896033
 20
252.916364
 11
407.896033
 21
254.071071
  0
CIRCLE
  8
OBRYS
 10
405.896033
 20
255.225779
 40
2.309415
  0
CIRCLE
  8
OBRYS
 10
405.896033
 20
255.225779
 40
5.000000
  0
ENDBLK
  8
OBRYS
  0
BLOCK
  8
OBRYS
  2
Srouby_s_valcovou_hlavou__19
 70
   66
 10
349.261861
 20
301.419756
  0
LINE
  8
OBRYS
 10
351.261861
 20
300.265048
 11
351.261861
 21
302.574463
  0
LINE
  8
OBRYS
 10
351.261861
 20
302.574463
 11
349.261861
 21
303.729171
  0
LINE
  8
OBRYS
 10
349.261861
 20
303.729171
 11
347.261861
 21
302.574463
  0
LINE
  8
OBRYS
 10
347.261861
 20
302.574463
 11
347.261861
 21
300.265048
  0
LINE
  8
OBRYS
 10
347.261861
 20
300.265048
 11
349.261861
 21
299.110340
  0
LINE
  8
OBRYS
 10
349.261861
 20
299.110340
 11
351.261861
 21
300.265048
  0
CIRCLE
  8
OBRYS
 10
349.261861
 20
301.419756
 40
2.309415
  0
CIRCLE
  8
OBRYS
 10
349.261861
 20
301.419756
 40
5.000000
  0
ENDBLK
  8
OBRYS
  0
BLOCK
  8
OBRYS
  2
Srouby_s_valcovou_hlavou__20
 70
   66
 10
322.202056
 20
274.359951
  0
LINE
  8
OBRYS
 10
324.202056
 20
273.205243
 11
324.202056
 21
275.514658
  0
LINE
  8
OBRYS
 10
324.202056
 20
275.514658
 11
322.202056
 21
276.669366
  0
LINE
  8
OBRYS
 10
322.202056
 20
276.669366
 11
320.202056
 21
275.514658
  0
LINE
  8
OBRYS
 10
320.202056
 20
275.514658
 11
320.202056
 21
273.205243
  0
LINE
  8
OBRYS
 10
320.202056
 20
273.205243
 11
322.202056
 21
272.050535
  0
LINE
  8
OBRYS
 10
322.202056
 20
272.050535
 11
324.202056
 21
273.205243
  0
CIRCLE
  8
OBRYS
 10
322.202056
 20
274.359951
 40
2.309415
  0
CIRCLE
  8
OBRYS
 10
322.202056
 20
274.359951
 40
5.000000
  0
ENDBLK
  8
OBRYS
  0
BLOCK
  8
OBRYS
  2
Srouby_s_valcovou_hlavou__21
 70
   66
 10
322.202056
 20
236.091607
  0
LINE
  8
OBRYS
 10
324.202056
 20
234.936900
 11
324.202056
 21
237.246315
  0
LINE
  8
OBRYS
 10
324.202056
 20
237.246315
 11
322.202056
 21
238.401023
  0
LINE
  8
OBRYS
 10
322.202056
 20
238.401023
 11
320.202056
 21
237.246315
  0
LINE
  8
OBRYS
 10
320.202056
 20
237.246315
 11
320.202056
 21
234.936900
  0
LINE
  8
OBRYS
 10
320.202056
 20
234.936900
 11
322.202056
 21
233.782192
  0
LINE
  8
OBRYS
 10
322.202056
 20
233.782192
 11
324.202056
 21
234.936900
  0
CIRCLE
  8
OBRYS
 10
322.202056
 20
236.091607
 40
2.309415
  0
CIRCLE
  8
OBRYS
 10
322.202056
 20
236.091607
 40
5.000000
  0
ENDBLK
  8
OBRYS
  0
BLOCK
  8
OBRYS
  2
Srouby_s_valcovou_hlavou__22
 70
   66
 10
349.261861
 20
209.031802
  0
LINE
  8
OBRYS
 10
351.261861
 20
207.877095
 11
351.261861
 21
210.186510
  0
LINE
  8
OBRYS
 10
351.261861
 20
210.186510
 11
349.261861
 21
211.341218
  0
LINE
  8
OBRYS
 10
349.261861
 20
211.341218
 11
347.261861
 21
210.186510
  0
LINE
  8
OBRYS
 10
347.261861
 20
210.186510
 11
347.261861
 21
207.877095
  0
LINE
  8
OBRYS
 10
347.261861
 20
207.877095
 11
349.261861
 21
206.722387
  0
LINE
  8
OBRYS
 10
349.261861
 20
206.722387
 11
351.261861
 21
207.877095
  0
CIRCLE
  8
OBRYS
 10
349.261861
 20
209.031802
 40
2.309415
  0
CIRCLE
  8
OBRYS
 10
349.261861
 20
209.031802
 40
5.000000
  0
ENDBLK
  8
OBRYS
  0
BLOCK
  8
OBRYS
  2
Srouby_s_valcovou_hlavou__23
 70
   66
 10
387.530204
 20
209.031802
  0
LINE
  8
OBRYS
 10
389.530204
 20
207.877095
 11
389.530204
 21
210.186510
  0
LINE
  8
OBRYS
 10
389.530204
 20
210.186510
 11
387.530204
 21
211.341218
  0
LINE
  8
OBRYS
 10
387.530204
 20
211.341218
 11
385.530204
 21
210.186510
  0
LINE
  8
OBRYS
 10
385.530204
 20
210.186510
 11
385.530204
 21
207.877095
  0
LINE
  8
OBRYS
 10
385.530204
 20
207.877095
 11
387.530204
 21
206.722387
  0
LINE
  8
OBRYS
 10
387.530204
 20
206.722387
 11
389.530204
 21
207.877095
  0
CIRCLE
  8
OBRYS
 10
387.530204
 20
209.031802
 40
2.309415
  0
CIRCLE
  8
OBRYS
 10
387.530204
 20
209.031802
 40
5.000000
  0
ENDBLK
  8
OBRYS
  0
BLOCK
  8
OBRYS
  2
Srouby_s_valcovou_hlavou__24
 70
   66
 10
414.590009
 20
236.091608
  0
LINE
  8
OBRYS
 10
416.590009
 20
234.936900
 11
416.590009
 21
237.246315
  0
LINE
  8
OBRYS
 10
416.590009
 20
237.246315
 11
414.590009
 21
238.401023
  0
LINE
  8
OBRYS
 10
414.590009
 20
238.401023
 11
412.590009
 21
237.246315
  0
LINE
  8
OBRYS
 10
412.590009
 20
237.246315
 11
412.590009
 21
234.936900
  0
LINE
  8
OBRYS
 10
412.590009
 20
234.936900
 11
414.590009
 21
233.782192
  0
LINE
  8
OBRYS
 10
414.590009
 20
233.782192
 11
416.590009
 21
234.936900
  0
CIRCLE
  8
OBRYS
 10
414.590009
 20
236.091608
 40
2.309415
  0
CIRCLE
  8
OBRYS
 10
414.590009
 20
236.091608
 40
5.000000
  0
ENDBLK
  8
OBRYS
  0
BLOCK
  8
OBRYS
  2
Srouby_s_valcovou_hlavou__25
 70
   66
 10
414.590009
 20
274.359951
  0
LINE
  8
OBRYS
 10
416.590009
 20
273.205243
 11
416.590009
 21
275.514659
  0
LINE
  8
OBRYS
 10
416.590009
 20
275.514659
 11
414.590009
 21
276.669367
  0
LINE
  8
OBRYS
 10
414.590009
 20
276.669367
 11
412.590009
 21
275.514659
  0
LINE
  8
OBRYS
 10
412.590009
 20
275.514659
 11
412.590009
 21
273.205243
  0
LINE
  8
OBRYS
 10
412.590009
 20
273.205243
 11
414.590009
 21
272.050536
  0
LINE
  8
OBRYS
 10
414.590009
 20
272.050536
 11
416.590009
 21
273.205243
  0
CIRCLE
  8
OBRYS
 10
414.590009
 20
274.359951
 40
2.309415
  0
CIRCLE
  8
OBRYS
 10
414.590009
 20
274.359951
 40
5.000000
  0
ENDBLK
  8
OBRYS
  0
BLOCK
  8
OBRYS
  2
Srouby_s_valcovou_hlavou__26
 70
   66
 10
387.530204
 20
301.419756
  0
LINE
  8
OBRYS
 10
389.530204
 20
300.265048
 11
389.530204
 21
302.574463
  0
LINE
  8
OBRYS
 10
389.530204
 20
302.574463
 11
387.530204
 21
303.729171
  0
LINE
  8
OBRYS
 10
387.530204
 20
303.729171
 11
385.530204
 21
302.574463
  0
LINE
  8
OBRYS
 10
385.530204
 20
302.574463
 11
385.530204
 21
300.265048
  0
LINE
  8
OBRYS
 10
385.530204
 20
300.265048
 11
387.530204
 21
299.110340
  0
LINE
  8
OBRYS
 10
387.530204
 20
299.110340
 11
389.530204
 21
300.265048
  0
CIRCLE
  8
OBRYS
 10
387.530204
 20
301.419756
 40
2.309415
  0
CIRCLE
  8
OBRYS
 10
387.530204
 20
301.419756
 40
5.000000
  0
ENDBLK
  8
OBRYS
  0
BLOCK
  8
OBRYS
  2
_27
 70
   64
 10
172.157365
 20
255.225779
  0
LINE
  8
OBRYS
 10
171.784008
 20
257.225779
 11
166.974637
 21
257.225779
  0
LINE
  8
OBRYS
 10
171.784008
 20
253.225779
 11
167.189021
 21
253.225779
  0
ARC
  8
OBRYS
 10
165.157365
 20
202.902351
 40
5.000000
 50
142.032592
 51
180.000000
  0
LINE
  8
OBRYS
 10
169.601281
 20
216.724243
 11
161.215561
 21
205.978417
  0
ARC
  8
OBRYS
 10
165.157365
 20
202.170556
 40
5.000000
 50
142.032592
 51
180.000000
  0
LINE
  8
OBRYS
 10
161.215561
 20
205.246622
 11
171.784008
 21
218.789490
  0
ARC
  8
OBRYS
 10
165.157365
 20
198.801776
 40
5.000000
 50
143.827645
 51
180.000000
  0
LINE
  8
OBRYS
 10
161.121139
 20
201.752857
 11
171.784008
 21
216.336579
  0
LINE
  8
OBRYS
 10
171.784008
 20
219.521285
 11
169.601281
 21
216.724243
  0
LINE
  8
OBRYS
 10
172.157365
 20
220.546162
 11
171.784008
 21
219.521285
  0
LINE
  8
OBRYS
 10
160.157365
 20
182.878249
 11
160.157365
 21
214.378821
  0
LINE
  8
OBRYS
 10
164.770941
 20
232.029820
 11
160.157365
 21
214.378821
  0
LINE
  8
OBRYS
 10
166.711561
 20
244.086687
 11
164.770941
 21
232.029820
  0
LINE
  8
OBRYS
 10
167.316949
 20
255.225779
 11
166.711561
 21
244.086687
  0
LINE
  8
OBRYS
 10
171.784008
 20
218.789490
 11
172.157365
 21
219.814366
  0
LINE
  8
OBRYS
 10
172.157365
 20
217.430451
 11
171.784008
 21
216.336579
  0
LINE
  8
OBRYS
 10
171.784008
 20
251.631319
 11
171.784008
 21
255.225779
  0
LINE
  8
OBRYS
 10
172.157365
 20
242.983577
 11
172.157365
 21
243.091607
  0
POLYLINE
  8
OBRYS
 66
    1
  0
VERTEX
  8
OBRYS
 10
170.226791
 20
229.091583
  0
VERTEX
  8
OBRYS
 10
170.929672
 20
229.226044
  0
VERTEX
  8
OBRYS
 10
171.676010
 20
229.624420
  0
VERTEX
  8
OBRYS
 10
171.783920
 20
229.716217
  0
VERTEX
  8
OBRYS
 10
172.088730
 20
230.271271
  0
VERTEX
  8
OBRYS
 10
172.157211
 20
230.442596
  0
VERTEX
  8
OBRYS
 10
172.157211
 20
231.141815
  0
VERTEX
  8
OBRYS
 10
172.157211
 20
232.202545
  0
VERTEX
  8
OBRYS
 10
172.157211
 20
233.412750
  0
VERTEX
  8
OBRYS
 10
172.157211
 20
234.725922
  0
VERTEX
  8
OBRYS
 10
172.157211
 20
236.091583
  0
VERTEX
  8
OBRYS
 10
172.157211
 20
237.457184
  0
VERTEX
  8
OBRYS
 10
172.157211
 20
238.770355
  0
VERTEX
  8
OBRYS
 10
172.157211
 20
239.980560
  0
VERTEX
  8
OBRYS
 10
172.157211
 20
241.041290
  0
VERTEX
  8
OBRYS
 10
172.157211
 20
241.911835
  0
VERTEX
  8
OBRYS
 10
172.157211
 20
242.558685
  0
VERTEX
  8
OBRYS
 10
172.157211
 20
242.957062
  0
VERTEX
  8
OBRYS
 10
172.157211
 20
243.091583
  0
SEQEND
  8
OBRYS
  0
LINE
  8
OBRYS
 10
169.594193
 20
239.980599
 11
169.601281
 21
239.992484
  0
ARC
  8
OBRYS
 10
181.782342
 20
233.939842
 40
13.607558
 50
153.377559
 51
176.777617
  0
POLYLINE
  8
OBRYS
 66
    1
  0
VERTEX
  8
OBRYS
 10
169.601181
 20
229.224579
  0
VERTEX
  8
OBRYS
 10
169.594101
 20
229.226044
  0
VERTEX
  8
OBRYS
 10
169.056137
 20
229.624420
  0
VERTEX
  8
OBRYS
 10
168.633408
 20
230.271271
  0
VERTEX
  8
OBRYS
 10
168.342148
 20
231.141815
  0
VERTEX
  8
OBRYS
 10
168.193710
 20
232.202545
  0
VERTEX
  8
OBRYS
 10
168.193710
 20
233.412750
  0
VERTEX
  8
OBRYS
 10
168.193710
 20
234.725922
  0
SEQEND
  8
OBRYS
  0
LINE
  8
OBRYS
 10
171.784008
 20
217.285883
 11
171.784008
 21
212.859188
  0
LINE
  8
OBRYS
 10
171.784008
 20
219.521285
 11
171.784008
 21
229.716240
  0
LINE
  8
OBRYS
 10
171.784008
 20
242.615288
 11
171.784008
 21
251.719061
  0
LINE
  8
OBRYS
 10
170.226835
 20
229.091607
 11
169.601281
 21
229.224604
  0
POLYLINE
  8
OBRYS
 66
    1
  0
VERTEX
  8
OBRYS
 10
169.601181
 20
239.992401
  0
VERTEX
  8
OBRYS
 10
170.226791
 20
241.041290
  0
VERTEX
  8
OBRYS
 10
170.929672
 20
241.911835
  0
VERTEX
  8
OBRYS
 10
171.676010
 20
242.558685
  0
VERTEX
  8
OBRYS
 10
171.783920
 20
242.615265
  0
VERTEX
  8
OBRYS
 10
172.088730
 20
242.957062
  0
VERTEX
  8
OBRYS
 10
172.157211
 20
242.983551
  0
SEQEND
  8
OBRYS
  0
LINE
  8
OBRYS
 10
162.157365
 20
267.781489
 11
162.157365
 21
255.106836
  0
LINE
  8
OBRYS
 10
172.157365
 20
287.225779
 11
172.157365
 21
298.225779
  0
LINE
  8
OBRYS
 10
171.784008
 20
289.031645
 11
172.157365
 21
288.080756
  0
POLYLINE
  8
OBRYS
 66
    1
  0
VERTEX
  8
OBRYS
 10
167.545639
 20
291.965057
  0
VERTEX
  8
OBRYS
 10
168.589828
 20
291.841949
  0
VERTEX
  8
OBRYS
 10
169.503525
 20
291.488129
  0
VERTEX
  8
OBRYS
 10
170.172226
 20
290.947723
  0
SEQEND
  8
OBRYS
  0
POLYLINE
  8
OBRYS
 66
    1
  0
VERTEX
  8
OBRYS
 10
168.476303
 20
291.503876
  0
VERTEX
  8
OBRYS
 10
168.299057
 20
291.647064
  0
VERTEX
  8
OBRYS
 10
167.689926
 20
291.882965
  0
VERTEX
  8
OBRYS
 10
166.993759
 20
291.965057
  0
SEQEND
  8
OBRYS
  0
POLYLINE
  8
OBRYS
 66
    1
  0
VERTEX
  8
OBRYS
 10
172.157211
 20
287.259674
  0
VERTEX
  8
OBRYS
 10
171.783920
 20
288.206390
  0
VERTEX
  8
OBRYS
 10
169.601181
 20
290.790009
  0
VERTEX
  8
OBRYS
 10
168.932480
 20
291.328033
  0
VERTEX
  8
OBRYS
 10
168.476303
 20
291.503876
  0
SEQEND
  8
OBRYS
  0
LINE
  8
OBRYS
 10
172.157365
 20
288.080756
 11
172.157365
 21
290.637192
  0
LINE
  8
OBRYS
 10
167.545708
 20
291.965085
 11
167.545708
 21
294.823759
  0
LINE
  8
OBRYS
 10
166.993904
 20
294.823759
 11
166.993904
 21
291.965085
  0
LINE
  8
OBRYS
 10
170.172352
 20
290.947796
 11
170.172352
 21
293.727315
  0
LINE
  8
OBRYS
 10
172.157365
 20
290.637192
 11
171.784008
 21
291.662069
  0
POLYLINE
  8
OBRYS
 66
    1
  0
VERTEX
  8
OBRYS
 10
170.172226
 20
293.727264
  0
VERTEX
  8
OBRYS
 10
169.503525
 20
294.309662
  0
VERTEX
  8
OBRYS
 10
168.589828
 20
294.691071
  0
VERTEX
  8
OBRYS
 10
167.545639
 20
294.823700
  0
SEQEND
  8
OBRYS
  0
LINE
  8
OBRYS
 10
171.784008
 20
289.031645
 11
171.784008
 21
291.662069
  0
POLYLINE
  8
OBRYS
 66
    1
  0
VERTEX
  8
OBRYS
 10
172.157211
 20
303.934662
  0
VERTEX
  8
OBRYS
 10
171.783920
 20
305.374115
  0
VERTEX
  8
OBRYS
 10
169.601181
 20
309.302704
  0
VERTEX
  8
OBRYS
 10
168.932480
 20
310.120697
  0
VERTEX
  8
OBRYS
 10
168.476303
 20
310.388153
  0
SEQEND
  8
OBRYS
  0
LINE
  8
OBRYS
 10
172.157365
 20
267.373196
 11
172.157365
 21
267.478127
  0
LINE
  8
OBRYS
 10
172.157365
 20
297.326986
 11
172.157365
 21
294.444484
  0
LINE
  8
OBRYS
 10
162.157365
 20
299.832676
 11
162.157365
 21
302.681331
  0
LINE
  8
OBRYS
 10
172.157365
 20
302.513528
 11
172.157365
 21
294.444484
  0
POLYLINE
  8
OBRYS
 66
    1
  0
VERTEX
  8
OBRYS
 10
167.917099
 20
302.681305
  0
VERTEX
  8
OBRYS
 10
166.995102
 20
302.654266
  0
VERTEX
  8
OBRYS
 10
166.974594
 20
302.649872
  0
VERTEX
  8
OBRYS
 10
162.157211
 20
302.649872
  0
VERTEX
  8
OBRYS
 10
162.157211
 20
302.654266
  0
VERTEX
  8
OBRYS
 10
162.157211
 20
302.681305
  0
SEQEND
  8
OBRYS
  0
POLYLINE
  8
OBRYS
 66
    1
  0
VERTEX
  8
OBRYS
 10
169.499619
 20
268.753998
  0
VERTEX
  8
OBRYS
 10
169.191391
 20
268.734283
  0
VERTEX
  8
OBRYS
 10
168.932480
 20
268.642487
  0
VERTEX
  8
OBRYS
 10
168.888779
 20
268.635040
  0
VERTEX
  8
OBRYS
 10
168.387070
 20
268.460236
  0
VERTEX
  8
OBRYS
 10
168.018784
 20
268.235748
  0
VERTEX
  8
OBRYS
 10
167.917099
 20
268.216888
  0
VERTEX
  8
OBRYS
 10
166.995102
 20
267.914825
  0
VERTEX
  8
OBRYS
 10
166.974594
 20
267.900360
  0
VERTEX
  8
OBRYS
 10
162.157211
 20
267.900360
  0
VERTEX
  8
OBRYS
 10
162.157211
 20
267.914825
  0
VERTEX
  8
OBRYS
 10
162.157211
 20
268.216888
  0
VERTEX
  8
OBRYS
 10
162.157211
 20
268.460236
  0
VERTEX
  8
OBRYS
 10
162.157211
 20
268.635040
  0
VERTEX
  8
OBRYS
 10
162.157211
 20
268.734283
  0
VERTEX
  8
OBRYS
 10
162.157211
 20
268.753998
  0
SEQEND
  8
OBRYS
  0
POLYLINE
  8
OBRYS
 66
    1
  0
VERTEX
  8
OBRYS
 10
166.157211
 20
268.753998
  0
VERTEX
  8
OBRYS
 10
166.157211
 20
269.011932
  0
VERTEX
  8
OBRYS
 10
166.157211
 20
269.965057
  0
VERTEX
  8
OBRYS
 10
166.157211
 20
271.077545
  0
VERTEX
  8
OBRYS
 10
166.157211
 20
272.309052
  0
VERTEX
  8
OBRYS
 10
166.157211
 20
273.614899
  0
VERTEX
  8
OBRYS
 10
166.157211
 20
274.947784
  0
VERTEX
  8
OBRYS
 10
166.157211
 20
276.259308
  0
VERTEX
  8
OBRYS
 10
166.157211
 20
277.501984
  0
VERTEX
  8
OBRYS
 10
166.157211
 20
278.630768
  0
VERTEX
  8
OBRYS
 10
166.157211
 20
279.604645
  0
VERTEX
  8
OBRYS
 10
166.157211
 20
279.973297
  0
VERTEX
  8
OBRYS
 10
166.017563
 20
280.388336
  0
VERTEX
  8
OBRYS
 10
165.928940
 20
280.613800
  0
VERTEX
  8
OBRYS
 10
165.278549
 20
281.106537
  0
VERTEX
  8
OBRYS
 10
164.305283
 20
281.435760
  0
VERTEX
  8
OBRYS
 10
163.157211
 20
281.551422
  0
VERTEX
  8
OBRYS
 10
162.157211
 20
281.551422
  0
VERTEX
  8
OBRYS
 10
162.157211
 20
282.652802
  0
VERTEX
  8
OBRYS
 10
162.157211
 20
282.890289
  0
VERTEX
  8
OBRYS
 10
162.157211
 20
283.187531
  0
VERTEX
  8
OBRYS
 10
162.157211
 20
283.532562
  0
VERTEX
  8
OBRYS
 10
162.157211
 20
283.911407
  0
VERTEX
  8
OBRYS
 10
162.157211
 20
284.308990
  0
VERTEX
  8
OBRYS
 10
162.157211
 20
284.709198
  0
VERTEX
  8
OBRYS
 10
162.157211
 20
284.725250
  0
VERTEX
  8
OBRYS
 10
166.974594
 20
284.725250
  0
VERTEX
  8
OBRYS
 10
166.995102
 20
284.709198
  0
VERTEX
  8
OBRYS
 10
167.917099
 20
284.308990
  0
VERTEX
  8
OBRYS
 10
168.018784
 20
284.278168
  0
VERTEX
  8
OBRYS
 10
168.387070
 20
283.911407
  0
VERTEX
  8
OBRYS
 10
168.888779
 20
283.532562
  0
VERTEX
  8
OBRYS
 10
168.932480
 20
283.506744
  0
VERTEX
  8
OBRYS
 10
169.191391
 20
283.187531
  0
VERTEX
  8
OBRYS
 10
169.499619
 20
282.890289
  0
VERTEX
  8
OBRYS
 10
169.601181
 20
282.815826
  0
VERTEX
  8
OBRYS
 10
169.752304
 20
282.652802
  0
VERTEX
  8
OBRYS
 10
171.783920
 20
280.788849
  0
VERTEX
  8
OBRYS
 10
171.987656
 20
280.388336
  0
VERTEX
  8
OBRYS
 10
172.157211
 20
279.999481
  0
SEQEND
  8
OBRYS
  0
LINE
  8
OBRYS
 10
166.157365
 20
268.754043
 11
166.157365
 21
279.973330
  0
POLYLINE
  8
OBRYS
 66
    1
  0
VERTEX
  8
OBRYS
 10
162.157211
 20
305.382599
  0
VERTEX
  8
OBRYS
 10
163.157211
 20
305.382599
  0
VERTEX
  8
OBRYS
 10
164.305283
 20
305.162384
  0
VERTEX
  8
OBRYS
 10
165.278549
 20
304.535065
  0
VERTEX
  8
OBRYS
 10
165.928940
 20
303.596344
  0
VERTEX
  8
OBRYS
 10
166.017563
 20
303.166718
  0
VERTEX
  8
OBRYS
 10
166.114853
 20
302.681305
  0
SEQEND
  8
OBRYS
  0
POLYLINE
  8
OBRYS
 66
    1
  0
VERTEX
  8
OBRYS
 10
166.157211
 20
279.973297
  0
VERTEX
  8
OBRYS
 10
166.017563
 20
280.388336
  0
VERTEX
  8
OBRYS
 10
165.928940
 20
280.613800
  0
VERTEX
  8
OBRYS
 10
165.278549
 20
281.106537
  0
VERTEX
  8
OBRYS
 10
164.305283
 20
281.435760
  0
VERTEX
  8
OBRYS
 10
163.157211
 20
281.551422
  0
VERTEX
  8
OBRYS
 10
162.157211
 20
281.551422
  0
SEQEND
  8
OBRYS
  0
LINE
  8
OBRYS
 10
162.157365
 20
299.832676
 11
162.157365
 21
281.551449
  0
LINE
  8
OBRYS
 10
166.974637
 20
255.225779
 11
166.974637
 21
267.900432
  0
LINE
  8
OBRYS
 10
166.974637
 20
284.725276
 11
166.974637
 21
302.649942
  0
LINE
  8
OBRYS
 10
166.974637
 20
309.619021
 11
166.974637
 21
311.225779
  0
LINE
  8
OBRYS
 10
162.157365
 20
302.649942
 11
162.157365
 21
284.725276
  0
LINE
  8
OBRYS
 10
169.601281
 20
307.753277
 11
169.601281
 21
309.302735
  0
LINE
  8
OBRYS
 10
171.784008
 20
255.225779
 11
171.784008
 21
267.778125
  0
LINE
  8
OBRYS
 10
171.784008
 20
280.788906
 11
171.784008
 21
288.206428
  0
LINE
  8
OBRYS
 10
171.784008
 20
290.930273
 11
171.784008
 21
298.540603
  0
LINE
  8
OBRYS
 10
171.784008
 20
303.929845
 11
171.784008
 21
305.374178
  0
POLYLINE
  8
OBRYS
 66
    1
  0
VERTEX
  8
OBRYS
 10
172.157211
 20
267.478058
  0
VERTEX
  8
OBRYS
 10
171.987656
 20
267.581390
  0
VERTEX
  8
OBRYS
 10
171.783920
 20
267.778046
  0
VERTEX
  8
OBRYS
 10
169.752304
 20
268.693329
  0
VERTEX
  8
OBRYS
 10
169.601181
 20
268.734955
  0
VERTEX
  8
OBRYS
 10
169.499619
 20
268.753998
  0
SEQEND
  8
OBRYS
  0
ARC
  8
OBRYS
 10
167.747130
 20
299.167970
 40
3.518602
 50
70.236041
 51
87.431499
  0
POLYLINE
  8
OBRYS
 66
    1
  0
VERTEX
  8
OBRYS
 10
172.157211
 20
297.326935
  0
VERTEX
  8
OBRYS
 10
171.987656
 20
297.861908
  0
VERTEX
  8
OBRYS
 10
171.783920
 20
298.540558
  0
VERTEX
  8
OBRYS
 10
169.752304
 20
301.698883
  0
VERTEX
  8
OBRYS
 10
169.601181
 20
301.920746
  0
VERTEX
  8
OBRYS
 10
169.499619
 20
302.022186
  0
VERTEX
  8
OBRYS
 10
169.191391
 20
302.291534
  0
VERTEX
  8
OBRYS
 10
168.932480
 20
302.480865
  0
SEQEND
  8
OBRYS
  0
LINE
  8
OBRYS
 10
172.157365
 20
279.999548
 11
172.157365
 21
287.259738
  0
LINE
  8
OBRYS
 10
172.157365
 20
289.905397
 11
172.157365
 21
297.326985
  0
LINE
  8
OBRYS
 10
172.157365
 20
302.513528
 11
172.157365
 21
303.934697
  0
LINE
  8
OBRYS
 10
172.157365
 20
293.021107
 11
172.157365
 21
292.076633
  0
LINE
  8
OBRYS
 10
172.157365
 20
288.080756
 11
172.157365
 21
287.259738
  0
LINE
  8
OBRYS
 10
170.172352
 20
290.947796
 11
171.784008
 21
289.031645
  0
LINE
  8
OBRYS
 10
166.993904
 20
291.965085
 11
167.545708
 21
291.965085
  0
LINE
  8
OBRYS
 10
167.545708
 20
294.823759
 11
166.993904
 21
294.823759
  0
LINE
  8
OBRYS
 10
171.784008
 20
291.662069
 11
170.172352
 21
293.727315
  0
LINE
  8
OBRYS
 10
166.157365
 20
268.754043
 11
162.157365
 21
268.754043
  0
LINE
  8
OBRYS
 10
162.157365
 20
302.681331
 11
166.114901
 21
302.681331
  0
LINE
  8
OBRYS
 10
162.157365
 20
302.681331
 11
167.917232
 21
302.681331
  0
LINE
  8
OBRYS
 10
169.752373
 20
307.481147
 11
162.157365
 21
307.481147
  0
LINE
  8
OBRYS
 10
171.987799
 20
303.166758
 11
166.017599
 21
303.166758
  0
LINE
  8
OBRYS
 10
162.157365
 20
268.754043
 11
169.499658
 21
268.754043
  0
LINE
  8
OBRYS
 10
169.752373
 20
282.652865
 11
162.157365
 21
282.652865
  0
LINE
  8
OBRYS
 10
171.987799
 20
280.388387
 11
166.017599
 21
280.388387
  0
ARC
  8
OBRYS
 10
162.157365
 20
234.126110
 40
6.000000
 50
90.000000
 51
180.000000
  0
LINE
  8
OBRYS
 10
162.157365
 20
255.225779
 11
162.157365
 21
240.126110
  0
LINE
  8
OBRYS
 10
171.570526
 20
201.805108
 11
166.709318
 21
201.805108
  0
ARC
  8
OBRYS
 10
165.157365
 20
189.266044
 40
5.000000
 50
152.775520
 51
180.000000
  0
LINE
  8
OBRYS
 10
160.711260
 20
191.553433
 11
171.603470
 21
212.725127
  0
ARC
  8
OBRYS
 10
167.157365
 20
215.012516
 40
5.000000
 50
332.775520
 51
360.000000
  0
ARC
  8
OBRYS
 10
162.157365
 20
182.878248
 40
2.000000
 50
180.000000
 51
268.000002
  0
LINE
  8
OBRYS
 62
     4
  6
HIDDEN2
 10
175.657365
 20
170.225779
 11
175.657365
 21
180.405599
  0
LINE
  8
OBRYS
 62
     4
  6
HIDDEN2
 10
166.657365
 20
170.225779
 11
166.657365
 21
180.719885
  0
ARC
  8
OBRYS
 10
169.157365
 20
305.305079
 40
3.000000
 50
0.000000
 51
28.890129
  0
LINE
  8
OBRYS
 10
163.506859
 20
311.225779
 11
163.586743
 21
311.225779
  0
LINE
  8
OBRYS
 62
     7
  6
DASHDOT
 10
171.157365
 20
170.225779
 11
171.157365
 21
180.562743
  0
LINE
  8
OBRYS
 10
172.157365
 20
285.225779
 11
172.157365
 21
255.225779
  0
LINE
  8
OBRYS
 10
172.157365
 20
225.225779
 11
172.157365
 21
255.225779
  0
LINE
  8
OBRYS
 10
171.784008
 20
306.754474
 11
170.172352
 21
309.675174
  0
ARC
  8
OBRYS
 10
167.545708
 20
308.225779
 40
3.000000
 50
28.890129
 51
90.000000
  0
LINE
  8
OBRYS
 10
156.157365
 20
170.225779
 11
156.157365
 21
234.126110
  0
LINE
  8
OBRYS
 10
180.157365
 20
170.225779
 11
156.157365
 21
170.225779
  0
LINE
  8
OBRYS
 10
180.157365
 20
170.225779
 11
180.157365
 21
180.225779
  0
LINE
  8
OBRYS
 10
172.353314
 20
198.622356
 11
180.157365
 21
180.225779
  0
LINE
  8
OBRYS
 10
172.157365
 20
199.485721
 11
172.157365
 21
225.225779
  0
ARC
  8
OBRYS
 10
174.157365
 20
199.485721
 40
2.000000
 50
180.000000
 51
205.574382
  0
LINE
  8
OBRYS
 10
172.157365
 20
199.485718
 11
172.157365
 21
205.146479
  0
LINE
  8
OBRYS
 10
172.157365
 20
305.305079
 11
172.157365
 21
285.225779
  0
LINE
  8
OBRYS
 62
     7
  6
DASHDOT
 10
174.466303
 20
255.225779
 11
157.637365
 21
255.225779
  0
LINE
  8
OBRYS
 10
180.157365
 20
180.213535
 11
162.087566
 21
180.879466
  0
LINE
  8
OBRYS
 10
167.545708
 20
311.225779
 11
162.157365
 21
311.225779
  0
LINE
  8
OBRYS
 10
166.114901
 20
302.681331
 11
166.017599
 21
303.166758
  0
LINE
  8
OBRYS
 10
166.017599
 20
303.166758
 11
165.929003
 21
303.596369
  0
LINE
  8
OBRYS
 10
165.929003
 20
303.596369
 11
165.278685
 21
304.535143
  0
LINE
  8
OBRYS
 10
165.278685
 20
304.535143
 11
164.305415
 21
305.162411
  0
LINE
  8
OBRYS
 10
164.305415
 20
305.162411
 11
163.157365
 21
305.382678
  0
LINE
  8
OBRYS
 10
163.157365
 20
305.382678
 11
162.157365
 21
305.382678
  0
LINE
  8
OBRYS
 10
162.157365
 20
305.382678
 11
162.157365
 21
307.481147
  0
LINE
  8
OBRYS
 10
162.157365
 20
307.481147
 11
162.157365
 21
307.877665
  0
LINE
  8
OBRYS
 10
162.157365
 20
307.877665
 11
162.157365
 21
308.278311
  0
LINE
  8
OBRYS
 10
162.157365
 20
308.278311
 11
162.157365
 21
308.666969
  0
LINE
  8
OBRYS
 10
162.157365
 20
308.666969
 11
162.157365
 21
311.225779
  0
LINE
  8
OBRYS
 10
162.157365
 20
309.028005
 11
162.157365
 21
309.346894
  0
LINE
  8
OBRYS
 10
162.157365
 20
309.346894
 11
162.157365
 21
309.610811
  0
LINE
  8
OBRYS
 10
162.157365
 20
309.610811
 11
162.157365
 21
309.619021
  0
LINE
  8
OBRYS
 10
162.157365
 20
309.619021
 11
166.974637
 21
309.619021
  0
LINE
  8
OBRYS
 10
166.974637
 20
309.619021
 11
166.995146
 21
309.610811
  0
LINE
  8
OBRYS
 10
166.995146
 20
309.610811
 11
167.917232
 21
309.346894
  0
LINE
  8
OBRYS
 10
167.917232
 20
309.346894
 11
168.018879
 21
309.322183
  0
LINE
  8
OBRYS
 10
168.018879
 20
309.322183
 11
168.387132
 21
309.028005
  0
LINE
  8
OBRYS
 10
168.387132
 20
309.028005
 11
168.888829
 21
308.666969
  0
LINE
  8
OBRYS
 10
168.888829
 20
308.666969
 11
168.932516
 21
308.637896
  0
LINE
  8
OBRYS
 10
168.932516
 20
308.637896
 11
169.191516
 21
308.278311
  0
LINE
  8
OBRYS
 10
169.191516
 20
308.278311
 11
169.499658
 21
307.877665
  0
LINE
  8
OBRYS
 10
169.499658
 20
307.877665
 11
169.601281
 21
307.753277
  0
LINE
  8
OBRYS
 10
169.601281
 20
307.753277
 11
169.752373
 21
307.481147
  0
LINE
  8
OBRYS
 10
169.752373
 20
307.481147
 11
171.784008
 21
303.929845
  0
LINE
  8
OBRYS
 10
171.784008
 20
303.929845
 11
171.987799
 21
303.166758
  0
LINE
  8
OBRYS
 10
171.987799
 20
303.166758
 11
172.157365
 21
302.513528
  0
ENDBLK
  8
OBRYS
  0
BLOCK
  8
OBRYS
  2
_28
 70
   64
 10
74.157365
 20
255.225779
  0
LINE
  8
OBRYS
 10
74.530722
 20
257.225779
 11
79.340092
 21
257.225779
  0
LINE
  8
OBRYS
 10
74.530722
 20
253.225779
 11
79.125708
 21
253.225779
  0
ARC
  8
OBRYS
 10
81.157365
 20
202.902351
 40
5.000000
 50
0.000000
 51
37.967408
  0
LINE
  8
OBRYS
 10
76.713449
 20
216.724243
 11
85.099169
 21
205.978417
  0
ARC
  8
OBRYS
 10
81.157365
 20
202.170556
 40
5.000000
 50
0.000000
 51
37.967408
  0
LINE
  8
OBRYS
 10
85.099169
 20
205.246622
 11
74.530722
 21
218.789490
  0
ARC
  8
OBRYS
 10
81.157365
 20
198.801776
 40
5.000000
 50
0.000000
 51
36.172355
  0
LINE
  8
OBRYS
 10
85.193591
 20
201.752857
 11
74.530722
 21
216.336579
  0
LINE
  8
OBRYS
 10
74.530722
 20
219.521285
 11
76.713449
 21
216.724243
  0
LINE
  8
OBRYS
 10
74.157365
 20
220.546162
 11
74.530722
 21
219.521285
  0
LINE
  8
OBRYS
 10
86.157365
 20
182.878249
 11
86.157365
 21
214.378821
  0
LINE
  8
OBRYS
 10
81.543789
 20
232.029820
 11
86.157365
 21
214.378821
  0
LINE
  8
OBRYS
 10
79.603169
 20
244.086687
 11
81.543789
 21
232.029820
  0
LINE
  8
OBRYS
 10
78.997781
 20
255.225779
 11
79.603169
 21
244.086687
  0
LINE
  8
OBRYS
 10
74.530722
 20
218.789490
 11
74.157365
 21
219.814366
  0
LINE
  8
OBRYS
 10
74.157365
 20
217.430451
 11
74.530722
 21
216.336579
  0
LINE
  8
OBRYS
 10
74.530722
 20
251.631319
 11
74.530722
 21
255.225779
  0
LINE
  8
OBRYS
 10
74.157365
 20
242.983577
 11
74.157365
 21
243.091607
  0
POLYLINE
  8
OBRYS
 66
    1
  0
VERTEX
  8
OBRYS
 10
76.087936
 20
229.091583
  0
VERTEX
  8
OBRYS
 10
75.385056
 20
229.226044
  0
VERTEX
  8
OBRYS
 10
74.638718
 20
229.624420
  0
VERTEX
  8
OBRYS
 10
74.530807
 20
229.716217
  0
VERTEX
  8
OBRYS
 10
74.225998
 20
230.271271
  0
VERTEX
  8
OBRYS
 10
74.157516
 20
230.442596
  0
VERTEX
  8
OBRYS
 10
74.157516
 20
231.141815
  0
VERTEX
  8
OBRYS
 10
74.157516
 20
232.202545
  0
VERTEX
  8
OBRYS
 10
74.157516
 20
233.412750
  0
VERTEX
  8
OBRYS
 10
74.157516
 20
234.725922
  0
VERTEX
  8
OBRYS
 10
74.157516
 20
236.091583
  0
VERTEX
  8
OBRYS
 10
74.157516
 20
237.457184
  0
VERTEX
  8
OBRYS
 10
74.157516
 20
238.770355
  0
VERTEX
  8
OBRYS
 10
74.157516
 20
239.980560
  0
VERTEX
  8
OBRYS
 10
74.157516
 20
241.041290
  0
VERTEX
  8
OBRYS
 10
74.157516
 20
241.911835
  0
VERTEX
  8
OBRYS
 10
74.157516
 20
242.558685
  0
VERTEX
  8
OBRYS
 10
74.157516
 20
242.957062
  0
VERTEX
  8
OBRYS
 10
74.157516
 20
243.091583
  0
SEQEND
  8
OBRYS
  0
LINE
  8
OBRYS
 10
76.720537
 20
239.980599
 11
76.713449
 21
239.992484
  0
ARC
  8
OBRYS
 10
64.532387
 20
233.939842
 40
13.607558
 50
3.222383
 51
26.622441
  0
POLYLINE
  8
OBRYS
 66
    1
  0
VERTEX
  8
OBRYS
 10
76.713547
 20
229.224579
  0
VERTEX
  8
OBRYS
 10
76.720627
 20
229.226044
  0
VERTEX
  8
OBRYS
 10
77.258591
 20
229.624420
  0
VERTEX
  8
OBRYS
 10
77.681320
 20
230.271271
  0
VERTEX
  8
OBRYS
 10
77.972580
 20
231.141815
  0
VERTEX
  8
OBRYS
 10
78.121017
 20
232.202545
  0
VERTEX
  8
OBRYS
 10
78.121017
 20
233.412750
  0
VERTEX
  8
OBRYS
 10
78.121017
 20
234.725922
  0
SEQEND
  8
OBRYS
  0
LINE
  8
OBRYS
 10
74.530722
 20
217.285883
 11
74.530722
 21
212.859188
  0
LINE
  8
OBRYS
 10
74.530722
 20
219.521285
 11
74.530722
 21
229.716240
  0
LINE
  8
OBRYS
 10
74.530722
 20
242.615288
 11
74.530722
 21
251.719061
  0
LINE
  8
OBRYS
 10
76.087895
 20
229.091607
 11
76.713449
 21
229.224604
  0
POLYLINE
  8
OBRYS
 66
    1
  0
VERTEX
  8
OBRYS
 10
76.713547
 20
239.992401
  0
VERTEX
  8
OBRYS
 10
76.087936
 20
241.041290
  0
VERTEX
  8
OBRYS
 10
75.385056
 20
241.911835
  0
VERTEX
  8
OBRYS
 10
74.638718
 20
242.558685
  0
VERTEX
  8
OBRYS
 10
74.530807
 20
242.615265
  0
VERTEX
  8
OBRYS
 10
74.225998
 20
242.957062
  0
VERTEX
  8
OBRYS
 10
74.157516
 20
242.983551
  0
SEQEND
  8
OBRYS
  0
LINE
  8
OBRYS
 10
84.157365
 20
267.781489
 11
84.157365
 21
255.106836
  0
LINE
  8
OBRYS
 10
74.157365
 20
287.225779
 11
74.157365
 21
298.225779
  0
LINE
  8
OBRYS
 10
74.530722
 20
289.031645
 11
74.157365
 21
288.080756
  0
POLYLINE
  8
OBRYS
 66
    1
  0
VERTEX
  8
OBRYS
 10
78.769089
 20
291.965057
  0
VERTEX
  8
OBRYS
 10
77.724899
 20
291.841949
  0
VERTEX
  8
OBRYS
 10
76.811203
 20
291.488129
  0
VERTEX
  8
OBRYS
 10
76.142502
 20
290.947723
  0
SEQEND
  8
OBRYS
  0
POLYLINE
  8
OBRYS
 66
    1
  0
VERTEX
  8
OBRYS
 10
77.838425
 20
291.503876
  0
VERTEX
  8
OBRYS
 10
78.015671
 20
291.647064
  0
VERTEX
  8
OBRYS
 10
78.624802
 20
291.882965
  0
VERTEX
  8
OBRYS
 10
79.320969
 20
291.965057
  0
SEQEND
  8
OBRYS
  0
POLYLINE
  8
OBRYS
 66
    1
  0
VERTEX
  8
OBRYS
 10
74.157516
 20
287.259674
  0
VERTEX
  8
OBRYS
 10
74.530807
 20
288.206390
  0
VERTEX
  8
OBRYS
 10
76.713547
 20
290.790009
  0
VERTEX
  8
OBRYS
 10
77.382248
 20
291.328033
  0
VERTEX
  8
OBRYS
 10
77.838425
 20
291.503876
  0
SEQEND
  8
OBRYS
  0
LINE
  8
OBRYS
 10
74.157365
 20
288.080756
 11
74.157365
 21
290.637192
  0
LINE
  8
OBRYS
 10
78.769021
 20
291.965085
 11
78.769021
 21
294.823759
  0
LINE
  8
OBRYS
 10
79.320826
 20
294.823759
 11
79.320826
 21
291.965085
  0
LINE
  8
OBRYS
 10
76.142378
 20
290.947796
 11
76.142378
 21
293.727315
  0
LINE
  8
OBRYS
 10
74.157365
 20
290.637192
 11
74.530722
 21
291.662069
  0
POLYLINE
  8
OBRYS
 66
    1
  0
VERTEX
  8
OBRYS
 10
76.142502
 20
293.727264
  0
VERTEX
  8
OBRYS
 10
76.811203
 20
294.309662
  0
VERTEX
  8
OBRYS
 10
77.724899
 20
294.691071
  0
VERTEX
  8
OBRYS
 10
78.769089
 20
294.823700
  0
SEQEND
  8
OBRYS
  0
LINE
  8
OBRYS
 10
74.530722
 20
289.031645
 11
74.530722
 21
291.662069
  0
POLYLINE
  8
OBRYS
 66
    1
  0
VERTEX
  8
OBRYS
 10
74.157516
 20
303.934662
  0
VERTEX
  8
OBRYS
 10
74.530807
 20
305.374115
  0
VERTEX
  8
OBRYS
 10
76.713547
 20
309.302704
  0
VERTEX
  8
OBRYS
 10
77.382248
 20
310.120697
  0
VERTEX
  8
OBRYS
 10
77.838425
 20
310.388153
  0
SEQEND
  8
OBRYS
  0
LINE
  8
OBRYS
 10
74.157365
 20
267.373196
 11
74.157365
 21
267.478127
  0
LINE
  8
OBRYS
 10
74.157365
 20
297.326986
 11
74.157365
 21
294.444484
  0
LINE
  8
OBRYS
 10
84.157365
 20
299.832676
 11
84.157365
 21
302.681331
  0
LINE
  8
OBRYS
 10
74.157365
 20
302.513528
 11
74.157365
 21
294.444484
  0
POLYLINE
  8
OBRYS
 66
    1
  0
VERTEX
  8
OBRYS
 10
78.397629
 20
302.681305
  0
VERTEX
  8
OBRYS
 10
79.319626
 20
302.654266
  0
VERTEX
  8
OBRYS
 10
79.340134
 20
302.649872
  0
VERTEX
  8
OBRYS
 10
84.157516
 20
302.649872
  0
VERTEX
  8
OBRYS
 10
84.157516
 20
302.654266
  0
VERTEX
  8
OBRYS
 10
84.157516
 20
302.681305
  0
SEQEND
  8
OBRYS
  0
POLYLINE
  8
OBRYS
 66
    1
  0
VERTEX
  8
OBRYS
 10
76.815109
 20
268.753998
  0
VERTEX
  8
OBRYS
 10
77.123337
 20
268.734283
  0
VERTEX
  8
OBRYS
 10
77.382248
 20
268.642487
  0
VERTEX
  8
OBRYS
 10
77.425949
 20
268.635040
  0
VERTEX
  8
OBRYS
 10
77.927658
 20
268.460236
  0
VERTEX
  8
OBRYS
 10
78.295944
 20
268.235748
  0
VERTEX
  8
OBRYS
 10
78.397629
 20
268.216888
  0
VERTEX
  8
OBRYS
 10
79.319626
 20
267.914825
  0
VERTEX
  8
OBRYS
 10
79.340134
 20
267.900360
  0
VERTEX
  8
OBRYS
 10
84.157516
 20
267.900360
  0
VERTEX
  8
OBRYS
 10
84.157516
 20
267.914825
  0
VERTEX
  8
OBRYS
 10
84.157516
 20
268.216888
  0
VERTEX
  8
OBRYS
 10
84.157516
 20
268.460236
  0
VERTEX
  8
OBRYS
 10
84.157516
 20
268.635040
  0
VERTEX
  8
OBRYS
 10
84.157516
 20
268.734283
  0
VERTEX
  8
OBRYS
 10
84.157516
 20
268.753998
  0
SEQEND
  8
OBRYS
  0
POLYLINE
  8
OBRYS
 66
    1
  0
VERTEX
  8
OBRYS
 10
80.157516
 20
268.753998
  0
VERTEX
  8
OBRYS
 10
80.157516
 20
269.011932
  0
VERTEX
  8
OBRYS
 10
80.157516
 20
269.965057
  0
VERTEX
  8
OBRYS
 10
80.157516
 20
271.077545
  0
VERTEX
  8
OBRYS
 10
80.157516
 20
272.309052
  0
VERTEX
  8
OBRYS
 10
80.157516
 20
273.614899
  0
VERTEX
  8
OBRYS
 10
80.157516
 20
274.947784
  0
VERTEX
  8
OBRYS
 10
80.157516
 20
276.259308
  0
VERTEX
  8
OBRYS
 10
80.157516
 20
277.501984
  0
VERTEX
  8
OBRYS
 10
80.157516
 20
278.630768
  0
VERTEX
  8
OBRYS
 10
80.157516
 20
279.604645
  0
VERTEX
  8
OBRYS
 10
80.157516
 20
279.973297
  0
VERTEX
  8
OBRYS
 10
80.297165
 20
280.388336
  0
VERTEX
  8
OBRYS
 10
80.385788
 20
280.613800
  0
VERTEX
  8
OBRYS
 10
81.036179
 20
281.106537
  0
VERTEX
  8
OBRYS
 10
82.009445
 20
281.435760
  0
VERTEX
  8
OBRYS
 10
83.157516
 20
281.551422
  0
VERTEX
  8
OBRYS
 10
84.157516
 20
281.551422
  0
VERTEX
  8
OBRYS
 10
84.157516
 20
282.652802
  0
VERTEX
  8
OBRYS
 10
84.157516
 20
282.890289
  0
VERTEX
  8
OBRYS
 10
84.157516
 20
283.187531
  0
VERTEX
  8
OBRYS
 10
84.157516
 20
283.532562
  0
VERTEX
  8
OBRYS
 10
84.157516
 20
283.911407
  0
VERTEX
  8
OBRYS
 10
84.157516
 20
284.308990
  0
VERTEX
  8
OBRYS
 10
84.157516
 20
284.709198
  0
VERTEX
  8
OBRYS
 10
84.157516
 20
284.725250
  0
VERTEX
  8
OBRYS
 10
79.340134
 20
284.725250
  0
VERTEX
  8
OBRYS
 10
79.319626
 20
284.709198
  0
VERTEX
  8
OBRYS
 10
78.397629
 20
284.308990
  0
VERTEX
  8
OBRYS
 10
78.295944
 20
284.278168
  0
VERTEX
  8
OBRYS
 10
77.927658
 20
283.911407
  0
VERTEX
  8
OBRYS
 10
77.425949
 20
283.532562
  0
VERTEX
  8
OBRYS
 10
77.382248
 20
283.506744
  0
VERTEX
  8
OBRYS
 10
77.123337
 20
283.187531
  0
VERTEX
  8
OBRYS
 10
76.815109
 20
282.890289
  0
VERTEX
  8
OBRYS
 10
76.713547
 20
282.815826
  0
VERTEX
  8
OBRYS
 10
76.562424
 20
282.652802
  0
VERTEX
  8
OBRYS
 10
74.530807
 20
280.788849
  0
VERTEX
  8
OBRYS
 10
74.327072
 20
280.388336
  0
VERTEX
  8
OBRYS
 10
74.157516
 20
279.999481
  0
SEQEND
  8
OBRYS
  0
LINE
  8
OBRYS
 10
80.157365
 20
268.754043
 11
80.157365
 21
279.973330
  0
POLYLINE
  8
OBRYS
 66
    1
  0
VERTEX
  8
OBRYS
 10
84.157516
 20
305.382599
  0
VERTEX
  8
OBRYS
 10
83.157516
 20
305.382599
  0
VERTEX
  8
OBRYS
 10
82.009445
 20
305.162384
  0
VERTEX
  8
OBRYS
 10
81.036179
 20
304.535065
  0
VERTEX
  8
OBRYS
 10
80.385788
 20
303.596344
  0
VERTEX
  8
OBRYS
 10
80.297165
 20
303.166718
  0
VERTEX
  8
OBRYS
 10
80.199875
 20
302.681305
  0
SEQEND
  8
OBRYS
  0
POLYLINE
  8
OBRYS
 66
    1
  0
VERTEX
  8
OBRYS
 10
80.157516
 20
279.973297
  0
VERTEX
  8
OBRYS
 10
80.297165
 20
280.388336
  0
VERTEX
  8
OBRYS
 10
80.385788
 20
280.613800
  0
VERTEX
  8
OBRYS
 10
81.036179
 20
281.106537
  0
VERTEX
  8
OBRYS
 10
82.009445
 20
281.435760
  0
VERTEX
  8
OBRYS
 10
83.157516
 20
281.551422
  0
VERTEX
  8
OBRYS
 10
84.157516
 20
281.551422
  0
SEQEND
  8
OBRYS
  0
LINE
  8
OBRYS
 10
84.157365
 20
299.832676
 11
84.157365
 21
281.551449
  0
LINE
  8
OBRYS
 10
79.340092
 20
255.225779
 11
79.340092
 21
267.900432
  0
LINE
  8
OBRYS
 10
79.340092
 20
284.725276
 11
79.340092
 21
302.649942
  0
LINE
  8
OBRYS
 10
79.340092
 20
309.619021
 11
79.340092
 21
311.225779
  0
LINE
  8
OBRYS
 10
84.157365
 20
302.649942
 11
84.157365
 21
284.725276
  0
LINE
  8
OBRYS
 10
76.713449
 20
307.753277
 11
76.713449
 21
309.302735
  0
LINE
  8
OBRYS
 10
74.530722
 20
255.225779
 11
74.530722
 21
267.778125
  0
LINE
  8
OBRYS
 10
74.530722
 20
280.788906
 11
74.530722
 21
288.206428
  0
LINE
  8
OBRYS
 10
74.530722
 20
290.930273
 11
74.530722
 21
298.540603
  0
LINE
  8
OBRYS
 10
74.530722
 20
303.929845
 11
74.530722
 21
305.374178
  0
POLYLINE
  8
OBRYS
 66
    1
  0
VERTEX
  8
OBRYS
 10
74.157516
 20
267.478058
  0
VERTEX
  8
OBRYS
 10
74.327072
 20
267.581390
  0
VERTEX
  8
OBRYS
 10
74.530807
 20
267.778046
  0
VERTEX
  8
OBRYS
 10
76.562424
 20
268.693329
  0
VERTEX
  8
OBRYS
 10
76.713547
 20
268.734955
  0
VERTEX
  8
OBRYS
 10
76.815109
 20
268.753998
  0
SEQEND
  8
OBRYS
  0
ARC
  8
OBRYS
 10
78.567600
 20
299.167970
 40
3.518602
 50
92.568501
 51
109.763959
  0
POLYLINE
  8
OBRYS
 66
    1
  0
VERTEX
  8
OBRYS
 10
74.157516
 20
297.326935
  0
VERTEX
  8
OBRYS
 10
74.327072
 20
297.861908
  0
VERTEX
  8
OBRYS
 10
74.530807
 20
298.540558
  0
VERTEX
  8
OBRYS
 10
76.562424
 20
301.698883
  0
VERTEX
  8
OBRYS
 10
76.713547
 20
301.920746
  0
VERTEX
  8
OBRYS
 10
76.815109
 20
302.022186
  0
VERTEX
  8
OBRYS
 10
77.123337
 20
302.291534
  0
VERTEX
  8
OBRYS
 10
77.382248
 20
302.480865
  0
SEQEND
  8
OBRYS
  0
LINE
  8
OBRYS
 10
74.157365
 20
279.999548
 11
74.157365
 21
287.259738
  0
LINE
  8
OBRYS
 10
74.157365
 20
289.905397
 11
74.157365
 21
297.326985
  0
LINE
  8
OBRYS
 10
74.157365
 20
302.513528
 11
74.157365
 21
303.934697
  0
LINE
  8
OBRYS
 10
74.157365
 20
293.021107
 11
74.157365
 21
292.076633
  0
LINE
  8
OBRYS
 10
74.157365
 20
288.080756
 11
74.157365
 21
287.259738
  0
LINE
  8
OBRYS
 10
76.142378
 20
290.947796
 11
74.530722
 21
289.031645
  0
LINE
  8
OBRYS
 10
79.320826
 20
291.965085
 11
78.769021
 21
291.965085
  0
LINE
  8
OBRYS
 10
78.769021
 20
294.823759
 11
79.320826
 21
294.823759
  0
LINE
  8
OBRYS
 10
74.530722
 20
291.662069
 11
76.142378
 21
293.727315
  0
LINE
  8
OBRYS
 10
80.157365
 20
268.754043
 11
84.157365
 21
268.754043
  0
LINE
  8
OBRYS
 10
84.157365
 20
302.681331
 11
80.199829
 21
302.681331
  0
LINE
  8
OBRYS
 10
84.157365
 20
302.681331
 11
78.397498
 21
302.681331
  0
LINE
  8
OBRYS
 10
76.562357
 20
307.481147
 11
84.157365
 21
307.481147
  0
LINE
  8
OBRYS
 10
74.326931
 20
303.166758
 11
80.297131
 21
303.166758
  0
LINE
  8
OBRYS
 10
84.157365
 20
268.754043
 11
76.815072
 21
268.754043
  0
LINE
  8
OBRYS
 10
76.562357
 20
282.652865
 11
84.157365
 21
282.652865
  0
LINE
  8
OBRYS
 10
74.326931
 20
280.388387
 11
80.297131
 21
280.388387
  0
ARC
  8
OBRYS
 10
84.157365
 20
234.126110
 40
6.000000
 50
0.000000
 51
90.000000
  0
LINE
  8
OBRYS
 10
84.157365
 20
255.225779
 11
84.157365
 21
240.126110
  0
LINE
  8
OBRYS
 10
74.744203
 20
201.805108
 11
79.605412
 21
201.805108
  0
ARC
  8
OBRYS
 10
81.157365
 20
189.266044
 40
5.000000
 50
0.000000
 51
27.224480
  0
LINE
  8
OBRYS
 10
85.603470
 20
191.553433
 11
74.711260
 21
212.725127
  0
ARC
  8
OBRYS
 10
79.157365
 20
215.012516
 40
5.000000
 50
180.000000
 51
207.224480
  0
ARC
  8
OBRYS
 10
84.157365
 20
182.878248
 40
2.000000
 50
271.999998
 51
360.000000
  0
LINE
  8
OBRYS
 62
     4
  6
HIDDEN2
 10
70.657365
 20
170.225779
 11
70.657365
 21
180.405599
  0
LINE
  8
OBRYS
 62
     4
  6
HIDDEN2
 10
79.657365
 20
170.225779
 11
79.657365
 21
180.719885
  0
ARC
  8
OBRYS
 10
77.157365
 20
305.305079
 40
3.000000
 50
151.109871
 51
180.000000
  0
LINE
  8
OBRYS
 10
82.807871
 20
311.225779
 11
82.727986
 21
311.225779
  0
LINE
  8
OBRYS
 62
     7
  6
DASHDOT
 10
75.157365
 20
170.225779
 11
75.157365
 21
180.562743
  0
LINE
  8
OBRYS
 10
74.157365
 20
285.225779
 11
74.157365
 21
255.225779
  0
LINE
  8
OBRYS
 10
74.157365
 20
225.225779
 11
74.157365
 21
255.225779
  0
LINE
  8
OBRYS
 10
74.530722
 20
306.754474
 11
76.142378
 21
309.675174
  0
ARC
  8
OBRYS
 10
78.769021
 20
308.225779
 40
3.000000
 50
90.000000
 51
151.109871
  0
LINE
  8
OBRYS
 10
90.157365
 20
170.225779
 11
90.157365
 21
234.126110
  0
LINE
  8
OBRYS
 10
66.157365
 20
170.225779
 11
90.157365
 21
170.225779
  0
LINE
  8
OBRYS
 10
66.157365
 20
170.225779
 11
66.157365
 21
180.225779
  0
LINE
  8
OBRYS
 10
73.961416
 20
198.622356
 11
66.157365
 21
180.225779
  0
LINE
  8
OBRYS
 10
74.157365
 20
199.485721
 11
74.157365
 21
225.225779
  0
ARC
  8
OBRYS
 10
72.157365
 20
199.485721
 40
2.000000
 50
334.425618
 51
360.000000
  0
LINE
  8
OBRYS
 10
74.157365
 20
199.485718
 11
74.157365
 21
205.146479
  0
LINE
  8
OBRYS
 10
74.157365
 20
305.305079
 11
74.157365
 21
285.225779
  0
LINE
  8
OBRYS
 62
     7
  6
DASHDOT
 10
71.848427
 20
255.225779
 11
88.677365
 21
255.225779
  0
LINE
  8
OBRYS
 10
66.157365
 20
180.213535
 11
84.227164
 21
180.879466
  0
LINE
  8
OBRYS
 10
78.769021
 20
311.225779
 11
84.157365
 21
311.225779
  0
LINE
  8
OBRYS
 10
80.199829
 20
302.681331
 11
80.297131
 21
303.166758
  0
LINE
  8
OBRYS
 10
80.297131
 20
303.166758
 11
80.385726
 21
303.596369
  0
LINE
  8
OBRYS
 10
80.385726
 20
303.596369
 11
81.036045
 21
304.535143
  0
LINE
  8
OBRYS
 10
81.036045
 20
304.535143
 11
82.009315
 21
305.162411
  0
LINE
  8
OBRYS
 10
82.009315
 20
305.162411
 11
83.157365
 21
305.382678
  0
LINE
  8
OBRYS
 10
83.157365
 20
305.382678
 11
84.157365
 21
305.382678
  0
LINE
  8
OBRYS
 10
84.157365
 20
305.382678
 11
84.157365
 21
307.481147
  0
LINE
  8
OBRYS
 10
84.157365
 20
307.481147
 11
84.157365
 21
307.877665
  0
LINE
  8
OBRYS
 10
84.157365
 20
307.877665
 11
84.157365
 21
308.278311
  0
LINE
  8
OBRYS
 10
84.157365
 20
308.278311
 11
84.157365
 21
308.666969
  0
LINE
  8
OBRYS
 10
84.157365
 20
308.666969
 11
84.157365
 21
311.225779
  0
LINE
  8
OBRYS
 10
84.157365
 20
309.028005
 11
84.157365
 21
309.346894
  0
LINE
  8
OBRYS
 10
84.157365
 20
309.346894
 11
84.157365
 21
309.610811
  0
LINE
  8
OBRYS
 10
84.157365
 20
309.610811
 11
84.157365
 21
309.619021
  0
LINE
  8
OBRYS
 10
84.157365
 20
309.619021
 11
79.340092
 21
309.619021
  0
LINE
  8
OBRYS
 10
79.340092
 20
309.619021
 11
79.319584
 21
309.610811
  0
LINE
  8
OBRYS
 10
79.319584
 20
309.610811
 11
78.397498
 21
309.346894
  0
LINE
  8
OBRYS
 10
78.397498
 20
309.346894
 11
78.295851
 21
309.322183
  0
LINE
  8
OBRYS
 10
78.295851
 20
309.322183
 11
77.927598
 21
309.028005
  0
LINE
  8
OBRYS
 10
77.927598
 20
309.028005
 11
77.425901
 21
308.666969
  0
LINE
  8
OBRYS
 10
77.425901
 20
308.666969
 11
77.382213
 21
308.637896
  0
LINE
  8
OBRYS
 10
77.382213
 20
308.637896
 11
77.123214
 21
308.278311
  0
LINE
  8
OBRYS
 10
77.123214
 20
308.278311
 11
76.815072
 21
307.877665
  0
LINE
  8
OBRYS
 10
76.815072
 20
307.877665
 11
76.713449
 21
307.753277
  0
LINE
  8
OBRYS
 10
76.713449
 20
307.753277
 11
76.562357
 21
307.481147
  0
LINE
  8
OBRYS
 10
76.562357
 20
307.481147
 11
74.530722
 21
303.929845
  0
LINE
  8
OBRYS
 10
74.530722
 20
303.929845
 11
74.326931
 21
303.166758
  0
LINE
  8
OBRYS
 10
74.326931
 20
303.166758
 11
74.157365
 21
302.513528
  0
ENDBLK
  8
OBRYS
  0
BLOCK
  8
OSA
  2
Sroub_M10x16_29
 70
   66
 10
368.396033
 20
452.181514
  0
LINE
  8
OSA
 62
     2
  6
CONTINUOUS
 10
364.396033
 20
454.490929
 11
364.396033
 21
449.872098
  0
LINE
  8
OSA
 62
     2
  6
CONTINUOUS
 10
364.396033
 20
449.872098
 11
368.396033
 21
447.562683
  0
LINE
  8
OSA
 62
     2
  6
CONTINUOUS
 10
368.396033
 20
447.562683
 11
372.396033
 21
449.872098
  0
LINE
  8
OSA
 62
     2
  6
CONTINUOUS
 10
372.396033
 20
449.872098
 11
372.396033
 21
454.490929
  0
LINE
  8
OSA
 62
     2
  6
CONTINUOUS
 10
372.396033
 20
454.490929
 11
368.396033
 21
456.800344
  0
LINE
  8
OSA
 62
     2
  6
CONTINUOUS
 10
368.396033
 20
456.800344
 11
364.396033
 21
454.490929
  0
CIRCLE
  8
OSA
 62
     2
  6
CONTINUOUS
 10
368.396033
 20
452.181514
 40
4.618831
  0
CIRCLE
  8
OSA
 62
     2
  6
CONTINUOUS
 10
368.396033
 20
452.181514
 40
8.000000
  0
ENDBLK
  8
OSA
  0
ENDSEC
  0
SECTION
  2
ENTITIES
  0
ARC
  8
OBRYS
 10
123.157365
 20
269.225779
 40
60.000000
 50
324.752242
 51
35.192042
  0
ARC
  8
OBRYS
 10
123.157365
 20
269.225779
 40
60.000000
 50
144.807953
 51
215.247761
  0
ARC
  8
OBRYS
 10
123.157365
 20
269.225779
 40
60.000000
 50
44.427004
 51
52.554053
  0
ARC
  8
OBRYS
 10
123.157365
 20
269.225779
 40
60.000000
 50
127.445947
 51
135.572996
  0
LINE
  8
0
 62
     2
 10
159.638127
 20
311.067324
 11
159.638127
 21
320.225779
  0
LINE
  8
0
 62
     2
 10
86.676603
 20
311.069307
 11
86.676603
 21
320.225779
  0
ARC
  8
OBRYS
 10
96.640861
 20
331.742283
 40
5.000000
 50
123.511664
 51
154.169919
  0
ARC
  8
OBRYS
 10
123.157365
 20
291.697871
 40
53.027909
 50
56.488379
 51
123.511629
  0
LINE
  8
OSA
 10
63.157365
 20
269.225779
 11
183.157365
 21
269.225779
  0
LINE
  8
OSA
 10
123.157365
 20
351.514914
 11
123.157365
 21
209.225779
  0
ARC
  8
OBRYS
 10
149.138127
 20
320.225779
 40
10.500000
 50
0.000006
 51
25.830081
  0
ARC
  8
OBRYS
 10
97.176603
 20
320.225779
 40
10.500000
 50
154.169919
 51
179.999994
  0
LINE
  8
0
 62
     2
 10
87.725656
 20
324.800668
 11
92.140410
 21
333.920802
  0
LINE
  8
OSA
 10
83.157368
 20
305.225779
 11
163.157361
 21
305.225779
  0
ARC
  8
OBRYS
 10
149.673869
 20
331.742283
 40
5.000000
 50
25.830081
 51
56.488335
  0
LINE
  8
0
 62
     2
 10
158.589074
 20
324.800668
 11
154.174320
 21
333.920802
  0
LINE
  8
OSA
 10
614.455717
 20
255.225779
 11
562.546919
 21
255.225779
  0
INSERT
  8
OBRYS
  2
_0
 62
     7
 10
513.546919
 20
255.225779
  0
INSERT
  8
OBRYS
  2
_1
 62
     7
 10
611.546919
 20
255.225779
  0
LINE
  8
OSA
 62
     2
  6
CONTINUOUS
 10
611.546919
 20
228.725779
 11
611.546919
 21
234.599200
  0
ARC
  8
OBRYS
 10
576.546919
 20
208.292712
 40
5.000000
 50
160.665974
 51
180.000000
  0
LINE
  8
OBRYS
 10
584.260785
 20
213.292712
 11
591.181308
 21
213.292712
  0
LINE
  8
OBRYS
 10
591.181308
 20
200.225779
 11
591.181308
 21
216.499393
  0
LINE
  8
POMOC
 62
     2
  6
CONTINUOUS
 10
594.546919
 20
199.225779
 11
594.546919
 21
218.471469
  0
LINE
  8
OBRYS
 10
534.546919
 20
201.225779
 11
534.546919
 21
216.159782
  0
INSERT
  8
OSA
  2
_2
  6
CONTINUOUS
 10
562.546919
 20
305.225779
  0
ARC
  8
OBRYS
 10
562.546919
 20
105.786024
 40
5.500000
 50
111.323686
 51
68.676314
  0
LINE
  8
OBRYS
 10
560.546919
 20
110.909499
 11
560.546919
 21
112.886024
  0
LINE
  8
OBRYS
 10
560.546919
 20
112.886024
 11
564.546919
 21
112.886024
  0
LINE
  8
OBRYS
 10
564.546919
 20
112.886024
 11
564.546919
 21
110.909499
  0
CIRCLE
  8
OBRYS
 10
562.546919
 20
105.786024
 40
10.000000
  0
LINE
  8
OSA
 10
562.546919
 20
105.786024
 11
562.546919
 21
92.661027
  0
LINE
  8
OSA
 10
562.546919
 20
105.786024
 11
562.546919
 21
118.911021
  0
LINE
  8
OSA
 10
562.546919
 20
105.786024
 11
549.421921
 21
105.786024
  0
LINE
  8
OSA
 10
562.546919
 20
105.786024
 11
575.671916
 21
105.786024
  0
LINE
  8
OSA
 10
562.546919
 20
132.036019
 11
575.671916
 21
132.036019
  0
LINE
  8
OSA
 10
562.546919
 20
132.036019
 11
549.421921
 21
132.036019
  0
LINE
  8
OSA
 10
562.546919
 20
132.036019
 11
562.546919
 21
145.161016
  0
LINE
  8
OSA
 10
562.546919
 20
132.036019
 11
562.546919
 21
118.911021
  0
LINE
  8
OBRYS
 10
561.046919
 20
136.278659
 11
561.046919
 21
137.836019
  0
LINE
  8
OBRYS
 10
561.046919
 20
137.836019
 11
564.046919
 21
137.836019
  0
LINE
  8
OBRYS
 10
564.046919
 20
137.836019
 11
564.046919
 21
136.278659
  0
ARC
  8
OBRYS
 10
562.546919
 20
132.036019
 40
4.500000
 50
109.471221
 51
70.528779
  0
CIRCLE
  8
OBRYS
 10
562.546919
 20
132.036019
 40
10.000000
  0
INSERT
  8
OBRYS
  2
_3
 62
     7
 10
817.697805
 20
305.225779
  0
INSERT
  8
OBRYS
  2
_4
 62
     7
 10
307.396033
 20
452.181514
  0
INSERT
  8
OBRYS
  2
_5
 62
     7
 10
307.396033
 20
305.225779
  0
INSERT
  8
OBRYS
  2
_6
 62
     7
 10
307.396033
 20
72.929129
  0
LINE
  8
NEVIDITELNA
 10
570.546919
 20
207.225779
 11
548.546919
 21
207.225779
  0
ARC
  8
0
 62
     2
 10
548.546919
 20
202.225779
 40
5.000000
 50
0.000000
 51
90.000000
  0
LINE
  8
POMOC
 62
     2
  6
CONTINUOUS
 10
571.546919
 20
202.225779
 11
562.546919
 21
202.225779
  0
LINE
  8
POMOC
 62
     2
  6
CONTINUOUS
 10
553.546919
 20
202.225779
 11
562.546919
 21
202.225779
  0
ARC
  8
0
 62
     2
 10
536.546919
 20
205.225779
 40
2.000000
 50
90.000000
 51
180.000000
  0
ARC
  8
OBRYS
 10
532.546919
 20
201.225779
 40
2.000000
 50
270.000000
 51
360.000000
  0
LINE
  8
OSA
 10
510.638121
 20
255.225779
 11
562.546919
 21
255.225779
  0
LINE
  8
OSA
 10
595.546919
 20
305.225779
 11
562.546919
 21
305.225779
  0
ARC
  8
OBRYS
 10
592.181308
 20
200.225779
 40
1.000000
 50
180.000000
 51
270.000000
  0
LINE
  8
OBRYS
 10
576.546919
 20
203.031802
 11
591.181308
 21
203.031802
  0
LINE
  8
OBRYS
 10
571.546919
 20
208.292712
 11
571.546919
 21
208.031802
  0
ARC
  8
OBRYS
 10
576.546919
 20
208.031802
 40
5.000000
 50
180.000000
 51
270.000000
  0
LINE
  8
OBRYS
 10
594.546919
 20
199.225779
 11
592.181308
 21
199.225779
  0
LINE
  8
0
 62
     2
 10
571.612314
 20
207.225779
 11
536.546919
 21
207.225779
  0
ARC
  8
0
 62
     2
 10
576.546919
 20
202.225779
 40
5.000000
 50
144.507081
 51
180.000000
  0
ARC
  8
OBRYS
 10
568.546919
 20
200.225779
 40
1.000000
 50
270.000000
 51
360.000000
  0
LINE
  8
OBRYS
 10
568.546919
 20
199.225779
 11
556.546919
 21
199.225779
  0
ARC
  8
OBRYS
 10
556.546919
 20
200.225779
 40
1.000000
 50
180.000000
 51
270.000000
  0
LINE
  8
OBRYS
 10
569.546919
 20
202.225779
 11
569.546919
 21
200.225779
  0
LINE
  8
OBRYS
 10
555.546919
 20
202.225779
 11
555.546919
 21
200.225779
  0
LINE
  8
OBRYS
 10
569.546919
 20
202.225779
 11
555.546919
 21
202.225779
  0
LINE
  8
OSA
 10
562.546919
 20
211.554681
 11
562.546919
 21
197.780431
  0
LINE
  8
OSA
 10
529.546919
 20
305.225779
 11
562.546919
 21
305.225779
  0
LINE
  8
OSA
 10
562.546919
 20
305.225779
 11
562.546919
 21
200.008060
  0
LINE
  8
OBRYS
 10
595.546919
 20
199.225779
 11
592.368676
 21
199.225779
  0
LINE
  8
OBRYS
 10
529.546919
 20
199.225779
 11
532.725161
 21
199.225779
  0
LINE
  8
OBRYS
 10
524.046919
 20
252.041561
 11
523.546919
 21
252.006905
  0
LINE
  8
OBRYS
 10
524.046919
 20
258.409997
 11
523.546919
 21
258.444653
  0
LINE
  8
OSA
 10
562.546919
 20
344.948143
 11
562.546919
 21
305.225779
  0
LINE
  8
OBRYS
 10
307.396033
 20
103.929129
 11
307.396033
 21
46.129129
  0
LINE
  8
OBRYS
 10
335.779818
 20
103.929129
 11
307.396033
 21
103.929129
  0
TEXT
  8
NEVIDITELNA
 62
     2
  6
CONTINUOUS
 10
291.732391
 20
599.298462
 40
15.000000
  1
MRP 50A - FT + 2x adaptér
 50
0.00
 51
0.00
 41
0.80
  0
TEXT
  8
NEVIDITELNA
 62
     2
  6
CONTINUOUS
 10
288.376038
 20
628.691284
 40
15.000000
  1
MRP 50A - A
 50
0.00
 51
0.00
 41
0.80
  0
LINE
  8
OBRYS
 10
424.396033
 20
419.181514
 11
424.396033
 21
421.181514
  0
LINE
  8
OBRYS
 10
312.396033
 20
422.181514
 11
312.469123
 21
419.181514
  0
INSERT
  8
OBRYS
  2
_7
 62
     7
 10
368.396033
 20
452.181514
  0
INSERT
  8
OBRYS
  2
_8
 62
     7
 10
368.396033
 20
452.181514
  0
INSERT
  8
OBRYS
  2
_9
 62
     7
 10
368.396033
 20
72.929129
  0
INSERT
  8
OBRYS
  2
_10
 62
     7
 10
368.396033
 20
72.929129
  0
ARC
  8
OBRYS
 10
756.697805
 20
255.225779
 40
52.000000
 50
329.956795
 51
345.043205
  0
ARC
  8
OBRYS
 10
756.697805
 20
255.225779
 40
52.000000
 50
284.956795
 51
300.043205
  0
ARC
  8
OBRYS
 10
756.697805
 20
255.225779
 40
52.000000
 50
239.956795
 51
255.043205
  0
ARC
  8
OBRYS
 10
756.697805
 20
255.225779
 40
52.000000
 50
194.956795
 51
210.043205
  0
ARC
  8
OBRYS
 10
756.697805
 20
255.225779
 40
52.000000
 50
14.452154
 51
30.614426
  0
ARC
  8
OBRYS
 10
756.697805
 20
255.225779
 40
52.000000
 50
149.452154
 51
165.614426
  0
ARC
  8
OBRYS
 10
756.697805
 20
255.225779
 40
52.000000
 50
104.452154
 51
120.614426
  0
ARC
  8
OBRYS
 10
756.697805
 20
255.225779
 40
52.000000
 50
59.452154
 51
75.614426
  0
LINE
  8
OBRYS
 10
817.697805
 20
278.425779
 11
817.697805
 21
270.197573
  0
ARC
  8
OBRYS
 10
818.697805
 20
344.247993
 40
2.000000
 50
330.000000
 51
360.000000
  0
LINE
  8
OBRYS
 10
817.697805
 20
332.025779
 11
817.697805
 21
340.253985
  0
CIRCLE
  8
OBRYS
 10
756.697805
 20
255.225779
 40
17.500000
  0
LINE
  8
OBRYS
 10
752.697805
 20
266.539488
 11
752.697805
 21
270.125779
  0
LINE
  8
OBRYS
 10
752.697805
 20
270.125779
 11
760.697805
 21
270.125779
  0
LINE
  8
OBRYS
 10
760.697805
 20
270.125779
 11
760.697805
 21
266.539488
  0
ARC
  8
OBRYS
 10
756.697805
 20
255.225779
 40
12.000000
 50
109.471221
 51
70.528779
  0
CIRCLE
  8
OSA
 62
     2
  6
CONTINUOUS
 10
756.697805
 20
255.225779
 40
25.000000
  0
LINE
  8
OSA
 10
756.697805
 20
305.225779
 11
692.940723
 21
305.225779
  0
LINE
  8
OSA
 10
756.697805
 20
261.225779
 11
756.697805
 21
319.166380
  0
LINE
  8
OSA
 10
756.697805
 20
305.225779
 11
814.697805
 21
305.225779
  0
LINE
  8
OSA
 10
753.697805
 20
255.225779
 11
759.697805
 21
255.225779
  0
LINE
  8
OSA
 10
756.697805
 20
252.225779
 11
756.697805
 21
258.225779
  0
LINE
  8
OSA
 10
750.697805
 20
255.225779
 11
697.697805
 21
255.225779
  0
LINE
  8
OSA
 10
762.697805
 20
255.225779
 11
815.697805
 21
255.225779
  0
LINE
  8
OSA
 10
756.697805
 20
249.225779
 11
756.697805
 21
196.225779
  0
LINE
  8
OBRYS
 10
817.697805
 20
270.203565
 11
817.697805
 21
340.247993
  0
LINE
  8
OBRYS
 10
817.697805
 20
270.203565
 11
810.657660
 21
270.203565
  0
LINE
  8
OBRYS
 10
691.697805
 20
270.203565
 11
691.697805
 21
340.247993
  0
LINE
  8
OBRYS
 10
691.697805
 20
270.203565
 11
702.737950
 21
270.203565
  0
LINE
  8
OBRYS
 10
691.697805
 20
340.247993
 11
716.697805
 21
340.247993
  0
LINE
  8
OBRYS
 10
817.697805
 20
340.247993
 11
796.697805
 21
340.247993
  0
LINE
  8
0
 62
     2
 10
691.697805
 20
320.236886
 11
717.459812
 21
320.236886
  0
LINE
  8
0
 62
     2
 10
691.697805
 20
324.567013
 11
717.659960
 21
324.567013
  0
LINE
  8
0
 62
     2
 10
691.697805
 20
339.578120
 11
717.431579
 21
339.578120
  0
LINE
  8
0
 62
     2
 10
691.697805
 20
270.873438
 11
702.928383
 21
270.873438
  0
LINE
  8
0
 62
     2
 10
691.697805
 20
285.884545
 11
709.835879
 21
285.884545
  0
LINE
  8
0
 62
     2
 10
691.697805
 20
290.214672
 11
712.973928
 21
290.214672
  0
POLYLINE
  8
0
 62
     2
 66
    1
  0
VERTEX
  8
0
 62
     2
 10
722.729980
 20
299.747528
  0
VERTEX
  8
0
 62
     2
 10
723.664551
 20
305.225800
  0
VERTEX
  8
0
 62
     2
 10
722.612549
 20
311.392059
  0
VERTEX
  8
0
 62
     2
 10
719.240601
 20
318.066437
  0
VERTEX
  8
0
 62
     2
 10
717.459839
 20
320.236908
  0
VERTEX
  8
0
 62
     2
 10
716.774658
 20
321.276459
  0
VERTEX
  8
0
 62
     2
 10
716.454834
 20
322.270599
  0
VERTEX
  8
0
 62
     2
 10
716.514404
 20
323.175812
  0
VERTEX
  8
0
 62
     2
 10
716.950684
 20
323.952606
  0
VERTEX
  8
0
 62
     2
 10
717.543823
 20
324.411713
  0
VERTEX
  8
0
 62
     2
 10
717.660034
 20
324.567047
  0
VERTEX
  8
0
 62
     2
 10
721.770386
 20
327.919342
  0
VERTEX
  8
0
 62
     2
 10
723.549316
 20
331.056671
  0
VERTEX
  8
0
 62
     2
 10
723.201172
 20
334.113190
  0
VERTEX
  8
0
 62
     2
 10
720.655273
 20
337.334137
  0
VERTEX
  8
0
 62
     2
 10
717.431641
 20
339.578156
  0
VERTEX
  8
0
 62
     2
 10
716.858154
 20
340.003265
  0
VERTEX
  8
0
 62
     2
 10
716.656128
 20
340.220612
  0
VERTEX
  8
0
 62
     2
 10
716.745239
 20
340.220612
  0
SEQEND
  8
0
  0
POLYLINE
  8
0
 62
     2
 66
    1
  0
VERTEX
  8
0
 62
     2
 10
790.665771
 20
299.747528
  0
VERTEX
  8
0
 62
     2
 10
789.731201
 20
305.225800
  0
VERTEX
  8
0
 62
     2
 10
790.783081
 20
311.392059
  0
VERTEX
  8
0
 62
     2
 10
794.155151
 20
318.066437
  0
VERTEX
  8
0
 62
     2
 10
795.935791
 20
320.236908
  0
VERTEX
  8
0
 62
     2
 10
796.620972
 20
321.276459
  0
VERTEX
  8
0
 62
     2
 10
796.940796
 20
322.270599
  0
VERTEX
  8
0
 62
     2
 10
796.881348
 20
323.175812
  0
VERTEX
  8
0
 62
     2
 10
796.445068
 20
323.952606
  0
VERTEX
  8
0
 62
     2
 10
795.851807
 20
324.411713
  0
VERTEX
  8
0
 62
     2
 10
795.735718
 20
324.567047
  0
VERTEX
  8
0
 62
     2
 10
791.625244
 20
327.919342
  0
VERTEX
  8
0
 62
     2
 10
789.846436
 20
331.056671
  0
VERTEX
  8
0
 62
     2
 10
790.194458
 20
334.113190
  0
VERTEX
  8
0
 62
     2
 10
792.740356
 20
337.334137
  0
VERTEX
  8
0
 62
     2
 10
795.964111
 20
339.578156
  0
VERTEX
  8
0
 62
     2
 10
796.537598
 20
340.003265
  0
VERTEX
  8
0
 62
     2
 10
796.739624
 20
340.220612
  0
VERTEX
  8
0
 62
     2
 10
796.650391
 20
340.220612
  0
SEQEND
  8
0
  0
LINE
  8
0
 62
     2
 10
817.697805
 20
339.578120
 11
795.964031
 21
339.578120
  0
LINE
  8
0
 62
     2
 10
817.697805
 20
320.236886
 11
795.935798
 21
320.236886
  0
LINE
  8
0
 62
     2
 10
817.697805
 20
324.567013
 11
795.735650
 21
324.567013
  0
LINE
  8
0
 62
     2
 10
817.697805
 20
270.873438
 11
810.467227
 21
270.873438
  0
LINE
  8
0
 62
     2
 10
817.697805
 20
285.884545
 11
803.559730
 21
285.884545
  0
LINE
  8
0
 62
     2
 10
817.697805
 20
290.214672
 11
800.421681
 21
290.214672
  0
LINE
  8
0
 62
     2
 10
789.731126
 20
336.225779
 11
789.731126
 21
300.445241
  0
LINE
  8
0
 62
     2
 10
723.664484
 20
336.225779
 11
723.664484
 21
300.445241
  0
LINE
  8
OBRYS
 10
723.664484
 20
336.225779
 11
789.731126
 21
336.225779
  0
LINE
  8
OBRYS
 10
796.697805
 20
340.247993
 11
789.731126
 21
336.225779
  0
LINE
  8
OBRYS
 10
716.697805
 20
340.247993
 11
723.664484
 21
336.225779
  0
ARC
  8
OBRYS
 10
756.697805
 20
255.225779
 40
70.000000
 50
292.333848
 51
302.027150
  0
ARC
  8
OBRYS
 10
756.697805
 20
255.225779
 40
70.000000
 50
252.112870
 51
287.887130
  0
ARC
  8
OBRYS
 10
756.697805
 20
217.725779
 40
5.500000
 50
180.000000
 51
360.000000
  0
ARC
  8
OSA
 62
     2
  6
CONTINUOUS
 10
756.697805
 20
255.225779
 40
30.000000
 50
283.527511
 51
346.472489
  0
ARC
  8
OBRYS
 10
756.697805
 20
255.225779
 40
31.000000
 50
169.623734
 51
190.376266
  0
ARC
  8
OBRYS
 10
756.697805
 20
255.225779
 40
31.000000
 50
79.623734
 51
100.376266
  0
ARC
  8
OBRYS
 10
756.697805
 20
255.225779
 40
31.000000
 50
349.623734
 51
10.376266
  0
ARC
  8
OBRYS
 10
756.697805
 20
255.225779
 40
31.000000
 50
259.623734
 51
280.376266
  0
ARC
  8
OBRYS
 10
725.585558
 20
262.710970
 40
2.000000
 50
270.000000
 51
346.472489
  0
ARC
  8
OSA
 62
     2
  6
CONTINUOUS
 10
756.697805
 20
255.225779
 40
30.000000
 50
103.527511
 51
166.472489
  0
LINE
  8
OBRYS
 10
718.794471
 20
260.710970
 11
725.585558
 21
260.710970
  0
ARC
  8
OBRYS
 10
725.585558
 20
247.740588
 40
2.000000
 50
13.527511
 51
90.000000
  0
ARC
  8
OSA
 62
     2
  6
CONTINUOUS
 10
756.697805
 20
255.225779
 40
30.000000
 50
193.527511
 51
256.472489
  0
LINE
  8
OBRYS
 10
718.794471
 20
249.740588
 11
725.585558
 21
249.740588
  0
ARC
  8
OBRYS
 10
749.212614
 20
224.113532
 40
2.000000
 50
0.000000
 51
76.472489
  0
LINE
  8
OBRYS
 10
751.212614
 20
217.322446
 11
751.212614
 21
224.113532
  0
ARC
  8
OBRYS
 10
764.182996
 20
224.113532
 40
2.000000
 50
103.527511
 51
180.000000
  0
LINE
  8
OBRYS
 10
762.182996
 20
217.322446
 11
762.182996
 21
224.113532
  0
ARC
  8
OBRYS
 10
787.810052
 20
247.740588
 40
2.000000
 50
90.000000
 51
166.472489
  0
LINE
  8
OBRYS
 10
794.601138
 20
249.740588
 11
787.810052
 21
249.740588
  0
ARC
  8
OBRYS
 10
787.810052
 20
262.710970
 40
2.000000
 50
193.527511
 51
270.000000
  0
ARC
  8
OSA
 62
     2
  6
CONTINUOUS
 10
756.697805
 20
255.225779
 40
30.000000
 50
13.527511
 51
76.472489
  0
LINE
  8
OBRYS
 10
794.601138
 20
260.710970
 11
787.810052
 21
260.710970
  0
ARC
  8
OBRYS
 10
749.212614
 20
286.338026
 40
2.000000
 50
283.527511
 51
360.000000
  0
LINE
  8
OBRYS
 10
751.212614
 20
293.129112
 11
751.212614
 21
286.338026
  0
ARC
  8
OBRYS
 10
764.182996
 20
286.338026
 40
2.000000
 50
180.000000
 51
256.472489
  0
LINE
  8
OBRYS
 10
762.182996
 20
293.129112
 11
762.182996
 21
286.338026
  0
ARC
  8
OBRYS
 10
794.197805
 20
255.225779
 40
5.500000
 50
270.000000
 51
90.000000
  0
ARC
  8
OBRYS
 10
719.197805
 20
255.225779
 40
5.500000
 50
90.000000
 51
270.000000
  0
ARC
  8
OBRYS
 10
756.697805
 20
292.725779
 40
5.500000
 50
0.000000
 51
180.000000
  0
LINE
  8
NEVIDITELNA
 10
794.697805
 20
180.225779
 11
794.697805
 21
170.225779
  0
LINE
  8
NEVIDITELNA
 10
803.697805
 20
180.225779
 11
803.697805
 21
170.225779
  0
LINE
  8
NEVIDITELNA
 10
718.697805
 20
180.225779
 11
718.697805
 21
170.225779
  0
LINE
  8
NEVIDITELNA
 10
709.697805
 20
180.225779
 11
709.697805
 21
170.225779
  0
LINE
  8
NEVIDITELNA
 62
     2
  6
CONTINUOUS
 10
700.697805
 20
170.225779
 11
735.197805
 21
170.225779
  0
LINE
  8
NEVIDITELNA
 62
     2
  6
CONTINUOUS
 10
702.697805
 20
180.225779
 11
726.197805
 21
180.225779
  0
ARC
  8
NEVIDITELNA
 62
     2
  6
CONTINUOUS
 10
702.697805
 20
178.225779
 40
2.000000
 50
90.000000
 51
180.000000
  0
LINE
  8
NEVIDITELNA
 62
     2
  6
CONTINUOUS
 10
700.697805
 20
178.138534
 11
700.697805
 21
170.225779
  0
LINE
  8
NEVIDITELNA
 62
     2
  6
CONTINUOUS
 10
812.697805
 20
178.138534
 11
812.697805
 21
170.225779
  0
ARC
  8
NEVIDITELNA
 62
     2
  6
CONTINUOUS
 10
810.697805
 20
178.225779
 40
2.000000
 50
0.000000
 51
90.000000
  0
LINE
  8
NEVIDITELNA
 62
     2
  6
CONTINUOUS
 10
810.697805
 20
180.225779
 11
787.197805
 21
180.225779
  0
LINE
  8
NEVIDITELNA
 62
     2
  6
CONTINUOUS
 10
812.697805
 20
170.225779
 11
778.197805
 21
170.225779
  0
LINE
  8
OSA
 10
714.197805
 20
200.025779
 11
714.197805
 21
170.225779
  0
LINE
  8
NEVIDITELNA
 62
     2
  6
CONTINUOUS
 10
735.197805
 20
176.225779
 11
778.197805
 21
176.225779
  0
ARC
  8
NEVIDITELNA
 62
     2
  6
CONTINUOUS
 10
726.197805
 20
184.225779
 40
4.000000
 50
270.000000
 51
360.000000
  0
LINE
  8
NEVIDITELNA
 62
     2
  6
CONTINUOUS
 10
804.697805
 20
194.725779
 11
804.697805
 21
180.225779
  0
LINE
  8
NEVIDITELNA
 62
     2
  6
CONTINUOUS
 10
793.697805
 20
194.725779
 11
793.697805
 21
180.225779
  0
ARC
  8
NEVIDITELNA
 62
     2
  6
CONTINUOUS
 10
799.197805
 20
194.725779
 40
5.500000
 50
90.000000
 51
180.000000
  0
ARC
  8
NEVIDITELNA
 62
     2
  6
CONTINUOUS
 10
799.197805
 20
194.725779
 40
5.500000
 50
0.000000
 51
90.000000
  0
LINE
  8
OSA
 10
799.197805
 20
200.025779
 11
799.197805
 21
170.225779
  0
CIRCLE
  8
OSA
 10
756.697805
 20
255.225779
 40
37.500000
  0
LINE
  8
NEVIDITELNA
 62
     2
  6
CONTINUOUS
 10
778.197805
 20
172.225779
 11
735.197805
 21
172.225779
  0
LINE
  8
OBRYS
 10
778.197805
 20
170.225779
 11
778.197805
 21
172.225779
  0
CIRCLE
  8
OBRYS
 10
802.891781
 20
236.091607
 40
7.000000
  0
CIRCLE
  8
OBRYS
 10
775.831976
 20
209.031802
 40
7.000000
  0
CIRCLE
  8
OBRYS
 10
737.563633
 20
209.031802
 40
7.000000
  0
CIRCLE
  8
OBRYS
 10
710.503828
 20
236.091607
 40
7.000000
  0
LINE
  8
OBRYS
 10
708.742500
 20
267.525739
 11
704.426823
 21
268.632658
  0
LINE
  8
OBRYS
 10
714.061630
 20
280.388387
 11
710.224641
 21
282.652865
  0
ARC
  8
OBRYS
 10
710.503828
 20
274.359951
 40
7.000000
 50
255.547868
 51
59.452134
  0
ARC
  8
OBRYS
 10
711.241156
 20
284.375275
 40
2.000000
 50
147.329602
 51
239.452154
  0
ARC
  8
OBRYS
 10
703.943294
 20
266.756678
 40
2.000000
 50
75.547846
 51
167.670398
  0
ARC
  8
OBRYS
 10
809.452315
 20
266.756678
 40
2.000000
 50
12.329602
 51
104.452154
  0
ARC
  8
OBRYS
 10
802.154453
 20
284.375275
 40
2.000000
 50
300.547846
 51
32.670398
  0
ARC
  8
OBRYS
 10
802.891781
 20
274.359951
 40
7.000000
 50
120.547866
 51
284.452132
  0
LINE
  8
OBRYS
 10
799.333980
 20
280.388387
 11
803.170969
 21
282.652865
  0
LINE
  8
OBRYS
 10
804.653109
 20
267.525739
 11
808.968787
 21
268.632658
  0
ARC
  8
OBRYS
 10
745.166906
 20
307.980290
 40
2.000000
 50
102.329602
 51
194.452154
  0
ARC
  8
OBRYS
 10
727.548309
 20
300.682428
 40
2.000000
 50
30.547846
 51
122.670398
  0
ARC
  8
OBRYS
 10
737.563633
 20
301.419756
 40
7.000000
 50
210.547866
 51
14.452132
  0
LINE
  8
OBRYS
 10
731.535197
 20
297.861954
 11
729.270719
 21
301.698943
  0
LINE
  8
OBRYS
 10
744.397845
 20
303.181084
 11
743.290926
 21
307.496761
  0
LINE
  8
OBRYS
 10
768.997765
 20
303.181084
 11
770.104684
 21
307.496761
  0
LINE
  8
OBRYS
 10
781.860413
 20
297.861954
 11
784.124890
 21
301.698943
  0
ARC
  8
OBRYS
 10
775.831976
 20
301.419756
 40
7.000000
 50
165.547868
 51
329.452134
  0
ARC
  8
OBRYS
 10
785.847300
 20
300.682428
 40
2.000000
 50
57.329602
 51
149.452154
  0
ARC
  8
OBRYS
 10
768.228703
 20
307.980290
 40
2.000000
 50
345.547846
 51
77.670398
  0
ARC
  8
OBRYS
 10
756.697805
 20
255.225779
 40
56.000000
 50
122.670398
 51
147.329602
  0
ARC
  8
OBRYS
 10
756.697805
 20
255.225779
 40
56.000000
 50
32.670395
 51
57.329602
  0
ARC
  8
OBRYS
 10
756.697805
 20
255.225779
 40
56.000000
 50
77.670398
 51
102.329602
  0
ARC
  8
OBRYS
 10
756.697805
 20
255.225779
 40
49.817170
 50
75.539968
 51
104.385574
  0
ARC
  8
OBRYS
 10
756.697805
 20
255.225779
 40
49.817170
 50
30.547846
 51
59.460032
  0
ARC
  8
OBRYS
 10
756.697805
 20
255.225779
 40
49.817170
 50
120.547846
 51
149.460032
  0
ARC
  8
OBRYS
 10
756.697805
 20
255.225779
 40
49.817170
 50
165.539968
 51
194.460032
  0
ARC
  8
OBRYS
 10
756.697805
 20
255.225779
 40
49.817170
 50
345.539968
 51
14.385574
  0
LINE
  8
OBRYS
 10
758.697805
 20
306.003577
 11
758.697805
 21
310.312724
  0
LINE
  8
OBRYS
 10
754.697805
 20
306.003577
 11
754.697805
 21
310.312724
  0
LINE
  8
OBRYS
 10
812.690208
 20
178.051620
 11
812.690208
 21
255.225779
  0
LINE
  8
OBRYS
 10
700.697805
 20
178.138534
 11
700.697805
 21
255.225779
  0
LINE
  8
OBRYS
 10
719.378266
 20
289.716891
 11
716.331239
 21
292.763918
  0
LINE
  8
OBRYS
 10
705.920007
 20
253.225779
 11
701.610860
 21
253.225779
  0
LINE
  8
OBRYS
 10
807.475603
 20
257.225779
 11
811.784750
 21
257.225779
  0
LINE
  8
OBRYS
 10
791.188917
 20
292.545318
 11
794.235944
 21
295.592345
  0
LINE
  8
OBRYS
 10
722.206693
 20
292.545318
 11
719.159666
 21
295.592345
  0
LINE
  8
OBRYS
 10
705.920007
 20
257.225779
 11
701.610860
 21
257.225779
  0
LINE
  8
OBRYS
 10
807.475603
 20
253.225779
 11
811.784750
 21
253.225779
  0
LINE
  8
OBRYS
 10
794.017344
 20
289.716891
 11
797.064371
 21
292.763918
  0
ARC
  8
OBRYS
 10
756.697805
 20
255.225779
 40
56.000000
 50
0.000000
 51
12.329597
  0
ARC
  8
OBRYS
 10
756.697805
 20
255.225779
 40
56.000000
 50
167.670398
 51
180.000000
  0
ARC
  8
NEVIDITELNA
 62
     2
  6
CONTINUOUS
 10
787.197805
 20
184.225779
 40
4.000000
 50
192.850592
 51
270.000000
  0
LINE
  8
OSA
 10
756.697805
 20
255.225779
 11
756.697805
 21
168.178710
  0
LINE
  8
OBRYS
 10
783.238805
 20
180.225779
 11
779.279804
 21
180.225779
  0
LINE
  8
OBRYS
 10
730.156805
 20
180.225779
 11
734.115805
 21
180.225779
  0
LINE
  8
OBRYS
 10
722.206693
 20
217.906240
 11
710.866178
 21
206.565725
  0
LINE
  8
OBRYS
 10
719.378266
 20
220.734667
 11
708.037751
 21
209.394152
  0
LINE
  8
OBRYS
 10
754.697805
 20
204.447981
 11
754.697805
 21
188.410071
  0
LINE
  8
OBRYS
 10
758.697805
 20
204.447981
 11
758.697805
 21
188.410071
  0
LINE
  8
OBRYS
 10
791.188917
 20
217.906240
 11
802.529432
 21
206.565725
  0
LINE
  8
OBRYS
 10
794.017344
 20
220.734667
 11
805.357859
 21
209.394152
  0
LINE
  8
NEVIDITELNA
 62
     2
  6
CONTINUOUS
 10
735.197805
 20
190.546148
 11
735.197805
 21
170.225779
  0
ARC
  8
NEVIDITELNA
 62
     2
  6
CONTINUOUS
 10
745.197805
 20
190.546148
 40
10.000000
 50
112.439556
 51
180.000000
  0
ARC
  8
OBRYS
 10
737.563633
 20
209.031802
 40
10.000000
 50
292.439556
 51
326.744709
  0
ARC
  8
OBRYS
 10
750.107166
 20
200.806246
 40
5.000000
 50
83.094654
 51
146.744709
  0
ARC
  8
OBRYS
 10
756.697805
 20
255.225779
 40
49.817170
 50
210.539968
 51
231.905346
  0
ARC
  8
OBRYS
 10
722.877669
 20
212.085073
 40
5.000000
 50
348.255291
 51
51.905346
  0
LINE
  8
OBRYS
 10
730.097618
 20
183.336142
 11
730.097618
 21
199.288173
  0
ARC
  8
OBRYS
 10
737.563633
 20
209.031802
 40
10.000000
 50
168.255291
 51
209.155497
  0
ARC
  8
OBRYS
 10
720.097618
 20
199.288173
 40
10.000000
 50
0.000000
 51
29.155497
  0
ARC
  8
OBRYS
 10
737.563633
 20
209.031802
 40
10.000000
 50
228.820618
 51
274.030357
  0
ARC
  8
OBRYS
 10
775.831976
 20
209.031802
 40
10.000000
 50
265.969643
 51
311.179382
  0
ARC
  8
OBRYS
 10
793.297991
 20
199.288173
 40
10.000000
 50
150.844503
 51
180.000000
  0
ARC
  8
OBRYS
 10
775.831976
 20
209.031802
 40
10.000000
 50
330.844503
 51
11.744709
  0
ARC
  8
OBRYS
 10
790.517941
 20
212.085073
 40
5.000000
 50
128.094654
 51
191.744709
  0
ARC
  8
OBRYS
 10
763.288444
 20
200.806246
 40
5.000000
 50
33.255291
 51
96.905346
  0
ARC
  8
OBRYS
 10
775.831976
 20
209.031802
 40
10.000000
 50
213.255291
 51
247.560444
  0
ARC
  8
NEVIDITELNA
 62
     2
  6
CONTINUOUS
 10
768.197805
 20
190.546148
 40
10.000000
 50
0.000000
 51
67.560444
  0
ARC
  8
OBRYS
 10
756.697805
 20
255.225779
 40
49.817170
 50
263.094654
 51
276.905346
  0
LINE
  8
NEVIDITELNA
 62
     2
  6
CONTINUOUS
 10
778.197805
 20
190.546148
 11
778.197805
 21
170.225779
  0
LINE
  8
OBRYS
 10
783.297991
 20
183.336142
 11
783.297991
 21
199.288173
  0
ARC
  8
OBRYS
 10
756.697805
 20
255.225779
 40
49.817170
 50
308.094654
 51
329.460032
  0
ARC
  8
OBRYS
 10
756.697805
 20
255.225779
 40
70.000000
 50
308.147347
 51
323.119740
  0
ARC
  8
NEVIDITELNA
 62
     2
  6
CONTINUOUS
 10
714.197805
 20
194.725779
 40
5.500000
 50
90.000000
 51
180.000000
  0
ARC
  8
NEVIDITELNA
 62
     2
  6
CONTINUOUS
 10
714.197805
 20
194.725779
 40
5.500000
 50
0.000000
 51
90.000000
  0
LINE
  8
NEVIDITELNA
 62
     2
  6
CONTINUOUS
 10
719.697805
 20
194.725779
 11
719.697805
 21
180.225779
  0
LINE
  8
NEVIDITELNA
 62
     2
  6
CONTINUOUS
 10
708.697805
 20
194.725779
 11
708.697805
 21
180.225779
  0
ARC
  8
OBRYS
 10
756.697805
 20
255.225779
 40
70.000000
 50
216.869898
 51
231.852653
  0
ARC
  8
OBRYS
 10
756.697805
 20
255.225779
 40
70.000000
 50
237.972850
 51
247.666152
  0
ARC
  8
OSA
 62
     2
  6
CONTINUOUS
 10
756.697805
 20
255.225779
 40
56.000000
 50
0.000000
 51
180.000000
  0
INSERT
  8
OBRYS
 66
     1
  2
Srouby_s_valcovou_hlavou__11
 62
     7
 10
719.197805
 20
255.225779
  0
ATTRIB
  8
OBRYS
 10
0.000000
 20
0.000000
 40
3.749998
  1
DIN 7984
  2
norma roz.
 70
     1
  0
ATTRIB
  8
OBRYS
 10
0.000000
 20
0.000000
 40
3.749998
  1
1
  2
roztec
 70
     1
  0
ATTRIB
  8
OBRYS
 10
0.000000
 20
0.000000
 40
3.749998
  1
*N
  2
puvod
 70
     1
  0
SEQEND
  8
OBRYS
  0
INSERT
  8
OBRYS
 66
     1
  2
Srouby_s_valcovou_hlavou__12
 62
     7
 10
756.697805
 20
292.725779
  0
ATTRIB
  8
OBRYS
 10
0.000000
 20
0.000000
 40
3.749998
  1
DIN 7984
  2
norma roz.
 70
     1
  0
ATTRIB
  8
OBRYS
 10
0.000000
 20
0.000000
 40
3.749998
  1
1
  2
roztec
 70
     1
  0
ATTRIB
  8
OBRYS
 10
0.000000
 20
0.000000
 40
3.749998
  1
*N
  2
puvod
 70
     1
  0
SEQEND
  8
OBRYS
  0
INSERT
  8
OBRYS
 66
     1
  2
Srouby_s_valcovou_hlavou__13
 62
     7
 10
794.197805
 20
255.225779
  0
ATTRIB
  8
OBRYS
 10
0.000000
 20
0.000000
 40
3.749998
  1
DIN 7984
  2
norma roz.
 70
     1
  0
ATTRIB
  8
OBRYS
 10
0.000000
 20
0.000000
 40
3.749998
  1
1
  2
roztec
 70
     1
  0
ATTRIB
  8
OBRYS
 10
0.000000
 20
0.000000
 40
3.749998
  1
*N
  2
puvod
 70
     1
  0
SEQEND
  8
OBRYS
  0
INSERT
  8
OBRYS
 66
     1
  2
Srouby_s_valcovou_hlavou__14
 62
     7
 10
756.697805
 20
217.725779
  0
ATTRIB
  8
OBRYS
 10
0.000000
 20
0.000000
 40
3.749998
  1
DIN 7984
  2
norma roz.
 70
     1
  0
ATTRIB
  8
OBRYS
 10
0.000000
 20
0.000000
 40
3.749998
  1
1
  2
roztec
 70
     1
  0
ATTRIB
  8
OBRYS
 10
0.000000
 20
0.000000
 40
3.749998
  1
*N
  2
puvod
 70
     1
  0
SEQEND
  8
OBRYS
  0
INSERT
  8
OBRYS
 66
     1
  2
Srouby_s_valcovou_hlavou__15
 62
     7
 10
368.396033
 20
217.725779
  0
ATTRIB
  8
OBRYS
 10
0.000000
 20
0.000000
 40
3.749998
  1
DIN 7984
  2
norma roz.
 70
     1
  0
ATTRIB
  8
OBRYS
 10
0.000000
 20
0.000000
 40
3.749998
  1
1
  2
roztec
 70
     1
  0
ATTRIB
  8
OBRYS
 10
0.000000
 20
0.000000
 40
3.749998
  1
*N
  2
puvod
 70
     1
  0
SEQEND
  8
OBRYS
  0
INSERT
  8
OBRYS
 66
     1
  2
Srouby_s_valcovou_hlavou__16
 62
     7
 10
330.896033
 20
255.225779
  0
ATTRIB
  8
OBRYS
 10
0.000000
 20
0.000000
 40
3.749998
  1
DIN 7984
  2
norma roz.
 70
     1
  0
ATTRIB
  8
OBRYS
 10
0.000000
 20
0.000000
 40
3.749998
  1
1
  2
roztec
 70
     1
  0
ATTRIB
  8
OBRYS
 10
0.000000
 20
0.000000
 40
3.749998
  1
*N
  2
puvod
 70
     1
  0
SEQEND
  8
OBRYS
  0
INSERT
  8
OBRYS
 66
     1
  2
Srouby_s_valcovou_hlavou__17
 62
     7
 10
368.396033
 20
292.725779
  0
ATTRIB
  8
OBRYS
 10
0.000000
 20
0.000000
 40
3.749998
  1
DIN 7984
  2
norma roz.
 70
     1
  0
ATTRIB
  8
OBRYS
 10
0.000000
 20
0.000000
 40
3.749998
  1
1
  2
roztec
 70
     1
  0
ATTRIB
  8
OBRYS
 10
0.000000
 20
0.000000
 40
3.749998
  1
*N
  2
puvod
 70
     1
  0
SEQEND
  8
OBRYS
  0
INSERT
  8
OBRYS
 66
     1
  2
Srouby_s_valcovou_hlavou__18
 62
     7
 10
405.896033
 20
255.225779
  0
ATTRIB
  8
OBRYS
 10
0.000000
 20
0.000000
 40
3.749998
  1
DIN 7984
  2
norma roz.
 70
     1
  0
ATTRIB
  8
OBRYS
 10
0.000000
 20
0.000000
 40
3.749998
  1
1
  2
roztec
 70
     1
  0
ATTRIB
  8
OBRYS
 10
0.000000
 20
0.000000
 40
3.749998
  1
*N
  2
puvod
 70
     1
  0
SEQEND
  8
OBRYS
  0
INSERT
  8
OBRYS
 66
     1
  2
Srouby_s_valcovou_hlavou__19
 62
     7
 10
349.261861
 20
301.419756
  0
ATTRIB
  8
OBRYS
 10
0.000000
 20
0.000000
 40
3.749998
  1
DIN 7984
  2
norma roz.
 70
     1
  0
ATTRIB
  8
OBRYS
 10
0.000000
 20
0.000000
 40
3.749998
  1
1
  2
roztec
 70
     1
  0
ATTRIB
  8
OBRYS
 10
0.000000
 20
0.000000
 40
3.749998
  1
*N
  2
puvod
 70
     1
  0
SEQEND
  8
OBRYS
  0
INSERT
  8
OBRYS
 66
     1
  2
Srouby_s_valcovou_hlavou__20
 62
     7
 10
322.202056
 20
274.359951
  0
ATTRIB
  8
OBRYS
 10
0.000000
 20
0.000000
 40
3.749998
  1
DIN 7984
  2
norma roz.
 70
     1
  0
ATTRIB
  8
OBRYS
 10
0.000000
 20
0.000000
 40
3.749998
  1
1
  2
roztec
 70
     1
  0
ATTRIB
  8
OBRYS
 10
0.000000
 20
0.000000
 40
3.749998
  1
*N
  2
puvod
 70
     1
  0
SEQEND
  8
OBRYS
  0
INSERT
  8
OBRYS
 66
     1
  2
Srouby_s_valcovou_hlavou__21
 62
     7
 10
322.202056
 20
236.091607
  0
ATTRIB
  8
OBRYS
 10
0.000000
 20
0.000000
 40
3.749998
  1
DIN 7984
  2
norma roz.
 70
     1
  0
ATTRIB
  8
OBRYS
 10
0.000000
 20
0.000000
 40
3.749998
  1
1
  2
roztec
 70
     1
  0
ATTRIB
  8
OBRYS
 10
0.000000
 20
0.000000
 40
3.749998
  1
*N
  2
puvod
 70
     1
  0
SEQEND
  8
OBRYS
  0
INSERT
  8
OBRYS
 66
     1
  2
Srouby_s_valcovou_hlavou__22
 62
     7
 10
349.261861
 20
209.031802
  0
ATTRIB
  8
OBRYS
 10
0.000000
 20
0.000000
 40
3.749998
  1
DIN 7984
  2
norma roz.
 70
     1
  0
ATTRIB
  8
OBRYS
 10
0.000000
 20
0.000000
 40
3.749998
  1
1
  2
roztec
 70
     1
  0
ATTRIB
  8
OBRYS
 10
0.000000
 20
0.000000
 40
3.749998
  1
*N
  2
puvod
 70
     1
  0
SEQEND
  8
OBRYS
  0
INSERT
  8
OBRYS
 66
     1
  2
Srouby_s_valcovou_hlavou__23
 62
     7
 10
387.530204
 20
209.031802
  0
ATTRIB
  8
OBRYS
 10
0.000000
 20
0.000000
 40
3.749998
  1
DIN 7984
  2
norma roz.
 70
     1
  0
ATTRIB
  8
OBRYS
 10
0.000000
 20
0.000000
 40
3.749998
  1
1
  2
roztec
 70
     1
  0
ATTRIB
  8
OBRYS
 10
0.000000
 20
0.000000
 40
3.749998
  1
*N
  2
puvod
 70
     1
  0
SEQEND
  8
OBRYS
  0
INSERT
  8
OBRYS
 66
     1
  2
Srouby_s_valcovou_hlavou__24
 62
     7
 10
414.590009
 20
236.091608
  0
ATTRIB
  8
OBRYS
 10
0.000000
 20
0.000000
 40
3.749998
  1
DIN 7984
  2
norma roz.
 70
     1
  0
ATTRIB
  8
OBRYS
 10
0.000000
 20
0.000000
 40
3.749998
  1
1
  2
roztec
 70
     1
  0
ATTRIB
  8
OBRYS
 10
0.000000
 20
0.000000
 40
3.749998
  1
*N
  2
puvod
 70
     1
  0
SEQEND
  8
OBRYS
  0
INSERT
  8
OBRYS
 66
     1
  2
Srouby_s_valcovou_hlavou__25
 62
     7
 10
414.590009
 20
274.359951
  0
ATTRIB
  8
OBRYS
 10
0.000000
 20
0.000000
 40
3.749998
  1
DIN 7984
  2
norma roz.
 70
     1
  0
ATTRIB
  8
OBRYS
 10
0.000000
 20
0.000000
 40
3.749998
  1
1
  2
roztec
 70
     1
  0
ATTRIB
  8
OBRYS
 10
0.000000
 20
0.000000
 40
3.749998
  1
*N
  2
puvod
 70
     1
  0
SEQEND
  8
OBRYS
  0
INSERT
  8
OBRYS
 66
     1
  2
Srouby_s_valcovou_hlavou__26
 62
     7
 10
387.530204
 20
301.419756
  0
ATTRIB
  8
OBRYS
 10
0.000000
 20
0.000000
 40
3.749998
  1
DIN 7984
  2
norma roz.
 70
     1
  0
ATTRIB
  8
OBRYS
 10
0.000000
 20
0.000000
 40
3.749998
  1
1
  2
roztec
 70
     1
  0
ATTRIB
  8
OBRYS
 10
0.000000
 20
0.000000
 40
3.749998
  1
*N
  2
puvod
 70
     1
  0
SEQEND
  8
OBRYS
  0
ARC
  8
OSA
 62
     2
  6
CONTINUOUS
 10
368.396033
 20
255.225779
 40
56.000000
 50
0.000000
 51
180.000000
  0
ARC
  8
OBRYS
 10
368.396033
 20
255.225779
 40
70.000000
 50
292.333848
 51
302.027150
  0
ARC
  8
OBRYS
 10
368.396033
 20
255.225779
 40
70.000000
 50
308.147347
 51
323.130102
  0
LINE
  8
NEVIDITELNA
 62
     2
  6
CONTINUOUS
 10
416.396033
 20
194.725779
 11
416.396033
 21
180.225779
  0
LINE
  8
NEVIDITELNA
 62
     2
  6
CONTINUOUS
 10
405.396033
 20
194.725779
 11
405.396033
 21
180.225779
  0
ARC
  8
NEVIDITELNA
 62
     2
  6
CONTINUOUS
 10
410.896033
 20
194.725779
 40
5.500000
 50
90.000000
 51
180.000000
  0
ARC
  8
NEVIDITELNA
 62
     2
  6
CONTINUOUS
 10
410.896033
 20
194.725779
 40
5.500000
 50
0.000000
 51
90.000000
  0
ARC
  8
OBRYS
 10
368.396033
 20
255.225779
 40
70.000000
 50
216.880260
 51
231.852653
  0
ARC
  8
OBRYS
 10
368.396033
 20
255.225779
 40
49.817170
 50
210.539968
 51
231.905346
  0
LINE
  8
OBRYS
 10
341.795846
 20
183.336142
 11
341.795846
 21
199.288173
  0
LINE
  8
NEVIDITELNA
 62
     2
  6
CONTINUOUS
 10
346.896033
 20
190.546148
 11
346.896033
 21
170.225779
  0
ARC
  8
OBRYS
 10
368.396033
 20
255.225779
 40
49.817170
 50
263.094654
 51
276.905346
  0
ARC
  8
NEVIDITELNA
 62
     2
  6
CONTINUOUS
 10
356.896033
 20
190.546148
 40
10.000000
 50
112.439556
 51
180.000000
  0
ARC
  8
OBRYS
 10
349.261861
 20
209.031802
 40
10.000000
 50
292.439556
 51
326.744709
  0
ARC
  8
OBRYS
 10
361.805394
 20
200.806246
 40
5.000000
 50
83.094654
 51
146.744709
  0
ARC
  8
OBRYS
 10
334.575897
 20
212.085073
 40
5.000000
 50
348.255291
 51
51.905346
  0
ARC
  8
OBRYS
 10
349.261861
 20
209.031802
 40
10.000000
 50
168.255291
 51
209.155497
  0
ARC
  8
OBRYS
 10
331.795846
 20
199.288173
 40
10.000000
 50
0.000000
 51
29.155497
  0
ARC
  8
OBRYS
 10
349.261861
 20
209.031802
 40
10.000000
 50
228.820618
 51
274.030357
  0
ARC
  8
OBRYS
 10
387.530204
 20
209.031802
 40
10.000000
 50
265.969643
 51
311.179382
  0
ARC
  8
OBRYS
 10
404.996219
 20
199.288173
 40
10.000000
 50
150.844503
 51
180.000000
  0
ARC
  8
OBRYS
 10
387.530204
 20
209.031802
 40
10.000000
 50
330.844503
 51
11.744709
  0
LINE
  8
OBRYS
 10
394.996219
 20
183.336142
 11
394.996219
 21
199.288173
  0
ARC
  8
OBRYS
 10
402.216168
 20
212.085073
 40
5.000000
 50
128.094654
 51
191.744709
  0
ARC
  8
OBRYS
 10
368.396033
 20
255.225779
 40
49.817170
 50
308.094654
 51
329.460032
  0
ARC
  8
OBRYS
 10
374.986672
 20
200.806246
 40
5.000000
 50
33.255291
 51
96.905346
  0
ARC
  8
OBRYS
 10
387.530204
 20
209.031802
 40
10.000000
 50
213.255291
 51
247.560444
  0
ARC
  8
NEVIDITELNA
 62
     2
  6
CONTINUOUS
 10
379.896033
 20
190.546148
 40
10.000000
 50
0.000000
 51
67.560444
  0
LINE
  8
NEVIDITELNA
 62
     2
  6
CONTINUOUS
 10
389.896033
 20
190.546148
 11
389.896033
 21
170.225779
  0
LINE
  8
OBRYS
 10
331.076494
 20
220.734667
 11
319.735979
 21
209.394152
  0
LINE
  8
OBRYS
 10
333.904921
 20
217.906240
 11
322.564406
 21
206.565725
  0
LINE
  8
OBRYS
 10
366.396033
 20
204.447981
 11
366.396033
 21
188.410071
  0
LINE
  8
OBRYS
 10
370.396033
 20
204.447981
 11
370.396033
 21
188.410071
  0
LINE
  8
OBRYS
 10
405.715572
 20
220.734667
 11
417.056087
 21
209.394152
  0
LINE
  8
OBRYS
 10
402.887145
 20
217.906240
 11
414.227660
 21
206.565725
  0
LINE
  8
OBRYS
 10
394.937033
 20
180.225779
 11
390.978032
 21
180.225779
  0
LINE
  8
OBRYS
 10
341.855033
 20
180.225779
 11
345.814033
 21
180.225779
  0
LINE
  8
OSA
 10
368.396033
 20
255.225779
 11
368.396033
 21
168.178710
  0
ARC
  8
NEVIDITELNA
 62
     2
  6
CONTINUOUS
 10
337.896033
 20
184.225779
 40
4.000000
 50
270.000000
 51
347.149408
  0
ARC
  8
OBRYS
 10
368.396033
 20
255.225779
 40
56.000000
 50
0.000000
 51
12.329602
  0
ARC
  8
OBRYS
 10
368.396033
 20
255.225779
 40
56.000000
 50
167.670403
 51
180.000000
  0
LINE
  8
OBRYS
 10
331.076494
 20
289.716891
 11
328.029467
 21
292.763918
  0
LINE
  8
OBRYS
 10
317.618235
 20
253.225779
 11
313.309087
 21
253.225779
  0
LINE
  8
OBRYS
 10
419.173831
 20
257.225779
 11
423.482978
 21
257.225779
  0
LINE
  8
OBRYS
 10
402.887145
 20
292.545318
 11
405.934172
 21
295.592345
  0
LINE
  8
OBRYS
 10
333.904921
 20
292.545318
 11
330.857894
 21
295.592345
  0
LINE
  8
OBRYS
 10
317.618235
 20
257.225779
 11
313.309087
 21
257.225779
  0
LINE
  8
OBRYS
 10
419.173831
 20
253.225779
 11
423.482978
 21
253.225779
  0
LINE
  8
OBRYS
 10
405.715572
 20
289.716891
 11
408.762599
 21
292.763918
  0
LINE
  8
OBRYS
 10
424.396033
 20
178.138534
 11
424.396033
 21
255.225779
  0
LINE
  8
OBRYS
 10
312.403630
 20
178.051620
 11
312.403630
 21
255.225779
  0
LINE
  8
OBRYS
 10
370.396033
 20
306.003577
 11
370.396033
 21
310.312724
  0
LINE
  8
OBRYS
 10
366.396033
 20
306.003577
 11
366.396033
 21
310.312724
  0
ARC
  8
OBRYS
 10
368.396033
 20
255.225779
 40
49.817170
 50
165.614426
 51
194.460032
  0
ARC
  8
OBRYS
 10
368.396033
 20
255.225779
 40
49.817170
 50
345.539968
 51
14.460032
  0
ARC
  8
OBRYS
 10
368.396033
 20
255.225779
 40
49.817170
 50
30.539968
 51
59.452154
  0
ARC
  8
OBRYS
 10
368.396033
 20
255.225779
 40
49.817170
 50
120.539968
 51
149.452154
  0
ARC
  8
OBRYS
 10
368.396033
 20
255.225779
 40
49.817170
 50
75.614426
 51
104.460032
  0
ARC
  8
OBRYS
 10
368.396033
 20
255.225779
 40
56.000000
 50
77.670398
 51
102.329602
  0
ARC
  8
OBRYS
 10
368.396033
 20
255.225779
 40
56.000000
 50
122.670398
 51
147.329605
  0
ARC
  8
OBRYS
 10
368.396033
 20
255.225779
 40
56.000000
 50
32.670398
 51
57.329602
  0
ARC
  8
OBRYS
 10
356.865134
 20
307.980290
 40
2.000000
 50
102.329602
 51
194.452154
  0
ARC
  8
OBRYS
 10
339.246537
 20
300.682428
 40
2.000000
 50
30.547846
 51
122.670398
  0
ARC
  8
OBRYS
 10
349.261861
 20
301.419756
 40
7.000000
 50
210.547866
 51
14.452132
  0
LINE
  8
OBRYS
 10
343.233425
 20
297.861954
 11
340.968947
 21
301.698943
  0
LINE
  8
OBRYS
 10
356.096073
 20
303.181084
 11
354.989153
 21
307.496761
  0
LINE
  8
OBRYS
 10
380.695993
 20
303.181084
 11
381.802912
 21
307.496761
  0
LINE
  8
OBRYS
 10
393.558641
 20
297.861954
 11
395.823118
 21
301.698943
  0
ARC
  8
OBRYS
 10
387.530204
 20
301.419756
 40
7.000000
 50
165.547868
 51
329.452134
  0
ARC
  8
OBRYS
 10
397.545528
 20
300.682428
 40
2.000000
 50
57.329602
 51
149.452154
  0
ARC
  8
OBRYS
 10
379.926931
 20
307.980290
 40
2.000000
 50
345.547846
 51
77.670398
  0
LINE
  8
OBRYS
 10
320.440728
 20
267.525739
 11
316.125050
 21
268.632658
  0
LINE
  8
OBRYS
 10
325.759858
 20
280.388387
 11
321.922869
 21
282.652865
  0
ARC
  8
OBRYS
 10
322.202056
 20
274.359951
 40
7.000000
 50
255.547868
 51
59.452134
  0
ARC
  8
OBRYS
 10
322.939384
 20
284.375275
 40
2.000000
 50
147.329602
 51
239.452154
  0
ARC
  8
OBRYS
 10
315.641522
 20
266.756678
 40
2.000000
 50
75.547846
 51
167.670398
  0
ARC
  8
OBRYS
 10
421.150543
 20
266.756678
 40
2.000000
 50
12.329602
 51
104.452154
  0
ARC
  8
OBRYS
 10
413.852681
 20
284.375275
 40
2.000000
 50
300.547846
 51
32.670398
  0
ARC
  8
OBRYS
 10
414.590009
 20
274.359951
 40
7.000000
 50
120.547866
 51
284.452132
  0
LINE
  8
OBRYS
 10
411.032207
 20
280.388387
 11
414.869197
 21
282.652865
  0
LINE
  8
OBRYS
 10
416.351337
 20
267.525739
 11
420.667015
 21
268.632658
  0
CIRCLE
  8
OBRYS
 10
414.590009
 20
236.091607
 40
7.000000
  0
CIRCLE
  8
OBRYS
 10
387.530204
 20
209.031802
 40
7.000000
  0
CIRCLE
  8
OBRYS
 10
349.261861
 20
209.031802
 40
7.000000
  0
CIRCLE
  8
OBRYS
 10
322.202056
 20
236.091607
 40
7.000000
  0
LINE
  8
OBRYS
 10
346.896033
 20
170.225779
 11
346.896033
 21
172.225779
  0
LINE
  8
NEVIDITELNA
 62
     2
  6
CONTINUOUS
 10
346.896033
 20
172.225779
 11
389.896033
 21
172.225779
  0
CIRCLE
  8
OSA
 10
368.396033
 20
255.225779
 40
37.500000
  0
LINE
  8
OSA
 10
325.896033
 20
200.025779
 11
325.896033
 21
170.225779
  0
ARC
  8
NEVIDITELNA
 62
     2
  6
CONTINUOUS
 10
325.896033
 20
194.725779
 40
5.500000
 50
90.000000
 51
180.000000
  0
ARC
  8
NEVIDITELNA
 62
     2
  6
CONTINUOUS
 10
325.896033
 20
194.725779
 40
5.500000
 50
0.000000
 51
90.000000
  0
LINE
  8
NEVIDITELNA
 62
     2
  6
CONTINUOUS
 10
331.396033
 20
194.725779
 11
331.396033
 21
180.225779
  0
LINE
  8
NEVIDITELNA
 62
     2
  6
CONTINUOUS
 10
320.396033
 20
194.725779
 11
320.396033
 21
180.225779
  0
ARC
  8
NEVIDITELNA
 62
     2
  6
CONTINUOUS
 10
398.896033
 20
184.225779
 40
4.000000
 50
180.000000
 51
270.000000
  0
LINE
  8
NEVIDITELNA
 62
     2
  6
CONTINUOUS
 10
389.896033
 20
176.225779
 11
346.896033
 21
176.225779
  0
LINE
  8
OSA
 10
410.896033
 20
200.025779
 11
410.896033
 21
170.225779
  0
LINE
  8
NEVIDITELNA
 62
     2
  6
CONTINUOUS
 10
312.396033
 20
170.225779
 11
346.896033
 21
170.225779
  0
LINE
  8
NEVIDITELNA
 62
     2
  6
CONTINUOUS
 10
314.396033
 20
180.225779
 11
337.896033
 21
180.225779
  0
ARC
  8
NEVIDITELNA
 62
     2
  6
CONTINUOUS
 10
314.396033
 20
178.225779
 40
2.000000
 50
90.000000
 51
180.000000
  0
LINE
  8
NEVIDITELNA
 62
     2
  6
CONTINUOUS
 10
312.396033
 20
178.138534
 11
312.396033
 21
170.225779
  0
LINE
  8
NEVIDITELNA
 62
     2
  6
CONTINUOUS
 10
424.396033
 20
178.138534
 11
424.396033
 21
170.225779
  0
ARC
  8
NEVIDITELNA
 62
     2
  6
CONTINUOUS
 10
422.396033
 20
178.225779
 40
2.000000
 50
0.000000
 51
90.000000
  0
LINE
  8
NEVIDITELNA
 62
     2
  6
CONTINUOUS
 10
422.396033
 20
180.225779
 11
398.896033
 21
180.225779
  0
LINE
  8
NEVIDITELNA
 62
     2
  6
CONTINUOUS
 10
424.396033
 20
170.225779
 11
389.896033
 21
170.225779
  0
LINE
  8
NEVIDITELNA
 10
415.396033
 20
180.225779
 11
415.396033
 21
170.225779
  0
LINE
  8
NEVIDITELNA
 10
406.396033
 20
180.225779
 11
406.396033
 21
170.225779
  0
LINE
  8
NEVIDITELNA
 10
321.396033
 20
180.225779
 11
321.396033
 21
170.225779
  0
LINE
  8
NEVIDITELNA
 10
330.396033
 20
180.225779
 11
330.396033
 21
170.225779
  0
ARC
  8
OBRYS
 10
368.396033
 20
292.725779
 40
5.500000
 50
0.000000
 51
180.000000
  0
ARC
  8
OBRYS
 10
405.896033
 20
255.225779
 40
5.500000
 50
270.000000
 51
90.000000
  0
ARC
  8
OBRYS
 10
330.896033
 20
255.225779
 40
5.500000
 50
90.000000
 51
270.000000
  0
LINE
  8
OBRYS
 10
362.910842
 20
293.129112
 11
362.910842
 21
286.338026
  0
ARC
  8
OBRYS
 10
360.910842
 20
286.338026
 40
2.000000
 50
283.527511
 51
360.000000
  0
LINE
  8
OBRYS
 10
373.881224
 20
293.129112
 11
373.881224
 21
286.338026
  0
ARC
  8
OBRYS
 10
375.881224
 20
286.338026
 40
2.000000
 50
180.000000
 51
256.472489
  0
LINE
  8
OBRYS
 10
330.492699
 20
260.710970
 11
337.283786
 21
260.710970
  0
ARC
  8
OSA
 62
     2
  6
CONTINUOUS
 10
368.396033
 20
255.225779
 40
30.000000
 50
103.527511
 51
166.472489
  0
ARC
  8
OBRYS
 10
337.283786
 20
262.710970
 40
2.000000
 50
270.000000
 51
346.472489
  0
LINE
  8
OBRYS
 10
330.492699
 20
249.740588
 11
337.283786
 21
249.740588
  0
ARC
  8
OBRYS
 10
337.283786
 20
247.740588
 40
2.000000
 50
13.527511
 51
90.000000
  0
LINE
  8
OBRYS
 10
362.910842
 20
217.322446
 11
362.910842
 21
224.113532
  0
ARC
  8
OBRYS
 10
360.910842
 20
224.113532
 40
2.000000
 50
0.000000
 51
76.472489
  0
LINE
  8
OBRYS
 10
373.881224
 20
217.322446
 11
373.881224
 21
224.113532
  0
ARC
  8
OBRYS
 10
375.881224
 20
224.113532
 40
2.000000
 50
103.527511
 51
180.000000
  0
LINE
  8
OBRYS
 10
406.299366
 20
249.740588
 11
399.508280
 21
249.740588
  0
ARC
  8
OSA
 62
     2
  6
CONTINUOUS
 10
368.396033
 20
255.225779
 40
30.000000
 50
283.527511
 51
346.472489
  0
ARC
  8
OBRYS
 10
399.508280
 20
247.740588
 40
2.000000
 50
90.000000
 51
166.472489
  0
LINE
  8
OBRYS
 10
406.299366
 20
260.710970
 11
399.508280
 21
260.710970
  0
ARC
  8
OSA
 62
     2
  6
CONTINUOUS
 10
368.396033
 20
255.225779
 40
30.000000
 50
13.527511
 51
76.472489
  0
ARC
  8
OBRYS
 10
399.508280
 20
262.710970
 40
2.000000
 50
193.527511
 51
270.000000
  0
ARC
  8
OBRYS
 10
368.396033
 20
255.225779
 40
31.000000
 50
259.623734
 51
280.376266
  0
ARC
  8
OBRYS
 10
368.396033
 20
255.225779
 40
31.000000
 50
169.623734
 51
190.376266
  0
ARC
  8
OBRYS
 10
368.396033
 20
255.225779
 40
31.000000
 50
79.623734
 51
100.376266
  0
ARC
  8
OBRYS
 10
368.396033
 20
255.225779
 40
31.000000
 50
349.623734
 51
10.376266
  0
ARC
  8
OSA
 62
     2
  6
CONTINUOUS
 10
368.396033
 20
255.225779
 40
30.000000
 50
193.527511
 51
256.472489
  0
ARC
  8
OBRYS
 10
368.396033
 20
217.725779
 40
5.500000
 50
180.000000
 51
360.000000
  0
ARC
  8
OBRYS
 10
368.396033
 20
255.225779
 40
70.000000
 50
252.112870
 51
287.887130
  0
ARC
  8
OBRYS
 10
368.396033
 20
255.225779
 40
70.000000
 50
237.972850
 51
247.666152
  0
LINE
  8
OBRYS
 10
408.396033
 20
340.247993
 11
401.429354
 21
336.225779
  0
LINE
  8
OBRYS
 10
328.396033
 20
340.247993
 11
335.362712
 21
336.225779
  0
LINE
  8
OBRYS
 10
401.429354
 20
336.225779
 11
335.362712
 21
336.225779
  0
LINE
  8
0
 62
     2
 10
401.429354
 20
336.225779
 11
401.429354
 21
300.445241
  0
LINE
  8
0
 62
     2
 10
335.362712
 20
336.225779
 11
335.362712
 21
300.445241
  0
LINE
  8
0
 62
     2
 10
307.396033
 20
290.214672
 11
324.672156
 21
290.214672
  0
LINE
  8
0
 62
     2
 10
307.396033
 20
285.884545
 11
321.534107
 21
285.884545
  0
LINE
  8
0
 62
     2
 10
307.396033
 20
270.873438
 11
314.626610
 21
270.873438
  0
LINE
  8
0
 62
     2
 10
307.396033
 20
324.567013
 11
329.358188
 21
324.567013
  0
LINE
  8
0
 62
     2
 10
307.396033
 20
320.236886
 11
329.158040
 21
320.236886
  0
LINE
  8
0
 62
     2
 10
307.396033
 20
339.578120
 11
329.129806
 21
339.578120
  0
POLYLINE
  8
0
 62
     2
 66
    1
  0
VERTEX
  8
0
 62
     2
 10
334.428070
 20
299.747528
  0
VERTEX
  8
0
 62
     2
 10
335.362640
 20
305.225800
  0
VERTEX
  8
0
 62
     2
 10
334.310760
 20
311.392059
  0
VERTEX
  8
0
 62
     2
 10
330.938690
 20
318.066437
  0
VERTEX
  8
0
 62
     2
 10
329.158051
 20
320.236908
  0
VERTEX
  8
0
 62
     2
 10
328.472870
 20
321.276459
  0
VERTEX
  8
0
 62
     2
 10
328.153046
 20
322.270599
  0
VERTEX
  8
0
 62
     2
 10
328.212494
 20
323.175812
  0
VERTEX
  8
0
 62
     2
 10
328.648773
 20
323.952606
  0
VERTEX
  8
0
 62
     2
 10
329.242035
 20
324.411713
  0
VERTEX
  8
0
 62
     2
 10
329.358124
 20
324.567047
  0
VERTEX
  8
0
 62
     2
 10
333.468597
 20
327.919342
  0
VERTEX
  8
0
 62
     2
 10
335.247406
 20
331.056671
  0
VERTEX
  8
0
 62
     2
 10
334.899384
 20
334.113190
  0
VERTEX
  8
0
 62
     2
 10
332.353485
 20
337.334137
  0
VERTEX
  8
0
 62
     2
 10
329.129730
 20
339.578156
  0
VERTEX
  8
0
 62
     2
 10
328.556244
 20
340.003265
  0
VERTEX
  8
0
 62
     2
 10
328.354218
 20
340.220612
  0
VERTEX
  8
0
 62
     2
 10
328.443451
 20
340.220612
  0
SEQEND
  8
0
  0
POLYLINE
  8
0
 62
     2
 66
    1
  0
VERTEX
  8
0
 62
     2
 10
402.363861
 20
299.747528
  0
VERTEX
  8
0
 62
     2
 10
401.429291
 20
305.225800
  0
VERTEX
  8
0
 62
     2
 10
402.481293
 20
311.392059
  0
VERTEX
  8
0
 62
     2
 10
405.853241
 20
318.066437
  0
VERTEX
  8
0
 62
     2
 10
407.634003
 20
320.236908
  0
VERTEX
  8
0
 62
     2
 10
408.319183
 20
321.276459
  0
VERTEX
  8
0
 62
     2
 10
408.639008
 20
322.270599
  0
VERTEX
  8
0
 62
     2
 10
408.579437
 20
323.175812
  0
VERTEX
  8
0
 62
     2
 10
408.143158
 20
323.952606
  0
VERTEX
  8
0
 62
     2
 10
407.550018
 20
324.411713
  0
VERTEX
  8
0
 62
     2
 10
407.433807
 20
324.567047
  0
VERTEX
  8
0
 62
     2
 10
403.323456
 20
327.919342
  0
VERTEX
  8
0
 62
     2
 10
401.544525
 20
331.056671
  0
VERTEX
  8
0
 62
     2
 10
401.892670
 20
334.113190
  0
VERTEX
  8
0
 62
     2
 10
404.438568
 20
337.334137
  0
VERTEX
  8
0
 62
     2
 10
407.662201
 20
339.578156
  0
VERTEX
  8
0
 62
     2
 10
408.235687
 20
340.003265
  0
VERTEX
  8
0
 62
     2
 10
408.437714
 20
340.220612
  0
VERTEX
  8
0
 62
     2
 10
408.348602
 20
340.220612
  0
SEQEND
  8
0
  0
LINE
  8
0
 62
     2
 10
433.396033
 20
290.214672
 11
412.119909
 21
290.214672
  0
LINE
  8
0
 62
     2
 10
433.396033
 20
285.884545
 11
415.257958
 21
285.884545
  0
LINE
  8
0
 62
     2
 10
433.396033
 20
270.873438
 11
422.165455
 21
270.873438
  0
LINE
  8
0
 62
     2
 10
433.396033
 20
339.578120
 11
407.662259
 21
339.578120
  0
LINE
  8
0
 62
     2
 10
433.396033
 20
324.567013
 11
407.433878
 21
324.567013
  0
LINE
  8
0
 62
     2
 10
433.396033
 20
320.236886
 11
407.634026
 21
320.236886
  0
LINE
  8
OBRYS
 10
307.396033
 20
340.247993
 11
328.396033
 21
340.247993
  0
LINE
  8
OBRYS
 10
433.396033
 20
340.247993
 11
408.396033
 21
340.247993
  0
LINE
  8
OBRYS
 10
433.396033
 20
270.203565
 11
422.355887
 21
270.203565
  0
LINE
  8
OBRYS
 10
433.396033
 20
270.203565
 11
433.396033
 21
340.247993
  0
LINE
  8
OBRYS
 10
307.396033
 20
270.203565
 11
314.436178
 21
270.203565
  0
LINE
  8
OBRYS
 10
307.396033
 20
270.203565
 11
307.396033
 21
340.247993
  0
LINE
  8
OSA
 10
368.396033
 20
249.225779
 11
368.396033
 21
196.225779
  0
LINE
  8
OSA
 10
362.396033
 20
255.225779
 11
309.396033
 21
255.225779
  0
LINE
  8
OSA
 10
374.396033
 20
255.225779
 11
427.396033
 21
255.225779
  0
LINE
  8
OSA
 10
368.396033
 20
252.225779
 11
368.396033
 21
258.225779
  0
LINE
  8
OSA
 10
371.396033
 20
255.225779
 11
365.396033
 21
255.225779
  0
LINE
  8
OSA
 10
368.396033
 20
305.225779
 11
310.396033
 21
305.225779
  0
LINE
  8
OSA
 10
368.396033
 20
261.225779
 11
368.396033
 21
319.166380
  0
LINE
  8
OSA
 10
368.396033
 20
305.225779
 11
432.153115
 21
305.225779
  0
CIRCLE
  8
OSA
 62
     2
  6
CONTINUOUS
 10
368.396033
 20
255.225779
 40
25.000000
  0
ARC
  8
OBRYS
 10
368.396033
 20
255.225779
 40
12.000000
 50
109.471221
 51
70.528779
  0
LINE
  8
OBRYS
 10
372.396033
 20
266.539488
 11
372.396033
 21
270.125779
  0
LINE
  8
OBRYS
 10
372.396033
 20
270.125779
 11
364.396033
 21
270.125779
  0
LINE
  8
OBRYS
 10
364.396033
 20
270.125779
 11
364.396033
 21
266.539488
  0
CIRCLE
  8
OBRYS
 10
368.396033
 20
255.225779
 40
17.500000
  0
LINE
  8
OSA
 10
288.396033
 20
305.225779
 11
315.396033
 21
305.225779
  0
LINE
  8
OSA
 10
123.157365
 20
344.948143
 11
123.157365
 21
305.225779
  0
LINE
  8
OBRYS
 10
161.657365
 20
258.409997
 11
162.157365
 21
258.444653
  0
LINE
  8
OBRYS
 10
161.657365
 20
252.041561
 11
162.157365
 21
252.006905
  0
LINE
  8
OBRYS
 10
161.657365
 20
255.225779
 11
161.657365
 21
240.105241
  0
LINE
  8
OBRYS
 10
156.157365
 20
199.225779
 11
152.979122
 21
199.225779
  0
INSERT
  8
OBRYS
  2
_27
 62
     7
 10
172.157365
 20
255.225779
  0
LINE
  8
OBRYS
 10
84.657365
 20
258.409997
 11
84.157365
 21
258.444653
  0
LINE
  8
OBRYS
 10
84.657365
 20
252.041561
 11
84.157365
 21
252.006905
  0
LINE
  8
OBRYS
 10
84.657365
 20
255.225779
 11
84.657365
 21
240.105241
  0
LINE
  8
OBRYS
 10
90.157365
 20
199.225779
 11
93.335607
 21
199.225779
  0
INSERT
  8
OBRYS
  2
_28
 62
     7
 10
74.157365
 20
255.225779
  0
LINE
  8
OSA
 10
123.157365
 20
305.225779
 11
123.157365
 21
200.008060
  0
LINE
  8
OSA
 10
156.157365
 20
305.225779
 11
123.157365
 21
305.225779
  0
LINE
  8
OSA
 62
     2
  6
CONTINUOUS
 10
91.211712
 20
311.227677
 11
86.587566
 21
311.066198
  0
LINE
  8
OSA
 62
     2
  6
CONTINUOUS
 10
74.157365
 20
284.725779
 11
74.157365
 21
255.225779
  0
ARC
  8
OSA
 62
     2
  6
CONTINUOUS
 10
86.657365
 20
309.067417
 40
2.000000
 50
92.000000
 51
180.000000
  0
LINE
  8
OSA
 62
     2
  6
CONTINUOUS
 10
74.157365
 20
228.725779
 11
74.157365
 21
255.225779
  0
LINE
  8
OBRYS
 10
84.657365
 20
309.067417
 11
84.657365
 21
255.225779
  0
LINE
  8
OBRYS
 10
161.657365
 20
309.067417
 11
161.657365
 21
255.225779
  0
LINE
  8
OSA
 10
123.157365
 20
211.554681
 11
123.157365
 21
197.780431
  0
LINE
  8
OBRYS
 10
116.157365
 20
202.225779
 11
130.157365
 21
202.225779
  0
LINE
  8
OBRYS
 10
130.157365
 20
202.225779
 11
130.157365
 21
200.225779
  0
LINE
  8
OBRYS
 10
116.157365
 20
202.225779
 11
116.157365
 21
200.225779
  0
ARC
  8
OBRYS
 10
129.157365
 20
200.225779
 40
1.000000
 50
270.000000
 51
360.000000
  0
LINE
  8
OBRYS
 10
117.157365
 20
199.225779
 11
129.157365
 21
199.225779
  0
ARC
  8
OBRYS
 10
117.157365
 20
200.225779
 40
1.000000
 50
180.000000
 51
270.000000
  0
ARC
  8
0
 62
     2
 10
109.157365
 20
202.225779
 40
5.000000
 50
0.000000
 51
35.492919
  0
LINE
  8
0
 62
     2
 10
114.091970
 20
207.225779
 11
149.157365
 21
207.225779
  0
LINE
  8
OBRYS
 10
91.157365
 20
199.225779
 11
93.522976
 21
199.225779
  0
ARC
  8
OBRYS
 10
109.157365
 20
208.031802
 40
5.000000
 50
270.000000
 51
360.000000
  0
LINE
  8
OBRYS
 10
114.157365
 20
208.292712
 11
114.157365
 21
208.031802
  0
LINE
  8
OBRYS
 10
109.157365
 20
203.031802
 11
94.522976
 21
203.031802
  0
ARC
  8
OBRYS
 10
109.157365
 20
208.292712
 40
5.000000
 50
0.000000
 51
90.000000
  0
LINE
  8
OBRYS
 10
109.157365
 20
213.292712
 11
94.522976
 21
213.292712
  0
ARC
  8
OBRYS
 10
108.157365
 20
236.091610
 40
6.000000
 50
270.000000
 51
360.000000
  0
ARC
  8
OBRYS
 10
108.157365
 20
236.091610
 40
6.000000
 50
0.000000
 51
90.000000
  0
LINE
  8
OBRYS
 10
108.157365
 20
230.091610
 11
94.522976
 21
230.091610
  0
LINE
  8
OBRYS
 10
108.157365
 20
242.091610
 11
94.522976
 21
242.091610
  0
ARC
  8
OBRYS
 10
115.618407
 20
271.473281
 40
2.000000
 50
60.000000
 51
158.848608
  0
ARC
  8
OBRYS
 10
108.157365
 20
274.359949
 40
6.000000
 50
270.000000
 51
338.848608
  0
LINE
  8
OBRYS
 10
94.522976
 20
200.225779
 11
94.522976
 21
286.642623
  0
LINE
  8
OBRYS
 10
104.226247
 20
280.359949
 11
94.522976
 21
280.359949
  0
ARC
  8
OBRYS
 10
93.522976
 20
200.225779
 40
1.000000
 50
270.000000
 51
360.000000
  0
LINE
  8
OBRYS
 10
151.157365
 20
201.225779
 11
151.157365
 21
285.595870
  0
ARC
  8
OSA
 62
     2
  6
CONTINUOUS
 10
155.172816
 20
313.226459
 40
2.000000
 50
239.487542
 51
268.000000
  0
ARC
  8
OBRYS
 10
91.141925
 20
313.226504
 40
2.000000
 50
271.982723
 51
300.512083
  0
LINE
  8
OBRYS
 10
108.157365
 20
268.359949
 11
94.522976
 21
268.359949
  0
CIRCLE
  8
OBRYS
 10
123.157365
 20
305.225779
 40
26.000000
  0
ARC
  8
OBRYS
 10
123.157365
 20
329.474490
 40
10.000000
 50
60.000000
 51
120.000000
  0
LINE
  8
OBRYS
 10
118.157365
 20
338.134744
 11
97.157365
 21
326.010389
  0
ARC
  8
OBRYS
 10
102.157365
 20
317.350135
 40
10.000000
 50
120.000000
 51
180.000000
  0
LINE
  8
OBRYS
 10
149.157365
 20
326.010389
 11
128.157365
 21
338.134745
  0
ARC
  8
OBRYS
 10
144.157365
 20
317.350135
 40
10.000000
 50
0.000000
 51
60.000000
  0
LINE
  8
OBRYS
 10
154.157365
 20
293.101423
 11
154.157365
 21
317.350135
  0
ARC
  8
OBRYS
 10
144.157365
 20
293.101423
 40
10.000000
 50
300.000000
 51
360.000000
  0
LINE
  8
OBRYS
 10
128.157365
 20
272.316814
 11
149.157365
 21
284.441169
  0
ARC
  8
OBRYS
 10
123.157365
 20
280.977068
 40
10.000000
 50
240.000000
 51
300.000000
  0
LINE
  8
OBRYS
 10
97.157365
 20
284.441169
 11
118.157365
 21
272.316814
  0
LINE
  8
OBRYS
 10
92.157365
 20
317.350135
 11
92.157365
 21
293.101423
  0
ARC
  8
OBRYS
 10
102.157365
 20
293.101423
 40
10.000000
 50
180.000000
 51
240.000000
  0
LINE
  8
POMOC
 62
     2
  6
CONTINUOUS
 10
91.157365
 20
199.225779
 11
91.157365
 21
255.225779
  0
LINE
  8
OSA
 62
     2
  6
CONTINUOUS
 10
172.157365
 20
228.725779
 11
172.157365
 21
255.225779
  0
LINE
  8
OSA
 10
89.707091
 20
255.225779
 11
123.157365
 21
255.225779
  0
ARC
  8
OSA
 62
     2
  6
CONTINUOUS
 10
159.657365
 20
309.067417
 40
2.000000
 50
0.000000
 51
88.000000
  0
LINE
  8
OSA
 10
90.157365
 20
305.225779
 11
123.157365
 21
305.225779
  0
LINE
  8
OSA
 62
     2
  6
CONTINUOUS
 10
172.157365
 20
284.725779
 11
172.157365
 21
255.225779
  0
LINE
  8
OSA
 10
175.066163
 20
255.225779
 11
123.157365
 21
255.225779
  0
ARC
  8
OBRYS
 10
153.157365
 20
201.225779
 40
2.000000
 50
180.000000
 51
270.000000
  0
ARC
  8
0
 62
     2
 10
149.157365
 20
205.225779
 40
2.000000
 50
0.000000
 51
90.000000
  0
LINE
  8
POMOC
 62
     2
  6
CONTINUOUS
 10
132.157365
 20
202.225779
 11
123.157365
 21
202.225779
  0
LINE
  8
POMOC
 62
     2
  6
CONTINUOUS
 10
114.157365
 20
202.225779
 11
123.157365
 21
202.225779
  0
ARC
  8
0
 62
     2
 10
137.157365
 20
202.225779
 40
5.000000
 50
90.000000
 51
180.000000
  0
LINE
  8
NEVIDITELNA
 10
115.157365
 20
207.225779
 11
137.157365
 21
207.225779
  0
LINE
  8
POMOC
 62
     2
  6
CONTINUOUS
 10
91.157365
 20
311.225779
 11
91.157365
 21
255.225779
  0
LINE
  8
OBRYS
 10
91.211121
 20
311.227701
 11
91.157365
 21
311.225840
  0
LINE
  8
OSA
 62
     2
  6
CONTINUOUS
 10
155.103017
 20
311.227677
 11
159.727164
 21
311.066198
  0
LINE
  8
OSA
 10
368.396033
 20
503.390442
 11
368.396033
 21
452.181514
  0
LINE
  8
OBRYS
 10
424.396033
 20
488.681514
 11
424.396033
 21
483.181514
  0
LINE
  8
OBRYS
 10
307.396033
 20
421.181514
 11
312.420396
 21
421.181514
  0
LINE
  8
OBRYS
 10
433.396033
 20
483.181514
 11
433.396033
 21
421.181514
  0
LINE
  8
OBRYS
 10
433.396033
 20
421.181514
 11
424.371669
 21
421.181514
  0
LINE
  8
OBRYS
 10
431.444007
 20
457.181515
 11
417.665530
 21
457.181515
  0
LINE
  8
OBRYS
 10
431.444007
 20
447.181512
 11
417.665530
 21
447.181512
  0
LINE
  8
OBRYS
 10
307.396033
 20
483.181514
 11
307.396033
 21
421.181514
  0
LINE
  8
OBRYS
 10
309.009520
 20
447.181512
 11
319.126535
 21
447.181512
  0
LINE
  8
OBRYS
 10
309.009520
 20
457.181515
 11
319.126535
 21
457.181515
  0
LINE
  8
OBRYS
 10
307.396033
 20
483.181514
 11
312.396033
 21
483.181514
  0
LINE
  8
OBRYS
 10
424.396033
 20
483.181514
 11
433.396033
 21
483.181514
  0
LINE
  8
OBRYS
 10
422.396033
 20
424.181514
 11
314.396033
 21
424.181514
  0
ARC
  8
OBRYS
 10
314.396033
 20
422.181514
 40
2.000000
 50
90.000000
 51
180.000000
  0
ARC
  8
0
 62
     2
 10
318.396033
 20
426.181514
 40
2.000000
 50
270.000000
 51
360.000000
  0
LINE
  8
0
 62
     2
 10
320.396033
 20
461.246909
 11
320.396033
 21
426.181514
  0
LINE
  8
OBRYS
 10
312.396033
 20
485.181514
 11
312.396033
 21
481.815902
  0
LINE
  8
OBRYS
 10
423.396033
 20
480.815902
 11
313.396033
 21
480.815902
  0
ARC
  8
OBRYS
 10
313.396033
 20
481.815902
 40
1.000000
 50
180.000000
 51
270.000000
  0
INSERT
  8
OSA
 66
     1
  2
Sroub_M10x16_29
  6
CONTINUOUS
 10
368.396033
 20
452.181514
  0
ATTRIB
  8
OSA
  6
CONTINUOUS
 10
0.000000
 20
0.000000
 40
2.500000
  1
DIN 912
  2
norma roz.
 70
     1
  0
ATTRIB
  8
OSA
  6
CONTINUOUS
 10
0.000000
 20
0.000000
 40
2.500000
  1
1.5
  2
roztec
 70
     1
  0
ATTRIB
  8
OSA
  6
CONTINUOUS
 10
0.000000
 20
0.000000
 40
2.500000
  1
*N
  2
puvod
 70
     1
  0
SEQEND
  8
OSA
  0
CIRCLE
  8
OBRYS
 10
368.396033
 20
452.181514
 40
9.000000
  0
LINE
  8
OBRYS
 10
326.462966
 20
466.181514
 11
326.462966
 21
480.815902
  0
ARC
  8
OBRYS
 10
321.462966
 20
466.181514
 40
5.000000
 50
270.000000
 51
360.000000
  0
LINE
  8
OBRYS
 10
316.202056
 20
466.181514
 11
316.202056
 21
480.815902
  0
ARC
  8
OBRYS
 10
321.202056
 20
466.181514
 40
5.000000
 50
180.000000
 51
270.000000
  0
LINE
  8
OBRYS
 10
355.261863
 20
467.181514
 11
355.261863
 21
480.815902
  0
LINE
  8
OBRYS
 10
343.261863
 20
467.181514
 11
343.261863
 21
480.815902
  0
ARC
  8
OBRYS
 10
349.261863
 20
467.181514
 40
6.000000
 50
270.000000
 51
360.000000
  0
ARC
  8
OBRYS
 10
349.261863
 20
467.181514
 40
6.000000
 50
180.000000
 51
270.000000
  0
LINE
  8
OBRYS
 10
424.396033
 20
419.181514
 11
424.396033
 21
422.359756
  0
LINE
  8
OBRYS
 10
424.396033
 20
485.181514
 11
424.396033
 21
482.003271
  0
LINE
  8
0
 62
     2
 10
416.396033
 20
461.246909
 11
416.396033
 21
426.181514
  0
LINE
  8
OBRYS
 10
424.396033
 20
484.181514
 11
424.396033
 21
481.815902
  0
ARC
  8
OBRYS
 10
415.590009
 20
466.181514
 40
5.000000
 50
270.000000
 51
360.000000
  0
LINE
  8
OBRYS
 10
415.329100
 20
461.181514
 11
415.590009
 21
461.181514
  0
LINE
  8
OBRYS
 10
420.590009
 20
466.181514
 11
420.590009
 21
480.815902
  0
ARC
  8
OBRYS
 10
415.329100
 20
466.181514
 40
5.000000
 50
180.000000
 51
270.000000
  0
LINE
  8
OBRYS
 10
410.329100
 20
466.181514
 11
410.329100
 21
480.815902
  0
ARC
  8
OBRYS
 10
387.530202
 20
467.181514
 40
6.000000
 50
270.000000
 51
360.000000
  0
ARC
  8
OBRYS
 10
387.530202
 20
467.181514
 40
6.000000
 50
180.000000
 51
270.000000
  0
LINE
  8
OBRYS
 10
393.530202
 20
467.181514
 11
393.530202
 21
480.815902
  0
LINE
  8
OBRYS
 10
381.530202
 20
467.181514
 11
381.530202
 21
480.815902
  0
ARC
  8
OBRYS
 10
423.396033
 20
481.815902
 40
1.000000
 50
270.000000
 51
360.000000
  0
LINE
  8
POMOC
 62
     2
  6
CONTINUOUS
 10
424.396033
 20
484.181514
 11
368.396033
 21
484.181514
  0
LINE
  8
OSA
 10
368.396033
 20
400.272716
 11
368.396033
 21
452.181514
  0
ARC
  8
OBRYS
 10
422.396033
 20
422.181514
 40
2.000000
 50
0.000000
 51
90.000000
  0
ARC
  8
0
 62
     2
 10
418.396033
 20
426.181514
 40
2.000000
 50
180.000000
 51
270.000000
  0
LINE
  8
NEVIDITELNA
 10
416.396033
 20
460.181514
 11
416.396033
 21
438.181514
  0
LINE
  8
POMOC
 62
     2
  6
CONTINUOUS
 10
312.396033
 20
484.181514
 11
368.396033
 21
484.181514
  0
LINE
  8
OSA
 10
290.049885
 20
452.181514
 11
436.428870
 21
452.181514
  0
LINE
  8
OSA
 62
     2
  6
CONTINUOUS
 10
312.394135
 20
40.983477
 11
312.555614
 21
36.359330
  0
ARC
  8
OSA
 62
     2
  6
CONTINUOUS
 10
314.554395
 20
36.429129
 40
2.000000
 50
182.000000
 51
270.000000
  0
ARC
  8
OBRYS
 10
422.396033
 20
36.429129
 40
2.000000
 50
270.000000
 51
360.000000
  0
LINE
  8
OBRYS
 10
368.396033
 20
34.429129
 11
422.396033
 21
34.429129
  0
LINE
  8
OBRYS
 10
314.554395
 20
34.429129
 11
368.396033
 21
34.429129
  0
LINE
  8
OBRYS
 10
314.554395
 20
111.429129
 11
368.396033
 21
111.429129
  0
LINE
  8
OBRYS
 10
368.396033
 20
111.429129
 11
422.396033
 21
111.429129
  0
ARC
  8
OSA
 62
     2
  6
CONTINUOUS
 10
310.395353
 20
104.944580
 40
2.000000
 50
329.487542
 51
358.000000
  0
ARC
  8
OBRYS
 10
310.395308
 20
40.913689
 40
2.000000
 50
1.982723
 51
30.512083
  0
LINE
  8
POMOC
 62
     2
  6
CONTINUOUS
 10
424.396033
 20
40.929129
 11
368.396033
 21
40.929129
  0
LINE
  8
OSA
 10
368.396033
 20
39.478855
 11
368.396033
 21
72.929129
  0
ARC
  8
OBRYS
 10
422.396033
 20
109.429129
 40
2.000000
 50
0.000000
 51
90.000000
  0
ARC
  8
OSA
 62
     2
  6
CONTINUOUS
 10
314.554395
 20
109.429129
 40
2.000000
 50
90.000000
 51
178.000000
  0
LINE
  8
OSA
 10
368.396033
 20
124.837927
 11
368.396033
 21
72.929129
  0
LINE
  8
POMOC
 62
     2
  6
CONTINUOUS
 10
312.396033
 20
40.929129
 11
368.396033
 21
40.929129
  0
LINE
  8
OBRYS
 10
312.394111
 20
40.982885
 11
312.395972
 21
40.929129
  0
LINE
  8
OSA
 62
     2
  6
CONTINUOUS
 10
312.394135
 20
104.874781
 11
312.555614
 21
109.498928
  0
LINE
  8
OBRYS
 10
433.396033
 20
46.129129
 11
433.396033
 21
99.729129
  0
LINE
  8
OBRYS
 10
341.984490
 20
103.914973
 11
341.984490
 21
41.943285
  0
POLYLINE
  8
OBRYS
 66
    1
  0
VERTEX
  8
OBRYS
 10
341.962006
 20
41.929146
  0
VERTEX
  8
OBRYS
 10
340.932587
 20
41.929146
  0
VERTEX
  8
OBRYS
 10
337.560547
 20
41.929146
  0
VERTEX
  8
OBRYS
 10
335.779816
 20
41.929146
  0
VERTEX
  8
OBRYS
 10
335.094635
 20
42.038399
  0
VERTEX
  8
OBRYS
 10
334.774811
 20
42.361397
  0
VERTEX
  8
OBRYS
 10
334.834351
 20
42.884041
  0
VERTEX
  8
OBRYS
 10
335.270599
 20
43.583504
  0
VERTEX
  8
OBRYS
 10
335.863861
 20
44.215340
  0
VERTEX
  8
OBRYS
 10
335.979980
 20
44.429146
  0
VERTEX
  8
OBRYS
 10
340.090393
 20
50.235542
  0
VERTEX
  8
OBRYS
 10
341.869293
 20
55.669502
  0
VERTEX
  8
OBRYS
 10
341.521179
 20
60.963570
  0
VERTEX
  8
OBRYS
 10
338.975281
 20
66.542366
  0
VERTEX
  8
OBRYS
 10
335.751587
 20
70.429146
  0
VERTEX
  8
OBRYS
 10
335.178101
 20
71.384041
  0
VERTEX
  8
OBRYS
 10
334.976105
 20
72.406502
  0
VERTEX
  8
OBRYS
 10
335.065247
 20
72.929146
  0
VERTEX
  8
OBRYS
 10
334.976105
 20
73.451790
  0
VERTEX
  8
OBRYS
 10
335.178101
 20
74.474190
  0
VERTEX
  8
OBRYS
 10
335.751587
 20
75.429146
  0
VERTEX
  8
OBRYS
 10
338.975281
 20
79.315865
  0
VERTEX
  8
OBRYS
 10
341.521179
 20
84.894661
  0
VERTEX
  8
OBRYS
 10
341.869293
 20
90.188728
  0
VERTEX
  8
OBRYS
 10
340.090393
 20
95.622688
  0
VERTEX
  8
OBRYS
 10
335.979980
 20
101.429146
  0
VERTEX
  8
OBRYS
 10
335.863861
 20
101.642891
  0
VERTEX
  8
OBRYS
 10
335.270599
 20
102.274788
  0
VERTEX
  8
OBRYS
 10
334.834351
 20
102.974190
  0
VERTEX
  8
OBRYS
 10
334.774811
 20
103.496834
  0
VERTEX
  8
OBRYS
 10
335.094635
 20
103.819893
  0
VERTEX
  8
OBRYS
 10
335.779816
 20
103.929146
  0
VERTEX
  8
OBRYS
 10
337.560547
 20
103.929146
  0
VERTEX
  8
OBRYS
 10
340.932587
 20
103.929146
  0
VERTEX
  8
OBRYS
 10
341.962006
 20
103.929146
  0
SEQEND
  8
OBRYS
  0
POLYLINE
  8
OBRYS
 66
    1
  0
VERTEX
  8
OBRYS
 10
390.830048
 20
41.929146
  0
VERTEX
  8
OBRYS
 10
390.807556
 20
41.943306
  0
VERTEX
  8
OBRYS
 10
387.826294
 20
42.100227
  0
VERTEX
  8
OBRYS
 10
377.321106
 20
42.414070
  0
VERTEX
  8
OBRYS
 10
366.396027
 20
42.520088
  0
VERTEX
  8
OBRYS
 10
355.470978
 20
42.414070
  0
VERTEX
  8
OBRYS
 10
344.965759
 20
42.100227
  0
VERTEX
  8
OBRYS
 10
341.984497
 20
41.943306
  0
VERTEX
  8
OBRYS
 10
341.962006
 20
41.929146
  0
SEQEND
  8
OBRYS
  0
POLYLINE
  8
OBRYS
 66
    1
  0
VERTEX
  8
OBRYS
 10
341.962006
 20
103.929146
  0
VERTEX
  8
OBRYS
 10
341.984497
 20
103.914986
  0
VERTEX
  8
OBRYS
 10
344.965759
 20
103.758003
  0
VERTEX
  8
OBRYS
 10
355.470978
 20
103.444160
  0
VERTEX
  8
OBRYS
 10
366.396027
 20
103.338203
  0
VERTEX
  8
OBRYS
 10
377.321106
 20
103.444160
  0
VERTEX
  8
OBRYS
 10
387.826294
 20
103.758003
  0
VERTEX
  8
OBRYS
 10
390.807556
 20
103.914986
  0
VERTEX
  8
OBRYS
 10
390.830048
 20
103.929146
  0
SEQEND
  8
OBRYS
  0
LINE
  8
OBRYS
 10
390.807575
 20
103.914973
 11
390.807575
 21
41.943285
  0
POLYLINE
  8
OBRYS
 66
    1
  0
VERTEX
  8
OBRYS
 10
390.830048
 20
103.929146
  0
VERTEX
  8
OBRYS
 10
391.859497
 20
103.929146
  0
VERTEX
  8
OBRYS
 10
395.231506
 20
103.929146
  0
VERTEX
  8
OBRYS
 10
397.012238
 20
103.929146
  0
VERTEX
  8
OBRYS
 10
397.697418
 20
103.819893
  0
VERTEX
  8
OBRYS
 10
398.017242
 20
103.496834
  0
VERTEX
  8
OBRYS
 10
397.957703
 20
102.974190
  0
VERTEX
  8
OBRYS
 10
397.521454
 20
102.274788
  0
VERTEX
  8
OBRYS
 10
396.928192
 20
101.642891
  0
VERTEX
  8
OBRYS
 10
396.812103
 20
101.429146
  0
VERTEX
  8
OBRYS
 10
392.701660
 20
95.622688
  0
VERTEX
  8
OBRYS
 10
390.922791
 20
90.188728
  0
VERTEX
  8
OBRYS
 10
391.270874
 20
84.894661
  0
VERTEX
  8
OBRYS
 10
393.816772
 20
79.315865
  0
VERTEX
  8
OBRYS
 10
397.040466
 20
75.429146
  0
VERTEX
  8
OBRYS
 10
397.613953
 20
74.474190
  0
VERTEX
  8
OBRYS
 10
397.815979
 20
73.451790
  0
VERTEX
  8
OBRYS
 10
397.726807
 20
72.929146
  0
VERTEX
  8
OBRYS
 10
397.815979
 20
72.406502
  0
VERTEX
  8
OBRYS
 10
397.613953
 20
71.384041
  0
VERTEX
  8
OBRYS
 10
397.040466
 20
70.429146
  0
VERTEX
  8
OBRYS
 10
393.816772
 20
66.542366
  0
VERTEX
  8
OBRYS
 10
391.270874
 20
60.963570
  0
VERTEX
  8
OBRYS
 10
390.922791
 20
55.669502
  0
VERTEX
  8
OBRYS
 10
392.701660
 20
50.235542
  0
VERTEX
  8
OBRYS
 10
396.812103
 20
44.429146
  0
VERTEX
  8
OBRYS
 10
396.928192
 20
44.215340
  0
VERTEX
  8
OBRYS
 10
397.521454
 20
43.583504
  0
VERTEX
  8
OBRYS
 10
397.957703
 20
42.884041
  0
VERTEX
  8
OBRYS
 10
398.017242
 20
42.361397
  0
VERTEX
  8
OBRYS
 10
397.697418
 20
42.038399
  0
VERTEX
  8
OBRYS
 10
397.012238
 20
41.929146
  0
VERTEX
  8
OBRYS
 10
395.231506
 20
41.929146
  0
VERTEX
  8
OBRYS
 10
391.859497
 20
41.929146
  0
VERTEX
  8
OBRYS
 10
390.830048
 20
41.929146
  0
SEQEND
  8
OBRYS
  0
LINE
  8
OBRYS
 10
433.396033
 20
103.929129
 11
433.396033
 21
101.429129
  0
LINE
  8
OBRYS
 10
433.396033
 20
75.429129
 11
433.396033
 21
70.429129
  0
LINE
  8
OBRYS
 10
433.396033
 20
44.429129
 11
433.396033
 21
41.929129
  0
LINE
  8
OBRYS
 10
323.015473
 20
103.929129
 11
341.962019
 21
103.929129
  0
LINE
  8
OBRYS
 10
390.830046
 20
103.929129
 11
409.776592
 21
103.929129
  0
LINE
  8
OBRYS
 10
341.962019
 20
41.929129
 11
323.015473
 21
41.929129
  0
LINE
  8
OBRYS
 10
409.776592
 20
41.929129
 11
390.830046
 21
41.929129
  0
LINE
  8
OBRYS
 10
397.012248
 20
103.929129
 11
433.396033
 21
103.929129
  0
LINE
  8
OBRYS
 10
433.396033
 20
101.429129
 11
396.812099
 21
101.429129
  0
LINE
  8
OBRYS
 10
307.396033
 20
101.429129
 11
335.979966
 21
101.429129
  0
LINE
  8
OBRYS
 10
433.396033
 20
75.429129
 11
397.040481
 21
75.429129
  0
LINE
  8
OBRYS
 10
433.396033
 20
101.429129
 11
433.396033
 21
75.429129
  0
LINE
  8
OBRYS
 10
307.396033
 20
75.429129
 11
335.751585
 21
75.429129
  0
LINE
  8
OBRYS
 10
307.396033
 20
101.429129
 11
307.396033
 21
75.429129
  0
LINE
  8
OBRYS
 10
433.396033
 20
70.429129
 11
397.040481
 21
70.429129
  0
LINE
  8
OBRYS
 10
307.396033
 20
70.429129
 11
335.751585
 21
70.429129
  0
LINE
  8
OBRYS
 10
433.396033
 20
44.429129
 11
396.812099
 21
44.429129
  0
LINE
  8
OBRYS
 10
433.396033
 20
70.429129
 11
433.396033
 21
44.429129
  0
LINE
  8
OBRYS
 10
307.396033
 20
44.429129
 11
335.979966
 21
44.429129
  0
LINE
  8
OBRYS
 10
433.396033
 20
41.929129
 11
397.012248
 21
41.929129
  0
LINE
  8
OBRYS
 10
424.396033
 20
40.929129
 11
424.396033
 21
41.929129
  0
LINE
  8
OBRYS
 10
424.396033
 20
109.429129
 11
424.396033
 21
103.929129
  0
LINE
  8
OBRYS
 10
424.396033
 20
36.429129
 11
424.396033
 21
41.929129
  0
LINE
  8
OSA
 10
318.396033
 20
72.929129
 11
433.396033
 21
72.929129
  0
LINE
  8
OBRYS
 10
307.396033
 20
70.429129
 11
307.396033
 21
41.929129
  0
LINE
  8
OBRYS
 10
307.396033
 20
41.929129
 11
335.779818
 21
41.929129
  0
ENDSEC
  0
EOF

