  0
SECTION
  2
HEADER
  9
$ACADVER
  1
AC1009
  9
$INSBASE
 10
0.0
 20
0.0
 30
0.0
  9
$LIMMIN
 10
0.0
 20
0.0
  9
$LIMMAX
 10
430.0000
 20
307.0000
  9
$EXTMIN
 10
99999999999999998000000000000000000000.0000
 20
99999999999999998000000000000000000000.0000
  9
$EXTMAX
 10
99999999999999998000000000000000000000.0000
 20
99999999999999998000000000000000000000.0000
  9
$VIEWCTR
 10
409.2888
 20
279.8435
  9
$VIEWSIZE
 40
779.8604
  9
$DIMLFAC
 40
0.6667
  9
$MEASUREMENT
 70
     1
  9
$DWGCODEPAGE
 3
ANSI_1250
  9
$CLAYER
  8
OBRYS
  9
$CELTYPE
  6
BYLAYER
  9
$CECOLOR
 62
  256
  9
$ORTHOMODE
 70
     0
  9
$REGENMODE
 70
     1
  9
$FILLMODE
 70
     1
  9
$QTEXTMODE
 70
     0
  9
$MIRRTEXT
 70
     1
  9
$DRAGMODE
 70
     2
  9
$LTSCALE
 40
1.0
  9
$OSMODE
 70
    37
  9
$ATTMODE
 70
     1
  9
$TEXTSIZE
 40
2.5
  9
$TRACEWID
 40
1.0
  9
$TEXTSTYLE
  7
STANDARD
  9
$CLAYER
  8
0
  9
$CELTYPE
  6
BYLAYER
  9
$CECOLOR
 62
   256
  9
$DIMSCALE
 40
1.0
  9
$DIMASZ
 40
2.5
  9
$DIMEXO
 40
0.625
  9
$DIMDLI
 40
3.75
  9
$DIMRND
 40
0.0
  9
$DIMDLE
 40
0.0
  9
$DIMEXE
 40
1.25
  9
$DIMTP
 40
0.0
  9
$DIMTM
 40
0.0
  9
$DIMTXT
 40
2.5
  9
$DIMCEN
 40
2.5
  9
$DIMTSZ
 40
0.0
  9
$DIMTOL
 70
     0
  9
$DIMLIM
 70
     0
  9
$DIMTIH
 70
     0
  9
$DIMTOH
 70
     0
  9
$DIMSE1
 70
     0
  9
$DIMSE2
 70
     0
  9
$DIMTAD
 70
     1
  9
$DIMZIN
 70
     8
  9
$DIMBLK
  1

  9
$DIMASO
 70
     1
  9
$DIMSHO
 70
     1
  9
$DIMPOST
  1

  9
$DIMAPOST
  1

  9
$DIMALT
 70
     0
  9
$DIMALTD
 70
     3
  9
$DIMALTF
 40
0.03937007874016
  9
$DIMTOFL
 70
     1
  9
$DIMTVP
 40
0.0
  9
$DIMTIX
 70
     0
  9
$DIMSOXD
 70
     0
  9
$DIMSAH
 70
     0
  9
$DIMBLK1
  1

  9
$DIMBLK2
  1

  9
$DIMSTYLE
  2
ISO-25
  9
$DIMCLRD
 70
     0
  9
$DIMCLRE
 70
     0
  9
$DIMCLRT
 70
     0
  9
$DIMTFAC
 40
1.0
  9
$DIMGAP
 40
0.625
  9
$LUNITS
 70
     2
  9
$LUPREC
 70
     4
  9
$SKETCHINC
 40
1.0
  9
$FILLETRAD
 40
10.0
  9
$AUNITS
 70
     0
  9
$AUPREC
 70
     0
  9
$MENU
  1
.
  9
$ELEVATION
 40
0.0
  9
$PELEVATION
 40
0.0
  9
$THICKNESS
 40
0.0
  9
$LIMCHECK
 70
     0
  9
$BLIPMODE
 70
     0
  9
$CHAMFERA
 40
10.0
  9
$CHAMFERB
 40
10.0
  9
$SKPOLY
 70
     0
  9
$TDCREATE
 40
2451579.5163292708
  9
$TDUPDATE
 40
2451579.6904035881
  9
$TDINDWG
 40
0.0082924769
  9
$TDUSRTIMER
 40
0.0082825116
  9
$USRTIMER
 70
     1
  9
$ANGBASE
 50
0.0
  9
$ANGDIR
 70
     0
  9
$PDMODE
 70
     0
  9
$PDSIZE
 40
0.0
  9
$PLINEWID
 40
0.0
  9
$COORDS
 70
     1
  9
$SPLFRAME
 70
     0
  9
$SPLINETYPE
 70
     6
  9
$SPLINESEGS
 70
     8
  9
$ATTDIA
 70
     0
  9
$ATTREQ
 70
     1
  9
$SURFTAB1
 70
     6
  9
$SURFTAB2
 70
     6
  9
$SURFTYPE
 70
     6
  9
$SURFU
 70
     6
  9
$SURFV
 70
     6
  9
$UCSNAME
  2

  9
$UCSORG
 10
0.0
 20
0.0
 30
0.0
  9
$UCSXDIR
 10
1.0
 20
0.0
 30
0.0
  9
$UCSYDIR
 10
0.0
 20
1.0
 30
0.0
  9
$PUCSNAME
  2

  9
$PUCSORG
 10
0.0
 20
0.0
 30
0.0
  9
$PUCSXDIR
 10
1.0
 20
0.0
 30
0.0
  9
$PUCSYDIR
 10
0.0
 20
1.0
 30
0.0
  9
$USERI1
 70
     0
  9
$USERI2
 70
     0
  9
$USERI3
 70
     0
  9
$USERI4
 70
     0
  9
$USERI5
 70
     0
  9
$USERR1
 40
0.0
  9
$USERR2
 40
0.0
  9
$USERR3
 40
0.0
  9
$USERR4
 40
0.0
  9
$USERR5
 40
0.0
  9
$WORLDVIEW
 70
     1
  9
$SHADEDGE
 70
     3
  9
$SHADEDIF
 70
    70
  9
$TILEMODE
 70
     1
  9
$MAXACTVP
 70
    64
  9
$PLIMCHECK
 70
     0
  9
$PEXTMIN
 10
1.0000000000000000E+020
 20
1.0000000000000000E+020
 30
1.0000000000000000E+020
  9
$PEXTMAX
 10
-1.0000000000000000E+020
 20
-1.0000000000000000E+020
 30
-1.0000000000000000E+020
  9
$PLIMMIN
 10
0.0
 20
0.0
  9
$PLIMMAX
 10
420.0
 20
297.0
  9
$UNITMODE
 70
     0
  9
$VISRETAIN
 70
     1
  9
$PLINEGEN
 70
     0
  9
$PSLTSCALE
 70
     1
  0
ENDSEC
  0
SECTION
  2
TABLES
  0
TABLE
  2
VPORT
 70
     2
  0
VPORT
  2
*ACTIVE
 70
     0
 10
0.0
 20
0.0
 11
1.0
 21
1.0
 12
409.2888
 22
279.8435
 13
0.0
 23
0.0
 14
10.0
 24
10.0
 15
10.0
 25
10.0
 16
0.0
 26
0.0
 36
1.0
 17
0.0
 27
0.0
 37
0.0
 40
779.8604
 41
1.6916
 42
50.0
 43
0.0
 44
0.0
 50
0.0
 51
0.0
 71
     0
 72
   100
 73
     1
 74
     3
 75
     0
 76
     0
 77
     0
 78
     0
  0
ENDTAB
  0
TABLE
  2
LTYPE
 70
     7
  0
LTYPE
  2
CONTINUOUS
 70
     0
  3
Solid line
 72
    65
 73
     0
 40
0.0
  0
LTYPE
  2
HIDDEN2
 70
     0
  3
Hidden (.5x) _ _ _ _ _ _ _ _ _ _ _ _ _ _ _ _ _
 72
    65
 73
     2
 40
5.1
 49
3.5
 49
-1.6
  0
LTYPE
  2
DASHDOT
 70
     0
  3
Dash dot __ . __ . __ . __ . __ . __ . __ . __
 72
    65
 73
     4
 40
10.4
 49
6.2
 49
-2.1
 49
0.0
 49
-2.1
  0
LTYPE
  2
DOT
 70
     0
  3
Dot . . . . . . . . . . . . . . . . . . . . . .
 72
    65
 73
     2
 40
2.2
 49
1.1
 49
-1.1
  0
LTYPE
  2
DASHED
 70
     0
  3
Dashed __ __ __ __ __ __ __ __ __ __ __ __ __ _
 72
    65
 73
     2
 40
11.049999999999979
 49
8.699999999999999
 49
-2.3499999999999979
  0
LTYPE
  2
PHANTOM2
 70
     0
  3
Phantom (.5x) ___ _ _ ___ _ _ ___ _ _ ___ _ _
 72
    65
 73
     6
 40
18.3
 49
7.8
 49
-2.1
 49
2.1
 49
-2.1
 49
2.1
 49
-2.1
  0
LTYPE
  2
CENTER
 70
     0
  3
Center ____ _ ____ _ ____ _ ____ _ ____ _ ____
 72
    65
 73
     4
 40
14.1
 49
7.8
 49
-2.1
 49
2.1
 49
-2.1
  0
ENDTAB
  0
TABLE
  2
LAYER
 70
     7
  0
LAYER
  2
0
 70
    64
 62
     7
  6
CONTINUOUS
  0
LAYER
  2
OBRYS
 70
    64
 62
     2
  6
CONTINUOUS
  0
LAYER
  2
OSA
 70
    64
 62
     7
  6
DASHDOT
  0
LAYER
  2
KOTA
 70
    64
 62
     3
  6
CONTINUOUS
  0
LAYER
  2
SRAFY
 70
    64
 62
     7
  6
CONTINUOUS
  0
LAYER
  2
POMOC
 70
    64
 62
     1
  6
DOT
  0
LAYER
  2
NEVIDITELNA
 70
    64
 62
     4
  6
HIDDEN2
  0
ENDTAB
  0
TABLE
  2
STYLE
 70
     1
  0
STYLE
  2
STANDARD
 70
     0
 40
0.0
 41
1.0
 50
0.0
 71
     0
 42
2.5
  3
txt
  4

  0
ENDTAB
  0
TABLE
  2
VIEW
 70
     0
  0
ENDTAB
  0
TABLE
  2
UCS
 70
     0
  0
ENDTAB
  0
TABLE
  2
APPID
 70
     1
  0
APPID
  2
ACAD
 70
     0
  0
ENDTAB
  0
TABLE
  2
DIMSTYLE
 70
     1
  0
DIMSTYLE
  2
ISO-25
 70
     0
  3

  4

  5

  6

  7

 40
1.0
 41
2.5
 42
0.625
 43
3.75
 44
1.25
 45
0.0
 46
0.0
 47
0.0
 48
0.0
140
2.5
141
2.5
142
0.0
143
0.03937007874016
144
1.0
145
0.0
146
1.0
147
0.625
 71
     0
 72
     0
 73
     0
 74
     0
 75
     0
 76
     0
 77
     1
 78
     8
170
     0
171
     3
172
     1
173
     0
174
     0
175
     0
176
     0
177
     0
178
     0
  0
ENDTAB
  0
ENDSEC
  0
SECTION
  2
BLOCKS
  0
BLOCK
  8
0
  2
$MODEL_SPACE
 70
     0
 10
0.0
 20
0.0
 30
0.0
  3
$MODEL_SPACE
  1

  0
ENDBLK
  8
0
  0
BLOCK
 67
     1
  8
0
  2
$PAPER_SPACE
 70
     0
 10
0.0
 20
0.0
 30
0.0
  3
$PAPER_SPACE
  1

  0
ENDBLK
 67
     1
  8
0
  0
BLOCK
  8
OBRYS
  2
_0
 70
   64
 10
817.697805
 20
205.225779
  0
ARC
  8
OBRYS
 10
847.697816
 20
186.959275
 40
2.000000
 50
270.000000
 51
360.000000
  0
ARC
  8
OBRYS
 10
847.697816
 20
182.959275
 40
2.000000
 50
90.000000
 51
180.000000
  0
INSERT
  8
OBRYS
  2
Srouby_s_valcovou_hlavou___1
 62
     7
 10
279.396022
 20
231.742283
  0
LINE
  8
OBRYS
 10
869.697816
 20
250.392446
 11
869.697816
 21
301.225779
  0
LINE
  8
OBRYS
 10
869.697816
 20
181.225779
 11
869.697816
 21
232.059112
  0
LINE
  8
OBRYS
 10
868.697816
 20
232.059112
 11
868.697816
 21
250.392446
  0
LINE
  8
OBRYS
 10
858.697816
 20
274.225779
 11
840.697816
 21
274.225779
  0
LINE
  8
OBRYS
 10
851.697816
 20
214.225779
 11
858.697816
 21
214.225779
  0
ARC
  8
OBRYS
 10
858.697816
 20
212.225779
 40
2.000000
 50
0.000000
 51
90.000000
  0
ARC
  8
OBRYS
 10
858.697816
 20
276.225779
 40
2.000000
 50
270.000000
 51
360.000000
  0
ARC
  8
OBRYS
 10
862.697816
 20
299.225779
 40
2.000000
 50
90.000000
 51
180.000000
  0
LINE
  8
OBRYS
 10
869.697816
 20
301.225779
 11
862.697816
 21
301.225779
  0
ARC
  8
OBRYS
 10
862.697816
 20
183.225779
 40
2.000000
 50
180.000000
 51
270.000000
  0
LINE
  8
OBRYS
 10
869.697816
 20
181.225779
 11
862.697816
 21
181.225779
  0
ARC
  8
OBRYS
 10
843.697816
 20
167.725779
 40
2.000000
 50
270.000000
 51
360.000000
  0
LINE
  8
OBRYS
 10
845.697816
 20
181.709275
 11
845.697816
 21
167.725779
  0
LINE
  8
OBRYS
 62
     7
  6
DASHDOT
 10
838.930367
 20
241.225779
 11
868.417447
 21
241.225779
  0
LINE
  8
OBRYS
 10
840.697816
 20
241.225779
 11
840.697816
 21
165.725779
  0
LINE
  8
OBRYS
 10
845.697816
 20
165.725779
 11
840.697816
 21
165.725779
  0
ARC
  8
OBRYS
 10
851.697816
 20
212.225779
 40
2.000000
 50
90.000000
 51
180.000000
  0
ARC
  8
OBRYS
 10
845.697816
 20
169.725779
 40
4.000000
 50
270.000000
 51
360.000000
  0
LINE
  8
OBRYS
 10
860.697816
 20
299.225779
 11
860.697816
 21
241.225779
  0
LINE
  8
OBRYS
 10
860.697816
 20
183.225779
 11
860.697816
 21
241.225779
  0
LINE
  8
OBRYS
 10
849.697816
 20
230.283834
 11
849.697816
 21
169.725779
  0
LINE
  8
OBRYS
 62
     7
  6
DASHDOT
 10
836.697816
 20
178.709275
 11
853.697816
 21
178.709275
  0
LINE
  8
OBRYS
 10
867.197816
 20
232.059112
 11
869.697816
 21
232.059112
  0
ARC
  8
OBRYS
 10
867.197816
 20
233.059112
 40
1.000000
 50
180.000000
 51
270.000000
  0
LINE
  8
OBRYS
 10
868.197816
 20
231.225779
 11
869.697816
 21
231.225779
  0
ARC
  8
OBRYS
 10
868.197816
 20
233.225779
 40
2.000000
 50
180.000000
 51
270.000000
  0
ARC
  8
OBRYS
 10
868.197816
 20
249.225779
 40
2.000000
 50
90.000000
 51
180.000000
  0
LINE
  8
OBRYS
 10
868.197816
 20
251.225779
 11
869.697816
 21
251.225779
  0
ARC
  8
OBRYS
 10
867.197816
 20
249.392446
 40
1.000000
 50
90.000000
 51
180.000000
  0
LINE
  8
OBRYS
 10
867.197816
 20
250.392446
 11
869.697816
 21
250.392446
  0
LINE
  8
OBRYS
 10
866.197816
 20
233.225779
 11
866.197816
 21
249.225779
  0
LINE
  8
OBRYS
 62
     7
  6
DASHDOT
 10
839.025858
 20
205.225779
 11
868.417447
 21
205.225779
  0
LINE
  8
OBRYS
 10
840.697816
 20
258.705779
 11
840.697816
 21
241.225779
  0
LINE
  8
OBRYS
 10
840.697816
 20
258.705779
 11
840.697816
 21
274.225779
  0
LINE
  8
OBRYS
 10
822.697816
 20
274.225779
 11
840.697816
 21
274.225779
  0
LINE
  8
OBRYS
 10
840.697816
 20
258.705779
 11
840.697816
 21
205.225779
  0
LINE
  8
OBRYS
 10
840.697816
 20
205.225779
 11
840.697816
 21
165.725779
  0
LINE
  8
OBRYS
 10
840.697816
 20
165.725779
 11
822.697816
 21
165.725779
  0
LINE
  8
OBRYS
 62
     7
  6
DASHDOT
 10
807.197819
 20
205.225779
 11
848.197812
 21
205.225779
  0
LINE
  8
OBRYS
 10
817.697805
 20
170.203565
 11
817.725161
 21
170.203565
  0
ARC
  8
OBRYS
 10
817.697816
 20
241.247993
 40
1.000000
 50
270.000000
 51
360.000000
  0
ARC
  8
OBRYS
 10
822.697816
 20
169.725779
 40
4.000000
 50
185.995066
 51
270.000000
  0
ARC
  8
OBRYS
 10
817.725161
 20
169.203565
 40
1.000000
 50
5.995066
 51
90.000000
  0
ARC
  8
OBRYS
 10
822.697816
 20
270.225779
 40
4.000000
 50
90.000000
 51
180.000000
  0
LINE
  8
OBRYS
 10
840.697816
 20
258.705779
 11
840.697816
 21
274.225779
  0
LINE
  8
OBRYS
 10
817.697805
 20
205.225779
 11
817.697805
 21
240.247993
  0
LINE
  8
OBRYS
 10
817.697805
 20
170.203565
 11
817.697805
 21
205.225779
  0
LINE
  8
OBRYS
 10
818.697816
 20
270.225779
 11
818.697816
 21
205.225779
  0
LINE
  8
OBRYS
 10
818.697816
 20
205.225779
 11
818.697816
 21
169.308008
  0
LINE
  8
OBRYS
 10
840.697816
 20
187.818057
 11
822.697815
 21
187.818057
  0
LINE
  8
OBRYS
 10
840.697816
 20
175.329825
 11
822.697815
 21
175.329825
  0
LINE
  8
OBRYS
 10
840.697816
 20
222.076515
 11
822.697815
 21
222.076515
  0
ENDBLK
  8
OBRYS
  0
BLOCK
  8
OBRYS
  2
Srouby_s_valcovou_hlavou___1
 70
   66
 10
279.396022
 20
231.742283
  0
LINE
  8
OBRYS
 10
849.197816
 20
182.459275
 11
849.197816
 21
174.959275
  0
LINE
  8
OBRYS
 10
848.697816
 20
182.959275
 11
845.697816
 21
182.959275
  0
LINE
  8
OBRYS
 10
845.697816
 20
182.959275
 11
845.697816
 21
174.459275
  0
LINE
  8
OBRYS
 10
845.697816
 20
174.459275
 11
848.697816
 21
174.459275
  0
ARC
  8
OBRYS
 10
848.697816
 20
182.459275
 40
0.500000
 50
0.000000
 51
90.000000
  0
ARC
  8
OBRYS
 10
848.697816
 20
174.959275
 40
0.500000
 50
270.000000
 51
360.000000
  0
LINE
  8
OBRYS
 62
     7
  6
DOT
 10
849.197816
 20
181.018690
 11
847.531149
 21
181.018690
  0
LINE
  8
OBRYS
 62
     7
  6
DOT
 10
849.197816
 20
179.863983
 11
847.531149
 21
179.863983
  0
LINE
  8
OBRYS
 62
     7
  6
DOT
 10
849.197816
 20
177.554567
 11
847.531149
 21
177.554567
  0
LINE
  8
OBRYS
 62
     7
  6
DOT
 10
849.197816
 20
176.399859
 11
847.531149
 21
176.399859
  0
ARC
  8
OBRYS
 62
     7
  6
DOT
 10
849.531155
 20
180.441336
 40
0.666673
 50
120.000310
 51
239.999690
  0
ARC
  8
OBRYS
 62
     7
  6
DOT
 10
851.031174
 20
178.709275
 40
2.166692
 50
147.795963
 51
212.204037
  0
ARC
  8
OBRYS
 62
     7
  6
DOT
 10
849.531155
 20
176.977213
 40
0.666673
 50
120.000310
 51
239.999690
  0
ARC
  8
OBRYS
 62
     7
  6
DOT
 10
847.864489
 20
180.441336
 40
0.666673
 50
120.000310
 51
239.999690
  0
ARC
  8
OBRYS
 62
     7
  6
DOT
 10
849.364507
 20
178.709275
 40
2.166692
 50
147.795963
 51
212.204037
  0
ARC
  8
OBRYS
 62
     7
  6
DOT
 10
847.864489
 20
176.977213
 40
0.666673
 50
120.000310
 51
239.999690
  0
LINE
  8
OBRYS
 62
     7
  6
DOT
 10
847.197816
 20
180.441336
 11
846.043108
 21
178.709275
  0
LINE
  8
OBRYS
 62
     7
  6
DOT
 10
846.043108
 20
178.709275
 11
847.197816
 21
176.977213
  0
ENDBLK
  8
OBRYS
  0
BLOCK
  8
OBRYS
  2
_1
 70
   64
 10
307.396033
 20
205.225779
  0
LINE
  8
OBRYS
 10
284.396022
 20
222.076515
 11
302.396023
 21
222.076515
  0
LINE
  8
OBRYS
 10
284.396022
 20
175.329825
 11
302.396023
 21
175.329825
  0
LINE
  8
OBRYS
 10
284.396022
 20
187.818057
 11
302.396023
 21
187.818057
  0
LINE
  8
OBRYS
 10
306.396022
 20
205.225779
 11
306.396022
 21
169.308008
  0
LINE
  8
OBRYS
 10
306.396022
 20
270.225779
 11
306.396022
 21
205.225779
  0
LINE
  8
OBRYS
 10
307.396033
 20
170.203565
 11
307.396033
 21
205.225779
  0
LINE
  8
OBRYS
 10
307.396033
 20
205.225779
 11
307.396033
 21
240.247993
  0
LINE
  8
OBRYS
 10
284.396022
 20
258.705779
 11
284.396022
 21
274.225779
  0
ARC
  8
OBRYS
 10
302.396022
 20
270.225779
 40
4.000000
 50
0.000000
 51
90.000000
  0
ARC
  8
OBRYS
 10
307.368676
 20
169.203565
 40
1.000000
 50
90.000000
 51
174.004934
  0
ARC
  8
OBRYS
 10
302.396022
 20
169.725779
 40
4.000000
 50
270.000000
 51
354.004934
  0
ARC
  8
OBRYS
 10
307.396022
 20
241.247993
 40
1.000000
 50
180.000000
 51
270.000000
  0
LINE
  8
OBRYS
 10
307.396033
 20
170.203565
 11
307.368676
 21
170.203565
  0
LINE
  8
OBRYS
 62
     7
  6
DASHDOT
 10
317.896018
 20
205.225779
 11
276.896025
 21
205.225779
  0
LINE
  8
OBRYS
 10
284.396022
 20
165.725779
 11
302.396022
 21
165.725779
  0
LINE
  8
OBRYS
 10
284.396022
 20
205.225779
 11
284.396022
 21
165.725779
  0
LINE
  8
OBRYS
 10
284.396022
 20
258.705779
 11
284.396022
 21
205.225779
  0
LINE
  8
OBRYS
 10
302.396022
 20
274.225779
 11
284.396022
 21
274.225779
  0
LINE
  8
OBRYS
 10
284.396022
 20
258.705779
 11
284.396022
 21
274.225779
  0
LINE
  8
OBRYS
 10
284.396022
 20
258.705779
 11
284.396022
 21
241.225779
  0
LINE
  8
OBRYS
 62
     7
  6
DASHDOT
 10
286.067980
 20
205.225779
 11
256.676390
 21
205.225779
  0
LINE
  8
OBRYS
 10
258.896022
 20
233.225779
 11
258.896022
 21
249.225779
  0
LINE
  8
OBRYS
 10
257.896022
 20
250.392446
 11
255.396022
 21
250.392446
  0
ARC
  8
OBRYS
 10
257.896022
 20
249.392446
 40
1.000000
 50
0.000000
 51
90.000000
  0
LINE
  8
OBRYS
 10
256.896022
 20
251.225779
 11
255.396022
 21
251.225779
  0
ARC
  8
OBRYS
 10
256.896022
 20
249.225779
 40
2.000000
 50
0.000000
 51
90.000000
  0
ARC
  8
OBRYS
 10
256.896022
 20
233.225779
 40
2.000000
 50
270.000000
 51
360.000000
  0
LINE
  8
OBRYS
 10
256.896022
 20
231.225779
 11
255.396022
 21
231.225779
  0
ARC
  8
OBRYS
 10
257.896022
 20
233.059112
 40
1.000000
 50
270.000000
 51
360.000000
  0
LINE
  8
OBRYS
 10
257.896022
 20
232.059112
 11
255.396022
 21
232.059112
  0
LINE
  8
OBRYS
 62
     7
  6
DASHDOT
 10
288.396022
 20
178.709275
 11
271.396022
 21
178.709275
  0
LINE
  8
OBRYS
 10
275.396022
 20
230.283834
 11
275.396022
 21
169.725779
  0
LINE
  8
OBRYS
 10
264.396022
 20
183.225779
 11
264.396022
 21
241.225779
  0
LINE
  8
OBRYS
 10
264.396022
 20
299.225779
 11
264.396022
 21
241.225779
  0
ARC
  8
OBRYS
 10
279.396022
 20
169.725779
 40
4.000000
 50
180.000000
 51
270.000000
  0
ARC
  8
OBRYS
 10
273.396022
 20
212.225779
 40
2.000000
 50
0.000000
 51
90.000000
  0
LINE
  8
OBRYS
 10
279.396022
 20
165.725779
 11
284.396022
 21
165.725779
  0
LINE
  8
OBRYS
 10
284.396022
 20
241.225779
 11
284.396022
 21
165.725779
  0
LINE
  8
OBRYS
 62
     7
  6
DASHDOT
 10
286.163470
 20
241.225779
 11
256.676390
 21
241.225779
  0
LINE
  8
OBRYS
 10
279.396022
 20
181.709275
 11
279.396022
 21
167.725779
  0
ARC
  8
OBRYS
 10
281.396022
 20
167.725779
 40
2.000000
 50
180.000000
 51
270.000000
  0
LINE
  8
OBRYS
 10
255.396022
 20
181.225779
 11
262.396022
 21
181.225779
  0
ARC
  8
OBRYS
 10
262.396022
 20
183.225779
 40
2.000000
 50
270.000000
 51
360.000000
  0
LINE
  8
OBRYS
 10
255.396022
 20
301.225779
 11
262.396022
 21
301.225779
  0
ARC
  8
OBRYS
 10
262.396022
 20
299.225779
 40
2.000000
 50
0.000000
 51
90.000000
  0
ARC
  8
OBRYS
 10
266.396022
 20
276.225779
 40
2.000000
 50
180.000000
 51
270.000000
  0
ARC
  8
OBRYS
 10
266.396022
 20
212.225779
 40
2.000000
 50
90.000000
 51
180.000000
  0
LINE
  8
OBRYS
 10
273.396022
 20
214.225779
 11
266.396022
 21
214.225779
  0
LINE
  8
OBRYS
 10
266.396022
 20
274.225779
 11
284.396022
 21
274.225779
  0
LINE
  8
OBRYS
 10
256.396022
 20
232.059112
 11
256.396022
 21
250.392446
  0
LINE
  8
OBRYS
 10
255.396022
 20
181.225779
 11
255.396022
 21
232.059112
  0
LINE
  8
OBRYS
 10
255.396022
 20
250.392446
 11
255.396022
 21
301.225779
  0
INSERT
  8
OBRYS
  2
Srouby_s_valcovou_hlavou___3
 62
     7
 10
279.396022
 20
231.742283
  0
ARC
  8
OBRYS
 10
277.396022
 20
182.959275
 40
2.000000
 50
0.000000
 51
90.000000
  0
ARC
  8
OBRYS
 10
277.396022
 20
186.959275
 40
2.000000
 50
180.000000
 51
270.000000
  0
ENDBLK
  8
OBRYS
  0
BLOCK
  8
OBRYS
  2
Srouby_s_valcovou_hlavou___3
 70
   66
 10
279.396022
 20
231.742283
  0
LINE
  8
OBRYS
 10
275.896022
 20
182.459275
 11
275.896022
 21
174.959275
  0
LINE
  8
OBRYS
 10
276.396022
 20
182.959275
 11
279.396022
 21
182.959275
  0
LINE
  8
OBRYS
 10
279.396022
 20
182.959275
 11
279.396022
 21
174.459275
  0
LINE
  8
OBRYS
 10
279.396022
 20
174.459275
 11
276.396022
 21
174.459275
  0
ARC
  8
OBRYS
 10
276.396022
 20
182.459275
 40
0.500000
 50
90.000000
 51
180.000000
  0
ARC
  8
OBRYS
 10
276.396022
 20
174.959275
 40
0.500000
 50
180.000000
 51
270.000000
  0
LINE
  8
OBRYS
 62
     7
  6
DOT
 10
275.896022
 20
181.018690
 11
277.562688
 21
181.018690
  0
LINE
  8
OBRYS
 62
     7
  6
DOT
 10
275.896022
 20
179.863983
 11
277.562688
 21
179.863983
  0
LINE
  8
OBRYS
 62
     7
  6
DOT
 10
275.896022
 20
177.554567
 11
277.562688
 21
177.554567
  0
LINE
  8
OBRYS
 62
     7
  6
DOT
 10
275.896022
 20
176.399859
 11
277.562688
 21
176.399859
  0
ARC
  8
OBRYS
 62
     7
  6
DOT
 10
275.562682
 20
180.441336
 40
0.666673
 50
300.000310
 51
59.999690
  0
ARC
  8
OBRYS
 62
     7
  6
DOT
 10
274.062663
 20
178.709275
 40
2.166692
 50
327.795963
 51
32.204037
  0
ARC
  8
OBRYS
 62
     7
  6
DOT
 10
275.562682
 20
176.977213
 40
0.666673
 50
300.000310
 51
59.999690
  0
ARC
  8
OBRYS
 62
     7
  6
DOT
 10
277.229349
 20
180.441336
 40
0.666673
 50
300.000310
 51
59.999690
  0
ARC
  8
OBRYS
 62
     7
  6
DOT
 10
275.729330
 20
178.709275
 40
2.166692
 50
327.795963
 51
32.204037
  0
ARC
  8
OBRYS
 62
     7
  6
DOT
 10
277.229349
 20
176.977213
 40
0.666673
 50
300.000310
 51
59.999690
  0
LINE
  8
OBRYS
 62
     7
  6
DOT
 10
277.896022
 20
180.441336
 11
279.050729
 21
178.709275
  0
LINE
  8
OBRYS
 62
     7
  6
DOT
 10
279.050729
 20
178.709275
 11
277.896022
 21
176.977213
  0
ENDBLK
  8
OBRYS
  0
BLOCK
  8
OBRYS
  2
_2
 70
   64
 10
189.385455
 20
255.225779
  0
LINE
  8
OBRYS
 10
189.012098
 20
257.225779
 11
184.202728
 21
257.225779
  0
LINE
  8
OBRYS
 10
189.012098
 20
253.225779
 11
184.417112
 21
253.225779
  0
ARC
  8
OBRYS
 10
182.385455
 20
202.902351
 40
5.000000
 50
142.032592
 51
180.000000
  0
LINE
  8
OBRYS
 10
186.829371
 20
216.724243
 11
178.443651
 21
205.978417
  0
ARC
  8
OBRYS
 10
182.385455
 20
202.170556
 40
5.000000
 50
142.032592
 51
180.000000
  0
LINE
  8
OBRYS
 10
178.443651
 20
205.246622
 11
189.012098
 21
218.789490
  0
ARC
  8
OBRYS
 10
182.385455
 20
198.801776
 40
5.000000
 50
143.827645
 51
180.000000
  0
LINE
  8
OBRYS
 10
178.349229
 20
201.752857
 11
189.012098
 21
216.336579
  0
LINE
  8
OBRYS
 10
189.012098
 20
219.521285
 11
186.829371
 21
216.724243
  0
LINE
  8
OBRYS
 10
189.385455
 20
220.546162
 11
189.012098
 21
219.521285
  0
LINE
  8
OBRYS
 10
177.385455
 20
182.878249
 11
177.385455
 21
214.378821
  0
LINE
  8
OBRYS
 10
181.999031
 20
232.029820
 11
177.385455
 21
214.378821
  0
LINE
  8
OBRYS
 10
183.939651
 20
244.086687
 11
181.999031
 21
232.029820
  0
LINE
  8
OBRYS
 10
184.545039
 20
255.225779
 11
183.939651
 21
244.086687
  0
LINE
  8
OBRYS
 10
189.012098
 20
218.789490
 11
189.385455
 21
219.814366
  0
LINE
  8
OBRYS
 10
189.385455
 20
217.430451
 11
189.012098
 21
216.336579
  0
LINE
  8
OBRYS
 10
189.012098
 20
251.631319
 11
189.012098
 21
255.225779
  0
LINE
  8
OBRYS
 10
189.385455
 20
242.983577
 11
189.385455
 21
243.091607
  0
POLYLINE
  8
OBRYS
 66
    1
  0
VERTEX
  8
OBRYS
 10
187.454880
 20
229.091583
  0
VERTEX
  8
OBRYS
 10
188.157761
 20
229.226044
  0
VERTEX
  8
OBRYS
 10
188.904099
 20
229.624420
  0
VERTEX
  8
OBRYS
 10
189.012009
 20
229.716217
  0
VERTEX
  8
OBRYS
 10
189.316818
 20
230.271271
  0
VERTEX
  8
OBRYS
 10
189.385300
 20
230.442596
  0
VERTEX
  8
OBRYS
 10
189.385300
 20
231.141815
  0
VERTEX
  8
OBRYS
 10
189.385300
 20
232.202545
  0
VERTEX
  8
OBRYS
 10
189.385300
 20
233.412750
  0
VERTEX
  8
OBRYS
 10
189.385300
 20
234.725922
  0
VERTEX
  8
OBRYS
 10
189.385300
 20
236.091583
  0
VERTEX
  8
OBRYS
 10
189.385300
 20
237.457184
  0
VERTEX
  8
OBRYS
 10
189.385300
 20
238.770355
  0
VERTEX
  8
OBRYS
 10
189.385300
 20
239.980560
  0
VERTEX
  8
OBRYS
 10
189.385300
 20
241.041290
  0
VERTEX
  8
OBRYS
 10
189.385300
 20
241.911835
  0
VERTEX
  8
OBRYS
 10
189.385300
 20
242.558685
  0
VERTEX
  8
OBRYS
 10
189.385300
 20
242.957062
  0
VERTEX
  8
OBRYS
 10
189.385300
 20
243.091583
  0
SEQEND
  8
OBRYS
  0
LINE
  8
OBRYS
 10
186.822283
 20
239.980599
 11
186.829371
 21
239.992484
  0
ARC
  8
OBRYS
 10
199.010433
 20
233.939842
 40
13.607558
 50
153.377559
 51
176.777617
  0
POLYLINE
  8
OBRYS
 66
    1
  0
VERTEX
  8
OBRYS
 10
186.829269
 20
229.224579
  0
VERTEX
  8
OBRYS
 10
186.822189
 20
229.226044
  0
VERTEX
  8
OBRYS
 10
186.284225
 20
229.624420
  0
VERTEX
  8
OBRYS
 10
185.861496
 20
230.271271
  0
VERTEX
  8
OBRYS
 10
185.570236
 20
231.141815
  0
VERTEX
  8
OBRYS
 10
185.421799
 20
232.202545
  0
VERTEX
  8
OBRYS
 10
185.421799
 20
233.412750
  0
VERTEX
  8
OBRYS
 10
185.421799
 20
234.725922
  0
SEQEND
  8
OBRYS
  0
LINE
  8
OBRYS
 10
189.012098
 20
217.285883
 11
189.012098
 21
212.859188
  0
LINE
  8
OBRYS
 10
189.012098
 20
219.521285
 11
189.012098
 21
229.716240
  0
LINE
  8
OBRYS
 10
189.012098
 20
242.615288
 11
189.012098
 21
251.719061
  0
LINE
  8
OBRYS
 10
187.454925
 20
229.091607
 11
186.829371
 21
229.224604
  0
POLYLINE
  8
OBRYS
 66
    1
  0
VERTEX
  8
OBRYS
 10
186.829269
 20
239.992401
  0
VERTEX
  8
OBRYS
 10
187.454880
 20
241.041290
  0
VERTEX
  8
OBRYS
 10
188.157761
 20
241.911835
  0
VERTEX
  8
OBRYS
 10
188.904099
 20
242.558685
  0
VERTEX
  8
OBRYS
 10
189.012009
 20
242.615265
  0
VERTEX
  8
OBRYS
 10
189.316818
 20
242.957062
  0
VERTEX
  8
OBRYS
 10
189.385300
 20
242.983551
  0
SEQEND
  8
OBRYS
  0
LINE
  8
OBRYS
 10
179.385455
 20
267.781489
 11
179.385455
 21
255.106836
  0
LINE
  8
OBRYS
 10
189.385455
 20
287.225779
 11
189.385455
 21
298.225779
  0
LINE
  8
OBRYS
 10
189.012098
 20
289.031645
 11
189.385455
 21
288.080756
  0
POLYLINE
  8
OBRYS
 66
    1
  0
VERTEX
  8
OBRYS
 10
184.773727
 20
291.965057
  0
VERTEX
  8
OBRYS
 10
185.817917
 20
291.841949
  0
VERTEX
  8
OBRYS
 10
186.731613
 20
291.488129
  0
VERTEX
  8
OBRYS
 10
187.400314
 20
290.947723
  0
SEQEND
  8
OBRYS
  0
POLYLINE
  8
OBRYS
 66
    1
  0
VERTEX
  8
OBRYS
 10
185.704391
 20
291.503876
  0
VERTEX
  8
OBRYS
 10
185.527145
 20
291.647064
  0
VERTEX
  8
OBRYS
 10
184.918015
 20
291.882965
  0
VERTEX
  8
OBRYS
 10
184.221848
 20
291.965057
  0
SEQEND
  8
OBRYS
  0
POLYLINE
  8
OBRYS
 66
    1
  0
VERTEX
  8
OBRYS
 10
189.385300
 20
287.259674
  0
VERTEX
  8
OBRYS
 10
189.012009
 20
288.206390
  0
VERTEX
  8
OBRYS
 10
186.829269
 20
290.790009
  0
VERTEX
  8
OBRYS
 10
186.160568
 20
291.328033
  0
VERTEX
  8
OBRYS
 10
185.704391
 20
291.503876
  0
SEQEND
  8
OBRYS
  0
LINE
  8
OBRYS
 10
189.385455
 20
288.080756
 11
189.385455
 21
290.637192
  0
LINE
  8
OBRYS
 10
184.773799
 20
291.965085
 11
184.773799
 21
294.823759
  0
LINE
  8
OBRYS
 10
184.221994
 20
294.823759
 11
184.221994
 21
291.965085
  0
LINE
  8
OBRYS
 10
187.400442
 20
290.947796
 11
187.400442
 21
293.727315
  0
LINE
  8
OBRYS
 10
189.385455
 20
290.637192
 11
189.012098
 21
291.662069
  0
POLYLINE
  8
OBRYS
 66
    1
  0
VERTEX
  8
OBRYS
 10
187.400314
 20
293.727264
  0
VERTEX
  8
OBRYS
 10
186.731613
 20
294.309662
  0
VERTEX
  8
OBRYS
 10
185.817917
 20
294.691071
  0
VERTEX
  8
OBRYS
 10
184.773727
 20
294.823700
  0
SEQEND
  8
OBRYS
  0
LINE
  8
OBRYS
 10
189.012098
 20
289.031645
 11
189.012098
 21
291.662069
  0
POLYLINE
  8
OBRYS
 66
    1
  0
VERTEX
  8
OBRYS
 10
189.385300
 20
303.934662
  0
VERTEX
  8
OBRYS
 10
189.012009
 20
305.374115
  0
VERTEX
  8
OBRYS
 10
186.829269
 20
309.302704
  0
VERTEX
  8
OBRYS
 10
186.160568
 20
310.120697
  0
VERTEX
  8
OBRYS
 10
185.704391
 20
310.388153
  0
SEQEND
  8
OBRYS
  0
LINE
  8
OBRYS
 10
189.385455
 20
267.373196
 11
189.385455
 21
267.478127
  0
LINE
  8
OBRYS
 10
189.385455
 20
297.326986
 11
189.385455
 21
294.444484
  0
LINE
  8
OBRYS
 10
179.385455
 20
299.832676
 11
179.385455
 21
302.681331
  0
LINE
  8
OBRYS
 10
189.385455
 20
302.513528
 11
189.385455
 21
294.444484
  0
POLYLINE
  8
OBRYS
 66
    1
  0
VERTEX
  8
OBRYS
 10
185.145187
 20
302.681305
  0
VERTEX
  8
OBRYS
 10
184.223190
 20
302.654266
  0
VERTEX
  8
OBRYS
 10
184.202682
 20
302.649872
  0
VERTEX
  8
OBRYS
 10
179.385300
 20
302.649872
  0
VERTEX
  8
OBRYS
 10
179.385300
 20
302.654266
  0
VERTEX
  8
OBRYS
 10
179.385300
 20
302.681305
  0
SEQEND
  8
OBRYS
  0
POLYLINE
  8
OBRYS
 66
    1
  0
VERTEX
  8
OBRYS
 10
186.727707
 20
268.753998
  0
VERTEX
  8
OBRYS
 10
186.419479
 20
268.734283
  0
VERTEX
  8
OBRYS
 10
186.160568
 20
268.642487
  0
VERTEX
  8
OBRYS
 10
186.116867
 20
268.635040
  0
VERTEX
  8
OBRYS
 10
185.615158
 20
268.460236
  0
VERTEX
  8
OBRYS
 10
185.246872
 20
268.235748
  0
VERTEX
  8
OBRYS
 10
185.145187
 20
268.216888
  0
VERTEX
  8
OBRYS
 10
184.223190
 20
267.914825
  0
VERTEX
  8
OBRYS
 10
184.202682
 20
267.900360
  0
VERTEX
  8
OBRYS
 10
179.385300
 20
267.900360
  0
VERTEX
  8
OBRYS
 10
179.385300
 20
267.914825
  0
VERTEX
  8
OBRYS
 10
179.385300
 20
268.216888
  0
VERTEX
  8
OBRYS
 10
179.385300
 20
268.460236
  0
VERTEX
  8
OBRYS
 10
179.385300
 20
268.635040
  0
VERTEX
  8
OBRYS
 10
179.385300
 20
268.734283
  0
VERTEX
  8
OBRYS
 10
179.385300
 20
268.753998
  0
SEQEND
  8
OBRYS
  0
POLYLINE
  8
OBRYS
 66
    1
  0
VERTEX
  8
OBRYS
 10
183.385300
 20
268.753998
  0
VERTEX
  8
OBRYS
 10
183.385300
 20
269.011932
  0
VERTEX
  8
OBRYS
 10
183.385300
 20
269.965057
  0
VERTEX
  8
OBRYS
 10
183.385300
 20
271.077545
  0
VERTEX
  8
OBRYS
 10
183.385300
 20
272.309052
  0
VERTEX
  8
OBRYS
 10
183.385300
 20
273.614899
  0
VERTEX
  8
OBRYS
 10
183.385300
 20
274.947784
  0
VERTEX
  8
OBRYS
 10
183.385300
 20
276.259308
  0
VERTEX
  8
OBRYS
 10
183.385300
 20
277.501984
  0
VERTEX
  8
OBRYS
 10
183.385300
 20
278.630768
  0
VERTEX
  8
OBRYS
 10
183.385300
 20
279.604645
  0
VERTEX
  8
OBRYS
 10
183.385300
 20
279.973297
  0
VERTEX
  8
OBRYS
 10
183.245651
 20
280.388336
  0
VERTEX
  8
OBRYS
 10
183.157028
 20
280.613800
  0
VERTEX
  8
OBRYS
 10
182.506638
 20
281.106537
  0
VERTEX
  8
OBRYS
 10
181.533371
 20
281.435760
  0
VERTEX
  8
OBRYS
 10
180.385300
 20
281.551422
  0
VERTEX
  8
OBRYS
 10
179.385300
 20
281.551422
  0
VERTEX
  8
OBRYS
 10
179.385300
 20
282.652802
  0
VERTEX
  8
OBRYS
 10
179.385300
 20
282.890289
  0
VERTEX
  8
OBRYS
 10
179.385300
 20
283.187531
  0
VERTEX
  8
OBRYS
 10
179.385300
 20
283.532562
  0
VERTEX
  8
OBRYS
 10
179.385300
 20
283.911407
  0
VERTEX
  8
OBRYS
 10
179.385300
 20
284.308990
  0
VERTEX
  8
OBRYS
 10
179.385300
 20
284.709198
  0
VERTEX
  8
OBRYS
 10
179.385300
 20
284.725250
  0
VERTEX
  8
OBRYS
 10
184.202682
 20
284.725250
  0
VERTEX
  8
OBRYS
 10
184.223190
 20
284.709198
  0
VERTEX
  8
OBRYS
 10
185.145187
 20
284.308990
  0
VERTEX
  8
OBRYS
 10
185.246872
 20
284.278168
  0
VERTEX
  8
OBRYS
 10
185.615158
 20
283.911407
  0
VERTEX
  8
OBRYS
 10
186.116867
 20
283.532562
  0
VERTEX
  8
OBRYS
 10
186.160568
 20
283.506744
  0
VERTEX
  8
OBRYS
 10
186.419479
 20
283.187531
  0
VERTEX
  8
OBRYS
 10
186.727707
 20
282.890289
  0
VERTEX
  8
OBRYS
 10
186.829269
 20
282.815826
  0
VERTEX
  8
OBRYS
 10
186.980392
 20
282.652802
  0
VERTEX
  8
OBRYS
 10
189.012009
 20
280.788849
  0
VERTEX
  8
OBRYS
 10
189.215744
 20
280.388336
  0
VERTEX
  8
OBRYS
 10
189.385300
 20
279.999481
  0
SEQEND
  8
OBRYS
  0
LINE
  8
OBRYS
 10
183.385455
 20
268.754043
 11
183.385455
 21
279.973330
  0
POLYLINE
  8
OBRYS
 66
    1
  0
VERTEX
  8
OBRYS
 10
179.385300
 20
305.382599
  0
VERTEX
  8
OBRYS
 10
180.385300
 20
305.382599
  0
VERTEX
  8
OBRYS
 10
181.533371
 20
305.162384
  0
VERTEX
  8
OBRYS
 10
182.506638
 20
304.535065
  0
VERTEX
  8
OBRYS
 10
183.157028
 20
303.596344
  0
VERTEX
  8
OBRYS
 10
183.245651
 20
303.166718
  0
VERTEX
  8
OBRYS
 10
183.342941
 20
302.681305
  0
SEQEND
  8
OBRYS
  0
POLYLINE
  8
OBRYS
 66
    1
  0
VERTEX
  8
OBRYS
 10
183.385300
 20
279.973297
  0
VERTEX
  8
OBRYS
 10
183.245651
 20
280.388336
  0
VERTEX
  8
OBRYS
 10
183.157028
 20
280.613800
  0
VERTEX
  8
OBRYS
 10
182.506638
 20
281.106537
  0
VERTEX
  8
OBRYS
 10
181.533371
 20
281.435760
  0
VERTEX
  8
OBRYS
 10
180.385300
 20
281.551422
  0
VERTEX
  8
OBRYS
 10
179.385300
 20
281.551422
  0
SEQEND
  8
OBRYS
  0
LINE
  8
OBRYS
 10
179.385455
 20
299.832676
 11
179.385455
 21
281.551449
  0
LINE
  8
OBRYS
 10
184.202728
 20
255.225779
 11
184.202728
 21
267.900432
  0
LINE
  8
OBRYS
 10
184.202728
 20
284.725276
 11
184.202728
 21
302.649942
  0
LINE
  8
OBRYS
 10
184.202728
 20
309.619021
 11
184.202728
 21
311.225779
  0
LINE
  8
OBRYS
 10
179.385455
 20
302.649942
 11
179.385455
 21
284.725276
  0
LINE
  8
OBRYS
 10
186.829371
 20
307.753277
 11
186.829371
 21
309.302735
  0
LINE
  8
OBRYS
 10
189.012098
 20
255.225779
 11
189.012098
 21
267.778125
  0
LINE
  8
OBRYS
 10
189.012098
 20
280.788906
 11
189.012098
 21
288.206428
  0
LINE
  8
OBRYS
 10
189.012098
 20
290.930273
 11
189.012098
 21
298.540603
  0
LINE
  8
OBRYS
 10
189.012098
 20
303.929845
 11
189.012098
 21
305.374178
  0
POLYLINE
  8
OBRYS
 66
    1
  0
VERTEX
  8
OBRYS
 10
189.385300
 20
267.478058
  0
VERTEX
  8
OBRYS
 10
189.215744
 20
267.581390
  0
VERTEX
  8
OBRYS
 10
189.012009
 20
267.778046
  0
VERTEX
  8
OBRYS
 10
186.980392
 20
268.693329
  0
VERTEX
  8
OBRYS
 10
186.829269
 20
268.734955
  0
VERTEX
  8
OBRYS
 10
186.727707
 20
268.753998
  0
SEQEND
  8
OBRYS
  0
ARC
  8
OBRYS
 10
184.975220
 20
299.167970
 40
3.518602
 50
70.236041
 51
87.431499
  0
POLYLINE
  8
OBRYS
 66
    1
  0
VERTEX
  8
OBRYS
 10
189.385300
 20
297.326935
  0
VERTEX
  8
OBRYS
 10
189.215744
 20
297.861908
  0
VERTEX
  8
OBRYS
 10
189.012009
 20
298.540558
  0
VERTEX
  8
OBRYS
 10
186.980392
 20
301.698883
  0
VERTEX
  8
OBRYS
 10
186.829269
 20
301.920746
  0
VERTEX
  8
OBRYS
 10
186.727707
 20
302.022186
  0
VERTEX
  8
OBRYS
 10
186.419479
 20
302.291534
  0
VERTEX
  8
OBRYS
 10
186.160568
 20
302.480865
  0
SEQEND
  8
OBRYS
  0
LINE
  8
OBRYS
 10
189.385455
 20
279.999548
 11
189.385455
 21
287.259738
  0
LINE
  8
OBRYS
 10
189.385455
 20
289.905397
 11
189.385455
 21
297.326985
  0
LINE
  8
OBRYS
 10
189.385455
 20
302.513528
 11
189.385455
 21
303.934697
  0
LINE
  8
OBRYS
 10
189.385455
 20
293.021107
 11
189.385455
 21
292.076633
  0
LINE
  8
OBRYS
 10
189.385455
 20
288.080756
 11
189.385455
 21
287.259738
  0
LINE
  8
OBRYS
 10
187.400442
 20
290.947796
 11
189.012098
 21
289.031645
  0
LINE
  8
OBRYS
 10
184.221994
 20
291.965085
 11
184.773799
 21
291.965085
  0
LINE
  8
OBRYS
 10
184.773799
 20
294.823759
 11
184.221994
 21
294.823759
  0
LINE
  8
OBRYS
 10
189.012098
 20
291.662069
 11
187.400442
 21
293.727315
  0
LINE
  8
OBRYS
 10
183.385455
 20
268.754043
 11
179.385455
 21
268.754043
  0
LINE
  8
OBRYS
 10
179.385455
 20
302.681331
 11
183.342991
 21
302.681331
  0
LINE
  8
OBRYS
 10
179.385455
 20
302.681331
 11
185.145322
 21
302.681331
  0
LINE
  8
OBRYS
 10
186.980463
 20
307.481147
 11
179.385455
 21
307.481147
  0
LINE
  8
OBRYS
 10
189.215889
 20
303.166758
 11
183.245689
 21
303.166758
  0
LINE
  8
OBRYS
 10
179.385455
 20
268.754043
 11
186.727748
 21
268.754043
  0
LINE
  8
OBRYS
 10
186.980463
 20
282.652865
 11
179.385455
 21
282.652865
  0
LINE
  8
OBRYS
 10
189.215889
 20
280.388387
 11
183.245689
 21
280.388387
  0
ARC
  8
OBRYS
 10
179.385455
 20
234.126110
 40
6.000000
 50
90.000000
 51
180.000000
  0
LINE
  8
OBRYS
 10
179.385455
 20
255.225779
 11
179.385455
 21
240.126110
  0
LINE
  8
OBRYS
 10
188.798617
 20
201.805108
 11
183.937408
 21
201.805108
  0
ARC
  8
OBRYS
 10
182.385455
 20
189.266044
 40
5.000000
 50
152.775520
 51
180.000000
  0
LINE
  8
OBRYS
 10
177.939350
 20
191.553433
 11
188.831560
 21
212.725127
  0
ARC
  8
OBRYS
 10
184.385455
 20
215.012516
 40
5.000000
 50
332.775520
 51
360.000000
  0
ARC
  8
OBRYS
 10
179.385455
 20
182.878248
 40
2.000000
 50
180.000000
 51
268.000002
  0
LINE
  8
OBRYS
 62
     4
  6
HIDDEN2
 10
192.885455
 20
170.225779
 11
192.885455
 21
180.405599
  0
LINE
  8
OBRYS
 62
     4
  6
HIDDEN2
 10
183.885455
 20
170.225779
 11
183.885455
 21
180.719885
  0
ARC
  8
OBRYS
 10
186.385455
 20
305.305079
 40
3.000000
 50
0.000000
 51
28.890129
  0
LINE
  8
OBRYS
 10
180.734949
 20
311.225779
 11
180.814834
 21
311.225779
  0
LINE
  8
OBRYS
 62
     7
  6
DASHDOT
 10
188.385455
 20
170.225779
 11
188.385455
 21
180.562743
  0
LINE
  8
OBRYS
 10
189.385455
 20
285.225779
 11
189.385455
 21
255.225779
  0
LINE
  8
OBRYS
 10
189.385455
 20
225.225779
 11
189.385455
 21
255.225779
  0
LINE
  8
OBRYS
 10
189.012098
 20
306.754474
 11
187.400442
 21
309.675174
  0
ARC
  8
OBRYS
 10
184.773799
 20
308.225779
 40
3.000000
 50
28.890129
 51
90.000000
  0
LINE
  8
OBRYS
 10
173.385455
 20
170.225779
 11
173.385455
 21
234.126110
  0
LINE
  8
OBRYS
 10
197.385455
 20
170.225779
 11
173.385455
 21
170.225779
  0
LINE
  8
OBRYS
 10
197.385455
 20
170.225779
 11
197.385455
 21
180.225779
  0
LINE
  8
OBRYS
 10
189.581404
 20
198.622356
 11
197.385455
 21
180.225779
  0
LINE
  8
OBRYS
 10
189.385455
 20
199.485721
 11
189.385455
 21
225.225779
  0
ARC
  8
OBRYS
 10
191.385455
 20
199.485721
 40
2.000000
 50
180.000000
 51
205.574382
  0
LINE
  8
OBRYS
 10
189.385455
 20
199.485718
 11
189.385455
 21
205.146479
  0
LINE
  8
OBRYS
 10
189.385455
 20
305.305079
 11
189.385455
 21
285.225779
  0
LINE
  8
OBRYS
 62
     7
  6
DASHDOT
 10
191.694393
 20
255.225779
 11
174.865455
 21
255.225779
  0
LINE
  8
OBRYS
 10
197.385455
 20
180.213535
 11
179.315656
 21
180.879466
  0
LINE
  8
OBRYS
 10
184.773799
 20
311.225779
 11
179.385455
 21
311.225779
  0
LINE
  8
OBRYS
 10
183.342991
 20
302.681331
 11
183.245689
 21
303.166758
  0
LINE
  8
OBRYS
 10
183.245689
 20
303.166758
 11
183.157094
 21
303.596369
  0
LINE
  8
OBRYS
 10
183.157094
 20
303.596369
 11
182.506775
 21
304.535143
  0
LINE
  8
OBRYS
 10
182.506775
 20
304.535143
 11
181.533505
 21
305.162411
  0
LINE
  8
OBRYS
 10
181.533505
 20
305.162411
 11
180.385455
 21
305.382678
  0
LINE
  8
OBRYS
 10
180.385455
 20
305.382678
 11
179.385455
 21
305.382678
  0
LINE
  8
OBRYS
 10
179.385455
 20
305.382678
 11
179.385455
 21
307.481147
  0
LINE
  8
OBRYS
 10
179.385455
 20
307.481147
 11
179.385455
 21
307.877665
  0
LINE
  8
OBRYS
 10
179.385455
 20
307.877665
 11
179.385455
 21
308.278311
  0
LINE
  8
OBRYS
 10
179.385455
 20
308.278311
 11
179.385455
 21
308.666969
  0
LINE
  8
OBRYS
 10
179.385455
 20
308.666969
 11
179.385455
 21
311.225779
  0
LINE
  8
OBRYS
 10
179.385455
 20
309.028005
 11
179.385455
 21
309.346894
  0
LINE
  8
OBRYS
 10
179.385455
 20
309.346894
 11
179.385455
 21
309.610811
  0
LINE
  8
OBRYS
 10
179.385455
 20
309.610811
 11
179.385455
 21
309.619021
  0
LINE
  8
OBRYS
 10
179.385455
 20
309.619021
 11
184.202728
 21
309.619021
  0
LINE
  8
OBRYS
 10
184.202728
 20
309.619021
 11
184.223236
 21
309.610811
  0
LINE
  8
OBRYS
 10
184.223236
 20
309.610811
 11
185.145322
 21
309.346894
  0
LINE
  8
OBRYS
 10
185.145322
 20
309.346894
 11
185.246969
 21
309.322183
  0
LINE
  8
OBRYS
 10
185.246969
 20
309.322183
 11
185.615222
 21
309.028005
  0
LINE
  8
OBRYS
 10
185.615222
 20
309.028005
 11
186.116919
 21
308.666969
  0
LINE
  8
OBRYS
 10
186.116919
 20
308.666969
 11
186.160607
 21
308.637896
  0
LINE
  8
OBRYS
 10
186.160607
 20
308.637896
 11
186.419606
 21
308.278311
  0
LINE
  8
OBRYS
 10
186.419606
 20
308.278311
 11
186.727748
 21
307.877665
  0
LINE
  8
OBRYS
 10
186.727748
 20
307.877665
 11
186.829371
 21
307.753277
  0
LINE
  8
OBRYS
 10
186.829371
 20
307.753277
 11
186.980463
 21
307.481147
  0
LINE
  8
OBRYS
 10
186.980463
 20
307.481147
 11
189.012098
 21
303.929845
  0
LINE
  8
OBRYS
 10
189.012098
 20
303.929845
 11
189.215889
 21
303.166758
  0
LINE
  8
OBRYS
 10
189.215889
 20
303.166758
 11
189.385455
 21
302.513528
  0
ENDBLK
  8
OBRYS
  0
BLOCK
  8
OBRYS
  2
_3
 70
   64
 10
91.385455
 20
255.225779
  0
LINE
  8
OBRYS
 10
91.758812
 20
257.225779
 11
96.568183
 21
257.225779
  0
LINE
  8
OBRYS
 10
91.758812
 20
253.225779
 11
96.353799
 21
253.225779
  0
ARC
  8
OBRYS
 10
98.385455
 20
202.902351
 40
5.000000
 50
0.000000
 51
37.967408
  0
LINE
  8
OBRYS
 10
93.941539
 20
216.724243
 11
102.327259
 21
205.978417
  0
ARC
  8
OBRYS
 10
98.385455
 20
202.170556
 40
5.000000
 50
0.000000
 51
37.967408
  0
LINE
  8
OBRYS
 10
102.327259
 20
205.246622
 11
91.758812
 21
218.789490
  0
ARC
  8
OBRYS
 10
98.385455
 20
198.801776
 40
5.000000
 50
0.000000
 51
36.172355
  0
LINE
  8
OBRYS
 10
102.421681
 20
201.752857
 11
91.758812
 21
216.336579
  0
LINE
  8
OBRYS
 10
91.758812
 20
219.521285
 11
93.941539
 21
216.724243
  0
LINE
  8
OBRYS
 10
91.385455
 20
220.546162
 11
91.758812
 21
219.521285
  0
LINE
  8
OBRYS
 10
103.385455
 20
182.878249
 11
103.385455
 21
214.378821
  0
LINE
  8
OBRYS
 10
98.771879
 20
232.029820
 11
103.385455
 21
214.378821
  0
LINE
  8
OBRYS
 10
96.831259
 20
244.086687
 11
98.771879
 21
232.029820
  0
LINE
  8
OBRYS
 10
96.225871
 20
255.225779
 11
96.831259
 21
244.086687
  0
LINE
  8
OBRYS
 10
91.758812
 20
218.789490
 11
91.385455
 21
219.814366
  0
LINE
  8
OBRYS
 10
91.385455
 20
217.430451
 11
91.758812
 21
216.336579
  0
LINE
  8
OBRYS
 10
91.758812
 20
251.631319
 11
91.758812
 21
255.225779
  0
LINE
  8
OBRYS
 10
91.385455
 20
242.983577
 11
91.385455
 21
243.091607
  0
POLYLINE
  8
OBRYS
 66
    1
  0
VERTEX
  8
OBRYS
 10
93.316032
 20
229.091583
  0
VERTEX
  8
OBRYS
 10
92.613152
 20
229.226044
  0
VERTEX
  8
OBRYS
 10
91.866814
 20
229.624420
  0
VERTEX
  8
OBRYS
 10
91.758904
 20
229.716217
  0
VERTEX
  8
OBRYS
 10
91.454094
 20
230.271271
  0
VERTEX
  8
OBRYS
 10
91.385612
 20
230.442596
  0
VERTEX
  8
OBRYS
 10
91.385612
 20
231.141815
  0
VERTEX
  8
OBRYS
 10
91.385612
 20
232.202545
  0
VERTEX
  8
OBRYS
 10
91.385612
 20
233.412750
  0
VERTEX
  8
OBRYS
 10
91.385612
 20
234.725922
  0
VERTEX
  8
OBRYS
 10
91.385612
 20
236.091583
  0
VERTEX
  8
OBRYS
 10
91.385612
 20
237.457184
  0
VERTEX
  8
OBRYS
 10
91.385612
 20
238.770355
  0
VERTEX
  8
OBRYS
 10
91.385612
 20
239.980560
  0
VERTEX
  8
OBRYS
 10
91.385612
 20
241.041290
  0
VERTEX
  8
OBRYS
 10
91.385612
 20
241.911835
  0
VERTEX
  8
OBRYS
 10
91.385612
 20
242.558685
  0
VERTEX
  8
OBRYS
 10
91.385612
 20
242.957062
  0
VERTEX
  8
OBRYS
 10
91.385612
 20
243.091583
  0
SEQEND
  8
OBRYS
  0
LINE
  8
OBRYS
 10
93.948627
 20
239.980599
 11
93.941539
 21
239.992484
  0
ARC
  8
OBRYS
 10
81.760478
 20
233.939842
 40
13.607558
 50
3.222383
 51
26.622441
  0
POLYLINE
  8
OBRYS
 66
    1
  0
VERTEX
  8
OBRYS
 10
93.941643
 20
229.224579
  0
VERTEX
  8
OBRYS
 10
93.948723
 20
229.226044
  0
VERTEX
  8
OBRYS
 10
94.486687
 20
229.624420
  0
VERTEX
  8
OBRYS
 10
94.909416
 20
230.271271
  0
VERTEX
  8
OBRYS
 10
95.200676
 20
231.141815
  0
VERTEX
  8
OBRYS
 10
95.349113
 20
232.202545
  0
VERTEX
  8
OBRYS
 10
95.349113
 20
233.412750
  0
VERTEX
  8
OBRYS
 10
95.349113
 20
234.725922
  0
SEQEND
  8
OBRYS
  0
LINE
  8
OBRYS
 10
91.758812
 20
217.285883
 11
91.758812
 21
212.859188
  0
LINE
  8
OBRYS
 10
91.758812
 20
219.521285
 11
91.758812
 21
229.716240
  0
LINE
  8
OBRYS
 10
91.758812
 20
242.615288
 11
91.758812
 21
251.719061
  0
LINE
  8
OBRYS
 10
93.315985
 20
229.091607
 11
93.941539
 21
229.224604
  0
POLYLINE
  8
OBRYS
 66
    1
  0
VERTEX
  8
OBRYS
 10
93.941643
 20
239.992401
  0
VERTEX
  8
OBRYS
 10
93.316032
 20
241.041290
  0
VERTEX
  8
OBRYS
 10
92.613152
 20
241.911835
  0
VERTEX
  8
OBRYS
 10
91.866814
 20
242.558685
  0
VERTEX
  8
OBRYS
 10
91.758904
 20
242.615265
  0
VERTEX
  8
OBRYS
 10
91.454094
 20
242.957062
  0
VERTEX
  8
OBRYS
 10
91.385612
 20
242.983551
  0
SEQEND
  8
OBRYS
  0
LINE
  8
OBRYS
 10
101.385455
 20
267.781489
 11
101.385455
 21
255.106836
  0
LINE
  8
OBRYS
 10
91.385455
 20
287.225779
 11
91.385455
 21
298.225779
  0
LINE
  8
OBRYS
 10
91.758812
 20
289.031645
 11
91.385455
 21
288.080756
  0
POLYLINE
  8
OBRYS
 66
    1
  0
VERTEX
  8
OBRYS
 10
95.997185
 20
291.965057
  0
VERTEX
  8
OBRYS
 10
94.952995
 20
291.841949
  0
VERTEX
  8
OBRYS
 10
94.039299
 20
291.488129
  0
VERTEX
  8
OBRYS
 10
93.370598
 20
290.947723
  0
SEQEND
  8
OBRYS
  0
POLYLINE
  8
OBRYS
 66
    1
  0
VERTEX
  8
OBRYS
 10
95.066521
 20
291.503876
  0
VERTEX
  8
OBRYS
 10
95.243767
 20
291.647064
  0
VERTEX
  8
OBRYS
 10
95.852898
 20
291.882965
  0
VERTEX
  8
OBRYS
 10
96.549065
 20
291.965057
  0
SEQEND
  8
OBRYS
  0
POLYLINE
  8
OBRYS
 66
    1
  0
VERTEX
  8
OBRYS
 10
91.385612
 20
287.259674
  0
VERTEX
  8
OBRYS
 10
91.758904
 20
288.206390
  0
VERTEX
  8
OBRYS
 10
93.941643
 20
290.790009
  0
VERTEX
  8
OBRYS
 10
94.610344
 20
291.328033
  0
VERTEX
  8
OBRYS
 10
95.066521
 20
291.503876
  0
SEQEND
  8
OBRYS
  0
LINE
  8
OBRYS
 10
91.385455
 20
288.080756
 11
91.385455
 21
290.637192
  0
LINE
  8
OBRYS
 10
95.997112
 20
291.965085
 11
95.997112
 21
294.823759
  0
LINE
  8
OBRYS
 10
96.548916
 20
294.823759
 11
96.548916
 21
291.965085
  0
LINE
  8
OBRYS
 10
93.370468
 20
290.947796
 11
93.370468
 21
293.727315
  0
LINE
  8
OBRYS
 10
91.385455
 20
290.637192
 11
91.758812
 21
291.662069
  0
POLYLINE
  8
OBRYS
 66
    1
  0
VERTEX
  8
OBRYS
 10
93.370598
 20
293.727264
  0
VERTEX
  8
OBRYS
 10
94.039299
 20
294.309662
  0
VERTEX
  8
OBRYS
 10
94.952995
 20
294.691071
  0
VERTEX
  8
OBRYS
 10
95.997185
 20
294.823700
  0
SEQEND
  8
OBRYS
  0
LINE
  8
OBRYS
 10
91.758812
 20
289.031645
 11
91.758812
 21
291.662069
  0
POLYLINE
  8
OBRYS
 66
    1
  0
VERTEX
  8
OBRYS
 10
91.385612
 20
303.934662
  0
VERTEX
  8
OBRYS
 10
91.758904
 20
305.374115
  0
VERTEX
  8
OBRYS
 10
93.941643
 20
309.302704
  0
VERTEX
  8
OBRYS
 10
94.610344
 20
310.120697
  0
VERTEX
  8
OBRYS
 10
95.066521
 20
310.388153
  0
SEQEND
  8
OBRYS
  0
LINE
  8
OBRYS
 10
91.385455
 20
267.373196
 11
91.385455
 21
267.478127
  0
LINE
  8
OBRYS
 10
91.385455
 20
297.326986
 11
91.385455
 21
294.444484
  0
LINE
  8
OBRYS
 10
101.385455
 20
299.832676
 11
101.385455
 21
302.681331
  0
LINE
  8
OBRYS
 10
91.385455
 20
302.513528
 11
91.385455
 21
294.444484
  0
POLYLINE
  8
OBRYS
 66
    1
  0
VERTEX
  8
OBRYS
 10
95.625725
 20
302.681305
  0
VERTEX
  8
OBRYS
 10
96.547722
 20
302.654266
  0
VERTEX
  8
OBRYS
 10
96.568230
 20
302.649872
  0
VERTEX
  8
OBRYS
 10
101.385612
 20
302.649872
  0
VERTEX
  8
OBRYS
 10
101.385612
 20
302.654266
  0
VERTEX
  8
OBRYS
 10
101.385612
 20
302.681305
  0
SEQEND
  8
OBRYS
  0
POLYLINE
  8
OBRYS
 66
    1
  0
VERTEX
  8
OBRYS
 10
94.043205
 20
268.753998
  0
VERTEX
  8
OBRYS
 10
94.351433
 20
268.734283
  0
VERTEX
  8
OBRYS
 10
94.610344
 20
268.642487
  0
VERTEX
  8
OBRYS
 10
94.654045
 20
268.635040
  0
VERTEX
  8
OBRYS
 10
95.155754
 20
268.460236
  0
VERTEX
  8
OBRYS
 10
95.524040
 20
268.235748
  0
VERTEX
  8
OBRYS
 10
95.625725
 20
268.216888
  0
VERTEX
  8
OBRYS
 10
96.547722
 20
267.914825
  0
VERTEX
  8
OBRYS
 10
96.568230
 20
267.900360
  0
VERTEX
  8
OBRYS
 10
101.385612
 20
267.900360
  0
VERTEX
  8
OBRYS
 10
101.385612
 20
267.914825
  0
VERTEX
  8
OBRYS
 10
101.385612
 20
268.216888
  0
VERTEX
  8
OBRYS
 10
101.385612
 20
268.460236
  0
VERTEX
  8
OBRYS
 10
101.385612
 20
268.635040
  0
VERTEX
  8
OBRYS
 10
101.385612
 20
268.734283
  0
VERTEX
  8
OBRYS
 10
101.385612
 20
268.753998
  0
SEQEND
  8
OBRYS
  0
POLYLINE
  8
OBRYS
 66
    1
  0
VERTEX
  8
OBRYS
 10
97.385612
 20
268.753998
  0
VERTEX
  8
OBRYS
 10
97.385612
 20
269.011932
  0
VERTEX
  8
OBRYS
 10
97.385612
 20
269.965057
  0
VERTEX
  8
OBRYS
 10
97.385612
 20
271.077545
  0
VERTEX
  8
OBRYS
 10
97.385612
 20
272.309052
  0
VERTEX
  8
OBRYS
 10
97.385612
 20
273.614899
  0
VERTEX
  8
OBRYS
 10
97.385612
 20
274.947784
  0
VERTEX
  8
OBRYS
 10
97.385612
 20
276.259308
  0
VERTEX
  8
OBRYS
 10
97.385612
 20
277.501984
  0
VERTEX
  8
OBRYS
 10
97.385612
 20
278.630768
  0
VERTEX
  8
OBRYS
 10
97.385612
 20
279.604645
  0
VERTEX
  8
OBRYS
 10
97.385612
 20
279.973297
  0
VERTEX
  8
OBRYS
 10
97.525261
 20
280.388336
  0
VERTEX
  8
OBRYS
 10
97.613884
 20
280.613800
  0
VERTEX
  8
OBRYS
 10
98.264275
 20
281.106537
  0
VERTEX
  8
OBRYS
 10
99.237541
 20
281.435760
  0
VERTEX
  8
OBRYS
 10
100.385612
 20
281.551422
  0
VERTEX
  8
OBRYS
 10
101.385612
 20
281.551422
  0
VERTEX
  8
OBRYS
 10
101.385612
 20
282.652802
  0
VERTEX
  8
OBRYS
 10
101.385612
 20
282.890289
  0
VERTEX
  8
OBRYS
 10
101.385612
 20
283.187531
  0
VERTEX
  8
OBRYS
 10
101.385612
 20
283.532562
  0
VERTEX
  8
OBRYS
 10
101.385612
 20
283.911407
  0
VERTEX
  8
OBRYS
 10
101.385612
 20
284.308990
  0
VERTEX
  8
OBRYS
 10
101.385612
 20
284.709198
  0
VERTEX
  8
OBRYS
 10
101.385612
 20
284.725250
  0
VERTEX
  8
OBRYS
 10
96.568230
 20
284.725250
  0
VERTEX
  8
OBRYS
 10
96.547722
 20
284.709198
  0
VERTEX
  8
OBRYS
 10
95.625725
 20
284.308990
  0
VERTEX
  8
OBRYS
 10
95.524040
 20
284.278168
  0
VERTEX
  8
OBRYS
 10
95.155754
 20
283.911407
  0
VERTEX
  8
OBRYS
 10
94.654045
 20
283.532562
  0
VERTEX
  8
OBRYS
 10
94.610344
 20
283.506744
  0
VERTEX
  8
OBRYS
 10
94.351433
 20
283.187531
  0
VERTEX
  8
OBRYS
 10
94.043205
 20
282.890289
  0
VERTEX
  8
OBRYS
 10
93.941643
 20
282.815826
  0
VERTEX
  8
OBRYS
 10
93.790520
 20
282.652802
  0
VERTEX
  8
OBRYS
 10
91.758904
 20
280.788849
  0
VERTEX
  8
OBRYS
 10
91.555168
 20
280.388336
  0
VERTEX
  8
OBRYS
 10
91.385612
 20
279.999481
  0
SEQEND
  8
OBRYS
  0
LINE
  8
OBRYS
 10
97.385455
 20
268.754043
 11
97.385455
 21
279.973330
  0
POLYLINE
  8
OBRYS
 66
    1
  0
VERTEX
  8
OBRYS
 10
101.385612
 20
305.382599
  0
VERTEX
  8
OBRYS
 10
100.385612
 20
305.382599
  0
VERTEX
  8
OBRYS
 10
99.237541
 20
305.162384
  0
VERTEX
  8
OBRYS
 10
98.264275
 20
304.535065
  0
VERTEX
  8
OBRYS
 10
97.613884
 20
303.596344
  0
VERTEX
  8
OBRYS
 10
97.525261
 20
303.166718
  0
VERTEX
  8
OBRYS
 10
97.427971
 20
302.681305
  0
SEQEND
  8
OBRYS
  0
POLYLINE
  8
OBRYS
 66
    1
  0
VERTEX
  8
OBRYS
 10
97.385612
 20
279.973297
  0
VERTEX
  8
OBRYS
 10
97.525261
 20
280.388336
  0
VERTEX
  8
OBRYS
 10
97.613884
 20
280.613800
  0
VERTEX
  8
OBRYS
 10
98.264275
 20
281.106537
  0
VERTEX
  8
OBRYS
 10
99.237541
 20
281.435760
  0
VERTEX
  8
OBRYS
 10
100.385612
 20
281.551422
  0
VERTEX
  8
OBRYS
 10
101.385612
 20
281.551422
  0
SEQEND
  8
OBRYS
  0
LINE
  8
OBRYS
 10
101.385455
 20
299.832676
 11
101.385455
 21
281.551449
  0
LINE
  8
OBRYS
 10
96.568183
 20
255.225779
 11
96.568183
 21
267.900432
  0
LINE
  8
OBRYS
 10
96.568183
 20
284.725276
 11
96.568183
 21
302.649942
  0
LINE
  8
OBRYS
 10
96.568183
 20
309.619021
 11
96.568183
 21
311.225779
  0
LINE
  8
OBRYS
 10
101.385455
 20
302.649942
 11
101.385455
 21
284.725276
  0
LINE
  8
OBRYS
 10
93.941539
 20
307.753277
 11
93.941539
 21
309.302735
  0
LINE
  8
OBRYS
 10
91.758812
 20
255.225779
 11
91.758812
 21
267.778125
  0
LINE
  8
OBRYS
 10
91.758812
 20
280.788906
 11
91.758812
 21
288.206428
  0
LINE
  8
OBRYS
 10
91.758812
 20
290.930273
 11
91.758812
 21
298.540603
  0
LINE
  8
OBRYS
 10
91.758812
 20
303.929845
 11
91.758812
 21
305.374178
  0
POLYLINE
  8
OBRYS
 66
    1
  0
VERTEX
  8
OBRYS
 10
91.385612
 20
267.478058
  0
VERTEX
  8
OBRYS
 10
91.555168
 20
267.581390
  0
VERTEX
  8
OBRYS
 10
91.758904
 20
267.778046
  0
VERTEX
  8
OBRYS
 10
93.790520
 20
268.693329
  0
VERTEX
  8
OBRYS
 10
93.941643
 20
268.734955
  0
VERTEX
  8
OBRYS
 10
94.043205
 20
268.753998
  0
SEQEND
  8
OBRYS
  0
ARC
  8
OBRYS
 10
95.795690
 20
299.167970
 40
3.518602
 50
92.568501
 51
109.763959
  0
POLYLINE
  8
OBRYS
 66
    1
  0
VERTEX
  8
OBRYS
 10
91.385612
 20
297.326935
  0
VERTEX
  8
OBRYS
 10
91.555168
 20
297.861908
  0
VERTEX
  8
OBRYS
 10
91.758904
 20
298.540558
  0
VERTEX
  8
OBRYS
 10
93.790520
 20
301.698883
  0
VERTEX
  8
OBRYS
 10
93.941643
 20
301.920746
  0
VERTEX
  8
OBRYS
 10
94.043205
 20
302.022186
  0
VERTEX
  8
OBRYS
 10
94.351433
 20
302.291534
  0
VERTEX
  8
OBRYS
 10
94.610344
 20
302.480865
  0
SEQEND
  8
OBRYS
  0
LINE
  8
OBRYS
 10
91.385455
 20
279.999548
 11
91.385455
 21
287.259738
  0
LINE
  8
OBRYS
 10
91.385455
 20
289.905397
 11
91.385455
 21
297.326985
  0
LINE
  8
OBRYS
 10
91.385455
 20
302.513528
 11
91.385455
 21
303.934697
  0
LINE
  8
OBRYS
 10
91.385455
 20
293.021107
 11
91.385455
 21
292.076633
  0
LINE
  8
OBRYS
 10
91.385455
 20
288.080756
 11
91.385455
 21
287.259738
  0
LINE
  8
OBRYS
 10
93.370468
 20
290.947796
 11
91.758812
 21
289.031645
  0
LINE
  8
OBRYS
 10
96.548916
 20
291.965085
 11
95.997112
 21
291.965085
  0
LINE
  8
OBRYS
 10
95.997112
 20
294.823759
 11
96.548916
 21
294.823759
  0
LINE
  8
OBRYS
 10
91.758812
 20
291.662069
 11
93.370468
 21
293.727315
  0
LINE
  8
OBRYS
 10
97.385455
 20
268.754043
 11
101.385455
 21
268.754043
  0
LINE
  8
OBRYS
 10
101.385455
 20
302.681331
 11
97.427919
 21
302.681331
  0
LINE
  8
OBRYS
 10
101.385455
 20
302.681331
 11
95.625588
 21
302.681331
  0
LINE
  8
OBRYS
 10
93.790447
 20
307.481147
 11
101.385455
 21
307.481147
  0
LINE
  8
OBRYS
 10
91.555021
 20
303.166758
 11
97.525221
 21
303.166758
  0
LINE
  8
OBRYS
 10
101.385455
 20
268.754043
 11
94.043162
 21
268.754043
  0
LINE
  8
OBRYS
 10
93.790447
 20
282.652865
 11
101.385455
 21
282.652865
  0
LINE
  8
OBRYS
 10
91.555021
 20
280.388387
 11
97.525221
 21
280.388387
  0
ARC
  8
OBRYS
 10
101.385455
 20
234.126110
 40
6.000000
 50
0.000000
 51
90.000000
  0
LINE
  8
OBRYS
 10
101.385455
 20
255.225779
 11
101.385455
 21
240.126110
  0
LINE
  8
OBRYS
 10
91.972294
 20
201.805108
 11
96.833502
 21
201.805108
  0
ARC
  8
OBRYS
 10
98.385455
 20
189.266044
 40
5.000000
 50
0.000000
 51
27.224480
  0
LINE
  8
OBRYS
 10
102.831560
 20
191.553433
 11
91.939350
 21
212.725127
  0
ARC
  8
OBRYS
 10
96.385455
 20
215.012516
 40
5.000000
 50
180.000000
 51
207.224480
  0
ARC
  8
OBRYS
 10
101.385455
 20
182.878248
 40
2.000000
 50
271.999998
 51
360.000000
  0
LINE
  8
OBRYS
 62
     4
  6
HIDDEN2
 10
87.885455
 20
170.225779
 11
87.885455
 21
180.405599
  0
LINE
  8
OBRYS
 62
     4
  6
HIDDEN2
 10
96.885455
 20
170.225779
 11
96.885455
 21
180.719885
  0
ARC
  8
OBRYS
 10
94.385455
 20
305.305079
 40
3.000000
 50
151.109871
 51
180.000000
  0
LINE
  8
OBRYS
 10
100.035961
 20
311.225779
 11
99.956077
 21
311.225779
  0
LINE
  8
OBRYS
 62
     7
  6
DASHDOT
 10
92.385455
 20
170.225779
 11
92.385455
 21
180.562743
  0
LINE
  8
OBRYS
 10
91.385455
 20
285.225779
 11
91.385455
 21
255.225779
  0
LINE
  8
OBRYS
 10
91.385455
 20
225.225779
 11
91.385455
 21
255.225779
  0
LINE
  8
OBRYS
 10
91.758812
 20
306.754474
 11
93.370468
 21
309.675174
  0
ARC
  8
OBRYS
 10
95.997112
 20
308.225779
 40
3.000000
 50
90.000000
 51
151.109871
  0
LINE
  8
OBRYS
 10
107.385455
 20
170.225779
 11
107.385455
 21
234.126110
  0
LINE
  8
OBRYS
 10
83.385455
 20
170.225779
 11
107.385455
 21
170.225779
  0
LINE
  8
OBRYS
 10
83.385455
 20
170.225779
 11
83.385455
 21
180.225779
  0
LINE
  8
OBRYS
 10
91.189506
 20
198.622356
 11
83.385455
 21
180.225779
  0
LINE
  8
OBRYS
 10
91.385455
 20
199.485721
 11
91.385455
 21
225.225779
  0
ARC
  8
OBRYS
 10
89.385455
 20
199.485721
 40
2.000000
 50
334.425618
 51
360.000000
  0
LINE
  8
OBRYS
 10
91.385455
 20
199.485718
 11
91.385455
 21
205.146479
  0
LINE
  8
OBRYS
 10
91.385455
 20
305.305079
 11
91.385455
 21
285.225779
  0
LINE
  8
OBRYS
 62
     7
  6
DASHDOT
 10
89.076517
 20
255.225779
 11
105.905455
 21
255.225779
  0
LINE
  8
OBRYS
 10
83.385455
 20
180.213535
 11
101.455254
 21
180.879466
  0
LINE
  8
OBRYS
 10
95.997112
 20
311.225779
 11
101.385455
 21
311.225779
  0
LINE
  8
OBRYS
 10
97.427919
 20
302.681331
 11
97.525221
 21
303.166758
  0
LINE
  8
OBRYS
 10
97.525221
 20
303.166758
 11
97.613817
 21
303.596369
  0
LINE
  8
OBRYS
 10
97.613817
 20
303.596369
 11
98.264135
 21
304.535143
  0
LINE
  8
OBRYS
 10
98.264135
 20
304.535143
 11
99.237405
 21
305.162411
  0
LINE
  8
OBRYS
 10
99.237405
 20
305.162411
 11
100.385455
 21
305.382678
  0
LINE
  8
OBRYS
 10
100.385455
 20
305.382678
 11
101.385455
 21
305.382678
  0
LINE
  8
OBRYS
 10
101.385455
 20
305.382678
 11
101.385455
 21
307.481147
  0
LINE
  8
OBRYS
 10
101.385455
 20
307.481147
 11
101.385455
 21
307.877665
  0
LINE
  8
OBRYS
 10
101.385455
 20
307.877665
 11
101.385455
 21
308.278311
  0
LINE
  8
OBRYS
 10
101.385455
 20
308.278311
 11
101.385455
 21
308.666969
  0
LINE
  8
OBRYS
 10
101.385455
 20
308.666969
 11
101.385455
 21
311.225779
  0
LINE
  8
OBRYS
 10
101.385455
 20
309.028005
 11
101.385455
 21
309.346894
  0
LINE
  8
OBRYS
 10
101.385455
 20
309.346894
 11
101.385455
 21
309.610811
  0
LINE
  8
OBRYS
 10
101.385455
 20
309.610811
 11
101.385455
 21
309.619021
  0
LINE
  8
OBRYS
 10
101.385455
 20
309.619021
 11
96.568183
 21
309.619021
  0
LINE
  8
OBRYS
 10
96.568183
 20
309.619021
 11
96.547674
 21
309.610811
  0
LINE
  8
OBRYS
 10
96.547674
 20
309.610811
 11
95.625588
 21
309.346894
  0
LINE
  8
OBRYS
 10
95.625588
 20
309.346894
 11
95.523941
 21
309.322183
  0
LINE
  8
OBRYS
 10
95.523941
 20
309.322183
 11
95.155688
 21
309.028005
  0
LINE
  8
OBRYS
 10
95.155688
 20
309.028005
 11
94.653991
 21
308.666969
  0
LINE
  8
OBRYS
 10
94.653991
 20
308.666969
 11
94.610304
 21
308.637896
  0
LINE
  8
OBRYS
 10
94.610304
 20
308.637896
 11
94.351304
 21
308.278311
  0
LINE
  8
OBRYS
 10
94.351304
 20
308.278311
 11
94.043162
 21
307.877665
  0
LINE
  8
OBRYS
 10
94.043162
 20
307.877665
 11
93.941539
 21
307.753277
  0
LINE
  8
OBRYS
 10
93.941539
 20
307.753277
 11
93.790447
 21
307.481147
  0
LINE
  8
OBRYS
 10
93.790447
 20
307.481147
 11
91.758812
 21
303.929845
  0
LINE
  8
OBRYS
 10
91.758812
 20
303.929845
 11
91.555021
 21
303.166758
  0
LINE
  8
OBRYS
 10
91.555021
 20
303.166758
 11
91.385455
 21
302.513528
  0
ENDBLK
  8
OBRYS
  0
BLOCK
  8
OBRYS
  2
_4
 70
   64
 10
611.546919
 20
255.225779
  0
LINE
  8
OBRYS
 10
601.546919
 20
302.649942
 11
601.546919
 21
286.821832
  0
LINE
  8
OBRYS
 10
599.546919
 20
182.878249
 11
599.546919
 21
193.992316
  0
LINE
  8
OBRYS
 10
600.100814
 20
191.553433
 11
602.734747
 21
196.673131
  0
LINE
  8
OBRYS
 10
610.960080
 20
201.805108
 11
607.779768
 21
201.805108
  0
LINE
  8
OBRYS
 10
611.546919
 20
199.485721
 11
611.546919
 21
206.599200
  0
LINE
  8
OBRYS
 10
609.141927
 20
282.652865
 11
605.949644
 21
282.652865
  0
LINE
  8
OBRYS
 10
601.546919
 20
299.832676
 11
601.546919
 21
286.821832
  0
POLYLINE
  8
OBRYS
 66
    1
  0
VERTEX
  8
OBRYS
 10
603.872437
 20
284.725250
  0
VERTEX
  8
OBRYS
 10
606.364136
 20
284.725250
  0
VERTEX
  8
OBRYS
 10
606.384644
 20
284.709198
  0
VERTEX
  8
OBRYS
 10
607.306641
 20
284.308990
  0
VERTEX
  8
OBRYS
 10
607.408325
 20
284.278168
  0
VERTEX
  8
OBRYS
 10
607.776611
 20
283.911407
  0
VERTEX
  8
OBRYS
 10
608.278320
 20
283.532562
  0
VERTEX
  8
OBRYS
 10
608.322021
 20
283.506744
  0
VERTEX
  8
OBRYS
 10
608.580933
 20
283.187531
  0
VERTEX
  8
OBRYS
 10
608.889160
 20
282.890289
  0
VERTEX
  8
OBRYS
 10
608.990723
 20
282.815826
  0
VERTEX
  8
OBRYS
 10
609.141846
 20
282.652802
  0
VERTEX
  8
OBRYS
 10
611.173462
 20
280.788849
  0
VERTEX
  8
OBRYS
 10
611.377197
 20
280.388336
  0
VERTEX
  8
OBRYS
 10
611.546753
 20
279.999481
  0
SEQEND
  8
OBRYS
  0
LINE
  8
OBRYS
 10
611.377353
 20
280.388387
 11
608.003383
 21
280.388387
  0
LINE
  8
OBRYS
 10
611.546919
 20
285.225779
 11
611.546919
 21
275.852358
  0
LINE
  8
OBRYS
 10
611.546919
 20
287.225779
 11
611.546919
 21
298.225779
  0
LINE
  8
OBRYS
 10
611.173562
 20
289.031645
 11
611.546919
 21
288.080756
  0
POLYLINE
  8
OBRYS
 66
    1
  0
VERTEX
  8
OBRYS
 10
606.935181
 20
291.965057
  0
VERTEX
  8
OBRYS
 10
607.979370
 20
291.841949
  0
VERTEX
  8
OBRYS
 10
608.893066
 20
291.488129
  0
VERTEX
  8
OBRYS
 10
609.561768
 20
290.947723
  0
SEQEND
  8
OBRYS
  0
POLYLINE
  8
OBRYS
 66
    1
  0
VERTEX
  8
OBRYS
 10
607.865845
 20
291.503876
  0
VERTEX
  8
OBRYS
 10
607.688599
 20
291.647064
  0
VERTEX
  8
OBRYS
 10
607.079468
 20
291.882965
  0
VERTEX
  8
OBRYS
 10
606.383301
 20
291.965057
  0
SEQEND
  8
OBRYS
  0
POLYLINE
  8
OBRYS
 66
    1
  0
VERTEX
  8
OBRYS
 10
611.546753
 20
287.259674
  0
VERTEX
  8
OBRYS
 10
611.173462
 20
288.206390
  0
VERTEX
  8
OBRYS
 10
608.990723
 20
290.790009
  0
VERTEX
  8
OBRYS
 10
608.322021
 20
291.328033
  0
VERTEX
  8
OBRYS
 10
607.865845
 20
291.503876
  0
SEQEND
  8
OBRYS
  0
LINE
  8
OBRYS
 10
611.546919
 20
288.080756
 11
611.546919
 21
290.637192
  0
LINE
  8
OBRYS
 10
606.935262
 20
291.965085
 11
606.935262
 21
294.823759
  0
LINE
  8
OBRYS
 10
606.383457
 20
294.823759
 11
606.383457
 21
291.965085
  0
LINE
  8
OBRYS
 10
609.561906
 20
290.947796
 11
609.561906
 21
293.727315
  0
LINE
  8
OBRYS
 10
611.546919
 20
290.637192
 11
611.173562
 21
291.662069
  0
POLYLINE
  8
OBRYS
 66
    1
  0
VERTEX
  8
OBRYS
 10
609.561768
 20
293.727264
  0
VERTEX
  8
OBRYS
 10
608.893066
 20
294.309662
  0
VERTEX
  8
OBRYS
 10
607.979370
 20
294.691071
  0
VERTEX
  8
OBRYS
 10
606.935181
 20
294.823700
  0
SEQEND
  8
OBRYS
  0
LINE
  8
OBRYS
 10
611.173562
 20
289.031645
 11
611.173562
 21
291.662069
  0
POLYLINE
  8
OBRYS
 66
    1
  0
VERTEX
  8
OBRYS
 10
611.546753
 20
303.934662
  0
VERTEX
  8
OBRYS
 10
611.173462
 20
305.374115
  0
VERTEX
  8
OBRYS
 10
608.990723
 20
309.302704
  0
VERTEX
  8
OBRYS
 10
608.322021
 20
310.120697
  0
VERTEX
  8
OBRYS
 10
607.865845
 20
310.388153
  0
SEQEND
  8
OBRYS
  0
LINE
  8
OBRYS
 10
611.546919
 20
297.326986
 11
611.546919
 21
294.444484
  0
LINE
  8
OBRYS
 10
601.546919
 20
299.832676
 11
601.546919
 21
302.681331
  0
LINE
  8
OBRYS
 10
611.546919
 20
302.513528
 11
611.546919
 21
294.444484
  0
POLYLINE
  8
OBRYS
 66
    1
  0
VERTEX
  8
OBRYS
 10
607.306641
 20
302.681305
  0
VERTEX
  8
OBRYS
 10
606.384644
 20
302.654266
  0
VERTEX
  8
OBRYS
 10
606.364136
 20
302.649872
  0
VERTEX
  8
OBRYS
 10
601.546753
 20
302.649872
  0
VERTEX
  8
OBRYS
 10
601.546753
 20
302.654266
  0
VERTEX
  8
OBRYS
 10
601.546753
 20
302.681305
  0
SEQEND
  8
OBRYS
  0
POLYLINE
  8
OBRYS
 66
    1
  0
VERTEX
  8
OBRYS
 10
601.546753
 20
305.382599
  0
VERTEX
  8
OBRYS
 10
602.546753
 20
305.382599
  0
VERTEX
  8
OBRYS
 10
603.694824
 20
305.162384
  0
VERTEX
  8
OBRYS
 10
604.668091
 20
304.535065
  0
VERTEX
  8
OBRYS
 10
605.318481
 20
303.596344
  0
VERTEX
  8
OBRYS
 10
605.407104
 20
303.166718
  0
VERTEX
  8
OBRYS
 10
605.504395
 20
302.681305
  0
SEQEND
  8
OBRYS
  0
LINE
  8
OBRYS
 10
606.364191
 20
284.725276
 11
606.364191
 21
302.649942
  0
LINE
  8
OBRYS
 10
606.364191
 20
309.619021
 11
606.364191
 21
311.225779
  0
LINE
  8
OBRYS
 10
608.990835
 20
307.753277
 11
608.990835
 21
309.302735
  0
LINE
  8
OBRYS
 10
611.173562
 20
280.788906
 11
611.173562
 21
288.206428
  0
LINE
  8
OBRYS
 10
611.173562
 20
290.930273
 11
611.173562
 21
298.540603
  0
LINE
  8
OBRYS
 10
611.173562
 20
303.929845
 11
611.173562
 21
305.374178
  0
ARC
  8
OBRYS
 10
607.136684
 20
299.167970
 40
3.518602
 50
70.236041
 51
87.431499
  0
POLYLINE
  8
OBRYS
 66
    1
  0
VERTEX
  8
OBRYS
 10
611.546753
 20
297.326935
  0
VERTEX
  8
OBRYS
 10
611.377197
 20
297.861908
  0
VERTEX
  8
OBRYS
 10
611.173462
 20
298.540558
  0
VERTEX
  8
OBRYS
 10
609.141846
 20
301.698883
  0
VERTEX
  8
OBRYS
 10
608.990723
 20
301.920746
  0
VERTEX
  8
OBRYS
 10
608.889160
 20
302.022186
  0
VERTEX
  8
OBRYS
 10
608.580933
 20
302.291534
  0
VERTEX
  8
OBRYS
 10
608.322021
 20
302.480865
  0
SEQEND
  8
OBRYS
  0
LINE
  8
OBRYS
 10
611.546919
 20
279.999548
 11
611.546919
 21
287.259738
  0
LINE
  8
OBRYS
 10
611.546919
 20
289.905397
 11
611.546919
 21
297.326985
  0
LINE
  8
OBRYS
 10
611.546919
 20
302.513528
 11
611.546919
 21
303.934697
  0
LINE
  8
OBRYS
 10
611.546919
 20
293.021107
 11
611.546919
 21
292.076633
  0
LINE
  8
OBRYS
 10
611.546919
 20
288.080756
 11
611.546919
 21
287.259738
  0
LINE
  8
OBRYS
 10
609.561906
 20
290.947796
 11
611.173562
 21
289.031645
  0
LINE
  8
OBRYS
 10
606.383457
 20
291.965085
 11
606.935262
 21
291.965085
  0
LINE
  8
OBRYS
 10
606.935262
 20
294.823759
 11
606.383457
 21
294.823759
  0
LINE
  8
OBRYS
 10
611.173562
 20
291.662069
 11
609.561906
 21
293.727315
  0
LINE
  8
OBRYS
 10
601.546919
 20
302.681331
 11
605.504455
 21
302.681331
  0
LINE
  8
OBRYS
 10
601.546919
 20
302.681331
 11
607.306786
 21
302.681331
  0
LINE
  8
OBRYS
 10
609.141927
 20
307.481147
 11
601.546919
 21
307.481147
  0
LINE
  8
OBRYS
 10
611.377353
 20
303.166758
 11
605.407153
 21
303.166758
  0
ARC
  8
OBRYS
 10
604.546919
 20
189.266044
 40
5.000000
 50
152.775520
 51
180.000000
  0
ARC
  8
OBRYS
 10
601.546919
 20
182.878248
 40
2.000000
 50
180.000000
 51
268.000002
  0
LINE
  8
OBRYS
 62
     4
  6
HIDDEN2
 10
615.046919
 20
170.225779
 11
615.046919
 21
180.405599
  0
LINE
  8
OBRYS
 62
     4
  6
HIDDEN2
 10
606.046919
 20
170.225779
 11
606.046919
 21
180.719885
  0
ARC
  8
OBRYS
 10
608.546919
 20
305.305079
 40
3.000000
 50
0.000000
 51
28.890129
  0
LINE
  8
OBRYS
 10
602.896413
 20
311.225779
 11
602.976297
 21
311.225779
  0
LINE
  8
OBRYS
 62
     7
  6
DASHDOT
 10
610.546919
 20
170.225779
 11
610.546919
 21
180.562743
  0
LINE
  8
OBRYS
 10
611.173562
 20
306.754474
 11
609.561906
 21
309.675174
  0
ARC
  8
OBRYS
 10
606.935262
 20
308.225779
 40
3.000000
 50
28.890129
 51
90.000000
  0
LINE
  8
OBRYS
 10
619.546919
 20
170.225779
 11
595.546919
 21
170.225779
  0
LINE
  8
OBRYS
 10
619.546919
 20
170.225779
 11
619.546919
 21
180.225779
  0
LINE
  8
OBRYS
 10
611.742868
 20
198.622356
 11
619.546919
 21
180.225779
  0
ARC
  8
OBRYS
 10
613.546919
 20
199.485721
 40
2.000000
 50
180.000000
 51
205.574382
  0
LINE
  8
OBRYS
 10
611.546919
 20
199.485718
 11
611.546919
 21
205.146479
  0
LINE
  8
OBRYS
 10
611.546919
 20
305.305079
 11
611.546919
 21
285.225779
  0
LINE
  8
OBRYS
 10
619.546919
 20
180.213535
 11
601.477120
 21
180.879466
  0
LINE
  8
OBRYS
 10
606.935262
 20
311.225779
 11
601.546919
 21
311.225779
  0
LINE
  8
OBRYS
 10
605.504455
 20
302.681331
 11
605.407153
 21
303.166758
  0
LINE
  8
OBRYS
 10
605.407153
 20
303.166758
 11
605.318557
 21
303.596369
  0
LINE
  8
OBRYS
 10
605.318557
 20
303.596369
 11
604.668239
 21
304.535143
  0
LINE
  8
OBRYS
 10
604.668239
 20
304.535143
 11
603.694969
 21
305.162411
  0
LINE
  8
OBRYS
 10
603.694969
 20
305.162411
 11
602.546919
 21
305.382678
  0
LINE
  8
OBRYS
 10
602.546919
 20
305.382678
 11
601.546919
 21
305.382678
  0
LINE
  8
OBRYS
 10
601.546919
 20
305.382678
 11
601.546919
 21
307.481147
  0
LINE
  8
OBRYS
 10
601.546919
 20
307.481147
 11
601.546919
 21
307.877665
  0
LINE
  8
OBRYS
 10
601.546919
 20
307.877665
 11
601.546919
 21
308.278311
  0
LINE
  8
OBRYS
 10
601.546919
 20
308.278311
 11
601.546919
 21
308.666969
  0
LINE
  8
OBRYS
 10
601.546919
 20
308.666969
 11
601.546919
 21
311.225779
  0
LINE
  8
OBRYS
 10
601.546919
 20
309.028005
 11
601.546919
 21
309.346894
  0
LINE
  8
OBRYS
 10
601.546919
 20
309.346894
 11
601.546919
 21
309.610811
  0
LINE
  8
OBRYS
 10
601.546919
 20
309.610811
 11
601.546919
 21
309.619021
  0
LINE
  8
OBRYS
 10
601.546919
 20
309.619021
 11
606.364191
 21
309.619021
  0
LINE
  8
OBRYS
 10
606.364191
 20
309.619021
 11
606.384700
 21
309.610811
  0
LINE
  8
OBRYS
 10
606.384700
 20
309.610811
 11
607.306786
 21
309.346894
  0
LINE
  8
OBRYS
 10
607.306786
 20
309.346894
 11
607.408433
 21
309.322183
  0
LINE
  8
OBRYS
 10
607.408433
 20
309.322183
 11
607.776686
 21
309.028005
  0
LINE
  8
OBRYS
 10
607.776686
 20
309.028005
 11
608.278383
 21
308.666969
  0
LINE
  8
OBRYS
 10
608.278383
 20
308.666969
 11
608.322070
 21
308.637896
  0
LINE
  8
OBRYS
 10
608.322070
 20
308.637896
 11
608.581070
 21
308.278311
  0
LINE
  8
OBRYS
 10
608.581070
 20
308.278311
 11
608.889212
 21
307.877665
  0
LINE
  8
OBRYS
 10
608.889212
 20
307.877665
 11
608.990835
 21
307.753277
  0
LINE
  8
OBRYS
 10
608.990835
 20
307.753277
 11
609.141927
 21
307.481147
  0
LINE
  8
OBRYS
 10
609.141927
 20
307.481147
 11
611.173562
 21
303.929845
  0
LINE
  8
OBRYS
 10
611.173562
 20
303.929845
 11
611.377353
 21
303.166758
  0
LINE
  8
OBRYS
 10
611.377353
 20
303.166758
 11
611.546919
 21
302.513528
  0
LINE
  8
OBRYS
 10
595.546919
 20
170.225779
 11
595.546919
 21
180.627392
  0
ENDBLK
  8
OBRYS
  0
BLOCK
  8
OBRYS
  2
_5
 70
   64
 10
513.546919
 20
255.225779
  0
LINE
  8
OBRYS
 10
523.546919
 20
302.649942
 11
523.546919
 21
286.821832
  0
LINE
  8
OBRYS
 10
525.546919
 20
182.878249
 11
525.546919
 21
193.992316
  0
LINE
  8
OBRYS
 10
524.993024
 20
191.553433
 11
522.359091
 21
196.673131
  0
LINE
  8
OBRYS
 10
514.133757
 20
201.805108
 11
517.314069
 21
201.805108
  0
LINE
  8
OBRYS
 10
513.546919
 20
199.485721
 11
513.546919
 21
206.599200
  0
LINE
  8
OBRYS
 10
515.951911
 20
282.652865
 11
519.144193
 21
282.652865
  0
LINE
  8
OBRYS
 10
523.546919
 20
299.832676
 11
523.546919
 21
286.821832
  0
POLYLINE
  8
OBRYS
 66
    1
  0
VERTEX
  8
OBRYS
 10
521.221436
 20
284.725250
  0
VERTEX
  8
OBRYS
 10
518.729675
 20
284.725250
  0
VERTEX
  8
OBRYS
 10
518.709167
 20
284.709198
  0
VERTEX
  8
OBRYS
 10
517.787170
 20
284.308990
  0
VERTEX
  8
OBRYS
 10
517.685486
 20
284.278168
  0
VERTEX
  8
OBRYS
 10
517.317200
 20
283.911407
  0
VERTEX
  8
OBRYS
 10
516.815491
 20
283.532562
  0
VERTEX
  8
OBRYS
 10
516.771790
 20
283.506744
  0
VERTEX
  8
OBRYS
 10
516.512878
 20
283.187531
  0
VERTEX
  8
OBRYS
 10
516.204651
 20
282.890289
  0
VERTEX
  8
OBRYS
 10
516.103088
 20
282.815826
  0
VERTEX
  8
OBRYS
 10
515.951965
 20
282.652802
  0
VERTEX
  8
OBRYS
 10
513.920349
 20
280.788849
  0
VERTEX
  8
OBRYS
 10
513.716614
 20
280.388336
  0
VERTEX
  8
OBRYS
 10
513.547058
 20
279.999481
  0
SEQEND
  8
OBRYS
  0
LINE
  8
OBRYS
 10
513.716485
 20
280.388387
 11
517.090455
 21
280.388387
  0
LINE
  8
OBRYS
 10
513.546919
 20
285.225779
 11
513.546919
 21
275.852358
  0
LINE
  8
OBRYS
 10
513.546919
 20
287.225779
 11
513.546919
 21
298.225779
  0
LINE
  8
OBRYS
 10
513.920275
 20
289.031645
 11
513.546919
 21
288.080756
  0
POLYLINE
  8
OBRYS
 66
    1
  0
VERTEX
  8
OBRYS
 10
518.158630
 20
291.965057
  0
VERTEX
  8
OBRYS
 10
517.114441
 20
291.841949
  0
VERTEX
  8
OBRYS
 10
516.200745
 20
291.488129
  0
VERTEX
  8
OBRYS
 10
515.532043
 20
290.947723
  0
SEQEND
  8
OBRYS
  0
POLYLINE
  8
OBRYS
 66
    1
  0
VERTEX
  8
OBRYS
 10
517.227966
 20
291.503876
  0
VERTEX
  8
OBRYS
 10
517.405212
 20
291.647064
  0
VERTEX
  8
OBRYS
 10
518.014343
 20
291.882965
  0
VERTEX
  8
OBRYS
 10
518.710510
 20
291.965057
  0
SEQEND
  8
OBRYS
  0
POLYLINE
  8
OBRYS
 66
    1
  0
VERTEX
  8
OBRYS
 10
513.547058
 20
287.259674
  0
VERTEX
  8
OBRYS
 10
513.920349
 20
288.206390
  0
VERTEX
  8
OBRYS
 10
516.103088
 20
290.790009
  0
VERTEX
  8
OBRYS
 10
516.771790
 20
291.328033
  0
VERTEX
  8
OBRYS
 10
517.227966
 20
291.503876
  0
SEQEND
  8
OBRYS
  0
LINE
  8
OBRYS
 10
513.546919
 20
288.080756
 11
513.546919
 21
290.637192
  0
LINE
  8
OBRYS
 10
518.158575
 20
291.965085
 11
518.158575
 21
294.823759
  0
LINE
  8
OBRYS
 10
518.710380
 20
294.823759
 11
518.710380
 21
291.965085
  0
LINE
  8
OBRYS
 10
515.531932
 20
290.947796
 11
515.531932
 21
293.727315
  0
LINE
  8
OBRYS
 10
513.546919
 20
290.637192
 11
513.920275
 21
291.662069
  0
POLYLINE
  8
OBRYS
 66
    1
  0
VERTEX
  8
OBRYS
 10
515.532043
 20
293.727264
  0
VERTEX
  8
OBRYS
 10
516.200745
 20
294.309662
  0
VERTEX
  8
OBRYS
 10
517.114441
 20
294.691071
  0
VERTEX
  8
OBRYS
 10
518.158630
 20
294.823700
  0
SEQEND
  8
OBRYS
  0
LINE
  8
OBRYS
 10
513.920275
 20
289.031645
 11
513.920275
 21
291.662069
  0
POLYLINE
  8
OBRYS
 66
    1
  0
VERTEX
  8
OBRYS
 10
513.547058
 20
303.934662
  0
VERTEX
  8
OBRYS
 10
513.920349
 20
305.374115
  0
VERTEX
  8
OBRYS
 10
516.103088
 20
309.302704
  0
VERTEX
  8
OBRYS
 10
516.771790
 20
310.120697
  0
VERTEX
  8
OBRYS
 10
517.227966
 20
310.388153
  0
SEQEND
  8
OBRYS
  0
LINE
  8
OBRYS
 10
513.546919
 20
297.326986
 11
513.546919
 21
294.444484
  0
LINE
  8
OBRYS
 10
523.546919
 20
299.832676
 11
523.546919
 21
302.681331
  0
LINE
  8
OBRYS
 10
513.546919
 20
302.513528
 11
513.546919
 21
294.444484
  0
POLYLINE
  8
OBRYS
 66
    1
  0
VERTEX
  8
OBRYS
 10
517.787170
 20
302.681305
  0
VERTEX
  8
OBRYS
 10
518.709167
 20
302.654266
  0
VERTEX
  8
OBRYS
 10
518.729675
 20
302.649872
  0
VERTEX
  8
OBRYS
 10
523.547058
 20
302.649872
  0
VERTEX
  8
OBRYS
 10
523.547058
 20
302.654266
  0
VERTEX
  8
OBRYS
 10
523.547058
 20
302.681305
  0
SEQEND
  8
OBRYS
  0
POLYLINE
  8
OBRYS
 66
    1
  0
VERTEX
  8
OBRYS
 10
523.547058
 20
305.382599
  0
VERTEX
  8
OBRYS
 10
522.547058
 20
305.382599
  0
VERTEX
  8
OBRYS
 10
521.398987
 20
305.162384
  0
VERTEX
  8
OBRYS
 10
520.425720
 20
304.535065
  0
VERTEX
  8
OBRYS
 10
519.775330
 20
303.596344
  0
VERTEX
  8
OBRYS
 10
519.686707
 20
303.166718
  0
VERTEX
  8
OBRYS
 10
519.589417
 20
302.681305
  0
SEQEND
  8
OBRYS
  0
LINE
  8
OBRYS
 10
518.729646
 20
284.725276
 11
518.729646
 21
302.649942
  0
LINE
  8
OBRYS
 10
518.729646
 20
309.619021
 11
518.729646
 21
311.225779
  0
LINE
  8
OBRYS
 10
516.103003
 20
307.753277
 11
516.103003
 21
309.302735
  0
LINE
  8
OBRYS
 10
513.920275
 20
280.788906
 11
513.920275
 21
288.206428
  0
LINE
  8
OBRYS
 10
513.920275
 20
290.930273
 11
513.920275
 21
298.540603
  0
LINE
  8
OBRYS
 10
513.920275
 20
303.929845
 11
513.920275
 21
305.374178
  0
ARC
  8
OBRYS
 10
517.957154
 20
299.167970
 40
3.518602
 50
92.568501
 51
109.763959
  0
POLYLINE
  8
OBRYS
 66
    1
  0
VERTEX
  8
OBRYS
 10
513.547058
 20
297.326935
  0
VERTEX
  8
OBRYS
 10
513.716614
 20
297.861908
  0
VERTEX
  8
OBRYS
 10
513.920349
 20
298.540558
  0
VERTEX
  8
OBRYS
 10
515.951965
 20
301.698883
  0
VERTEX
  8
OBRYS
 10
516.103088
 20
301.920746
  0
VERTEX
  8
OBRYS
 10
516.204651
 20
302.022186
  0
VERTEX
  8
OBRYS
 10
516.512878
 20
302.291534
  0
VERTEX
  8
OBRYS
 10
516.771790
 20
302.480865
  0
SEQEND
  8
OBRYS
  0
LINE
  8
OBRYS
 10
513.546919
 20
279.999548
 11
513.546919
 21
287.259738
  0
LINE
  8
OBRYS
 10
513.546919
 20
289.905397
 11
513.546919
 21
297.326985
  0
LINE
  8
OBRYS
 10
513.546919
 20
302.513528
 11
513.546919
 21
303.934697
  0
LINE
  8
OBRYS
 10
513.546919
 20
293.021107
 11
513.546919
 21
292.076633
  0
LINE
  8
OBRYS
 10
513.546919
 20
288.080756
 11
513.546919
 21
287.259738
  0
LINE
  8
OBRYS
 10
515.531932
 20
290.947796
 11
513.920275
 21
289.031645
  0
LINE
  8
OBRYS
 10
518.710380
 20
291.965085
 11
518.158575
 21
291.965085
  0
LINE
  8
OBRYS
 10
518.158575
 20
294.823759
 11
518.710380
 21
294.823759
  0
LINE
  8
OBRYS
 10
513.920275
 20
291.662069
 11
515.531932
 21
293.727315
  0
LINE
  8
OBRYS
 10
523.546919
 20
302.681331
 11
519.589383
 21
302.681331
  0
LINE
  8
OBRYS
 10
523.546919
 20
302.681331
 11
517.787052
 21
302.681331
  0
LINE
  8
OBRYS
 10
515.951911
 20
307.481147
 11
523.546919
 21
307.481147
  0
LINE
  8
OBRYS
 10
513.716485
 20
303.166758
 11
519.686685
 21
303.166758
  0
ARC
  8
OBRYS
 10
520.546919
 20
189.266044
 40
5.000000
 50
0.000000
 51
27.224480
  0
ARC
  8
OBRYS
 10
523.546919
 20
182.878248
 40
2.000000
 50
271.999998
 51
360.000000
  0
LINE
  8
OBRYS
 62
     4
  6
HIDDEN2
 10
510.046919
 20
170.225779
 11
510.046919
 21
180.405599
  0
LINE
  8
OBRYS
 62
     4
  6
HIDDEN2
 10
519.046919
 20
170.225779
 11
519.046919
 21
180.719885
  0
ARC
  8
OBRYS
 10
516.546919
 20
305.305079
 40
3.000000
 50
151.109871
 51
180.000000
  0
LINE
  8
OBRYS
 10
522.197425
 20
311.225779
 11
522.117540
 21
311.225779
  0
LINE
  8
OBRYS
 62
     7
  6
DASHDOT
 10
514.546919
 20
170.225779
 11
514.546919
 21
180.562743
  0
LINE
  8
OBRYS
 10
513.920275
 20
306.754474
 11
515.531932
 21
309.675174
  0
ARC
  8
OBRYS
 10
518.158575
 20
308.225779
 40
3.000000
 50
90.000000
 51
151.109871
  0
LINE
  8
OBRYS
 10
505.546919
 20
170.225779
 11
529.546919
 21
170.225779
  0
LINE
  8
OBRYS
 10
505.546919
 20
170.225779
 11
505.546919
 21
180.225779
  0
LINE
  8
OBRYS
 10
513.350970
 20
198.622356
 11
505.546919
 21
180.225779
  0
ARC
  8
OBRYS
 10
511.546919
 20
199.485721
 40
2.000000
 50
334.425618
 51
360.000000
  0
LINE
  8
OBRYS
 10
513.546919
 20
199.485718
 11
513.546919
 21
205.146479
  0
LINE
  8
OBRYS
 10
513.546919
 20
305.305079
 11
513.546919
 21
285.225779
  0
LINE
  8
OBRYS
 10
505.546919
 20
180.213535
 11
523.616718
 21
180.879466
  0
LINE
  8
OBRYS
 10
518.158575
 20
311.225779
 11
523.546919
 21
311.225779
  0
LINE
  8
OBRYS
 10
519.589383
 20
302.681331
 11
519.686685
 21
303.166758
  0
LINE
  8
OBRYS
 10
519.686685
 20
303.166758
 11
519.775280
 21
303.596369
  0
LINE
  8
OBRYS
 10
519.775280
 20
303.596369
 11
520.425598
 21
304.535143
  0
LINE
  8
OBRYS
 10
520.425598
 20
304.535143
 11
521.398868
 21
305.162411
  0
LINE
  8
OBRYS
 10
521.398868
 20
305.162411
 11
522.546919
 21
305.382678
  0
LINE
  8
OBRYS
 10
522.546919
 20
305.382678
 11
523.546919
 21
305.382678
  0
LINE
  8
OBRYS
 10
523.546919
 20
305.382678
 11
523.546919
 21
307.481147
  0
LINE
  8
OBRYS
 10
523.546919
 20
307.481147
 11
523.546919
 21
307.877665
  0
LINE
  8
OBRYS
 10
523.546919
 20
307.877665
 11
523.546919
 21
308.278311
  0
LINE
  8
OBRYS
 10
523.546919
 20
308.278311
 11
523.546919
 21
308.666969
  0
LINE
  8
OBRYS
 10
523.546919
 20
308.666969
 11
523.546919
 21
311.225779
  0
LINE
  8
OBRYS
 10
523.546919
 20
309.028005
 11
523.546919
 21
309.346894
  0
LINE
  8
OBRYS
 10
523.546919
 20
309.346894
 11
523.546919
 21
309.610811
  0
LINE
  8
OBRYS
 10
523.546919
 20
309.610811
 11
523.546919
 21
309.619021
  0
LINE
  8
OBRYS
 10
523.546919
 20
309.619021
 11
518.729646
 21
309.619021
  0
LINE
  8
OBRYS
 10
518.729646
 20
309.619021
 11
518.709138
 21
309.610811
  0
LINE
  8
OBRYS
 10
518.709138
 20
309.610811
 11
517.787052
 21
309.346894
  0
LINE
  8
OBRYS
 10
517.787052
 20
309.346894
 11
517.685405
 21
309.322183
  0
LINE
  8
OBRYS
 10
517.685405
 20
309.322183
 11
517.317152
 21
309.028005
  0
LINE
  8
OBRYS
 10
517.317152
 20
309.028005
 11
516.815455
 21
308.666969
  0
LINE
  8
OBRYS
 10
516.815455
 20
308.666969
 11
516.771767
 21
308.637896
  0
LINE
  8
OBRYS
 10
516.771767
 20
308.637896
 11
516.512767
 21
308.278311
  0
LINE
  8
OBRYS
 10
516.512767
 20
308.278311
 11
516.204626
 21
307.877665
  0
LINE
  8
OBRYS
 10
516.204626
 20
307.877665
 11
516.103003
 21
307.753277
  0
LINE
  8
OBRYS
 10
516.103003
 20
307.753277
 11
515.951911
 21
307.481147
  0
LINE
  8
OBRYS
 10
515.951911
 20
307.481147
 11
513.920275
 21
303.929845
  0
LINE
  8
OBRYS
 10
513.920275
 20
303.929845
 11
513.716485
 21
303.166758
  0
LINE
  8
OBRYS
 10
513.716485
 20
303.166758
 11
513.546919
 21
302.513528
  0
LINE
  8
OBRYS
 10
529.546919
 20
170.225779
 11
529.546919
 21
180.627392
  0
ENDBLK
  8
OBRYS
  0
BLOCK
  8
OSA
  2
_6
 70
   64
 10
562.546919
 20
205.225779
  0
CIRCLE
  8
OBRYS
 10
562.546919
 20
241.225779
 40
10.000000
  0
ARC
  8
OBRYS
 10
562.546919
 20
241.225779
 40
4.500000
 50
289.471221
 51
250.528779
  0
LINE
  8
OBRYS
 10
564.046919
 20
236.983138
 11
564.046919
 21
235.425779
  0
LINE
  8
OBRYS
 10
564.046919
 20
235.425779
 11
561.046919
 21
235.425779
  0
LINE
  8
OBRYS
 10
561.046919
 20
235.425779
 11
561.046919
 21
236.983138
  0
LINE
  8
OSA
 10
562.546919
 20
241.225779
 11
556.380252
 21
241.225779
  0
LINE
  8
OSA
 10
562.546919
 20
241.225779
 11
568.713585
 21
241.225779
  0
LINE
  8
OSA
 10
562.546919
 20
241.225779
 11
562.546919
 21
235.059112
  0
LINE
  8
OSA
 10
562.546919
 20
241.225779
 11
562.546919
 21
247.392446
  0
INSERT
  8
OSA
  2
Srouby_s_valcovou_hlavou___5
  6
CONTINUOUS
 10
562.546919
 20
269.225779
  0
INSERT
  8
OSA
  2
Srouby_s_valcovou_hlavou___6
  6
CONTINUOUS
 10
589.063423
 20
231.742283
  0
INSERT
  8
OSA
  2
Srouby_s_valcovou_hlavou___7
  6
CONTINUOUS
 10
536.030414
 20
231.742283
  0
LINE
  8
OSA
 10
589.063423
 20
231.742283
 11
582.454050
 21
231.742283
  0
LINE
  8
OSA
 10
589.063423
 20
231.742283
 11
595.672796
 21
231.742283
  0
LINE
  8
OSA
 10
589.063423
 20
231.742283
 11
589.063423
 21
225.132910
  0
LINE
  8
OSA
 10
589.063423
 20
231.742283
 11
589.063423
 21
238.351656
  0
LINE
  8
OSA
 10
536.030414
 20
231.742283
 11
529.421041
 21
231.742283
  0
LINE
  8
OSA
 10
536.030414
 20
231.742283
 11
542.639787
 21
231.742283
  0
LINE
  8
OSA
 10
536.030414
 20
231.742283
 11
536.030414
 21
225.132910
  0
LINE
  8
OSA
 10
536.030414
 20
231.742283
 11
536.030414
 21
238.351656
  0
LINE
  8
OSA
 10
589.063423
 20
178.709275
 11
582.454050
 21
178.709275
  0
LINE
  8
OSA
 10
589.063423
 20
178.709275
 11
595.672796
 21
178.709275
  0
LINE
  8
OSA
 10
589.063423
 20
178.709275
 11
589.063423
 21
172.099902
  0
LINE
  8
OSA
 10
589.063423
 20
178.709275
 11
589.063423
 21
185.318648
  0
LINE
  8
OSA
 10
536.030414
 20
178.709275
 11
536.030414
 21
185.318648
  0
LINE
  8
OSA
 10
536.030414
 20
178.709275
 11
536.030414
 21
172.099902
  0
LINE
  8
OSA
 10
536.030414
 20
178.709275
 11
542.639787
 21
178.709275
  0
LINE
  8
OSA
 10
536.030414
 20
178.709275
 11
529.421041
 21
178.709275
  0
INSERT
  8
OSA
  2
Srouby_s_valcovou_hlavou___8
  6
CONTINUOUS
 10
589.063423
 20
178.709275
  0
INSERT
  8
OSA
  2
Srouby_s_valcovou_hlavou___9
  6
CONTINUOUS
 10
536.030414
 20
178.709275
  0
LINE
  8
0
 62
     2
 10
599.027681
 20
193.590141
 11
599.027681
 21
190.225779
  0
LINE
  8
0
 62
     2
 10
526.066157
 20
193.590141
 11
526.066157
 21
190.225779
  0
ARC
  8
OBRYS
 10
562.546919
 20
241.225779
 40
55.000000
 50
270.000000
 51
90.000000
  0
ARC
  8
OBRYS
 10
587.268181
 20
280.018294
 40
2.000000
 50
237.491906
 51
325.000000
  0
LINE
  8
OBRYS
 10
588.906485
 20
278.871141
 11
592.924818
 21
284.609915
  0
ARC
  8
OBRYS
 10
591.286514
 20
285.757068
 40
2.000000
 50
325.000000
 51
57.162618
  0
ARC
  8
OBRYS
 10
562.546919
 20
241.225779
 40
44.000000
 50
270.000000
 51
90.000000
  0
ARC
  8
OBRYS
 10
607.078208
 20
269.965374
 40
2.000000
 50
32.837382
 51
125.000000
  0
LINE
  8
OBRYS
 10
600.192281
 20
267.585345
 11
605.931055
 21
271.603678
  0
ARC
  8
OBRYS
 10
601.339434
 20
265.947041
 40
2.000000
 50
125.000000
 51
212.508094
  0
LINE
  8
OBRYS
 10
621.707717
 20
251.225779
 11
616.777650
 21
250.392446
  0
LINE
  8
OBRYS
 10
621.707717
 20
231.225779
 11
616.777650
 21
232.059112
  0
ARC
  8
OBRYS
 10
601.339434
 20
216.504517
 40
2.000000
 50
147.491906
 51
235.000000
  0
LINE
  8
OBRYS
 10
600.192281
 20
214.866213
 11
605.931055
 21
210.847880
  0
ARC
  8
OBRYS
 10
607.078208
 20
212.486184
 40
2.000000
 50
235.000000
 51
327.162618
  0
ARC
  8
OBRYS
 10
591.286514
 20
196.694490
 40
2.000000
 50
302.837382
 51
35.000000
  0
LINE
  8
OBRYS
 10
588.906485
 20
203.580417
 11
592.924818
 21
197.841643
  0
ARC
  8
OBRYS
 10
587.268181
 20
202.433264
 40
2.000000
 50
35.000000
 51
122.508094
  0
ARC
  8
OBRYS
 10
537.825657
 20
202.433264
 40
2.000000
 50
57.491906
 51
145.000000
  0
LINE
  8
OBRYS
 10
536.187353
 20
203.580417
 11
532.169020
 21
197.841643
  0
ARC
  8
OBRYS
 10
533.807324
 20
196.694490
 40
2.000000
 50
145.000000
 51
237.162618
  0
ARC
  8
OBRYS
 10
518.015630
 20
212.486184
 40
2.000000
 50
212.837382
 51
305.000000
  0
LINE
  8
OBRYS
 10
524.901557
 20
214.866213
 11
519.162783
 21
210.847880
  0
ARC
  8
OBRYS
 10
523.754404
 20
216.504517
 40
2.000000
 50
305.000000
 51
32.508094
  0
LINE
  8
OBRYS
 10
503.386121
 20
231.225779
 11
508.316187
 21
232.059112
  0
LINE
  8
OBRYS
 10
503.386121
 20
251.225779
 11
508.316187
 21
250.392446
  0
ARC
  8
OBRYS
 10
523.754404
 20
265.947041
 40
2.000000
 50
327.491906
 51
55.000000
  0
LINE
  8
OBRYS
 10
524.901557
 20
267.585345
 11
519.162783
 21
271.603678
  0
ARC
  8
OBRYS
 10
518.015630
 20
269.965374
 40
2.000000
 50
55.000000
 51
147.162618
  0
ARC
  8
OBRYS
 10
562.546919
 20
241.225779
 40
44.000000
 50
90.000000
 51
270.000000
  0
ARC
  8
OBRYS
 10
533.807324
 20
285.757068
 40
2.000000
 50
122.837382
 51
215.000000
  0
LINE
  8
OBRYS
 10
536.187353
 20
278.871141
 11
532.169020
 21
284.609915
  0
ARC
  8
OBRYS
 10
537.825657
 20
280.018294
 40
2.000000
 50
215.000000
 51
302.508094
  0
ARC
  8
OBRYS
 10
562.546919
 20
241.225779
 40
55.000000
 50
90.000000
 51
270.000000
  0
CIRCLE
  8
OBRYS
 10
562.546919
 20
241.225779
 40
17.480000
  0
ARC
  8
OBRYS
 10
562.546919
 20
241.225779
 40
24.000000
 50
270.000000
 51
334.208906
  0
ARC
  8
OSA
 10
562.546919
 20
241.225779
 40
50.000000
 50
270.000000
 51
90.000000
  0
ARC
  8
OBRYS
 10
562.546919
 20
241.225779
 40
40.000000
 50
270.000000
 51
90.000000
  0
ARC
  8
OBRYS
 10
562.546919
 20
241.225779
 40
60.000000
 50
270.000000
 51
90.000000
  0
ARC
  8
OBRYS
 10
562.546919
 20
241.225779
 40
21.000000
 50
270.000000
 51
90.000000
  0
LINE
  8
OSA
 10
562.546919
 20
269.225779
 11
572.546932
 21
269.225779
  0
ARC
  8
OBRYS
 10
562.546935
 20
269.225779
 40
5.000000
 50
270.000000
 51
90.000000
  0
LINE
  8
OSA
 10
562.546919
 20
205.225779
 11
602.546915
 21
205.225779
  0
LINE
  8
OSA
 10
562.546919
 20
241.225779
 11
622.546919
 21
241.225779
  0
ARC
  8
OBRYS
 10
588.527681
 20
190.225779
 40
10.500000
 50
334.169919
 51
360.000000
  0
LINE
  8
0
 62
     2
 10
597.978627
 20
185.650890
 11
593.563874
 21
176.530756
  0
CIRCLE
  8
OBRYS
 10
589.063423
 20
231.742283
 40
5.000000
  0
ARC
  8
OBRYS
 10
589.063423
 20
178.709275
 40
5.000000
 50
89.999964
 51
180.000000
  0
ARC
  8
OBRYS
 10
595.784890
 20
185.709275
 40
2.000000
 50
270.000000
 51
334.169919
  0
LINE
  8
OBRYS
 10
589.063423
 20
183.709275
 11
595.784890
 21
183.709275
  0
CIRCLE
  8
OBRYS
 10
597.902258
 20
205.870440
 40
3.500000
  0
LINE
  8
OSA
 10
562.546919
 20
241.225779
 11
604.973326
 21
283.652186
  0
LINE
  8
OSA
 10
562.546919
 20
241.225779
 11
604.973326
 21
198.799372
  0
CIRCLE
  8
OBRYS
 10
597.902258
 20
276.581118
 40
3.500000
  0
ARC
  8
OBRYS
 10
589.063423
 20
231.742283
 40
5.000000
 50
176.832544
 51
225.000000
  0
ARC
  8
OBRYS
 10
562.546919
 20
241.225779
 40
24.000000
 50
346.432420
 51
83.365562
  0
ARC
  8
OBRYS
 10
562.546919
 20
241.225779
 40
24.000000
 50
96.634438
 51
193.567580
  0
ARC
  8
OBRYS
 10
536.030414
 20
231.742283
 40
5.000000
 50
315.000000
 51
3.167456
  0
CIRCLE
  8
OBRYS
 10
527.191580
 20
276.581118
 40
3.500000
  0
LINE
  8
OSA
 10
562.546919
 20
241.225779
 11
520.120512
 21
198.799372
  0
LINE
  8
OSA
 10
562.546919
 20
241.225779
 11
520.120512
 21
283.652186
  0
CIRCLE
  8
OBRYS
 10
527.191580
 20
205.870440
 40
3.500000
  0
LINE
  8
OBRYS
 10
536.030414
 20
183.709275
 11
529.308948
 21
183.709275
  0
ARC
  8
OBRYS
 10
529.308948
 20
185.709275
 40
2.000000
 50
205.830081
 51
270.000000
  0
ARC
  8
OBRYS
 10
536.030414
 20
178.709275
 40
5.000000
 50
0.000000
 51
90.000036
  0
CIRCLE
  8
OBRYS
 10
536.030414
 20
231.742283
 40
5.000000
  0
LINE
  8
0
 62
     2
 10
527.115210
 20
185.650890
 11
531.529964
 21
176.530756
  0
ARC
  8
OBRYS
 10
536.566157
 20
190.225779
 40
10.500000
 50
180.000006
 51
205.830081
  0
LINE
  8
OSA
 10
562.546919
 20
159.581732
 11
562.546919
 21
301.225779
  0
LINE
  8
OSA
 10
562.546919
 20
241.225779
 11
502.546919
 21
241.225779
  0
LINE
  8
OSA
 10
562.546919
 20
205.225779
 11
522.546922
 21
205.225779
  0
ARC
  8
OBRYS
 10
562.546902
 20
269.225779
 40
5.000000
 50
90.000000
 51
270.000000
  0
LINE
  8
OSA
 10
562.546919
 20
269.225779
 11
552.546906
 21
269.225779
  0
ARC
  8
OBRYS
 10
562.546919
 20
241.225779
 40
21.000000
 50
90.000000
 51
270.000000
  0
ARC
  8
OBRYS
 10
562.546919
 20
241.225779
 40
60.000000
 50
90.000000
 51
270.000000
  0
ARC
  8
OBRYS
 10
562.546919
 20
241.225779
 40
40.000000
 50
90.000000
 51
270.000000
  0
ARC
  8
OSA
 10
562.546919
 20
241.225779
 40
50.000000
 50
90.000000
 51
270.000000
  0
ARC
  8
OBRYS
 10
562.546919
 20
241.225779
 40
24.000000
 50
205.791094
 51
270.000000
  0
ARC
  8
OBRYS
 10
589.063423
 20
178.709275
 40
5.000000
 50
303.511664
 51
334.169919
  0
ARC
  8
OBRYS
 10
536.030414
 20
178.709275
 40
5.000000
 50
205.830081
 51
236.488335
  0
ARC
  8
OBRYS
 10
562.546919
 20
218.753688
 40
53.027909
 50
236.488379
 51
303.511629
  0
LINE
  8
OBRYS
 10
541.030414
 20
178.709275
 11
541.030414
 21
171.605480
  0
ARC
  8
OBRYS
 10
543.030414
 20
171.605480
 40
2.000000
 50
180.000000
 51
247.513406
  0
LINE
  8
OBRYS
 10
584.063423
 20
178.709275
 11
584.063423
 21
171.605480
  0
ARC
  8
OBRYS
 10
582.063423
 20
171.605480
 40
2.000000
 50
292.486594
 51
360.000000
  0
ENDBLK
  8
OSA
  0
BLOCK
  8
OSA
  2
Srouby_s_valcovou_hlavou___5
 70
   66
 10
562.546919
 20
269.225779
  0
LINE
  8
OSA
 62
     2
  6
CONTINUOUS
 10
564.546919
 20
270.380487
 11
564.546919
 21
268.071071
  0
LINE
  8
OSA
 62
     2
  6
CONTINUOUS
 10
564.546919
 20
268.071071
 11
562.546919
 21
266.916364
  0
LINE
  8
OSA
 62
     2
  6
CONTINUOUS
 10
562.546919
 20
266.916364
 11
560.546919
 21
268.071071
  0
LINE
  8
OSA
 62
     2
  6
CONTINUOUS
 10
560.546919
 20
268.071071
 11
560.546919
 21
270.380487
  0
LINE
  8
OSA
 62
     2
  6
CONTINUOUS
 10
560.546919
 20
270.380487
 11
562.546919
 21
271.535195
  0
LINE
  8
OSA
 62
     2
  6
CONTINUOUS
 10
562.546919
 20
271.535195
 11
564.546919
 21
270.380487
  0
CIRCLE
  8
OSA
 62
     2
  6
CONTINUOUS
 10
562.546919
 20
269.225779
 40
2.309415
  0
CIRCLE
  8
OSA
 62
     2
  6
CONTINUOUS
 10
562.546919
 20
269.225779
 40
4.250000
  0
ENDBLK
  8
OSA
  0
BLOCK
  8
OSA
  2
Srouby_s_valcovou_hlavou___6
 70
   66
 10
589.063423
 20
231.742283
  0
LINE
  8
OSA
 62
     2
  6
CONTINUOUS
 10
591.063423
 20
232.896991
 11
591.063423
 21
230.587576
  0
LINE
  8
OSA
 62
     2
  6
CONTINUOUS
 10
591.063423
 20
230.587576
 11
589.063423
 21
229.432868
  0
LINE
  8
OSA
 62
     2
  6
CONTINUOUS
 10
589.063423
 20
229.432868
 11
587.063423
 21
230.587576
  0
LINE
  8
OSA
 62
     2
  6
CONTINUOUS
 10
587.063423
 20
230.587576
 11
587.063423
 21
232.896991
  0
LINE
  8
OSA
 62
     2
  6
CONTINUOUS
 10
587.063423
 20
232.896991
 11
589.063423
 21
234.051699
  0
LINE
  8
OSA
 62
     2
  6
CONTINUOUS
 10
589.063423
 20
234.051699
 11
591.063423
 21
232.896991
  0
CIRCLE
  8
OSA
 62
     2
  6
CONTINUOUS
 10
589.063423
 20
231.742283
 40
2.309415
  0
CIRCLE
  8
OSA
 62
     2
  6
CONTINUOUS
 10
589.063423
 20
231.742283
 40
4.250000
  0
ENDBLK
  8
OSA
  0
BLOCK
  8
OSA
  2
Srouby_s_valcovou_hlavou___7
 70
   66
 10
536.030414
 20
231.742283
  0
LINE
  8
OSA
 62
     2
  6
CONTINUOUS
 10
538.030414
 20
232.896991
 11
538.030414
 21
230.587576
  0
LINE
  8
OSA
 62
     2
  6
CONTINUOUS
 10
538.030414
 20
230.587576
 11
536.030414
 21
229.432868
  0
LINE
  8
OSA
 62
     2
  6
CONTINUOUS
 10
536.030414
 20
229.432868
 11
534.030414
 21
230.587576
  0
LINE
  8
OSA
 62
     2
  6
CONTINUOUS
 10
534.030414
 20
230.587576
 11
534.030414
 21
232.896991
  0
LINE
  8
OSA
 62
     2
  6
CONTINUOUS
 10
534.030414
 20
232.896991
 11
536.030414
 21
234.051699
  0
LINE
  8
OSA
 62
     2
  6
CONTINUOUS
 10
536.030414
 20
234.051699
 11
538.030414
 21
232.896991
  0
CIRCLE
  8
OSA
 62
     2
  6
CONTINUOUS
 10
536.030414
 20
231.742283
 40
2.309415
  0
CIRCLE
  8
OSA
 62
     2
  6
CONTINUOUS
 10
536.030414
 20
231.742283
 40
4.250000
  0
ENDBLK
  8
OSA
  0
BLOCK
  8
OSA
  2
Srouby_s_valcovou_hlavou___8
 70
   66
 10
589.063423
 20
178.709275
  0
LINE
  8
OSA
 62
     2
  6
CONTINUOUS
 10
591.063423
 20
179.863983
 11
591.063423
 21
177.554567
  0
LINE
  8
OSA
 62
     2
  6
CONTINUOUS
 10
591.063423
 20
177.554567
 11
589.063423
 21
176.399859
  0
LINE
  8
OSA
 62
     2
  6
CONTINUOUS
 10
589.063423
 20
176.399859
 11
587.063423
 21
177.554567
  0
LINE
  8
OSA
 62
     2
  6
CONTINUOUS
 10
587.063423
 20
177.554567
 11
587.063423
 21
179.863983
  0
LINE
  8
OSA
 62
     2
  6
CONTINUOUS
 10
587.063423
 20
179.863983
 11
589.063423
 21
181.018690
  0
LINE
  8
OSA
 62
     2
  6
CONTINUOUS
 10
589.063423
 20
181.018690
 11
591.063423
 21
179.863983
  0
CIRCLE
  8
OSA
 62
     2
  6
CONTINUOUS
 10
589.063423
 20
178.709275
 40
2.309415
  0
CIRCLE
  8
OSA
 62
     2
  6
CONTINUOUS
 10
589.063423
 20
178.709275
 40
4.250000
  0
ENDBLK
  8
OSA
  0
BLOCK
  8
OSA
  2
Srouby_s_valcovou_hlavou___9
 70
   66
 10
536.030414
 20
178.709275
  0
LINE
  8
OSA
 62
     2
  6
CONTINUOUS
 10
538.030414
 20
179.863983
 11
538.030414
 21
177.554567
  0
LINE
  8
OSA
 62
     2
  6
CONTINUOUS
 10
538.030414
 20
177.554567
 11
536.030414
 21
176.399859
  0
LINE
  8
OSA
 62
     2
  6
CONTINUOUS
 10
536.030414
 20
176.399859
 11
534.030414
 21
177.554567
  0
LINE
  8
OSA
 62
     2
  6
CONTINUOUS
 10
534.030414
 20
177.554567
 11
534.030414
 21
179.863983
  0
LINE
  8
OSA
 62
     2
  6
CONTINUOUS
 10
534.030414
 20
179.863983
 11
536.030414
 21
181.018690
  0
LINE
  8
OSA
 62
     2
  6
CONTINUOUS
 10
536.030414
 20
181.018690
 11
538.030414
 21
179.863983
  0
CIRCLE
  8
OSA
 62
     2
  6
CONTINUOUS
 10
536.030414
 20
178.709275
 40
2.309415
  0
CIRCLE
  8
OSA
 62
     2
  6
CONTINUOUS
 10
536.030414
 20
178.709275
 40
4.250000
  0
ENDBLK
  8
OSA
  0
BLOCK
  8
OBRYS
  2
_7
 70
   64
 10
307.396033
 20
424.740309
  0
LINE
  8
OBRYS
 10
284.396022
 20
388.259547
 11
284.396022
 21
461.221071
  0
ARC
  8
OBRYS
 10
262.396022
 20
366.740309
 40
2.000000
 50
270.000000
 51
360.000000
  0
LINE
  8
OBRYS
 10
255.396022
 20
364.740309
 11
262.396022
 21
364.740309
  0
ARC
  8
OBRYS
 10
262.396022
 20
482.740309
 40
2.000000
 50
0.000000
 51
90.000000
  0
LINE
  8
OBRYS
 10
255.396022
 20
484.740309
 11
262.396022
 21
484.740309
  0
LINE
  8
OSA
 10
286.163470
 20
424.740309
 11
256.676390
 21
424.740309
  0
LINE
  8
OBRYS
 10
264.396022
 20
366.740309
 11
264.396022
 21
424.740309
  0
LINE
  8
OBRYS
 10
264.396022
 20
482.740309
 11
264.396022
 21
424.740309
  0
LINE
  8
OBRYS
 10
255.396022
 20
424.740309
 11
255.396022
 21
364.740309
  0
LINE
  8
OBRYS
 10
255.396022
 20
484.740309
 11
255.396022
 21
424.740309
  0
LINE
  8
OBRYS
 10
284.396022
 20
455.175933
 11
280.329479
 21
455.175933
  0
ARC
  8
OBRYS
 10
277.396022
 20
448.256814
 40
2.000000
 50
270.000000
 51
360.000000
  0
ARC
  8
OBRYS
 10
277.396022
 20
444.256814
 40
2.000000
 50
90.000000
 51
180.000000
  0
ARC
  8
OBRYS
 10
281.396022
 20
459.221071
 40
2.000000
 50
90.000000
 51
180.000000
  0
LINE
  8
OBRYS
 10
279.396022
 20
459.221071
 11
279.396022
 21
390.259547
  0
ARC
  8
OBRYS
 10
281.396022
 20
390.259547
 40
2.000000
 50
180.000000
 51
270.000000
  0
ARC
  8
OBRYS
 10
277.396022
 20
405.223805
 40
2.000000
 50
180.000000
 51
270.000000
  0
ARC
  8
OBRYS
 10
277.396022
 20
401.223805
 40
2.000000
 50
0.000000
 51
90.000000
  0
LINE
  8
OBRYS
 10
284.396022
 20
394.304685
 11
280.329479
 21
394.304685
  0
LINE
  8
OSA
 10
281.799586
 20
398.223805
 11
271.396022
 21
398.223805
  0
INSERT
  8
OBRYS
  2
Srouby_s_valcovou_hlavou___11
 62
     7
 10
279.396022
 20
398.223805
  0
INSERT
  8
OBRYS
  2
Srouby_s_valcovou_hlavou___12
 62
     7
 10
279.396022
 20
451.256814
  0
LINE
  8
OSA
 10
281.799586
 20
451.256814
 11
271.396022
 21
451.256814
  0
ARC
  8
OBRYS
 10
273.896022
 20
389.504519
 40
1.500000
 50
4.876572
 51
90.000000
  0
ARC
  8
OBRYS
 10
276.885162
 20
389.759547
 40
1.500000
 50
184.876572
 51
270.000000
  0
LINE
  8
OBRYS
 10
265.896022
 20
391.004519
 11
273.896022
 21
391.004519
  0
ARC
  8
OBRYS
 10
265.896022
 20
389.504519
 40
1.500000
 50
90.000000
 51
180.000000
  0
ARC
  8
OBRYS
 10
265.896022
 20
459.976100
 40
1.500000
 50
180.000000
 51
270.000000
  0
LINE
  8
OBRYS
 10
265.896022
 20
458.476100
 11
273.896022
 21
458.476100
  0
ARC
  8
OBRYS
 10
276.885162
 20
459.721071
 40
1.500000
 50
90.000000
 51
175.123428
  0
ARC
  8
OBRYS
 10
273.896022
 20
459.976100
 40
1.500000
 50
270.000000
 51
355.123428
  0
LINE
  8
OBRYS
 10
275.396022
 20
459.540903
 11
275.396022
 21
389.939716
  0
LINE
  8
OBRYS
 10
276.885144
 20
388.259547
 11
284.396022
 21
388.259547
  0
LINE
  8
OBRYS
 10
276.885146
 20
461.221071
 11
284.396022
 21
461.221071
  0
LINE
  8
OBRYS
 10
284.396022
 20
394.304685
 11
302.396023
 21
394.304685
  0
LINE
  8
OBRYS
 10
284.396022
 20
455.175933
 11
302.396023
 21
455.175933
  0
LINE
  8
OBRYS
 10
306.396022
 20
424.740309
 11
306.396022
 21
457.638843
  0
LINE
  8
OBRYS
 10
306.396022
 20
392.259547
 11
306.396022
 21
424.740309
  0
LINE
  8
OBRYS
 10
307.396033
 20
455.739935
 11
307.396033
 21
424.740309
  0
LINE
  8
OBRYS
 10
307.396033
 20
424.740309
 11
307.396033
 21
393.740309
  0
ARC
  8
OBRYS
 10
302.396022
 20
392.259547
 40
4.000000
 50
270.000000
 51
360.000000
  0
ARC
  8
OBRYS
 10
307.368676
 20
456.739935
 40
1.000000
 50
185.995066
 51
270.000000
  0
ARC
  8
OBRYS
 10
302.396022
 20
457.221071
 40
4.000000
 50
5.995066
 51
90.000000
  0
ARC
  8
OBRYS
 10
307.396022
 20
392.740309
 40
1.000000
 50
90.000000
 51
180.000000
  0
LINE
  8
OBRYS
 10
307.396033
 20
455.739935
 11
307.368676
 21
455.739935
  0
LINE
  8
OSA
 10
317.896018
 20
424.740309
 11
276.896025
 21
424.740309
  0
LINE
  8
OBRYS
 10
284.396022
 20
461.221071
 11
302.396022
 21
461.221071
  0
LINE
  8
OBRYS
 10
284.396022
 20
424.740309
 11
284.396022
 21
461.221071
  0
LINE
  8
OBRYS
 10
284.396022
 20
388.259547
 11
284.396022
 21
424.740309
  0
LINE
  8
OBRYS
 10
302.396022
 20
388.259547
 11
284.396022
 21
388.259547
  0
ENDBLK
  8
OBRYS
  0
BLOCK
  8
OBRYS
  2
Srouby_s_valcovou_hlavou___11
 70
   66
 10
279.396022
 20
398.223805
  0
LINE
  8
OBRYS
 10
275.896022
 20
394.473805
 11
275.896022
 21
401.973805
  0
LINE
  8
OBRYS
 10
276.396022
 20
393.973805
 11
279.396022
 21
393.973805
  0
LINE
  8
OBRYS
 10
279.396022
 20
393.973805
 11
279.396022
 21
402.473805
  0
LINE
  8
OBRYS
 10
279.396022
 20
402.473805
 11
276.396022
 21
402.473805
  0
ARC
  8
OBRYS
 10
276.396022
 20
394.473805
 40
0.500000
 50
180.000000
 51
270.000000
  0
ARC
  8
OBRYS
 10
276.396022
 20
401.973805
 40
0.500000
 50
90.000000
 51
180.000000
  0
LINE
  8
OBRYS
 62
     7
  6
DOT
 10
275.896022
 20
395.914390
 11
277.562688
 21
395.914390
  0
LINE
  8
OBRYS
 62
     7
  6
DOT
 10
275.896022
 20
397.069097
 11
277.562688
 21
397.069097
  0
LINE
  8
OBRYS
 62
     7
  6
DOT
 10
275.896022
 20
399.378513
 11
277.562688
 21
399.378513
  0
LINE
  8
OBRYS
 62
     7
  6
DOT
 10
275.896022
 20
400.533221
 11
277.562688
 21
400.533221
  0
ARC
  8
OBRYS
 62
     7
  6
DOT
 10
275.562682
 20
396.491743
 40
0.666673
 50
300.000310
 51
59.999690
  0
ARC
  8
OBRYS
 62
     7
  6
DOT
 10
274.062663
 20
398.223805
 40
2.166692
 50
327.795963
 51
32.204037
  0
ARC
  8
OBRYS
 62
     7
  6
DOT
 10
275.562682
 20
399.955867
 40
0.666673
 50
300.000310
 51
59.999690
  0
ARC
  8
OBRYS
 62
     7
  6
DOT
 10
277.229349
 20
396.491743
 40
0.666673
 50
300.000310
 51
59.999690
  0
ARC
  8
OBRYS
 62
     7
  6
DOT
 10
275.729330
 20
398.223805
 40
2.166692
 50
327.795963
 51
32.204037
  0
ARC
  8
OBRYS
 62
     7
  6
DOT
 10
277.229349
 20
399.955867
 40
0.666673
 50
300.000310
 51
59.999690
  0
LINE
  8
OBRYS
 62
     7
  6
DOT
 10
277.896022
 20
396.491743
 11
279.050729
 21
398.223805
  0
LINE
  8
OBRYS
 62
     7
  6
DOT
 10
279.050729
 20
398.223805
 11
277.896022
 21
399.955867
  0
ENDBLK
  8
OBRYS
  0
BLOCK
  8
OBRYS
  2
Srouby_s_valcovou_hlavou___12
 70
   66
 10
279.396022
 20
451.256814
  0
LINE
  8
OBRYS
 10
275.896022
 20
455.006814
 11
275.896022
 21
447.506814
  0
LINE
  8
OBRYS
 10
276.396022
 20
455.506814
 11
279.396022
 21
455.506814
  0
LINE
  8
OBRYS
 10
279.396022
 20
455.506814
 11
279.396022
 21
447.006814
  0
LINE
  8
OBRYS
 10
279.396022
 20
447.006814
 11
276.396022
 21
447.006814
  0
ARC
  8
OBRYS
 10
276.396022
 20
455.006814
 40
0.500000
 50
90.000000
 51
180.000000
  0
ARC
  8
OBRYS
 10
276.396022
 20
447.506814
 40
0.500000
 50
180.000000
 51
270.000000
  0
LINE
  8
OBRYS
 62
     7
  6
DOT
 10
275.896022
 20
453.566229
 11
277.562688
 21
453.566229
  0
LINE
  8
OBRYS
 62
     7
  6
DOT
 10
275.896022
 20
452.411521
 11
277.562688
 21
452.411521
  0
LINE
  8
OBRYS
 62
     7
  6
DOT
 10
275.896022
 20
450.102106
 11
277.562688
 21
450.102106
  0
LINE
  8
OBRYS
 62
     7
  6
DOT
 10
275.896022
 20
448.947398
 11
277.562688
 21
448.947398
  0
ARC
  8
OBRYS
 62
     7
  6
DOT
 10
275.562682
 20
452.988875
 40
0.666673
 50
300.000310
 51
59.999690
  0
ARC
  8
OBRYS
 62
     7
  6
DOT
 10
274.062663
 20
451.256814
 40
2.166692
 50
327.795963
 51
32.204037
  0
ARC
  8
OBRYS
 62
     7
  6
DOT
 10
275.562682
 20
449.524752
 40
0.666673
 50
300.000310
 51
59.999690
  0
ARC
  8
OBRYS
 62
     7
  6
DOT
 10
277.229349
 20
452.988875
 40
0.666673
 50
300.000310
 51
59.999690
  0
ARC
  8
OBRYS
 62
     7
  6
DOT
 10
275.729330
 20
451.256814
 40
2.166692
 50
327.795963
 51
32.204037
  0
ARC
  8
OBRYS
 62
     7
  6
DOT
 10
277.229349
 20
449.524752
 40
0.666673
 50
300.000310
 51
59.999690
  0
LINE
  8
OBRYS
 62
     7
  6
DOT
 10
277.896022
 20
452.988875
 11
279.050729
 21
451.256814
  0
LINE
  8
OBRYS
 62
     7
  6
DOT
 10
279.050729
 20
451.256814
 11
277.896022
 21
449.524752
  0
ENDBLK
  8
OBRYS
  0
BLOCK
  8
OBRYS
  2
_8
 70
   64
 10
307.396033
 20
52.203038
  0
LINE
  8
OBRYS
 10
255.396022
 20
-7.796962
 11
255.396022
 21
52.203038
  0
LINE
  8
OBRYS
 10
255.396022
 20
52.203038
 11
255.396022
 21
112.203038
  0
LINE
  8
OBRYS
 10
264.396022
 20
-5.796962
 11
264.396022
 21
52.203038
  0
LINE
  8
OBRYS
 10
264.396022
 20
110.203038
 11
264.396022
 21
52.203038
  0
LINE
  8
OSA
 10
286.163470
 20
52.203038
 11
256.676390
 21
52.203038
  0
LINE
  8
OBRYS
 10
255.396022
 20
-7.796962
 11
262.396022
 21
-7.796962
  0
ARC
  8
OBRYS
 10
262.396022
 20
-5.796962
 40
2.000000
 50
270.000000
 51
360.000000
  0
LINE
  8
OBRYS
 10
255.396022
 20
112.203038
 11
262.396022
 21
112.203038
  0
ARC
  8
OBRYS
 10
262.396022
 20
110.203038
 40
2.000000
 50
0.000000
 51
90.000000
  0
LINE
  8
OBRYS
 10
284.396022
 20
88.683800
 11
284.396022
 21
15.722276
  0
ARC
  8
OBRYS
 10
273.896022
 20
16.967247
 40
1.500000
 50
4.876572
 51
90.000000
  0
ARC
  8
OBRYS
 10
276.885162
 20
17.222276
 40
1.500000
 50
184.876572
 51
270.000000
  0
LINE
  8
OBRYS
 10
265.896022
 20
18.467247
 11
273.896022
 21
18.467247
  0
ARC
  8
OBRYS
 10
265.896022
 20
16.967247
 40
1.500000
 50
90.000000
 51
180.000000
  0
ARC
  8
OBRYS
 10
265.896022
 20
87.438828
 40
1.500000
 50
180.000000
 51
270.000000
  0
LINE
  8
OBRYS
 10
265.896022
 20
85.938828
 11
273.896022
 21
85.938828
  0
ARC
  8
OBRYS
 10
276.885162
 20
87.183800
 40
1.500000
 50
90.000000
 51
175.123428
  0
ARC
  8
OBRYS
 10
273.896022
 20
87.438828
 40
1.500000
 50
270.000000
 51
355.123428
  0
LINE
  8
OBRYS
 10
276.885177
 20
15.722276
 11
284.396022
 21
15.722276
  0
LINE
  8
OBRYS
 10
276.885176
 20
88.683800
 11
284.396022
 21
88.683800
  0
LINE
  8
OBRYS
 10
302.396022
 20
88.683800
 11
284.396022
 21
88.683800
  0
LINE
  8
OBRYS
 10
284.396022
 20
88.683800
 11
284.396022
 21
52.203038
  0
LINE
  8
OBRYS
 10
284.396022
 20
52.203038
 11
284.396022
 21
15.722276
  0
LINE
  8
OBRYS
 10
284.396022
 20
15.722276
 11
302.396022
 21
15.722276
  0
LINE
  8
OSA
 10
317.896018
 20
52.203038
 11
276.896025
 21
52.203038
  0
LINE
  8
OBRYS
 10
307.396033
 20
21.203412
 11
307.368676
 21
21.203412
  0
ARC
  8
OBRYS
 10
307.396022
 20
84.203038
 40
1.000000
 50
180.000000
 51
270.000000
  0
ARC
  8
OBRYS
 10
302.396022
 20
19.722276
 40
4.000000
 50
270.000000
 51
354.004934
  0
ARC
  8
OBRYS
 10
307.368676
 20
20.203412
 40
1.000000
 50
90.000000
 51
174.004934
  0
ARC
  8
OBRYS
 10
302.396022
 20
84.683800
 40
4.000000
 50
0.000000
 51
90.000000
  0
LINE
  8
OBRYS
 10
307.396033
 20
52.203038
 11
307.396033
 21
83.203038
  0
LINE
  8
OBRYS
 10
307.396033
 20
21.203412
 11
307.396033
 21
52.203038
  0
LINE
  8
OBRYS
 10
306.396022
 20
84.683800
 11
306.396022
 21
52.203038
  0
LINE
  8
OBRYS
 10
306.396022
 20
52.203038
 11
306.396022
 21
19.304505
  0
ENDBLK
  8
OBRYS
  0
BLOCK
  8
OBRYS
  2
_9
 70
   64
 10
368.396033
 20
52.203038
  0
LINE
  8
OBRYS
 10
314.593807
 20
91.203038
 11
314.274917
 21
91.203038
  0
LINE
  8
OBRYS
 10
314.274917
 20
91.203038
 11
314.011001
 21
91.203038
  0
LINE
  8
OBRYS
 10
314.011001
 20
91.203038
 11
314.002791
 21
91.203038
  0
LINE
  8
OBRYS
 10
314.002791
 20
91.203038
 11
314.002791
 21
96.020310
  0
LINE
  8
OBRYS
 10
314.002791
 20
96.020310
 11
314.011001
 21
96.040819
  0
LINE
  8
OBRYS
 10
314.011001
 20
96.040819
 11
314.274917
 21
96.962905
  0
LINE
  8
OBRYS
 10
314.274917
 20
96.962905
 11
314.299629
 21
97.064552
  0
LINE
  8
OBRYS
 10
314.299629
 20
97.064552
 11
314.593807
 21
97.432805
  0
LINE
  8
OBRYS
 10
314.593807
 20
97.432805
 11
314.954842
 21
97.934502
  0
LINE
  8
OBRYS
 10
314.954842
 20
97.934502
 11
314.983916
 21
97.978189
  0
LINE
  8
OBRYS
 10
314.983916
 20
97.978189
 11
315.343501
 21
98.237189
  0
LINE
  8
OBRYS
 10
315.343501
 20
98.237189
 11
315.744147
 21
98.545331
  0
LINE
  8
OBRYS
 10
315.744147
 20
98.545331
 11
315.868535
 21
98.646954
  0
LINE
  8
OBRYS
 10
315.868535
 20
98.646954
 11
316.140665
 21
98.798046
  0
LINE
  8
OBRYS
 10
316.140665
 20
98.798046
 11
319.691967
 21
100.829681
  0
LINE
  8
OBRYS
 10
319.691967
 20
100.829681
 11
320.455054
 21
101.033472
  0
LINE
  8
OBRYS
 10
320.455054
 20
101.033472
 11
321.108284
 21
101.203038
  0
LINE
  8
OBRYS
 10
320.940481
 20
95.160574
 11
320.455054
 21
95.063272
  0
LINE
  8
OBRYS
 10
320.455054
 20
95.063272
 11
320.025442
 21
94.974676
  0
LINE
  8
OBRYS
 10
320.025442
 20
94.974676
 11
319.086669
 21
94.324358
  0
LINE
  8
OBRYS
 10
319.086669
 20
94.324358
 11
318.459401
 21
93.351088
  0
LINE
  8
OBRYS
 10
318.459401
 20
93.351088
 11
318.239134
 21
92.203038
  0
LINE
  8
OBRYS
 10
318.239134
 20
92.203038
 11
318.239134
 21
91.203038
  0
LINE
  8
OBRYS
 10
318.239134
 20
91.203038
 11
316.140665
 21
91.203038
  0
LINE
  8
OBRYS
 10
316.140665
 20
91.203038
 11
315.744147
 21
91.203038
  0
LINE
  8
OBRYS
 10
315.744147
 20
91.203038
 11
315.343501
 21
91.203038
  0
LINE
  8
OBRYS
 10
315.343501
 20
91.203038
 11
314.954842
 21
91.203038
  0
LINE
  8
OBRYS
 10
314.954842
 20
91.203038
 11
312.396033
 21
91.203038
  0
LINE
  8
OBRYS
 10
312.396033
 20
96.591381
 11
312.396033
 21
91.203038
  0
LINE
  8
OBRYS
 10
318.316733
 20
101.203038
 11
338.396033
 21
101.203038
  0
ARC
  8
OBRYS
 10
315.396033
 20
96.591381
 40
3.000000
 50
118.890129
 51
180.000000
  0
LINE
  8
OBRYS
 10
316.867338
 20
100.829681
 11
313.946638
 21
99.218025
  0
LINE
  8
OBRYS
 10
338.396033
 20
101.203038
 11
368.396033
 21
101.203038
  0
LINE
  8
OBRYS
 10
312.396033
 20
92.552532
 11
312.396033
 21
92.632416
  0
ARC
  8
OBRYS
 10
318.316733
 20
98.203038
 40
3.000000
 50
90.000000
 51
118.890129
  0
LINE
  8
OBRYS
 10
343.233425
 20
101.033472
 11
343.233425
 21
95.063272
  0
LINE
  8
OBRYS
 10
340.968947
 20
98.798046
 11
340.968947
 21
91.203038
  0
LINE
  8
OBRYS
 10
354.867769
 20
91.203038
 11
354.867769
 21
98.545331
  0
LINE
  8
OBRYS
 10
320.455054
 20
101.033472
 11
320.455054
 21
95.063272
  0
LINE
  8
OBRYS
 10
316.140665
 20
98.798046
 11
316.140665
 21
91.203038
  0
LINE
  8
OBRYS
 10
320.940481
 20
91.203038
 11
320.940481
 21
96.962905
  0
LINE
  8
OBRYS
 10
320.940481
 20
91.203038
 11
320.940481
 21
95.160574
  0
LINE
  8
OBRYS
 10
354.867769
 20
95.203038
 11
354.867769
 21
91.203038
  0
LINE
  8
OBRYS
 10
331.959743
 20
100.829681
 11
329.894497
 21
99.218025
  0
LINE
  8
OBRYS
 10
328.798053
 20
96.591381
 11
328.798053
 21
96.039576
  0
LINE
  8
OBRYS
 10
331.656727
 20
96.039576
 11
331.656727
 21
96.591381
  0
LINE
  8
OBRYS
 10
332.674016
 20
99.218025
 11
334.590167
 21
100.829681
  0
LINE
  8
OBRYS
 10
335.541056
 20
101.203038
 11
336.362074
 21
101.203038
  0
LINE
  8
OBRYS
 10
330.600705
 20
101.203038
 11
331.545179
 21
101.203038
  0
LINE
  8
OBRYS
 10
321.108284
 20
101.203038
 11
319.687115
 21
101.203038
  0
LINE
  8
OBRYS
 10
333.716415
 20
101.203038
 11
326.294826
 21
101.203038
  0
LINE
  8
OBRYS
 10
343.622263
 20
101.203038
 11
336.362074
 21
101.203038
  0
POLYLINE
  8
OBRYS
 66
    1
  0
VERTEX
  8
OBRYS
 10
326.294861
 20
101.202881
  0
VERTEX
  8
OBRYS
 10
325.759888
 20
101.033325
  0
VERTEX
  8
OBRYS
 10
325.081238
 20
100.829590
  0
VERTEX
  8
OBRYS
 10
321.922913
 20
98.797974
  0
VERTEX
  8
OBRYS
 10
321.701050
 20
98.646851
  0
VERTEX
  8
OBRYS
 10
321.599609
 20
98.545288
  0
VERTEX
  8
OBRYS
 10
321.330261
 20
98.237061
  0
VERTEX
  8
OBRYS
 10
321.140930
 20
97.978149
  0
SEQEND
  8
OBRYS
  0
ARC
  8
OBRYS
 10
324.453842
 20
96.792802
 40
3.518602
 50
160.236041
 51
177.431499
  0
POLYLINE
  8
OBRYS
 66
    1
  0
VERTEX
  8
OBRYS
 10
356.143738
 20
101.202881
  0
VERTEX
  8
OBRYS
 10
356.040405
 20
101.033325
  0
VERTEX
  8
OBRYS
 10
355.843750
 20
100.829590
  0
VERTEX
  8
OBRYS
 10
354.928467
 20
98.797974
  0
VERTEX
  8
OBRYS
 10
354.886841
 20
98.646851
  0
VERTEX
  8
OBRYS
 10
354.867798
 20
98.545288
  0
SEQEND
  8
OBRYS
  0
LINE
  8
OBRYS
 10
319.691967
 20
100.829681
 11
318.247634
 21
100.829681
  0
LINE
  8
OBRYS
 10
332.691538
 20
100.829681
 11
325.081209
 21
100.829681
  0
LINE
  8
OBRYS
 10
342.832906
 20
100.829681
 11
335.415384
 21
100.829681
  0
LINE
  8
OBRYS
 10
368.396033
 20
100.829681
 11
355.843687
 21
100.829681
  0
LINE
  8
OBRYS
 10
315.868535
 20
98.646954
 11
314.319076
 21
98.646954
  0
LINE
  8
OBRYS
 10
320.971870
 20
91.203038
 11
338.896535
 21
91.203038
  0
LINE
  8
OBRYS
 10
314.002791
 20
96.020310
 11
312.396033
 21
96.020310
  0
LINE
  8
OBRYS
 10
338.896535
 20
96.020310
 11
320.971870
 21
96.020310
  0
LINE
  8
OBRYS
 10
368.396033
 20
96.020310
 11
355.721380
 21
96.020310
  0
LINE
  8
OBRYS
 10
323.789136
 20
91.203038
 11
342.070363
 21
91.203038
  0
POLYLINE
  8
OBRYS
 66
    1
  0
VERTEX
  8
OBRYS
 10
343.648499
 20
95.202881
  0
VERTEX
  8
OBRYS
 10
343.233459
 20
95.063232
  0
VERTEX
  8
OBRYS
 10
343.007996
 20
94.974609
  0
VERTEX
  8
OBRYS
 10
342.515259
 20
94.324219
  0
VERTEX
  8
OBRYS
 10
342.186035
 20
93.350952
  0
VERTEX
  8
OBRYS
 10
342.070374
 20
92.202881
  0
VERTEX
  8
OBRYS
 10
342.070374
 20
91.202881
  0
SEQEND
  8
OBRYS
  0
POLYLINE
  8
OBRYS
 66
    1
  0
VERTEX
  8
OBRYS
 10
318.239197
 20
91.202881
  0
VERTEX
  8
OBRYS
 10
318.239197
 20
92.202881
  0
VERTEX
  8
OBRYS
 10
318.459412
 20
93.350952
  0
VERTEX
  8
OBRYS
 10
319.086731
 20
94.324219
  0
VERTEX
  8
OBRYS
 10
320.025452
 20
94.974609
  0
VERTEX
  8
OBRYS
 10
320.455078
 20
95.063232
  0
VERTEX
  8
OBRYS
 10
320.940491
 20
95.160522
  0
SEQEND
  8
OBRYS
  0
LINE
  8
OBRYS
 10
354.867769
 20
95.203038
 11
343.648482
 21
95.203038
  0
POLYLINE
  8
OBRYS
 66
    1
  0
VERTEX
  8
OBRYS
 10
354.867798
 20
95.202881
  0
VERTEX
  8
OBRYS
 10
354.609863
 20
95.202881
  0
VERTEX
  8
OBRYS
 10
353.656738
 20
95.202881
  0
VERTEX
  8
OBRYS
 10
352.544250
 20
95.202881
  0
VERTEX
  8
OBRYS
 10
351.312744
 20
95.202881
  0
VERTEX
  8
OBRYS
 10
350.006897
 20
95.202881
  0
VERTEX
  8
OBRYS
 10
348.674011
 20
95.202881
  0
VERTEX
  8
OBRYS
 10
347.362488
 20
95.202881
  0
VERTEX
  8
OBRYS
 10
346.119812
 20
95.202881
  0
VERTEX
  8
OBRYS
 10
344.991028
 20
95.202881
  0
VERTEX
  8
OBRYS
 10
344.017151
 20
95.202881
  0
VERTEX
  8
OBRYS
 10
343.648499
 20
95.202881
  0
VERTEX
  8
OBRYS
 10
343.233459
 20
95.063232
  0
VERTEX
  8
OBRYS
 10
343.007996
 20
94.974609
  0
VERTEX
  8
OBRYS
 10
342.515259
 20
94.324219
  0
VERTEX
  8
OBRYS
 10
342.186035
 20
93.350952
  0
VERTEX
  8
OBRYS
 10
342.070374
 20
92.202881
  0
VERTEX
  8
OBRYS
 10
342.070374
 20
91.202881
  0
VERTEX
  8
OBRYS
 10
340.968994
 20
91.202881
  0
VERTEX
  8
OBRYS
 10
340.731506
 20
91.202881
  0
VERTEX
  8
OBRYS
 10
340.434265
 20
91.202881
  0
VERTEX
  8
OBRYS
 10
340.089233
 20
91.202881
  0
VERTEX
  8
OBRYS
 10
339.710388
 20
91.202881
  0
VERTEX
  8
OBRYS
 10
339.312805
 20
91.202881
  0
VERTEX
  8
OBRYS
 10
338.912598
 20
91.202881
  0
VERTEX
  8
OBRYS
 10
338.896545
 20
91.202881
  0
VERTEX
  8
OBRYS
 10
338.896545
 20
96.020264
  0
VERTEX
  8
OBRYS
 10
338.912598
 20
96.040771
  0
VERTEX
  8
OBRYS
 10
339.312805
 20
96.962769
  0
VERTEX
  8
OBRYS
 10
339.343628
 20
97.064453
  0
VERTEX
  8
OBRYS
 10
339.710388
 20
97.432739
  0
VERTEX
  8
OBRYS
 10
340.089233
 20
97.934448
  0
VERTEX
  8
OBRYS
 10
340.115051
 20
97.978149
  0
VERTEX
  8
OBRYS
 10
340.434265
 20
98.237061
  0
VERTEX
  8
OBRYS
 10
340.731506
 20
98.545288
  0
VERTEX
  8
OBRYS
 10
340.805969
 20
98.646851
  0
VERTEX
  8
OBRYS
 10
340.968994
 20
98.797974
  0
VERTEX
  8
OBRYS
 10
342.832947
 20
100.829590
  0
VERTEX
  8
OBRYS
 10
343.233459
 20
101.033325
  0
VERTEX
  8
OBRYS
 10
343.622314
 20
101.202881
  0
SEQEND
  8
OBRYS
  0
POLYLINE
  8
OBRYS
 66
    1
  0
VERTEX
  8
OBRYS
 10
354.867798
 20
98.545288
  0
VERTEX
  8
OBRYS
 10
354.887512
 20
98.237061
  0
VERTEX
  8
OBRYS
 10
354.979309
 20
97.978149
  0
VERTEX
  8
OBRYS
 10
354.986755
 20
97.934448
  0
VERTEX
  8
OBRYS
 10
355.161560
 20
97.432739
  0
VERTEX
  8
OBRYS
 10
355.386047
 20
97.064453
  0
VERTEX
  8
OBRYS
 10
355.404907
 20
96.962769
  0
VERTEX
  8
OBRYS
 10
355.706970
 20
96.040771
  0
VERTEX
  8
OBRYS
 10
355.721436
 20
96.020264
  0
VERTEX
  8
OBRYS
 10
355.721436
 20
91.202881
  0
VERTEX
  8
OBRYS
 10
355.706970
 20
91.202881
  0
VERTEX
  8
OBRYS
 10
355.404907
 20
91.202881
  0
VERTEX
  8
OBRYS
 10
355.161560
 20
91.202881
  0
VERTEX
  8
OBRYS
 10
354.986755
 20
91.202881
  0
VERTEX
  8
OBRYS
 10
354.887512
 20
91.202881
  0
VERTEX
  8
OBRYS
 10
354.867798
 20
91.202881
  0
SEQEND
  8
OBRYS
  0
POLYLINE
  8
OBRYS
 66
    1
  0
VERTEX
  8
OBRYS
 10
320.940491
 20
96.962769
  0
VERTEX
  8
OBRYS
 10
320.967529
 20
96.040771
  0
VERTEX
  8
OBRYS
 10
320.971924
 20
96.020264
  0
VERTEX
  8
OBRYS
 10
320.971924
 20
91.202881
  0
VERTEX
  8
OBRYS
 10
320.967529
 20
91.202881
  0
VERTEX
  8
OBRYS
 10
320.940491
 20
91.202881
  0
SEQEND
  8
OBRYS
  0
LINE
  8
OBRYS
 10
321.108284
 20
101.203038
 11
329.177328
 21
101.203038
  0
LINE
  8
OBRYS
 10
323.789136
 20
91.203038
 11
320.940481
 21
91.203038
  0
LINE
  8
OBRYS
 10
326.294826
 20
101.203038
 11
329.177328
 21
101.203038
  0
LINE
  8
OBRYS
 10
356.248616
 20
101.203038
 11
356.143684
 21
101.203038
  0
POLYLINE
  8
OBRYS
 66
    1
  0
VERTEX
  8
OBRYS
 10
319.687134
 20
101.202881
  0
VERTEX
  8
OBRYS
 10
318.247681
 20
100.829590
  0
VERTEX
  8
OBRYS
 10
314.319092
 20
98.646851
  0
VERTEX
  8
OBRYS
 10
313.501099
 20
97.978149
  0
VERTEX
  8
OBRYS
 10
313.233643
 20
97.521973
  0
SEQEND
  8
OBRYS
  0
LINE
  8
OBRYS
 10
334.590167
 20
100.829681
 11
331.959743
 21
100.829681
  0
POLYLINE
  8
OBRYS
 66
    1
  0
VERTEX
  8
OBRYS
 10
329.894531
 20
99.217896
  0
VERTEX
  8
OBRYS
 10
329.312134
 20
98.549194
  0
VERTEX
  8
OBRYS
 10
328.930725
 20
97.635498
  0
VERTEX
  8
OBRYS
 10
328.798096
 20
96.591309
  0
SEQEND
  8
OBRYS
  0
LINE
  8
OBRYS
 10
332.984620
 20
101.203038
 11
331.959743
 21
100.829681
  0
LINE
  8
OBRYS
 10
332.674016
 20
99.218025
 11
329.894497
 21
99.218025
  0
LINE
  8
OBRYS
 10
328.798053
 20
96.039576
 11
331.656727
 21
96.039576
  0
LINE
  8
OBRYS
 10
331.656727
 20
96.591381
 11
328.798053
 21
96.591381
  0
LINE
  8
OBRYS
 10
335.541056
 20
101.203038
 11
332.984620
 21
101.203038
  0
POLYLINE
  8
OBRYS
 66
    1
  0
VERTEX
  8
OBRYS
 10
336.362122
 20
101.202881
  0
VERTEX
  8
OBRYS
 10
335.415405
 20
100.829590
  0
VERTEX
  8
OBRYS
 10
332.831787
 20
98.646851
  0
VERTEX
  8
OBRYS
 10
332.293762
 20
97.978149
  0
VERTEX
  8
OBRYS
 10
332.117920
 20
97.521973
  0
SEQEND
  8
OBRYS
  0
POLYLINE
  8
OBRYS
 66
    1
  0
VERTEX
  8
OBRYS
 10
332.117920
 20
97.521973
  0
VERTEX
  8
OBRYS
 10
331.974731
 20
97.344727
  0
VERTEX
  8
OBRYS
 10
331.738831
 20
96.735596
  0
VERTEX
  8
OBRYS
 10
331.656738
 20
96.039429
  0
SEQEND
  8
OBRYS
  0
POLYLINE
  8
OBRYS
 66
    1
  0
VERTEX
  8
OBRYS
 10
331.656738
 20
96.591309
  0
VERTEX
  8
OBRYS
 10
331.779846
 20
97.635498
  0
VERTEX
  8
OBRYS
 10
332.133667
 20
98.549194
  0
VERTEX
  8
OBRYS
 10
332.674072
 20
99.217896
  0
SEQEND
  8
OBRYS
  0
LINE
  8
OBRYS
 10
334.590167
 20
100.829681
 11
335.541056
 21
101.203038
  0
LINE
  8
OBRYS
 10
336.396033
 20
101.203038
 11
325.396033
 21
101.203038
  0
LINE
  8
OBRYS
 10
355.840323
 20
91.203038
 11
368.514976
 21
91.203038
  0
LINE
  8
OBRYS
 10
366.396033
 20
100.829681
 11
366.396033
 21
96.020310
  0
LINE
  8
OBRYS
 10
370.396033
 20
100.829681
 11
370.396033
 21
96.020310
  0
LINE
  8
OBRYS
 10
380.951743
 20
91.203038
 11
368.277090
 21
91.203038
  0
LINE
  8
OBRYS
 10
400.396033
 20
101.203038
 11
411.396033
 21
101.203038
  0
LINE
  8
OBRYS
 10
402.201898
 20
100.829681
 11
401.251010
 21
101.203038
  0
POLYLINE
  8
OBRYS
 66
    1
  0
VERTEX
  8
OBRYS
 10
405.135315
 20
96.591309
  0
VERTEX
  8
OBRYS
 10
405.012207
 20
97.635498
  0
VERTEX
  8
OBRYS
 10
404.658386
 20
98.549194
  0
VERTEX
  8
OBRYS
 10
404.117981
 20
99.217896
  0
SEQEND
  8
OBRYS
  0
POLYLINE
  8
OBRYS
 66
    1
  0
VERTEX
  8
OBRYS
 10
404.674133
 20
97.521973
  0
VERTEX
  8
OBRYS
 10
404.817322
 20
97.344727
  0
VERTEX
  8
OBRYS
 10
405.053223
 20
96.735596
  0
VERTEX
  8
OBRYS
 10
405.135315
 20
96.039429
  0
SEQEND
  8
OBRYS
  0
POLYLINE
  8
OBRYS
 66
    1
  0
VERTEX
  8
OBRYS
 10
400.429932
 20
101.202881
  0
VERTEX
  8
OBRYS
 10
401.376648
 20
100.829590
  0
VERTEX
  8
OBRYS
 10
403.960266
 20
98.646851
  0
VERTEX
  8
OBRYS
 10
404.498291
 20
97.978149
  0
VERTEX
  8
OBRYS
 10
404.674133
 20
97.521973
  0
SEQEND
  8
OBRYS
  0
LINE
  8
OBRYS
 10
401.251010
 20
101.203038
 11
403.807446
 21
101.203038
  0
LINE
  8
OBRYS
 10
405.135338
 20
96.591381
 11
407.994012
 21
96.591381
  0
LINE
  8
OBRYS
 10
407.994012
 20
96.039576
 11
405.135338
 21
96.039576
  0
LINE
  8
OBRYS
 10
404.118050
 20
99.218025
 11
406.897569
 21
99.218025
  0
LINE
  8
OBRYS
 10
403.807446
 20
101.203038
 11
404.832322
 21
100.829681
  0
POLYLINE
  8
OBRYS
 66
    1
  0
VERTEX
  8
OBRYS
 10
406.897522
 20
99.217896
  0
VERTEX
  8
OBRYS
 10
407.479919
 20
98.549194
  0
VERTEX
  8
OBRYS
 10
407.861328
 20
97.635498
  0
VERTEX
  8
OBRYS
 10
407.993958
 20
96.591309
  0
SEQEND
  8
OBRYS
  0
LINE
  8
OBRYS
 10
402.201898
 20
100.829681
 11
404.832322
 21
100.829681
  0
POLYLINE
  8
OBRYS
 66
    1
  0
VERTEX
  8
OBRYS
 10
417.104919
 20
101.202881
  0
VERTEX
  8
OBRYS
 10
418.544373
 20
100.829590
  0
VERTEX
  8
OBRYS
 10
422.472961
 20
98.646851
  0
VERTEX
  8
OBRYS
 10
423.290955
 20
97.978149
  0
VERTEX
  8
OBRYS
 10
423.558411
 20
97.521973
  0
SEQEND
  8
OBRYS
  0
LINE
  8
OBRYS
 10
380.543449
 20
101.203038
 11
380.648381
 21
101.203038
  0
LINE
  8
OBRYS
 10
410.497239
 20
101.203038
 11
407.614737
 21
101.203038
  0
LINE
  8
OBRYS
 10
413.002930
 20
91.203038
 11
415.851584
 21
91.203038
  0
LINE
  8
OBRYS
 10
415.683782
 20
101.203038
 11
407.614737
 21
101.203038
  0
POLYLINE
  8
OBRYS
 66
    1
  0
VERTEX
  8
OBRYS
 10
415.851563
 20
96.962769
  0
VERTEX
  8
OBRYS
 10
415.824524
 20
96.040771
  0
VERTEX
  8
OBRYS
 10
415.820129
 20
96.020264
  0
VERTEX
  8
OBRYS
 10
415.820129
 20
91.202881
  0
VERTEX
  8
OBRYS
 10
415.824524
 20
91.202881
  0
VERTEX
  8
OBRYS
 10
415.851563
 20
91.202881
  0
SEQEND
  8
OBRYS
  0
POLYLINE
  8
OBRYS
 66
    1
  0
VERTEX
  8
OBRYS
 10
381.924255
 20
98.545288
  0
VERTEX
  8
OBRYS
 10
381.904541
 20
98.237061
  0
VERTEX
  8
OBRYS
 10
381.812744
 20
97.978149
  0
VERTEX
  8
OBRYS
 10
381.805298
 20
97.934448
  0
VERTEX
  8
OBRYS
 10
381.630493
 20
97.432739
  0
VERTEX
  8
OBRYS
 10
381.406006
 20
97.064453
  0
VERTEX
  8
OBRYS
 10
381.387146
 20
96.962769
  0
VERTEX
  8
OBRYS
 10
381.085083
 20
96.040771
  0
VERTEX
  8
OBRYS
 10
381.070618
 20
96.020264
  0
VERTEX
  8
OBRYS
 10
381.070618
 20
91.202881
  0
VERTEX
  8
OBRYS
 10
381.085083
 20
91.202881
  0
VERTEX
  8
OBRYS
 10
381.387146
 20
91.202881
  0
VERTEX
  8
OBRYS
 10
381.630493
 20
91.202881
  0
VERTEX
  8
OBRYS
 10
381.805298
 20
91.202881
  0
VERTEX
  8
OBRYS
 10
381.904541
 20
91.202881
  0
VERTEX
  8
OBRYS
 10
381.924255
 20
91.202881
  0
SEQEND
  8
OBRYS
  0
POLYLINE
  8
OBRYS
 66
    1
  0
VERTEX
  8
OBRYS
 10
381.924255
 20
95.202881
  0
VERTEX
  8
OBRYS
 10
382.182190
 20
95.202881
  0
VERTEX
  8
OBRYS
 10
383.135315
 20
95.202881
  0
VERTEX
  8
OBRYS
 10
384.247803
 20
95.202881
  0
VERTEX
  8
OBRYS
 10
385.479309
 20
95.202881
  0
VERTEX
  8
OBRYS
 10
386.785156
 20
95.202881
  0
VERTEX
  8
OBRYS
 10
388.118042
 20
95.202881
  0
VERTEX
  8
OBRYS
 10
389.429565
 20
95.202881
  0
VERTEX
  8
OBRYS
 10
390.672241
 20
95.202881
  0
VERTEX
  8
OBRYS
 10
391.801025
 20
95.202881
  0
VERTEX
  8
OBRYS
 10
392.774902
 20
95.202881
  0
VERTEX
  8
OBRYS
 10
393.143555
 20
95.202881
  0
VERTEX
  8
OBRYS
 10
393.558594
 20
95.063232
  0
VERTEX
  8
OBRYS
 10
393.784058
 20
94.974609
  0
VERTEX
  8
OBRYS
 10
394.276794
 20
94.324219
  0
VERTEX
  8
OBRYS
 10
394.606018
 20
93.350952
  0
VERTEX
  8
OBRYS
 10
394.721680
 20
92.202881
  0
VERTEX
  8
OBRYS
 10
394.721680
 20
91.202881
  0
VERTEX
  8
OBRYS
 10
395.823059
 20
91.202881
  0
VERTEX
  8
OBRYS
 10
396.060547
 20
91.202881
  0
VERTEX
  8
OBRYS
 10
396.357788
 20
91.202881
  0
VERTEX
  8
OBRYS
 10
396.702820
 20
91.202881
  0
VERTEX
  8
OBRYS
 10
397.081665
 20
91.202881
  0
VERTEX
  8
OBRYS
 10
397.479248
 20
91.202881
  0
VERTEX
  8
OBRYS
 10
397.879456
 20
91.202881
  0
VERTEX
  8
OBRYS
 10
397.895508
 20
91.202881
  0
VERTEX
  8
OBRYS
 10
397.895508
 20
96.020264
  0
VERTEX
  8
OBRYS
 10
397.879456
 20
96.040771
  0
VERTEX
  8
OBRYS
 10
397.479248
 20
96.962769
  0
VERTEX
  8
OBRYS
 10
397.448425
 20
97.064453
  0
VERTEX
  8
OBRYS
 10
397.081665
 20
97.432739
  0
VERTEX
  8
OBRYS
 10
396.702820
 20
97.934448
  0
VERTEX
  8
OBRYS
 10
396.677002
 20
97.978149
  0
VERTEX
  8
OBRYS
 10
396.357788
 20
98.237061
  0
VERTEX
  8
OBRYS
 10
396.060547
 20
98.545288
  0
VERTEX
  8
OBRYS
 10
395.986084
 20
98.646851
  0
VERTEX
  8
OBRYS
 10
395.823059
 20
98.797974
  0
VERTEX
  8
OBRYS
 10
393.959106
 20
100.829590
  0
VERTEX
  8
OBRYS
 10
393.558594
 20
101.033325
  0
VERTEX
  8
OBRYS
 10
393.169739
 20
101.202881
  0
SEQEND
  8
OBRYS
  0
LINE
  8
OBRYS
 10
381.924297
 20
95.203038
 11
393.143584
 21
95.203038
  0
POLYLINE
  8
OBRYS
 66
    1
  0
VERTEX
  8
OBRYS
 10
418.552856
 20
91.202881
  0
VERTEX
  8
OBRYS
 10
418.552856
 20
92.202881
  0
VERTEX
  8
OBRYS
 10
418.332642
 20
93.350952
  0
VERTEX
  8
OBRYS
 10
417.705322
 20
94.324219
  0
VERTEX
  8
OBRYS
 10
416.766602
 20
94.974609
  0
VERTEX
  8
OBRYS
 10
416.336975
 20
95.063232
  0
VERTEX
  8
OBRYS
 10
415.851563
 20
95.160522
  0
SEQEND
  8
OBRYS
  0
POLYLINE
  8
OBRYS
 66
    1
  0
VERTEX
  8
OBRYS
 10
393.143555
 20
95.202881
  0
VERTEX
  8
OBRYS
 10
393.558594
 20
95.063232
  0
VERTEX
  8
OBRYS
 10
393.784058
 20
94.974609
  0
VERTEX
  8
OBRYS
 10
394.276794
 20
94.324219
  0
VERTEX
  8
OBRYS
 10
394.606018
 20
93.350952
  0
VERTEX
  8
OBRYS
 10
394.721680
 20
92.202881
  0
VERTEX
  8
OBRYS
 10
394.721680
 20
91.202881
  0
SEQEND
  8
OBRYS
  0
LINE
  8
OBRYS
 10
413.002930
 20
91.203038
 11
394.721703
 21
91.203038
  0
LINE
  8
OBRYS
 10
368.396033
 20
96.020310
 11
381.070686
 21
96.020310
  0
LINE
  8
OBRYS
 10
397.895530
 20
96.020310
 11
415.820196
 21
96.020310
  0
LINE
  8
OBRYS
 10
422.789275
 20
96.020310
 11
424.396033
 21
96.020310
  0
LINE
  8
OBRYS
 10
415.820196
 20
91.203038
 11
397.895530
 21
91.203038
  0
LINE
  8
OBRYS
 10
420.923531
 20
98.646954
 11
422.472989
 21
98.646954
  0
LINE
  8
OBRYS
 10
368.396033
 20
100.829681
 11
380.948378
 21
100.829681
  0
LINE
  8
OBRYS
 10
393.959159
 20
100.829681
 11
401.376682
 21
100.829681
  0
LINE
  8
OBRYS
 10
404.100527
 20
100.829681
 11
411.710857
 21
100.829681
  0
LINE
  8
OBRYS
 10
417.100099
 20
100.829681
 11
418.544431
 21
100.829681
  0
POLYLINE
  8
OBRYS
 66
    1
  0
VERTEX
  8
OBRYS
 10
380.648315
 20
101.202881
  0
VERTEX
  8
OBRYS
 10
380.751648
 20
101.033325
  0
VERTEX
  8
OBRYS
 10
380.948303
 20
100.829590
  0
VERTEX
  8
OBRYS
 10
381.863586
 20
98.797974
  0
VERTEX
  8
OBRYS
 10
381.905212
 20
98.646851
  0
VERTEX
  8
OBRYS
 10
381.924255
 20
98.545288
  0
SEQEND
  8
OBRYS
  0
ARC
  8
OBRYS
 10
412.338224
 20
96.792802
 40
3.518602
 50
2.568501
 51
19.763959
  0
POLYLINE
  8
OBRYS
 66
    1
  0
VERTEX
  8
OBRYS
 10
410.497192
 20
101.202881
  0
VERTEX
  8
OBRYS
 10
411.032166
 20
101.033325
  0
VERTEX
  8
OBRYS
 10
411.710815
 20
100.829590
  0
VERTEX
  8
OBRYS
 10
414.869141
 20
98.797974
  0
VERTEX
  8
OBRYS
 10
415.091003
 20
98.646851
  0
VERTEX
  8
OBRYS
 10
415.192444
 20
98.545288
  0
VERTEX
  8
OBRYS
 10
415.461792
 20
98.237061
  0
VERTEX
  8
OBRYS
 10
415.651123
 20
97.978149
  0
SEQEND
  8
OBRYS
  0
LINE
  8
OBRYS
 10
393.169802
 20
101.203038
 11
400.429991
 21
101.203038
  0
LINE
  8
OBRYS
 10
403.075650
 20
101.203038
 11
410.497239
 21
101.203038
  0
LINE
  8
OBRYS
 10
415.683782
 20
101.203038
 11
417.104951
 21
101.203038
  0
LINE
  8
OBRYS
 10
406.191360
 20
101.203038
 11
405.246886
 21
101.203038
  0
LINE
  8
OBRYS
 10
401.251010
 20
101.203038
 11
400.429991
 21
101.203038
  0
LINE
  8
OBRYS
 10
404.118050
 20
99.218025
 11
402.201898
 21
100.829681
  0
LINE
  8
OBRYS
 10
405.135338
 20
96.039576
 11
405.135338
 21
96.591381
  0
LINE
  8
OBRYS
 10
407.994012
 20
96.591381
 11
407.994012
 21
96.039576
  0
LINE
  8
OBRYS
 10
404.832322
 20
100.829681
 11
406.897569
 21
99.218025
  0
LINE
  8
OBRYS
 10
381.924297
 20
95.203038
 11
381.924297
 21
91.203038
  0
LINE
  8
OBRYS
 10
415.851584
 20
91.203038
 11
415.851584
 21
95.160574
  0
LINE
  8
OBRYS
 10
415.851584
 20
91.203038
 11
415.851584
 21
96.962905
  0
LINE
  8
OBRYS
 10
420.651400
 20
98.798046
 11
420.651400
 21
91.203038
  0
LINE
  8
OBRYS
 10
416.337012
 20
101.033472
 11
416.337012
 21
95.063272
  0
LINE
  8
OBRYS
 10
381.924297
 20
91.203038
 11
381.924297
 21
98.545331
  0
LINE
  8
OBRYS
 10
395.823118
 20
98.798046
 11
395.823118
 21
91.203038
  0
LINE
  8
OBRYS
 10
393.558641
 20
101.033472
 11
393.558641
 21
95.063272
  0
ARC
  8
OBRYS
 10
418.475333
 20
98.203038
 40
3.000000
 50
61.109871
 51
90.000000
  0
LINE
  8
OBRYS
 10
424.396033
 20
92.552532
 11
424.396033
 21
92.632416
  0
LINE
  8
OBRYS
 10
398.396033
 20
101.203038
 11
368.396033
 21
101.203038
  0
LINE
  8
OBRYS
 10
419.924728
 20
100.829681
 11
422.845427
 21
99.218025
  0
ARC
  8
OBRYS
 10
421.396033
 20
96.591381
 40
3.000000
 50
0.000000
 51
61.109871
  0
LINE
  8
OBRYS
 10
418.475333
 20
101.203038
 11
398.396033
 21
101.203038
  0
LINE
  8
OBRYS
 62
     7
  6
DASHDOT
 10
368.396033
 20
103.511976
 11
368.396033
 21
86.683038
  0
LINE
  8
OBRYS
 10
415.851584
 20
95.160574
 11
416.337012
 21
95.063272
  0
LINE
  8
OBRYS
 10
416.337012
 20
95.063272
 11
416.766623
 21
94.974676
  0
LINE
  8
OBRYS
 10
416.766623
 20
94.974676
 11
417.705396
 21
94.324358
  0
LINE
  8
OBRYS
 10
417.705396
 20
94.324358
 11
418.332664
 21
93.351088
  0
LINE
  8
OBRYS
 10
418.332664
 20
93.351088
 11
418.552932
 21
92.203038
  0
LINE
  8
OBRYS
 10
418.552932
 20
92.203038
 11
418.552932
 21
91.203038
  0
LINE
  8
OBRYS
 10
418.552932
 20
91.203038
 11
420.651400
 21
91.203038
  0
LINE
  8
OBRYS
 10
420.651400
 20
91.203038
 11
421.047919
 21
91.203038
  0
LINE
  8
OBRYS
 10
421.047919
 20
91.203038
 11
421.448565
 21
91.203038
  0
LINE
  8
OBRYS
 10
421.448565
 20
91.203038
 11
421.837223
 21
91.203038
  0
LINE
  8
OBRYS
 10
421.837223
 20
91.203038
 11
424.396033
 21
91.203038
  0
LINE
  8
OBRYS
 10
422.198258
 20
91.203038
 11
422.517148
 21
91.203038
  0
LINE
  8
OBRYS
 10
422.517148
 20
91.203038
 11
422.781064
 21
91.203038
  0
LINE
  8
OBRYS
 10
422.781064
 20
91.203038
 11
422.789275
 21
91.203038
  0
LINE
  8
OBRYS
 10
422.789275
 20
91.203038
 11
422.789275
 21
96.020310
  0
LINE
  8
OBRYS
 10
422.789275
 20
96.020310
 11
422.781064
 21
96.040819
  0
LINE
  8
OBRYS
 10
422.781064
 20
96.040819
 11
422.517148
 21
96.962905
  0
LINE
  8
OBRYS
 10
422.517148
 20
96.962905
 11
422.492436
 21
97.064552
  0
LINE
  8
OBRYS
 10
422.492436
 20
97.064552
 11
422.198258
 21
97.432805
  0
LINE
  8
OBRYS
 10
422.198258
 20
97.432805
 11
421.837223
 21
97.934502
  0
LINE
  8
OBRYS
 10
421.837223
 20
97.934502
 11
421.808150
 21
97.978189
  0
LINE
  8
OBRYS
 10
421.808150
 20
97.978189
 11
421.448565
 21
98.237189
  0
LINE
  8
OBRYS
 10
421.448565
 20
98.237189
 11
421.047919
 21
98.545331
  0
LINE
  8
OBRYS
 10
421.047919
 20
98.545331
 11
420.923531
 21
98.646954
  0
LINE
  8
OBRYS
 10
420.923531
 20
98.646954
 11
420.651400
 21
98.798046
  0
LINE
  8
OBRYS
 10
420.651400
 20
98.798046
 11
417.100099
 21
100.829681
  0
LINE
  8
OBRYS
 10
417.100099
 20
100.829681
 11
416.337012
 21
101.033472
  0
LINE
  8
OBRYS
 10
416.337012
 20
101.033472
 11
415.683782
 21
101.203038
  0
LINE
  8
OBRYS
 10
424.396033
 20
105.203038
 11
424.396033
 21
91.203038
  0
ARC
  8
OBRYS
 10
420.396033
 20
105.203038
 40
4.000000
 50
0.000000
 51
90.000000
  0
LINE
  8
OBRYS
 62
     7
  6
DASHDOT
 10
410.896033
 20
100.203038
 11
410.896033
 21
112.203034
  0
LINE
  8
OBRYS
 62
     7
  6
DASHDOT
 10
410.896033
 20
100.203038
 11
422.896029
 21
100.203038
  0
LINE
  8
OBRYS
 62
     7
  6
DASHDOT
 10
410.896033
 20
100.203038
 11
398.896036
 21
100.203038
  0
ARC
  8
OBRYS
 10
410.896033
 20
100.203038
 40
4.500000
 50
12.839588
 51
167.160412
  0
ARC
  8
OBRYS
 62
     4
  6
HIDDEN2
 10
410.896033
 20
100.203038
 40
4.500000
 50
167.160412
 51
12.839588
  0
LINE
  8
OBRYS
 10
420.396033
 20
109.203038
 11
391.896033
 21
109.203038
  0
LINE
  8
OBRYS
 10
389.896033
 20
107.203038
 11
389.896033
 21
101.203038
  0
ARC
  8
OBRYS
 10
391.896033
 20
107.203038
 40
2.000000
 50
90.000000
 51
180.000000
  0
LINE
  8
OBRYS
 10
394.996219
 20
107.203038
 11
394.996219
 21
101.203038
  0
LINE
  8
OBRYS
 10
341.795846
 20
107.203038
 11
341.795846
 21
101.203038
  0
ARC
  8
OBRYS
 10
344.896033
 20
107.203038
 40
2.000000
 50
0.000000
 51
90.000000
  0
LINE
  8
OBRYS
 10
346.896033
 20
107.203038
 11
346.896033
 21
101.203038
  0
LINE
  8
OBRYS
 10
316.396033
 20
109.203038
 11
344.896033
 21
109.203038
  0
ARC
  8
OBRYS
 62
     4
  6
HIDDEN2
 10
325.896033
 20
100.203038
 40
4.500000
 50
167.160412
 51
12.839588
  0
ARC
  8
OBRYS
 10
325.896033
 20
100.203038
 40
4.500000
 50
12.839588
 51
167.160412
  0
LINE
  8
OBRYS
 62
     7
  6
DASHDOT
 10
325.896033
 20
100.203038
 11
325.896033
 21
112.203034
  0
ARC
  8
OBRYS
 10
316.396033
 20
105.203038
 40
4.000000
 50
90.000000
 51
180.000000
  0
LINE
  8
OBRYS
 10
312.396033
 20
105.203038
 11
312.396033
 21
91.203038
  0
LINE
  8
OBRYS
 62
     7
  6
DASHDOT
 10
325.896033
 20
100.203038
 11
337.896029
 21
100.203038
  0
LINE
  8
OBRYS
 62
     7
  6
DASHDOT
 10
325.896033
 20
100.203038
 11
313.896036
 21
100.203038
  0
ENDBLK
  8
OBRYS
  0
BLOCK
  8
OSA
  2
Sroub_M10x16_10
 70
   66
 10
368.396033
 20
52.203038
  0
LINE
  8
OSA
 62
     2
  6
CONTINUOUS
 10
364.396033
 20
54.512453
 11
364.396033
 21
49.893622
  0
LINE
  8
OSA
 62
     2
  6
CONTINUOUS
 10
364.396033
 20
49.893622
 11
368.396033
 21
47.584207
  0
LINE
  8
OSA
 62
     2
  6
CONTINUOUS
 10
368.396033
 20
47.584207
 11
372.396033
 21
49.893622
  0
LINE
  8
OSA
 62
     2
  6
CONTINUOUS
 10
372.396033
 20
49.893622
 11
372.396033
 21
54.512453
  0
LINE
  8
OSA
 62
     2
  6
CONTINUOUS
 10
372.396033
 20
54.512453
 11
368.396033
 21
56.821869
  0
LINE
  8
OSA
 62
     2
  6
CONTINUOUS
 10
368.396033
 20
56.821869
 11
364.396033
 21
54.512453
  0
CIRCLE
  8
OSA
 62
     2
  6
CONTINUOUS
 10
368.396033
 20
52.203038
 40
4.618831
  0
CIRCLE
  8
OSA
 62
     2
  6
CONTINUOUS
 10
368.396033
 20
52.203038
 40
8.000000
  0
ENDBLK
  8
OSA
  0
BLOCK
  8
OBRYS
  2
_11
 70
   64
 10
368.396033
 20
52.203038
  0
LINE
  8
OBRYS
 10
314.593807
 20
13.203038
 11
314.274917
 21
13.203038
  0
LINE
  8
OBRYS
 10
314.274917
 20
13.203038
 11
314.011001
 21
13.203038
  0
LINE
  8
OBRYS
 10
314.011001
 20
13.203038
 11
314.002791
 21
13.203038
  0
LINE
  8
OBRYS
 10
314.002791
 20
13.203038
 11
314.002791
 21
8.385765
  0
LINE
  8
OBRYS
 10
314.002791
 20
8.385765
 11
314.011001
 21
8.365257
  0
LINE
  8
OBRYS
 10
314.011001
 20
8.365257
 11
314.274917
 21
7.443171
  0
LINE
  8
OBRYS
 10
314.274917
 20
7.443171
 11
314.299629
 21
7.341524
  0
LINE
  8
OBRYS
 10
314.299629
 20
7.341524
 11
314.593807
 21
6.973271
  0
LINE
  8
OBRYS
 10
314.593807
 20
6.973271
 11
314.954842
 21
6.471573
  0
LINE
  8
OBRYS
 10
314.954842
 20
6.471573
 11
314.983916
 21
6.427886
  0
LINE
  8
OBRYS
 10
314.983916
 20
6.427886
 11
315.343501
 21
6.168886
  0
LINE
  8
OBRYS
 10
315.343501
 20
6.168886
 11
315.744147
 21
5.860745
  0
LINE
  8
OBRYS
 10
315.744147
 20
5.860745
 11
315.868535
 21
5.759122
  0
LINE
  8
OBRYS
 10
315.868535
 20
5.759122
 11
316.140665
 21
5.608030
  0
LINE
  8
OBRYS
 10
316.140665
 20
5.608030
 11
319.691967
 21
3.576394
  0
LINE
  8
OBRYS
 10
319.691967
 20
3.576394
 11
320.455054
 21
3.372604
  0
LINE
  8
OBRYS
 10
320.455054
 20
3.372604
 11
321.108284
 21
3.203038
  0
LINE
  8
OBRYS
 10
320.940481
 20
9.245502
 11
320.455054
 21
9.342804
  0
LINE
  8
OBRYS
 10
320.455054
 20
9.342804
 11
320.025442
 21
9.431399
  0
LINE
  8
OBRYS
 10
320.025442
 20
9.431399
 11
319.086669
 21
10.081717
  0
LINE
  8
OBRYS
 10
319.086669
 20
10.081717
 11
318.459401
 21
11.054987
  0
LINE
  8
OBRYS
 10
318.459401
 20
11.054987
 11
318.239134
 21
12.203038
  0
LINE
  8
OBRYS
 10
318.239134
 20
12.203038
 11
318.239134
 21
13.203038
  0
LINE
  8
OBRYS
 10
318.239134
 20
13.203038
 11
316.140665
 21
13.203038
  0
LINE
  8
OBRYS
 10
316.140665
 20
13.203038
 11
315.744147
 21
13.203038
  0
LINE
  8
OBRYS
 10
315.744147
 20
13.203038
 11
315.343501
 21
13.203038
  0
LINE
  8
OBRYS
 10
315.343501
 20
13.203038
 11
314.954842
 21
13.203038
  0
LINE
  8
OBRYS
 10
314.954842
 20
13.203038
 11
312.396033
 21
13.203038
  0
LINE
  8
OBRYS
 10
312.396033
 20
7.814694
 11
312.396033
 21
13.203038
  0
LINE
  8
OBRYS
 10
318.316733
 20
3.203038
 11
338.396033
 21
3.203038
  0
ARC
  8
OBRYS
 10
315.396033
 20
7.814694
 40
3.000000
 50
180.000000
 51
241.109871
  0
LINE
  8
OBRYS
 10
316.867338
 20
3.576394
 11
313.946638
 21
5.188051
  0
LINE
  8
OBRYS
 10
338.396033
 20
3.203038
 11
368.396033
 21
3.203038
  0
LINE
  8
OBRYS
 10
312.396033
 20
11.853544
 11
312.396033
 21
11.773659
  0
ARC
  8
OBRYS
 10
318.316733
 20
6.203038
 40
3.000000
 50
241.109871
 51
270.000000
  0
LINE
  8
OBRYS
 10
343.233425
 20
3.372604
 11
343.233425
 21
9.342804
  0
LINE
  8
OBRYS
 10
340.968947
 20
5.608030
 11
340.968947
 21
13.203038
  0
LINE
  8
OBRYS
 10
354.867769
 20
13.203038
 11
354.867769
 21
5.860745
  0
LINE
  8
OBRYS
 10
320.455054
 20
3.372604
 11
320.455054
 21
9.342804
  0
LINE
  8
OBRYS
 10
316.140665
 20
5.608030
 11
316.140665
 21
13.203038
  0
LINE
  8
OBRYS
 10
320.940481
 20
13.203038
 11
320.940481
 21
7.443171
  0
LINE
  8
OBRYS
 10
320.940481
 20
13.203038
 11
320.940481
 21
9.245502
  0
LINE
  8
OBRYS
 10
354.867769
 20
9.203038
 11
354.867769
 21
13.203038
  0
LINE
  8
OBRYS
 10
331.959743
 20
3.576394
 11
329.894497
 21
5.188051
  0
LINE
  8
OBRYS
 10
328.798053
 20
7.814694
 11
328.798053
 21
8.366499
  0
LINE
  8
OBRYS
 10
331.656727
 20
8.366499
 11
331.656727
 21
7.814694
  0
LINE
  8
OBRYS
 10
332.674016
 20
5.188051
 11
334.590167
 21
3.576394
  0
LINE
  8
OBRYS
 10
335.541056
 20
3.203038
 11
336.362074
 21
3.203038
  0
LINE
  8
OBRYS
 10
330.600705
 20
3.203038
 11
331.545179
 21
3.203038
  0
LINE
  8
OBRYS
 10
321.108284
 20
3.203038
 11
319.687115
 21
3.203038
  0
LINE
  8
OBRYS
 10
333.716415
 20
3.203038
 11
326.294826
 21
3.203038
  0
LINE
  8
OBRYS
 10
343.622263
 20
3.203038
 11
336.362074
 21
3.203038
  0
POLYLINE
  8
OBRYS
 66
    1
  0
VERTEX
  8
OBRYS
 10
326.294861
 20
3.203193
  0
VERTEX
  8
OBRYS
 10
325.759888
 20
3.372748
  0
VERTEX
  8
OBRYS
 10
325.081238
 20
3.576484
  0
VERTEX
  8
OBRYS
 10
321.922913
 20
5.608100
  0
VERTEX
  8
OBRYS
 10
321.701050
 20
5.759223
  0
VERTEX
  8
OBRYS
 10
321.599609
 20
5.860785
  0
VERTEX
  8
OBRYS
 10
321.330261
 20
6.169013
  0
VERTEX
  8
OBRYS
 10
321.140930
 20
6.427924
  0
SEQEND
  8
OBRYS
  0
ARC
  8
OBRYS
 10
324.453842
 20
7.613273
 40
3.518602
 50
182.568501
 51
199.763959
  0
POLYLINE
  8
OBRYS
 66
    1
  0
VERTEX
  8
OBRYS
 10
356.143738
 20
3.203193
  0
VERTEX
  8
OBRYS
 10
356.040405
 20
3.372748
  0
VERTEX
  8
OBRYS
 10
355.843750
 20
3.576484
  0
VERTEX
  8
OBRYS
 10
354.928467
 20
5.608100
  0
VERTEX
  8
OBRYS
 10
354.886841
 20
5.759223
  0
VERTEX
  8
OBRYS
 10
354.867798
 20
5.860785
  0
SEQEND
  8
OBRYS
  0
LINE
  8
OBRYS
 10
319.691967
 20
3.576394
 11
318.247634
 21
3.576394
  0
LINE
  8
OBRYS
 10
332.691538
 20
3.576394
 11
325.081209
 21
3.576394
  0
LINE
  8
OBRYS
 10
342.832906
 20
3.576394
 11
335.415384
 21
3.576394
  0
LINE
  8
OBRYS
 10
368.396033
 20
3.576394
 11
355.843687
 21
3.576394
  0
LINE
  8
OBRYS
 10
315.868535
 20
5.759122
 11
314.319076
 21
5.759122
  0
LINE
  8
OBRYS
 10
320.971870
 20
13.203038
 11
338.896535
 21
13.203038
  0
LINE
  8
OBRYS
 10
314.002791
 20
8.385765
 11
312.396033
 21
8.385765
  0
LINE
  8
OBRYS
 10
338.896535
 20
8.385765
 11
320.971870
 21
8.385765
  0
LINE
  8
OBRYS
 10
368.396033
 20
8.385765
 11
355.721380
 21
8.385765
  0
LINE
  8
OBRYS
 10
323.789136
 20
13.203038
 11
342.070363
 21
13.203038
  0
POLYLINE
  8
OBRYS
 66
    1
  0
VERTEX
  8
OBRYS
 10
343.648499
 20
9.203193
  0
VERTEX
  8
OBRYS
 10
343.233459
 20
9.342841
  0
VERTEX
  8
OBRYS
 10
343.007996
 20
9.431464
  0
VERTEX
  8
OBRYS
 10
342.515259
 20
10.081855
  0
VERTEX
  8
OBRYS
 10
342.186035
 20
11.055121
  0
VERTEX
  8
OBRYS
 10
342.070374
 20
12.203193
  0
VERTEX
  8
OBRYS
 10
342.070374
 20
13.203193
  0
SEQEND
  8
OBRYS
  0
POLYLINE
  8
OBRYS
 66
    1
  0
VERTEX
  8
OBRYS
 10
318.239197
 20
13.203193
  0
VERTEX
  8
OBRYS
 10
318.239197
 20
12.203193
  0
VERTEX
  8
OBRYS
 10
318.459412
 20
11.055121
  0
VERTEX
  8
OBRYS
 10
319.086731
 20
10.081855
  0
VERTEX
  8
OBRYS
 10
320.025452
 20
9.431464
  0
VERTEX
  8
OBRYS
 10
320.455078
 20
9.342841
  0
VERTEX
  8
OBRYS
 10
320.940491
 20
9.245551
  0
SEQEND
  8
OBRYS
  0
LINE
  8
OBRYS
 10
354.867769
 20
9.203038
 11
343.648482
 21
9.203038
  0
POLYLINE
  8
OBRYS
 66
    1
  0
VERTEX
  8
OBRYS
 10
354.867798
 20
9.203193
  0
VERTEX
  8
OBRYS
 10
354.609863
 20
9.203193
  0
VERTEX
  8
OBRYS
 10
353.656738
 20
9.203193
  0
VERTEX
  8
OBRYS
 10
352.544250
 20
9.203193
  0
VERTEX
  8
OBRYS
 10
351.312744
 20
9.203193
  0
VERTEX
  8
OBRYS
 10
350.006897
 20
9.203193
  0
VERTEX
  8
OBRYS
 10
348.674011
 20
9.203193
  0
VERTEX
  8
OBRYS
 10
347.362488
 20
9.203193
  0
VERTEX
  8
OBRYS
 10
346.119812
 20
9.203193
  0
VERTEX
  8
OBRYS
 10
344.991028
 20
9.203193
  0
VERTEX
  8
OBRYS
 10
344.017151
 20
9.203193
  0
VERTEX
  8
OBRYS
 10
343.648499
 20
9.203193
  0
VERTEX
  8
OBRYS
 10
343.233459
 20
9.342841
  0
VERTEX
  8
OBRYS
 10
343.007996
 20
9.431464
  0
VERTEX
  8
OBRYS
 10
342.515259
 20
10.081855
  0
VERTEX
  8
OBRYS
 10
342.186035
 20
11.055121
  0
VERTEX
  8
OBRYS
 10
342.070374
 20
12.203193
  0
VERTEX
  8
OBRYS
 10
342.070374
 20
13.203193
  0
VERTEX
  8
OBRYS
 10
340.968994
 20
13.203193
  0
VERTEX
  8
OBRYS
 10
340.731506
 20
13.203193
  0
VERTEX
  8
OBRYS
 10
340.434265
 20
13.203193
  0
VERTEX
  8
OBRYS
 10
340.089233
 20
13.203193
  0
VERTEX
  8
OBRYS
 10
339.710388
 20
13.203193
  0
VERTEX
  8
OBRYS
 10
339.312805
 20
13.203193
  0
VERTEX
  8
OBRYS
 10
338.912598
 20
13.203193
  0
VERTEX
  8
OBRYS
 10
338.896545
 20
13.203193
  0
VERTEX
  8
OBRYS
 10
338.896545
 20
8.385810
  0
VERTEX
  8
OBRYS
 10
338.912598
 20
8.365302
  0
VERTEX
  8
OBRYS
 10
339.312805
 20
7.443305
  0
VERTEX
  8
OBRYS
 10
339.343628
 20
7.341620
  0
VERTEX
  8
OBRYS
 10
339.710388
 20
6.973334
  0
VERTEX
  8
OBRYS
 10
340.089233
 20
6.471625
  0
VERTEX
  8
OBRYS
 10
340.115051
 20
6.427924
  0
VERTEX
  8
OBRYS
 10
340.434265
 20
6.169013
  0
VERTEX
  8
OBRYS
 10
340.731506
 20
5.860785
  0
VERTEX
  8
OBRYS
 10
340.805969
 20
5.759223
  0
VERTEX
  8
OBRYS
 10
340.968994
 20
5.608100
  0
VERTEX
  8
OBRYS
 10
342.832947
 20
3.576484
  0
VERTEX
  8
OBRYS
 10
343.233459
 20
3.372748
  0
VERTEX
  8
OBRYS
 10
343.622314
 20
3.203193
  0
SEQEND
  8
OBRYS
  0
POLYLINE
  8
OBRYS
 66
    1
  0
VERTEX
  8
OBRYS
 10
354.867798
 20
5.860785
  0
VERTEX
  8
OBRYS
 10
354.887512
 20
6.169013
  0
VERTEX
  8
OBRYS
 10
354.979309
 20
6.427924
  0
VERTEX
  8
OBRYS
 10
354.986755
 20
6.471625
  0
VERTEX
  8
OBRYS
 10
355.161560
 20
6.973334
  0
VERTEX
  8
OBRYS
 10
355.386047
 20
7.341620
  0
VERTEX
  8
OBRYS
 10
355.404907
 20
7.443305
  0
VERTEX
  8
OBRYS
 10
355.706970
 20
8.365302
  0
VERTEX
  8
OBRYS
 10
355.721436
 20
8.385810
  0
VERTEX
  8
OBRYS
 10
355.721436
 20
13.203193
  0
VERTEX
  8
OBRYS
 10
355.706970
 20
13.203193
  0
VERTEX
  8
OBRYS
 10
355.404907
 20
13.203193
  0
VERTEX
  8
OBRYS
 10
355.161560
 20
13.203193
  0
VERTEX
  8
OBRYS
 10
354.986755
 20
13.203193
  0
VERTEX
  8
OBRYS
 10
354.887512
 20
13.203193
  0
VERTEX
  8
OBRYS
 10
354.867798
 20
13.203193
  0
SEQEND
  8
OBRYS
  0
POLYLINE
  8
OBRYS
 66
    1
  0
VERTEX
  8
OBRYS
 10
320.940491
 20
7.443305
  0
VERTEX
  8
OBRYS
 10
320.967529
 20
8.365302
  0
VERTEX
  8
OBRYS
 10
320.971924
 20
8.385810
  0
VERTEX
  8
OBRYS
 10
320.971924
 20
13.203193
  0
VERTEX
  8
OBRYS
 10
320.967529
 20
13.203193
  0
VERTEX
  8
OBRYS
 10
320.940491
 20
13.203193
  0
SEQEND
  8
OBRYS
  0
LINE
  8
OBRYS
 10
321.108284
 20
3.203038
 11
329.177328
 21
3.203038
  0
LINE
  8
OBRYS
 10
323.789136
 20
13.203038
 11
320.940481
 21
13.203038
  0
LINE
  8
OBRYS
 10
326.294826
 20
3.203038
 11
329.177328
 21
3.203038
  0
LINE
  8
OBRYS
 10
356.248616
 20
3.203038
 11
356.143684
 21
3.203038
  0
POLYLINE
  8
OBRYS
 66
    1
  0
VERTEX
  8
OBRYS
 10
319.687134
 20
3.203193
  0
VERTEX
  8
OBRYS
 10
318.247681
 20
3.576484
  0
VERTEX
  8
OBRYS
 10
314.319092
 20
5.759223
  0
VERTEX
  8
OBRYS
 10
313.501099
 20
6.427924
  0
VERTEX
  8
OBRYS
 10
313.233643
 20
6.884101
  0
SEQEND
  8
OBRYS
  0
LINE
  8
OBRYS
 10
334.590167
 20
3.576394
 11
331.959743
 21
3.576394
  0
POLYLINE
  8
OBRYS
 66
    1
  0
VERTEX
  8
OBRYS
 10
329.894531
 20
5.188178
  0
VERTEX
  8
OBRYS
 10
329.312134
 20
5.856879
  0
VERTEX
  8
OBRYS
 10
328.930725
 20
6.770576
  0
VERTEX
  8
OBRYS
 10
328.798096
 20
7.814765
  0
SEQEND
  8
OBRYS
  0
LINE
  8
OBRYS
 10
332.984620
 20
3.203038
 11
331.959743
 21
3.576394
  0
LINE
  8
OBRYS
 10
332.674016
 20
5.188051
 11
329.894497
 21
5.188051
  0
LINE
  8
OBRYS
 10
328.798053
 20
8.366499
 11
331.656727
 21
8.366499
  0
LINE
  8
OBRYS
 10
331.656727
 20
7.814694
 11
328.798053
 21
7.814694
  0
LINE
  8
OBRYS
 10
335.541056
 20
3.203038
 11
332.984620
 21
3.203038
  0
POLYLINE
  8
OBRYS
 66
    1
  0
VERTEX
  8
OBRYS
 10
336.362122
 20
3.203193
  0
VERTEX
  8
OBRYS
 10
335.415405
 20
3.576484
  0
VERTEX
  8
OBRYS
 10
332.831787
 20
5.759223
  0
VERTEX
  8
OBRYS
 10
332.293762
 20
6.427924
  0
VERTEX
  8
OBRYS
 10
332.117920
 20
6.884101
  0
SEQEND
  8
OBRYS
  0
POLYLINE
  8
OBRYS
 66
    1
  0
VERTEX
  8
OBRYS
 10
332.117920
 20
6.884101
  0
VERTEX
  8
OBRYS
 10
331.974731
 20
7.061347
  0
VERTEX
  8
OBRYS
 10
331.738831
 20
7.670478
  0
VERTEX
  8
OBRYS
 10
331.656738
 20
8.366645
  0
SEQEND
  8
OBRYS
  0
POLYLINE
  8
OBRYS
 66
    1
  0
VERTEX
  8
OBRYS
 10
331.656738
 20
7.814765
  0
VERTEX
  8
OBRYS
 10
331.779846
 20
6.770576
  0
VERTEX
  8
OBRYS
 10
332.133667
 20
5.856879
  0
VERTEX
  8
OBRYS
 10
332.674072
 20
5.188178
  0
SEQEND
  8
OBRYS
  0
LINE
  8
OBRYS
 10
334.590167
 20
3.576394
 11
335.541056
 21
3.203038
  0
LINE
  8
OBRYS
 10
336.396033
 20
3.203038
 11
325.396033
 21
3.203038
  0
LINE
  8
OBRYS
 10
355.840323
 20
13.203038
 11
368.514976
 21
13.203038
  0
LINE
  8
OBRYS
 10
366.396033
 20
3.576394
 11
366.396033
 21
8.385765
  0
LINE
  8
OBRYS
 10
370.396033
 20
3.576394
 11
370.396033
 21
8.385765
  0
LINE
  8
OBRYS
 10
380.951743
 20
13.203038
 11
368.277090
 21
13.203038
  0
LINE
  8
OBRYS
 10
400.396033
 20
3.203038
 11
411.396033
 21
3.203038
  0
LINE
  8
OBRYS
 10
402.201898
 20
3.576394
 11
401.251010
 21
3.203038
  0
POLYLINE
  8
OBRYS
 66
    1
  0
VERTEX
  8
OBRYS
 10
405.135315
 20
7.814765
  0
VERTEX
  8
OBRYS
 10
405.012207
 20
6.770576
  0
VERTEX
  8
OBRYS
 10
404.658386
 20
5.856879
  0
VERTEX
  8
OBRYS
 10
404.117981
 20
5.188178
  0
SEQEND
  8
OBRYS
  0
POLYLINE
  8
OBRYS
 66
    1
  0
VERTEX
  8
OBRYS
 10
404.674133
 20
6.884101
  0
VERTEX
  8
OBRYS
 10
404.817322
 20
7.061347
  0
VERTEX
  8
OBRYS
 10
405.053223
 20
7.670478
  0
VERTEX
  8
OBRYS
 10
405.135315
 20
8.366645
  0
SEQEND
  8
OBRYS
  0
POLYLINE
  8
OBRYS
 66
    1
  0
VERTEX
  8
OBRYS
 10
400.429932
 20
3.203193
  0
VERTEX
  8
OBRYS
 10
401.376648
 20
3.576484
  0
VERTEX
  8
OBRYS
 10
403.960266
 20
5.759223
  0
VERTEX
  8
OBRYS
 10
404.498291
 20
6.427924
  0
VERTEX
  8
OBRYS
 10
404.674133
 20
6.884101
  0
SEQEND
  8
OBRYS
  0
LINE
  8
OBRYS
 10
401.251010
 20
3.203038
 11
403.807446
 21
3.203038
  0
LINE
  8
OBRYS
 10
405.135338
 20
7.814694
 11
407.994012
 21
7.814694
  0
LINE
  8
OBRYS
 10
407.994012
 20
8.366499
 11
405.135338
 21
8.366499
  0
LINE
  8
OBRYS
 10
404.118050
 20
5.188051
 11
406.897569
 21
5.188051
  0
LINE
  8
OBRYS
 10
403.807446
 20
3.203038
 11
404.832322
 21
3.576394
  0
POLYLINE
  8
OBRYS
 66
    1
  0
VERTEX
  8
OBRYS
 10
406.897522
 20
5.188178
  0
VERTEX
  8
OBRYS
 10
407.479919
 20
5.856879
  0
VERTEX
  8
OBRYS
 10
407.861328
 20
6.770576
  0
VERTEX
  8
OBRYS
 10
407.993958
 20
7.814765
  0
SEQEND
  8
OBRYS
  0
LINE
  8
OBRYS
 10
402.201898
 20
3.576394
 11
404.832322
 21
3.576394
  0
POLYLINE
  8
OBRYS
 66
    1
  0
VERTEX
  8
OBRYS
 10
417.104919
 20
3.203193
  0
VERTEX
  8
OBRYS
 10
418.544373
 20
3.576484
  0
VERTEX
  8
OBRYS
 10
422.472961
 20
5.759223
  0
VERTEX
  8
OBRYS
 10
423.290955
 20
6.427924
  0
VERTEX
  8
OBRYS
 10
423.558411
 20
6.884101
  0
SEQEND
  8
OBRYS
  0
LINE
  8
OBRYS
 10
380.543449
 20
3.203038
 11
380.648381
 21
3.203038
  0
LINE
  8
OBRYS
 10
410.497239
 20
3.203038
 11
407.614737
 21
3.203038
  0
LINE
  8
OBRYS
 10
413.002930
 20
13.203038
 11
415.851584
 21
13.203038
  0
LINE
  8
OBRYS
 10
415.683782
 20
3.203038
 11
407.614737
 21
3.203038
  0
POLYLINE
  8
OBRYS
 66
    1
  0
VERTEX
  8
OBRYS
 10
415.851563
 20
7.443305
  0
VERTEX
  8
OBRYS
 10
415.824524
 20
8.365302
  0
VERTEX
  8
OBRYS
 10
415.820129
 20
8.385810
  0
VERTEX
  8
OBRYS
 10
415.820129
 20
13.203193
  0
VERTEX
  8
OBRYS
 10
415.824524
 20
13.203193
  0
VERTEX
  8
OBRYS
 10
415.851563
 20
13.203193
  0
SEQEND
  8
OBRYS
  0
POLYLINE
  8
OBRYS
 66
    1
  0
VERTEX
  8
OBRYS
 10
381.924255
 20
5.860785
  0
VERTEX
  8
OBRYS
 10
381.904541
 20
6.169013
  0
VERTEX
  8
OBRYS
 10
381.812744
 20
6.427924
  0
VERTEX
  8
OBRYS
 10
381.805298
 20
6.471625
  0
VERTEX
  8
OBRYS
 10
381.630493
 20
6.973334
  0
VERTEX
  8
OBRYS
 10
381.406006
 20
7.341620
  0
VERTEX
  8
OBRYS
 10
381.387146
 20
7.443305
  0
VERTEX
  8
OBRYS
 10
381.085083
 20
8.365302
  0
VERTEX
  8
OBRYS
 10
381.070618
 20
8.385810
  0
VERTEX
  8
OBRYS
 10
381.070618
 20
13.203193
  0
VERTEX
  8
OBRYS
 10
381.085083
 20
13.203193
  0
VERTEX
  8
OBRYS
 10
381.387146
 20
13.203193
  0
VERTEX
  8
OBRYS
 10
381.630493
 20
13.203193
  0
VERTEX
  8
OBRYS
 10
381.805298
 20
13.203193
  0
VERTEX
  8
OBRYS
 10
381.904541
 20
13.203193
  0
VERTEX
  8
OBRYS
 10
381.924255
 20
13.203193
  0
SEQEND
  8
OBRYS
  0
POLYLINE
  8
OBRYS
 66
    1
  0
VERTEX
  8
OBRYS
 10
381.924255
 20
9.203193
  0
VERTEX
  8
OBRYS
 10
382.182190
 20
9.203193
  0
VERTEX
  8
OBRYS
 10
383.135315
 20
9.203193
  0
VERTEX
  8
OBRYS
 10
384.247803
 20
9.203193
  0
VERTEX
  8
OBRYS
 10
385.479309
 20
9.203193
  0
VERTEX
  8
OBRYS
 10
386.785156
 20
9.203193
  0
VERTEX
  8
OBRYS
 10
388.118042
 20
9.203193
  0
VERTEX
  8
OBRYS
 10
389.429565
 20
9.203193
  0
VERTEX
  8
OBRYS
 10
390.672241
 20
9.203193
  0
VERTEX
  8
OBRYS
 10
391.801025
 20
9.203193
  0
VERTEX
  8
OBRYS
 10
392.774902
 20
9.203193
  0
VERTEX
  8
OBRYS
 10
393.143555
 20
9.203193
  0
VERTEX
  8
OBRYS
 10
393.558594
 20
9.342841
  0
VERTEX
  8
OBRYS
 10
393.784058
 20
9.431464
  0
VERTEX
  8
OBRYS
 10
394.276794
 20
10.081855
  0
VERTEX
  8
OBRYS
 10
394.606018
 20
11.055121
  0
VERTEX
  8
OBRYS
 10
394.721680
 20
12.203193
  0
VERTEX
  8
OBRYS
 10
394.721680
 20
13.203193
  0
VERTEX
  8
OBRYS
 10
395.823059
 20
13.203193
  0
VERTEX
  8
OBRYS
 10
396.060547
 20
13.203193
  0
VERTEX
  8
OBRYS
 10
396.357788
 20
13.203193
  0
VERTEX
  8
OBRYS
 10
396.702820
 20
13.203193
  0
VERTEX
  8
OBRYS
 10
397.081665
 20
13.203193
  0
VERTEX
  8
OBRYS
 10
397.479248
 20
13.203193
  0
VERTEX
  8
OBRYS
 10
397.879456
 20
13.203193
  0
VERTEX
  8
OBRYS
 10
397.895508
 20
13.203193
  0
VERTEX
  8
OBRYS
 10
397.895508
 20
8.385810
  0
VERTEX
  8
OBRYS
 10
397.879456
 20
8.365302
  0
VERTEX
  8
OBRYS
 10
397.479248
 20
7.443305
  0
VERTEX
  8
OBRYS
 10
397.448425
 20
7.341620
  0
VERTEX
  8
OBRYS
 10
397.081665
 20
6.973334
  0
VERTEX
  8
OBRYS
 10
396.702820
 20
6.471625
  0
VERTEX
  8
OBRYS
 10
396.677002
 20
6.427924
  0
VERTEX
  8
OBRYS
 10
396.357788
 20
6.169013
  0
VERTEX
  8
OBRYS
 10
396.060547
 20
5.860785
  0
VERTEX
  8
OBRYS
 10
395.986084
 20
5.759223
  0
VERTEX
  8
OBRYS
 10
395.823059
 20
5.608100
  0
VERTEX
  8
OBRYS
 10
393.959106
 20
3.576484
  0
VERTEX
  8
OBRYS
 10
393.558594
 20
3.372748
  0
VERTEX
  8
OBRYS
 10
393.169739
 20
3.203193
  0
SEQEND
  8
OBRYS
  0
LINE
  8
OBRYS
 10
381.924297
 20
9.203038
 11
393.143584
 21
9.203038
  0
POLYLINE
  8
OBRYS
 66
    1
  0
VERTEX
  8
OBRYS
 10
418.552856
 20
13.203193
  0
VERTEX
  8
OBRYS
 10
418.552856
 20
12.203193
  0
VERTEX
  8
OBRYS
 10
418.332642
 20
11.055121
  0
VERTEX
  8
OBRYS
 10
417.705322
 20
10.081855
  0
VERTEX
  8
OBRYS
 10
416.766602
 20
9.431464
  0
VERTEX
  8
OBRYS
 10
416.336975
 20
9.342841
  0
VERTEX
  8
OBRYS
 10
415.851563
 20
9.245551
  0
SEQEND
  8
OBRYS
  0
POLYLINE
  8
OBRYS
 66
    1
  0
VERTEX
  8
OBRYS
 10
393.143555
 20
9.203193
  0
VERTEX
  8
OBRYS
 10
393.558594
 20
9.342841
  0
VERTEX
  8
OBRYS
 10
393.784058
 20
9.431464
  0
VERTEX
  8
OBRYS
 10
394.276794
 20
10.081855
  0
VERTEX
  8
OBRYS
 10
394.606018
 20
11.055121
  0
VERTEX
  8
OBRYS
 10
394.721680
 20
12.203193
  0
VERTEX
  8
OBRYS
 10
394.721680
 20
13.203193
  0
SEQEND
  8
OBRYS
  0
LINE
  8
OBRYS
 10
413.002930
 20
13.203038
 11
394.721703
 21
13.203038
  0
LINE
  8
OBRYS
 10
368.396033
 20
8.385765
 11
381.070686
 21
8.385765
  0
LINE
  8
OBRYS
 10
397.895530
 20
8.385765
 11
415.820196
 21
8.385765
  0
LINE
  8
OBRYS
 10
422.789275
 20
8.385765
 11
424.396033
 21
8.385765
  0
LINE
  8
OBRYS
 10
415.820196
 20
13.203038
 11
397.895530
 21
13.203038
  0
LINE
  8
OBRYS
 10
420.923531
 20
5.759122
 11
422.472989
 21
5.759122
  0
LINE
  8
OBRYS
 10
368.396033
 20
3.576394
 11
380.948378
 21
3.576394
  0
LINE
  8
OBRYS
 10
393.959159
 20
3.576394
 11
401.376682
 21
3.576394
  0
LINE
  8
OBRYS
 10
404.100527
 20
3.576394
 11
411.710857
 21
3.576394
  0
LINE
  8
OBRYS
 10
417.100099
 20
3.576394
 11
418.544431
 21
3.576394
  0
POLYLINE
  8
OBRYS
 66
    1
  0
VERTEX
  8
OBRYS
 10
380.648315
 20
3.203193
  0
VERTEX
  8
OBRYS
 10
380.751648
 20
3.372748
  0
VERTEX
  8
OBRYS
 10
380.948303
 20
3.576484
  0
VERTEX
  8
OBRYS
 10
381.863586
 20
5.608100
  0
VERTEX
  8
OBRYS
 10
381.905212
 20
5.759223
  0
VERTEX
  8
OBRYS
 10
381.924255
 20
5.860785
  0
SEQEND
  8
OBRYS
  0
ARC
  8
OBRYS
 10
412.338224
 20
7.613273
 40
3.518602
 50
340.236041
 51
357.431499
  0
POLYLINE
  8
OBRYS
 66
    1
  0
VERTEX
  8
OBRYS
 10
410.497192
 20
3.203193
  0
VERTEX
  8
OBRYS
 10
411.032166
 20
3.372748
  0
VERTEX
  8
OBRYS
 10
411.710815
 20
3.576484
  0
VERTEX
  8
OBRYS
 10
414.869141
 20
5.608100
  0
VERTEX
  8
OBRYS
 10
415.091003
 20
5.759223
  0
VERTEX
  8
OBRYS
 10
415.192444
 20
5.860785
  0
VERTEX
  8
OBRYS
 10
415.461792
 20
6.169013
  0
VERTEX
  8
OBRYS
 10
415.651123
 20
6.427924
  0
SEQEND
  8
OBRYS
  0
LINE
  8
OBRYS
 10
393.169802
 20
3.203038
 11
400.429991
 21
3.203038
  0
LINE
  8
OBRYS
 10
403.075650
 20
3.203038
 11
410.497239
 21
3.203038
  0
LINE
  8
OBRYS
 10
415.683782
 20
3.203038
 11
417.104951
 21
3.203038
  0
LINE
  8
OBRYS
 10
406.191360
 20
3.203038
 11
405.246886
 21
3.203038
  0
LINE
  8
OBRYS
 10
401.251010
 20
3.203038
 11
400.429991
 21
3.203038
  0
LINE
  8
OBRYS
 10
404.118050
 20
5.188051
 11
402.201898
 21
3.576394
  0
LINE
  8
OBRYS
 10
405.135338
 20
8.366499
 11
405.135338
 21
7.814694
  0
LINE
  8
OBRYS
 10
407.994012
 20
7.814694
 11
407.994012
 21
8.366499
  0
LINE
  8
OBRYS
 10
404.832322
 20
3.576394
 11
406.897569
 21
5.188051
  0
LINE
  8
OBRYS
 10
381.924297
 20
9.203038
 11
381.924297
 21
13.203038
  0
LINE
  8
OBRYS
 10
415.851584
 20
13.203038
 11
415.851584
 21
9.245502
  0
LINE
  8
OBRYS
 10
415.851584
 20
13.203038
 11
415.851584
 21
7.443171
  0
LINE
  8
OBRYS
 10
420.651400
 20
5.608030
 11
420.651400
 21
13.203038
  0
LINE
  8
OBRYS
 10
416.337012
 20
3.372604
 11
416.337012
 21
9.342804
  0
LINE
  8
OBRYS
 10
381.924297
 20
13.203038
 11
381.924297
 21
5.860745
  0
LINE
  8
OBRYS
 10
395.823118
 20
5.608030
 11
395.823118
 21
13.203038
  0
LINE
  8
OBRYS
 10
393.558641
 20
3.372604
 11
393.558641
 21
9.342804
  0
ARC
  8
OBRYS
 10
418.475333
 20
6.203038
 40
3.000000
 50
270.000000
 51
298.890129
  0
LINE
  8
OBRYS
 10
424.396033
 20
11.853544
 11
424.396033
 21
11.773659
  0
LINE
  8
OBRYS
 10
398.396033
 20
3.203038
 11
368.396033
 21
3.203038
  0
LINE
  8
OBRYS
 10
419.924728
 20
3.576394
 11
422.845427
 21
5.188051
  0
ARC
  8
OBRYS
 10
421.396033
 20
7.814694
 40
3.000000
 50
298.890129
 51
360.000000
  0
LINE
  8
OBRYS
 10
418.475333
 20
3.203038
 11
398.396033
 21
3.203038
  0
LINE
  8
OBRYS
 62
     7
  6
DASHDOT
 10
368.396033
 20
0.894100
 11
368.396033
 21
17.723038
  0
LINE
  8
OBRYS
 10
415.851584
 20
9.245502
 11
416.337012
 21
9.342804
  0
LINE
  8
OBRYS
 10
416.337012
 20
9.342804
 11
416.766623
 21
9.431399
  0
LINE
  8
OBRYS
 10
416.766623
 20
9.431399
 11
417.705396
 21
10.081717
  0
LINE
  8
OBRYS
 10
417.705396
 20
10.081717
 11
418.332664
 21
11.054987
  0
LINE
  8
OBRYS
 10
418.332664
 20
11.054987
 11
418.552932
 21
12.203038
  0
LINE
  8
OBRYS
 10
418.552932
 20
12.203038
 11
418.552932
 21
13.203038
  0
LINE
  8
OBRYS
 10
418.552932
 20
13.203038
 11
420.651400
 21
13.203038
  0
LINE
  8
OBRYS
 10
420.651400
 20
13.203038
 11
421.047919
 21
13.203038
  0
LINE
  8
OBRYS
 10
421.047919
 20
13.203038
 11
421.448565
 21
13.203038
  0
LINE
  8
OBRYS
 10
421.448565
 20
13.203038
 11
421.837223
 21
13.203038
  0
LINE
  8
OBRYS
 10
421.837223
 20
13.203038
 11
424.396033
 21
13.203038
  0
LINE
  8
OBRYS
 10
422.198258
 20
13.203038
 11
422.517148
 21
13.203038
  0
LINE
  8
OBRYS
 10
422.517148
 20
13.203038
 11
422.781064
 21
13.203038
  0
LINE
  8
OBRYS
 10
422.781064
 20
13.203038
 11
422.789275
 21
13.203038
  0
LINE
  8
OBRYS
 10
422.789275
 20
13.203038
 11
422.789275
 21
8.385765
  0
LINE
  8
OBRYS
 10
422.789275
 20
8.385765
 11
422.781064
 21
8.365257
  0
LINE
  8
OBRYS
 10
422.781064
 20
8.365257
 11
422.517148
 21
7.443171
  0
LINE
  8
OBRYS
 10
422.517148
 20
7.443171
 11
422.492436
 21
7.341524
  0
LINE
  8
OBRYS
 10
422.492436
 20
7.341524
 11
422.198258
 21
6.973271
  0
LINE
  8
OBRYS
 10
422.198258
 20
6.973271
 11
421.837223
 21
6.471573
  0
LINE
  8
OBRYS
 10
421.837223
 20
6.471573
 11
421.808150
 21
6.427886
  0
LINE
  8
OBRYS
 10
421.808150
 20
6.427886
 11
421.448565
 21
6.168886
  0
LINE
  8
OBRYS
 10
421.448565
 20
6.168886
 11
421.047919
 21
5.860745
  0
LINE
  8
OBRYS
 10
421.047919
 20
5.860745
 11
420.923531
 21
5.759122
  0
LINE
  8
OBRYS
 10
420.923531
 20
5.759122
 11
420.651400
 21
5.608030
  0
LINE
  8
OBRYS
 10
420.651400
 20
5.608030
 11
417.100099
 21
3.576394
  0
LINE
  8
OBRYS
 10
417.100099
 20
3.576394
 11
416.337012
 21
3.372604
  0
LINE
  8
OBRYS
 10
416.337012
 20
3.372604
 11
415.683782
 21
3.203038
  0
LINE
  8
OBRYS
 10
424.396033
 20
-0.796962
 11
424.396033
 21
13.203038
  0
ARC
  8
OBRYS
 10
420.396033
 20
-0.796962
 40
4.000000
 50
270.000000
 51
360.000000
  0
LINE
  8
OBRYS
 62
     7
  6
DASHDOT
 10
410.896033
 20
4.203038
 11
410.896033
 21
-7.796959
  0
LINE
  8
OBRYS
 62
     7
  6
DASHDOT
 10
410.896033
 20
4.203038
 11
422.896029
 21
4.203038
  0
LINE
  8
OBRYS
 62
     7
  6
DASHDOT
 10
410.896033
 20
4.203038
 11
398.896036
 21
4.203038
  0
ARC
  8
OBRYS
 10
410.896033
 20
4.203038
 40
4.500000
 50
192.839588
 51
347.160412
  0
ARC
  8
OBRYS
 62
     4
  6
HIDDEN2
 10
410.896033
 20
4.203038
 40
4.500000
 50
347.160412
 51
192.839588
  0
LINE
  8
OBRYS
 10
420.396033
 20
-4.796962
 11
391.896033
 21
-4.796962
  0
LINE
  8
OBRYS
 10
389.896033
 20
-2.796962
 11
389.896033
 21
3.203038
  0
ARC
  8
OBRYS
 10
391.896033
 20
-2.796962
 40
2.000000
 50
180.000000
 51
270.000000
  0
LINE
  8
OBRYS
 10
394.996219
 20
-2.796962
 11
394.996219
 21
3.203038
  0
LINE
  8
OBRYS
 10
341.795846
 20
-2.796962
 11
341.795846
 21
3.203038
  0
ARC
  8
OBRYS
 10
344.896033
 20
-2.796962
 40
2.000000
 50
270.000000
 51
360.000000
  0
LINE
  8
OBRYS
 10
346.896033
 20
-2.796962
 11
346.896033
 21
3.203038
  0
LINE
  8
OBRYS
 10
316.396033
 20
-4.796962
 11
344.896033
 21
-4.796962
  0
ARC
  8
OBRYS
 62
     4
  6
HIDDEN2
 10
325.896033
 20
4.203038
 40
4.500000
 50
347.160412
 51
192.839588
  0
ARC
  8
OBRYS
 10
325.896033
 20
4.203038
 40
4.500000
 50
192.839588
 51
347.160412
  0
LINE
  8
OBRYS
 62
     7
  6
DASHDOT
 10
325.896033
 20
4.203038
 11
325.896033
 21
-7.796959
  0
ARC
  8
OBRYS
 10
316.396033
 20
-0.796962
 40
4.000000
 50
180.000000
 51
270.000000
  0
LINE
  8
OBRYS
 10
312.396033
 20
-0.796962
 11
312.396033
 21
13.203038
  0
LINE
  8
OBRYS
 62
     7
  6
DASHDOT
 10
325.896033
 20
4.203038
 11
337.896029
 21
4.203038
  0
LINE
  8
OBRYS
 62
     7
  6
DASHDOT
 10
325.896033
 20
4.203038
 11
313.896036
 21
4.203038
  0
ENDBLK
  8
OBRYS
  0
BLOCK
  8
OBRYS
  2
_12
 70
   64
 10
368.396033
 20
424.740309
  0
LINE
  8
OBRYS
 10
424.396033
 20
371.740309
 11
424.396033
 21
391.740309
  0
ARC
  8
OBRYS
 10
420.396033
 20
371.740309
 40
4.000000
 50
270.000000
 51
360.000000
  0
LINE
  8
OBRYS
 10
389.896033
 20
371.740309
 11
389.896033
 21
391.740309
  0
LINE
  8
OBRYS
 10
420.396033
 20
367.740309
 11
393.896033
 21
367.740309
  0
ARC
  8
OBRYS
 10
393.896033
 20
371.740309
 40
4.000000
 50
180.000000
 51
270.000000
  0
CIRCLE
  8
OBRYS
 10
410.896033
 20
376.740309
 40
4.650000
  0
LINE
  8
OSA
 10
410.896033
 20
376.740309
 11
401.246033
 21
376.740309
  0
LINE
  8
OSA
 10
410.896033
 20
376.740309
 11
420.546033
 21
376.740309
  0
LINE
  8
OSA
 10
410.896033
 20
376.740309
 11
410.896033
 21
367.090309
  0
LINE
  8
OSA
 10
410.896033
 20
376.740309
 11
410.896033
 21
386.390309
  0
LINE
  8
OSA
 10
368.396033
 20
381.240309
 11
368.396033
 21
396.740309
  0
LINE
  8
OBRYS
 10
424.396033
 20
391.740309
 11
368.396033
 21
391.740309
  0
LINE
  8
OBRYS
 10
389.896033
 20
386.240309
 11
368.396033
 21
386.240309
  0
LINE
  8
OBRYS
 10
346.896033
 20
386.240309
 11
368.396033
 21
386.240309
  0
LINE
  8
OBRYS
 10
312.396033
 20
391.740309
 11
368.396033
 21
391.740309
  0
LINE
  8
OSA
 10
325.896033
 20
376.740309
 11
325.896033
 21
386.390309
  0
LINE
  8
OSA
 10
325.896033
 20
376.740309
 11
325.896033
 21
367.090309
  0
LINE
  8
OSA
 10
325.896033
 20
376.740309
 11
316.246033
 21
376.740309
  0
LINE
  8
OSA
 10
325.896033
 20
376.740309
 11
335.546033
 21
376.740309
  0
CIRCLE
  8
OBRYS
 10
325.896033
 20
376.740309
 40
4.650000
  0
ARC
  8
OBRYS
 10
342.896033
 20
371.740309
 40
4.000000
 50
270.000000
 51
360.000000
  0
LINE
  8
OBRYS
 10
316.396033
 20
367.740309
 11
342.896033
 21
367.740309
  0
LINE
  8
OBRYS
 10
346.896033
 20
371.740309
 11
346.896033
 21
391.740309
  0
ARC
  8
OBRYS
 10
316.396033
 20
371.740309
 40
4.000000
 50
180.000000
 51
270.000000
  0
LINE
  8
OBRYS
 10
312.396033
 20
371.740309
 11
312.396033
 21
391.740309
  0
LINE
  8
OBRYS
 10
346.896033
 20
376.894522
 11
389.896033
 21
376.894522
  0
ENDBLK
  8
OBRYS
  0
BLOCK
  8
OBRYS
  2
_13
 70
   64
 10
368.396033
 20
424.740309
  0
LINE
  8
OBRYS
 10
424.396033
 20
477.740309
 11
424.396033
 21
457.740309
  0
ARC
  8
OBRYS
 10
420.396033
 20
477.740309
 40
4.000000
 50
0.000000
 51
90.000000
  0
LINE
  8
OBRYS
 10
389.896033
 20
477.740309
 11
389.896033
 21
457.740309
  0
LINE
  8
OBRYS
 10
420.396033
 20
481.740309
 11
393.896033
 21
481.740309
  0
ARC
  8
OBRYS
 10
393.896033
 20
477.740309
 40
4.000000
 50
90.000000
 51
180.000000
  0
CIRCLE
  8
OBRYS
 10
410.896033
 20
472.740309
 40
4.650000
  0
LINE
  8
OSA
 10
410.896033
 20
472.740309
 11
401.246033
 21
472.740309
  0
LINE
  8
OSA
 10
410.896033
 20
472.740309
 11
420.546033
 21
472.740309
  0
LINE
  8
OSA
 10
410.896033
 20
472.740309
 11
410.896033
 21
482.390309
  0
LINE
  8
OSA
 10
410.896033
 20
472.740309
 11
410.896033
 21
463.090309
  0
LINE
  8
OSA
 10
368.396033
 20
468.240309
 11
368.396033
 21
452.740309
  0
LINE
  8
OBRYS
 10
424.396033
 20
457.740309
 11
368.396033
 21
457.740309
  0
LINE
  8
OBRYS
 10
389.896033
 20
463.240309
 11
368.396033
 21
463.240309
  0
LINE
  8
OBRYS
 10
346.896033
 20
463.240309
 11
368.396033
 21
463.240309
  0
LINE
  8
OBRYS
 10
312.396033
 20
457.740309
 11
368.396033
 21
457.740309
  0
LINE
  8
OSA
 10
325.896033
 20
472.740309
 11
325.896033
 21
463.090309
  0
LINE
  8
OSA
 10
325.896033
 20
472.740309
 11
325.896033
 21
482.390309
  0
LINE
  8
OSA
 10
325.896033
 20
472.740309
 11
316.246033
 21
472.740309
  0
LINE
  8
OSA
 10
325.896033
 20
472.740309
 11
335.546033
 21
472.740309
  0
CIRCLE
  8
OBRYS
 10
325.896033
 20
472.740309
 40
4.650000
  0
ARC
  8
OBRYS
 10
342.896033
 20
477.740309
 40
4.000000
 50
0.000000
 51
90.000000
  0
LINE
  8
OBRYS
 10
316.396033
 20
481.740309
 11
342.896033
 21
481.740309
  0
LINE
  8
OBRYS
 10
346.896033
 20
477.740309
 11
346.896033
 21
457.740309
  0
ARC
  8
OBRYS
 10
316.396033
 20
477.740309
 40
4.000000
 50
90.000000
 51
180.000000
  0
LINE
  8
OBRYS
 10
312.396033
 20
477.740309
 11
312.396033
 21
457.740309
  0
LINE
  8
OBRYS
 10
346.896033
 20
472.586096
 11
389.896033
 21
472.586096
  0
ENDBLK
  8
OBRYS
  0
BLOCK
  8
OBRYS
  2
_14
 70
   64
 10
756.697805
 20
255.225779
  0
INSERT
  8
OBRYS
  2
Srouby_s_valcovou_hlavou___14
 62
     7
 10
756.697805
 20
217.725779
  0
INSERT
  8
OBRYS
  2
Srouby_s_valcovou_hlavou___15
 62
     7
 10
719.197805
 20
255.225779
  0
INSERT
  8
OBRYS
  2
Srouby_s_valcovou_hlavou___16
 62
     7
 10
756.697805
 20
292.725779
  0
INSERT
  8
OBRYS
  2
Srouby_s_valcovou_hlavou___17
 62
     7
 10
794.197805
 20
255.225779
  0
INSERT
  8
OBRYS
  2
Srouby_s_valcovou_hlavou___18
 62
     7
 10
737.563633
 20
301.419756
  0
INSERT
  8
OBRYS
  2
Srouby_s_valcovou_hlavou___19
 62
     7
 10
710.503828
 20
274.359951
  0
INSERT
  8
OBRYS
  2
Srouby_s_valcovou_hlavou___20
 62
     7
 10
710.503828
 20
236.091607
  0
INSERT
  8
OBRYS
  2
Srouby_s_valcovou_hlavou___21
 62
     7
 10
737.563633
 20
209.031802
  0
INSERT
  8
OBRYS
  2
Srouby_s_valcovou_hlavou___22
 62
     7
 10
775.831976
 20
209.031802
  0
INSERT
  8
OBRYS
  2
Srouby_s_valcovou_hlavou___23
 62
     7
 10
802.891782
 20
236.091608
  0
INSERT
  8
OBRYS
  2
Srouby_s_valcovou_hlavou___24
 62
     7
 10
802.891781
 20
274.359951
  0
INSERT
  8
OBRYS
  2
Srouby_s_valcovou_hlavou___25
 62
     7
 10
775.831976
 20
301.419756
  0
ARC
  8
OSA
 62
     2
  6
CONTINUOUS
 10
756.697805
 20
255.225779
 40
56.000000
 50
0.000000
 51
180.000000
  0
ARC
  8
OBRYS
 10
756.697805
 20
255.225779
 40
70.000000
 50
292.333848
 51
302.027150
  0
ARC
  8
OBRYS
 10
756.697805
 20
255.225779
 40
70.000000
 50
308.147347
 51
323.130102
  0
LINE
  8
NEVIDITELNA
 62
     2
  6
CONTINUOUS
 10
804.697805
 20
194.725779
 11
804.697805
 21
180.225779
  0
LINE
  8
NEVIDITELNA
 62
     2
  6
CONTINUOUS
 10
793.697805
 20
194.725779
 11
793.697805
 21
180.225779
  0
ARC
  8
NEVIDITELNA
 62
     2
  6
CONTINUOUS
 10
799.197805
 20
194.725779
 40
5.500000
 50
90.000000
 51
180.000000
  0
ARC
  8
NEVIDITELNA
 62
     2
  6
CONTINUOUS
 10
799.197805
 20
194.725779
 40
5.500000
 50
0.000000
 51
90.000000
  0
ARC
  8
OBRYS
 10
756.697805
 20
255.225779
 40
70.000000
 50
216.880260
 51
231.852653
  0
ARC
  8
OBRYS
 10
756.697805
 20
255.225779
 40
49.817170
 50
210.539968
 51
231.905346
  0
LINE
  8
OBRYS
 10
730.097618
 20
183.336142
 11
730.097618
 21
199.288173
  0
LINE
  8
NEVIDITELNA
 62
     2
  6
CONTINUOUS
 10
735.197805
 20
190.546148
 11
735.197805
 21
170.225779
  0
ARC
  8
OBRYS
 10
756.697805
 20
255.225779
 40
49.817170
 50
263.094654
 51
276.905346
  0
ARC
  8
NEVIDITELNA
 62
     2
  6
CONTINUOUS
 10
745.197805
 20
190.546148
 40
10.000000
 50
112.439556
 51
180.000000
  0
ARC
  8
OBRYS
 10
737.563633
 20
209.031802
 40
10.000000
 50
292.439556
 51
326.744709
  0
ARC
  8
OBRYS
 10
750.107166
 20
200.806246
 40
5.000000
 50
83.094654
 51
146.744709
  0
ARC
  8
OBRYS
 10
722.877669
 20
212.085073
 40
5.000000
 50
348.255291
 51
51.905346
  0
ARC
  8
OBRYS
 10
737.563633
 20
209.031802
 40
10.000000
 50
168.255291
 51
209.155497
  0
ARC
  8
OBRYS
 10
720.097618
 20
199.288173
 40
10.000000
 50
0.000000
 51
29.155497
  0
ARC
  8
OBRYS
 10
737.563633
 20
209.031802
 40
10.000000
 50
228.820618
 51
274.030357
  0
ARC
  8
OBRYS
 10
775.831976
 20
209.031802
 40
10.000000
 50
265.969643
 51
311.179382
  0
ARC
  8
OBRYS
 10
793.297991
 20
199.288173
 40
10.000000
 50
150.844503
 51
180.000000
  0
ARC
  8
OBRYS
 10
775.831976
 20
209.031802
 40
10.000000
 50
330.844503
 51
11.744709
  0
LINE
  8
OBRYS
 10
783.297991
 20
183.336142
 11
783.297991
 21
199.288173
  0
ARC
  8
OBRYS
 10
790.517941
 20
212.085073
 40
5.000000
 50
128.094654
 51
191.744709
  0
ARC
  8
OBRYS
 10
756.697805
 20
255.225779
 40
49.817170
 50
308.094654
 51
329.460032
  0
ARC
  8
OBRYS
 10
763.288444
 20
200.806246
 40
5.000000
 50
33.255291
 51
96.905346
  0
ARC
  8
OBRYS
 10
775.831976
 20
209.031802
 40
10.000000
 50
213.255291
 51
247.560444
  0
ARC
  8
NEVIDITELNA
 62
     2
  6
CONTINUOUS
 10
768.197805
 20
190.546148
 40
10.000000
 50
0.000000
 51
67.560444
  0
LINE
  8
NEVIDITELNA
 62
     2
  6
CONTINUOUS
 10
778.197805
 20
190.546148
 11
778.197805
 21
170.225779
  0
LINE
  8
OBRYS
 10
719.378266
 20
220.734667
 11
708.037751
 21
209.394152
  0
LINE
  8
OBRYS
 10
722.206693
 20
217.906240
 11
710.866178
 21
206.565725
  0
LINE
  8
OBRYS
 10
754.697805
 20
204.447981
 11
754.697805
 21
188.410071
  0
LINE
  8
OBRYS
 10
758.697805
 20
204.447981
 11
758.697805
 21
188.410071
  0
LINE
  8
OBRYS
 10
794.017344
 20
220.734667
 11
805.357859
 21
209.394152
  0
LINE
  8
OBRYS
 10
791.188917
 20
217.906240
 11
802.529432
 21
206.565725
  0
LINE
  8
OBRYS
 10
783.238805
 20
180.225779
 11
779.279804
 21
180.225779
  0
LINE
  8
OBRYS
 10
730.156805
 20
180.225779
 11
734.115805
 21
180.225779
  0
LINE
  8
OSA
 10
756.697805
 20
255.225779
 11
756.697805
 21
168.178710
  0
ARC
  8
NEVIDITELNA
 62
     2
  6
CONTINUOUS
 10
726.197805
 20
184.225779
 40
4.000000
 50
270.000000
 51
347.149408
  0
ARC
  8
OBRYS
 10
756.697805
 20
255.225779
 40
56.000000
 50
0.000000
 51
12.329602
  0
ARC
  8
OBRYS
 10
756.697805
 20
255.225779
 40
56.000000
 50
167.670403
 51
180.000000
  0
LINE
  8
OBRYS
 10
719.378266
 20
289.716891
 11
716.331239
 21
292.763918
  0
LINE
  8
OBRYS
 10
705.920007
 20
253.225779
 11
701.610860
 21
253.225779
  0
LINE
  8
OBRYS
 10
807.475603
 20
257.225779
 11
811.784750
 21
257.225779
  0
LINE
  8
OBRYS
 10
791.188917
 20
292.545318
 11
794.235944
 21
295.592345
  0
LINE
  8
OBRYS
 10
722.206693
 20
292.545318
 11
719.159666
 21
295.592345
  0
LINE
  8
OBRYS
 10
705.920007
 20
257.225779
 11
701.610860
 21
257.225779
  0
LINE
  8
OBRYS
 10
807.475603
 20
253.225779
 11
811.784750
 21
253.225779
  0
LINE
  8
OBRYS
 10
794.017344
 20
289.716891
 11
797.064371
 21
292.763918
  0
LINE
  8
OBRYS
 10
812.697805
 20
178.138534
 11
812.697805
 21
255.225779
  0
LINE
  8
OBRYS
 10
700.705402
 20
178.051620
 11
700.705402
 21
255.225779
  0
LINE
  8
OBRYS
 10
758.697805
 20
306.003577
 11
758.697805
 21
310.312724
  0
LINE
  8
OBRYS
 10
754.697805
 20
306.003577
 11
754.697805
 21
310.312724
  0
ARC
  8
OBRYS
 10
756.697805
 20
255.225779
 40
49.817170
 50
165.614426
 51
194.460032
  0
ARC
  8
OBRYS
 10
756.697805
 20
255.225779
 40
49.817170
 50
345.539968
 51
14.460032
  0
ARC
  8
OBRYS
 10
756.697805
 20
255.225779
 40
49.817170
 50
30.539968
 51
59.452154
  0
ARC
  8
OBRYS
 10
756.697805
 20
255.225779
 40
49.817170
 50
120.539968
 51
149.452154
  0
ARC
  8
OBRYS
 10
756.697805
 20
255.225779
 40
49.817170
 50
75.614426
 51
104.460032
  0
ARC
  8
OBRYS
 10
756.697805
 20
255.225779
 40
56.000000
 50
77.670398
 51
102.329602
  0
ARC
  8
OBRYS
 10
745.166906
 20
307.980290
 40
2.000000
 50
102.329602
 51
194.452154
  0
ARC
  8
OBRYS
 10
727.548309
 20
300.682428
 40
2.000000
 50
30.547846
 51
122.670398
  0
ARC
  8
OBRYS
 10
737.563633
 20
301.419756
 40
7.000000
 50
210.547866
 51
14.452132
  0
LINE
  8
OBRYS
 10
731.535197
 20
297.861954
 11
729.270719
 21
301.698943
  0
LINE
  8
OBRYS
 10
744.397845
 20
303.181084
 11
743.290926
 21
307.496761
  0
LINE
  8
OBRYS
 10
768.997765
 20
303.181084
 11
770.104684
 21
307.496761
  0
LINE
  8
OBRYS
 10
781.860413
 20
297.861954
 11
784.124890
 21
301.698943
  0
ARC
  8
OBRYS
 10
775.831976
 20
301.419756
 40
7.000000
 50
165.547868
 51
329.452134
  0
ARC
  8
OBRYS
 10
785.847300
 20
300.682428
 40
2.000000
 50
57.329602
 51
149.452154
  0
ARC
  8
OBRYS
 10
768.228703
 20
307.980290
 40
2.000000
 50
345.547846
 51
77.670398
  0
LINE
  8
OBRYS
 10
708.742500
 20
267.525739
 11
704.426823
 21
268.632658
  0
LINE
  8
OBRYS
 10
714.061630
 20
280.388387
 11
710.224641
 21
282.652865
  0
ARC
  8
OBRYS
 10
710.503828
 20
274.359951
 40
7.000000
 50
255.547868
 51
59.452134
  0
ARC
  8
OBRYS
 10
711.241156
 20
284.375275
 40
2.000000
 50
147.329602
 51
239.452154
  0
ARC
  8
OBRYS
 10
703.943294
 20
266.756678
 40
2.000000
 50
75.547846
 51
167.670398
  0
ARC
  8
OBRYS
 10
809.452315
 20
266.756678
 40
2.000000
 50
12.329602
 51
104.452154
  0
ARC
  8
OBRYS
 10
802.154453
 20
284.375275
 40
2.000000
 50
300.547846
 51
32.670398
  0
ARC
  8
OBRYS
 10
802.891781
 20
274.359951
 40
7.000000
 50
120.547866
 51
284.452132
  0
LINE
  8
OBRYS
 10
799.333980
 20
280.388387
 11
803.170969
 21
282.652865
  0
LINE
  8
OBRYS
 10
804.653109
 20
267.525739
 11
808.968787
 21
268.632658
  0
CIRCLE
  8
OBRYS
 10
802.891781
 20
236.091607
 40
7.000000
  0
CIRCLE
  8
OBRYS
 10
775.831976
 20
209.031802
 40
7.000000
  0
CIRCLE
  8
OBRYS
 10
737.563633
 20
209.031802
 40
7.000000
  0
CIRCLE
  8
OBRYS
 10
710.503828
 20
236.091607
 40
7.000000
  0
LINE
  8
OBRYS
 10
735.197805
 20
170.225779
 11
735.197805
 21
172.225779
  0
LINE
  8
NEVIDITELNA
 62
     2
  6
CONTINUOUS
 10
735.197805
 20
172.225779
 11
778.197805
 21
172.225779
  0
CIRCLE
  8
OSA
 10
756.697805
 20
255.225779
 40
37.500000
  0
LINE
  8
OSA
 10
714.197805
 20
200.025779
 11
714.197805
 21
170.225779
  0
ARC
  8
NEVIDITELNA
 62
     2
  6
CONTINUOUS
 10
714.197805
 20
194.725779
 40
5.500000
 50
90.000000
 51
180.000000
  0
ARC
  8
NEVIDITELNA
 62
     2
  6
CONTINUOUS
 10
714.197805
 20
194.725779
 40
5.500000
 50
0.000000
 51
90.000000
  0
LINE
  8
NEVIDITELNA
 62
     2
  6
CONTINUOUS
 10
719.697805
 20
194.725779
 11
719.697805
 21
180.225779
  0
LINE
  8
NEVIDITELNA
 62
     2
  6
CONTINUOUS
 10
708.697805
 20
194.725779
 11
708.697805
 21
180.225779
  0
ARC
  8
NEVIDITELNA
 62
     2
  6
CONTINUOUS
 10
787.197805
 20
184.225779
 40
4.000000
 50
180.000000
 51
270.000000
  0
LINE
  8
NEVIDITELNA
 62
     2
  6
CONTINUOUS
 10
778.197805
 20
176.225779
 11
735.197805
 21
176.225779
  0
LINE
  8
OSA
 10
799.197805
 20
200.025779
 11
799.197805
 21
170.225779
  0
LINE
  8
NEVIDITELNA
 62
     2
  6
CONTINUOUS
 10
700.697805
 20
170.225779
 11
735.197805
 21
170.225779
  0
LINE
  8
NEVIDITELNA
 62
     2
  6
CONTINUOUS
 10
702.697805
 20
180.225779
 11
726.197805
 21
180.225779
  0
ARC
  8
NEVIDITELNA
 62
     2
  6
CONTINUOUS
 10
702.697805
 20
178.225779
 40
2.000000
 50
90.000000
 51
180.000000
  0
LINE
  8
NEVIDITELNA
 62
     2
  6
CONTINUOUS
 10
700.697805
 20
178.138534
 11
700.697805
 21
170.225779
  0
LINE
  8
NEVIDITELNA
 62
     2
  6
CONTINUOUS
 10
812.697805
 20
178.138534
 11
812.697805
 21
170.225779
  0
ARC
  8
NEVIDITELNA
 62
     2
  6
CONTINUOUS
 10
810.697805
 20
178.225779
 40
2.000000
 50
0.000000
 51
90.000000
  0
LINE
  8
NEVIDITELNA
 62
     2
  6
CONTINUOUS
 10
810.697805
 20
180.225779
 11
787.197805
 21
180.225779
  0
LINE
  8
NEVIDITELNA
 62
     2
  6
CONTINUOUS
 10
812.697805
 20
170.225779
 11
778.197805
 21
170.225779
  0
LINE
  8
NEVIDITELNA
 10
803.697805
 20
180.225779
 11
803.697805
 21
170.225779
  0
LINE
  8
NEVIDITELNA
 10
794.697805
 20
180.225779
 11
794.697805
 21
170.225779
  0
LINE
  8
NEVIDITELNA
 10
709.697805
 20
180.225779
 11
709.697805
 21
170.225779
  0
LINE
  8
NEVIDITELNA
 10
718.697805
 20
180.225779
 11
718.697805
 21
170.225779
  0
ARC
  8
OBRYS
 10
756.697805
 20
292.725779
 40
5.500000
 50
0.000000
 51
180.000000
  0
ARC
  8
OBRYS
 10
794.197805
 20
255.225779
 40
5.500000
 50
270.000000
 51
90.000000
  0
ARC
  8
OBRYS
 10
719.197805
 20
255.225779
 40
5.500000
 50
90.000000
 51
270.000000
  0
LINE
  8
OBRYS
 10
751.212614
 20
293.129112
 11
751.212614
 21
286.338026
  0
ARC
  8
OBRYS
 10
749.212614
 20
286.338026
 40
2.000000
 50
283.527511
 51
360.000000
  0
LINE
  8
OBRYS
 10
762.182996
 20
293.129112
 11
762.182996
 21
286.338026
  0
ARC
  8
OBRYS
 10
764.182996
 20
286.338026
 40
2.000000
 50
180.000000
 51
256.472489
  0
LINE
  8
OBRYS
 10
718.794471
 20
260.710970
 11
725.585558
 21
260.710970
  0
ARC
  8
OSA
 62
     2
  6
CONTINUOUS
 10
756.697805
 20
255.225779
 40
30.000000
 50
103.527511
 51
166.472489
  0
ARC
  8
OBRYS
 10
725.585558
 20
262.710970
 40
2.000000
 50
270.000000
 51
346.472489
  0
LINE
  8
OBRYS
 10
718.794471
 20
249.740588
 11
725.585558
 21
249.740588
  0
ARC
  8
OBRYS
 10
725.585558
 20
247.740588
 40
2.000000
 50
13.527511
 51
90.000000
  0
LINE
  8
OBRYS
 10
751.212614
 20
217.322446
 11
751.212614
 21
224.113532
  0
ARC
  8
OBRYS
 10
749.212614
 20
224.113532
 40
2.000000
 50
0.000000
 51
76.472489
  0
LINE
  8
OBRYS
 10
762.182996
 20
217.322446
 11
762.182996
 21
224.113532
  0
ARC
  8
OBRYS
 10
764.182996
 20
224.113532
 40
2.000000
 50
103.527511
 51
180.000000
  0
LINE
  8
OBRYS
 10
794.601138
 20
249.740588
 11
787.810052
 21
249.740588
  0
ARC
  8
OSA
 62
     2
  6
CONTINUOUS
 10
756.697805
 20
255.225779
 40
30.000000
 50
283.527511
 51
346.472489
  0
ARC
  8
OBRYS
 10
787.810052
 20
247.740588
 40
2.000000
 50
90.000000
 51
166.472489
  0
LINE
  8
OBRYS
 10
794.601138
 20
260.710970
 11
787.810052
 21
260.710970
  0
ARC
  8
OSA
 62
     2
  6
CONTINUOUS
 10
756.697805
 20
255.225779
 40
30.000000
 50
13.527511
 51
76.472489
  0
ARC
  8
OBRYS
 10
787.810052
 20
262.710970
 40
2.000000
 50
193.527511
 51
270.000000
  0
ARC
  8
OBRYS
 10
756.697805
 20
255.225779
 40
31.000000
 50
259.623734
 51
280.376266
  0
ARC
  8
OBRYS
 10
756.697805
 20
255.225779
 40
31.000000
 50
169.623734
 51
190.376266
  0
ARC
  8
OBRYS
 10
756.697805
 20
255.225779
 40
31.000000
 50
79.623734
 51
100.376266
  0
ARC
  8
OBRYS
 10
756.697805
 20
255.225779
 40
31.000000
 50
349.623734
 51
10.376266
  0
ARC
  8
OSA
 62
     2
  6
CONTINUOUS
 10
756.697805
 20
255.225779
 40
30.000000
 50
193.527511
 51
256.472489
  0
ARC
  8
OBRYS
 10
756.697805
 20
217.725779
 40
5.500000
 50
180.000000
 51
360.000000
  0
ARC
  8
OBRYS
 10
756.697805
 20
255.225779
 40
70.000000
 50
252.112870
 51
287.887130
  0
ARC
  8
OBRYS
 10
756.697805
 20
255.225779
 40
70.000000
 50
237.972850
 51
247.666152
  0
LINE
  8
OSA
 10
756.697805
 20
249.225779
 11
756.697805
 21
196.225779
  0
LINE
  8
OSA
 10
750.697805
 20
255.225779
 11
697.697805
 21
255.225779
  0
LINE
  8
OSA
 10
762.697805
 20
255.225779
 11
815.697805
 21
255.225779
  0
LINE
  8
OSA
 10
756.697805
 20
261.225779
 11
756.697805
 21
319.166380
  0
CIRCLE
  8
OSA
 62
     2
  6
CONTINUOUS
 10
756.697805
 20
255.225779
 40
25.000000
  0
ARC
  8
OBRYS
 10
756.697805
 20
255.225779
 40
12.000000
 50
109.471221
 51
70.528779
  0
LINE
  8
OBRYS
 10
760.697805
 20
266.539488
 11
760.697805
 21
270.125779
  0
LINE
  8
OBRYS
 10
760.697805
 20
270.125779
 11
752.697805
 21
270.125779
  0
LINE
  8
OBRYS
 10
752.697805
 20
270.125779
 11
752.697805
 21
266.539488
  0
CIRCLE
  8
OBRYS
 10
756.697805
 20
255.225779
 40
17.500000
  0
ENDBLK
  8
OBRYS
  0
BLOCK
  8
OBRYS
  2
Srouby_s_valcovou_hlavou___14
 70
   66
 10
756.697805
 20
217.725779
  0
LINE
  8
OBRYS
 10
758.697805
 20
216.571071
 11
758.697805
 21
218.880487
  0
LINE
  8
OBRYS
 10
758.697805
 20
218.880487
 11
756.697805
 21
220.035195
  0
LINE
  8
OBRYS
 10
756.697805
 20
220.035195
 11
754.697805
 21
218.880487
  0
LINE
  8
OBRYS
 10
754.697805
 20
218.880487
 11
754.697805
 21
216.571071
  0
LINE
  8
OBRYS
 10
754.697805
 20
216.571071
 11
756.697805
 21
215.416364
  0
LINE
  8
OBRYS
 10
756.697805
 20
215.416364
 11
758.697805
 21
216.571071
  0
CIRCLE
  8
OBRYS
 10
756.697805
 20
217.725779
 40
2.309415
  0
CIRCLE
  8
OBRYS
 10
756.697805
 20
217.725779
 40
5.000000
  0
ENDBLK
  8
OBRYS
  0
BLOCK
  8
OBRYS
  2
Srouby_s_valcovou_hlavou___15
 70
   66
 10
719.197805
 20
255.225779
  0
LINE
  8
OBRYS
 10
721.197805
 20
254.071071
 11
721.197805
 21
256.380487
  0
LINE
  8
OBRYS
 10
721.197805
 20
256.380487
 11
719.197805
 21
257.535195
  0
LINE
  8
OBRYS
 10
719.197805
 20
257.535195
 11
717.197805
 21
256.380487
  0
LINE
  8
OBRYS
 10
717.197805
 20
256.380487
 11
717.197805
 21
254.071071
  0
LINE
  8
OBRYS
 10
717.197805
 20
254.071071
 11
719.197805
 21
252.916364
  0
LINE
  8
OBRYS
 10
719.197805
 20
252.916364
 11
721.197805
 21
254.071071
  0
CIRCLE
  8
OBRYS
 10
719.197805
 20
255.225779
 40
2.309415
  0
CIRCLE
  8
OBRYS
 10
719.197805
 20
255.225779
 40
5.000000
  0
ENDBLK
  8
OBRYS
  0
BLOCK
  8
OBRYS
  2
Srouby_s_valcovou_hlavou___16
 70
   66
 10
756.697805
 20
292.725779
  0
LINE
  8
OBRYS
 10
758.697805
 20
291.571071
 11
758.697805
 21
293.880487
  0
LINE
  8
OBRYS
 10
758.697805
 20
293.880487
 11
756.697805
 21
295.035195
  0
LINE
  8
OBRYS
 10
756.697805
 20
295.035195
 11
754.697805
 21
293.880487
  0
LINE
  8
OBRYS
 10
754.697805
 20
293.880487
 11
754.697805
 21
291.571071
  0
LINE
  8
OBRYS
 10
754.697805
 20
291.571071
 11
756.697805
 21
290.416364
  0
LINE
  8
OBRYS
 10
756.697805
 20
290.416364
 11
758.697805
 21
291.571071
  0
CIRCLE
  8
OBRYS
 10
756.697805
 20
292.725779
 40
2.309415
  0
CIRCLE
  8
OBRYS
 10
756.697805
 20
292.725779
 40
5.000000
  0
ENDBLK
  8
OBRYS
  0
BLOCK
  8
OBRYS
  2
Srouby_s_valcovou_hlavou___17
 70
   66
 10
794.197805
 20
255.225779
  0
LINE
  8
OBRYS
 10
796.197805
 20
254.071071
 11
796.197805
 21
256.380487
  0
LINE
  8
OBRYS
 10
796.197805
 20
256.380487
 11
794.197805
 21
257.535195
  0
LINE
  8
OBRYS
 10
794.197805
 20
257.535195
 11
792.197805
 21
256.380487
  0
LINE
  8
OBRYS
 10
792.197805
 20
256.380487
 11
792.197805
 21
254.071071
  0
LINE
  8
OBRYS
 10
792.197805
 20
254.071071
 11
794.197805
 21
252.916364
  0
LINE
  8
OBRYS
 10
794.197805
 20
252.916364
 11
796.197805
 21
254.071071
  0
CIRCLE
  8
OBRYS
 10
794.197805
 20
255.225779
 40
2.309415
  0
CIRCLE
  8
OBRYS
 10
794.197805
 20
255.225779
 40
5.000000
  0
ENDBLK
  8
OBRYS
  0
BLOCK
  8
OBRYS
  2
Srouby_s_valcovou_hlavou___18
 70
   66
 10
737.563633
 20
301.419756
  0
LINE
  8
OBRYS
 10
739.563633
 20
300.265048
 11
739.563633
 21
302.574463
  0
LINE
  8
OBRYS
 10
739.563633
 20
302.574463
 11
737.563633
 21
303.729171
  0
LINE
  8
OBRYS
 10
737.563633
 20
303.729171
 11
735.563633
 21
302.574463
  0
LINE
  8
OBRYS
 10
735.563633
 20
302.574463
 11
735.563633
 21
300.265048
  0
LINE
  8
OBRYS
 10
735.563633
 20
300.265048
 11
737.563633
 21
299.110340
  0
LINE
  8
OBRYS
 10
737.563633
 20
299.110340
 11
739.563633
 21
300.265048
  0
CIRCLE
  8
OBRYS
 10
737.563633
 20
301.419756
 40
2.309415
  0
CIRCLE
  8
OBRYS
 10
737.563633
 20
301.419756
 40
5.000000
  0
ENDBLK
  8
OBRYS
  0
BLOCK
  8
OBRYS
  2
Srouby_s_valcovou_hlavou___19
 70
   66
 10
710.503828
 20
274.359951
  0
LINE
  8
OBRYS
 10
712.503828
 20
273.205243
 11
712.503828
 21
275.514658
  0
LINE
  8
OBRYS
 10
712.503828
 20
275.514658
 11
710.503828
 21
276.669366
  0
LINE
  8
OBRYS
 10
710.503828
 20
276.669366
 11
708.503828
 21
275.514658
  0
LINE
  8
OBRYS
 10
708.503828
 20
275.514658
 11
708.503828
 21
273.205243
  0
LINE
  8
OBRYS
 10
708.503828
 20
273.205243
 11
710.503828
 21
272.050535
  0
LINE
  8
OBRYS
 10
710.503828
 20
272.050535
 11
712.503828
 21
273.205243
  0
CIRCLE
  8
OBRYS
 10
710.503828
 20
274.359951
 40
2.309415
  0
CIRCLE
  8
OBRYS
 10
710.503828
 20
274.359951
 40
5.000000
  0
ENDBLK
  8
OBRYS
  0
BLOCK
  8
OBRYS
  2
Srouby_s_valcovou_hlavou___20
 70
   66
 10
710.503828
 20
236.091607
  0
LINE
  8
OBRYS
 10
712.503828
 20
234.936900
 11
712.503828
 21
237.246315
  0
LINE
  8
OBRYS
 10
712.503828
 20
237.246315
 11
710.503828
 21
238.401023
  0
LINE
  8
OBRYS
 10
710.503828
 20
238.401023
 11
708.503828
 21
237.246315
  0
LINE
  8
OBRYS
 10
708.503828
 20
237.246315
 11
708.503828
 21
234.936900
  0
LINE
  8
OBRYS
 10
708.503828
 20
234.936900
 11
710.503828
 21
233.782192
  0
LINE
  8
OBRYS
 10
710.503828
 20
233.782192
 11
712.503828
 21
234.936900
  0
CIRCLE
  8
OBRYS
 10
710.503828
 20
236.091607
 40
2.309415
  0
CIRCLE
  8
OBRYS
 10
710.503828
 20
236.091607
 40
5.000000
  0
ENDBLK
  8
OBRYS
  0
BLOCK
  8
OBRYS
  2
Srouby_s_valcovou_hlavou___21
 70
   66
 10
737.563633
 20
209.031802
  0
LINE
  8
OBRYS
 10
739.563633
 20
207.877095
 11
739.563633
 21
210.186510
  0
LINE
  8
OBRYS
 10
739.563633
 20
210.186510
 11
737.563633
 21
211.341218
  0
LINE
  8
OBRYS
 10
737.563633
 20
211.341218
 11
735.563633
 21
210.186510
  0
LINE
  8
OBRYS
 10
735.563633
 20
210.186510
 11
735.563633
 21
207.877095
  0
LINE
  8
OBRYS
 10
735.563633
 20
207.877095
 11
737.563633
 21
206.722387
  0
LINE
  8
OBRYS
 10
737.563633
 20
206.722387
 11
739.563633
 21
207.877095
  0
CIRCLE
  8
OBRYS
 10
737.563633
 20
209.031802
 40
2.309415
  0
CIRCLE
  8
OBRYS
 10
737.563633
 20
209.031802
 40
5.000000
  0
ENDBLK
  8
OBRYS
  0
BLOCK
  8
OBRYS
  2
Srouby_s_valcovou_hlavou___22
 70
   66
 10
775.831976
 20
209.031802
  0
LINE
  8
OBRYS
 10
777.831976
 20
207.877095
 11
777.831976
 21
210.186510
  0
LINE
  8
OBRYS
 10
777.831976
 20
210.186510
 11
775.831976
 21
211.341218
  0
LINE
  8
OBRYS
 10
775.831976
 20
211.341218
 11
773.831976
 21
210.186510
  0
LINE
  8
OBRYS
 10
773.831976
 20
210.186510
 11
773.831976
 21
207.877095
  0
LINE
  8
OBRYS
 10
773.831976
 20
207.877095
 11
775.831976
 21
206.722387
  0
LINE
  8
OBRYS
 10
775.831976
 20
206.722387
 11
777.831976
 21
207.877095
  0
CIRCLE
  8
OBRYS
 10
775.831976
 20
209.031802
 40
2.309415
  0
CIRCLE
  8
OBRYS
 10
775.831976
 20
209.031802
 40
5.000000
  0
ENDBLK
  8
OBRYS
  0
BLOCK
  8
OBRYS
  2
Srouby_s_valcovou_hlavou___23
 70
   66
 10
802.891782
 20
236.091608
  0
LINE
  8
OBRYS
 10
804.891782
 20
234.936900
 11
804.891782
 21
237.246315
  0
LINE
  8
OBRYS
 10
804.891782
 20
237.246315
 11
802.891782
 21
238.401023
  0
LINE
  8
OBRYS
 10
802.891782
 20
238.401023
 11
800.891782
 21
237.246315
  0
LINE
  8
OBRYS
 10
800.891782
 20
237.246315
 11
800.891782
 21
234.936900
  0
LINE
  8
OBRYS
 10
800.891782
 20
234.936900
 11
802.891782
 21
233.782192
  0
LINE
  8
OBRYS
 10
802.891782
 20
233.782192
 11
804.891782
 21
234.936900
  0
CIRCLE
  8
OBRYS
 10
802.891782
 20
236.091608
 40
2.309415
  0
CIRCLE
  8
OBRYS
 10
802.891782
 20
236.091608
 40
5.000000
  0
ENDBLK
  8
OBRYS
  0
BLOCK
  8
OBRYS
  2
Srouby_s_valcovou_hlavou___24
 70
   66
 10
802.891781
 20
274.359951
  0
LINE
  8
OBRYS
 10
804.891781
 20
273.205243
 11
804.891781
 21
275.514659
  0
LINE
  8
OBRYS
 10
804.891781
 20
275.514659
 11
802.891781
 21
276.669367
  0
LINE
  8
OBRYS
 10
802.891781
 20
276.669367
 11
800.891781
 21
275.514659
  0
LINE
  8
OBRYS
 10
800.891781
 20
275.514659
 11
800.891781
 21
273.205243
  0
LINE
  8
OBRYS
 10
800.891781
 20
273.205243
 11
802.891781
 21
272.050536
  0
LINE
  8
OBRYS
 10
802.891781
 20
272.050536
 11
804.891781
 21
273.205243
  0
CIRCLE
  8
OBRYS
 10
802.891781
 20
274.359951
 40
2.309415
  0
CIRCLE
  8
OBRYS
 10
802.891781
 20
274.359951
 40
5.000000
  0
ENDBLK
  8
OBRYS
  0
BLOCK
  8
OBRYS
  2
Srouby_s_valcovou_hlavou___25
 70
   66
 10
775.831976
 20
301.419756
  0
LINE
  8
OBRYS
 10
777.831976
 20
300.265048
 11
777.831976
 21
302.574463
  0
LINE
  8
OBRYS
 10
777.831976
 20
302.574463
 11
775.831976
 21
303.729171
  0
LINE
  8
OBRYS
 10
775.831976
 20
303.729171
 11
773.831976
 21
302.574463
  0
LINE
  8
OBRYS
 10
773.831976
 20
302.574463
 11
773.831976
 21
300.265048
  0
LINE
  8
OBRYS
 10
773.831976
 20
300.265048
 11
775.831976
 21
299.110340
  0
LINE
  8
OBRYS
 10
775.831976
 20
299.110340
 11
777.831976
 21
300.265048
  0
CIRCLE
  8
OBRYS
 10
775.831976
 20
301.419756
 40
2.309415
  0
CIRCLE
  8
OBRYS
 10
775.831976
 20
301.419756
 40
5.000000
  0
ENDBLK
  8
OBRYS
  0
BLOCK
  8
OBRYS
  2
_15
 70
   64
 10
368.396033
 20
255.225779
  0
INSERT
  8
OBRYS
  2
Srouby_s_valcovou_hlavou___27
 62
     7
 10
368.396033
 20
217.725779
  0
INSERT
  8
OBRYS
  2
Srouby_s_valcovou_hlavou___28
 62
     7
 10
405.896033
 20
255.225779
  0
INSERT
  8
OBRYS
  2
Srouby_s_valcovou_hlavou___29
 62
     7
 10
368.396033
 20
292.725779
  0
INSERT
  8
OBRYS
  2
Srouby_s_valcovou_hlavou___30
 62
     7
 10
330.896033
 20
255.225779
  0
ARC
  8
OSA
 62
     2
  6
CONTINUOUS
 10
368.396033
 20
255.225779
 40
56.000000
 50
0.000000
 51
180.000000
  0
ARC
  8
OBRYS
 10
368.396033
 20
255.225779
 40
70.000000
 50
237.972850
 51
247.666152
  0
ARC
  8
OBRYS
 10
368.396033
 20
255.225779
 40
70.000000
 50
216.869898
 51
231.852653
  0
LINE
  8
NEVIDITELNA
 62
     2
  6
CONTINUOUS
 10
320.396033
 20
194.725779
 11
320.396033
 21
180.225779
  0
LINE
  8
NEVIDITELNA
 62
     2
  6
CONTINUOUS
 10
331.396033
 20
194.725779
 11
331.396033
 21
180.225779
  0
ARC
  8
NEVIDITELNA
 62
     2
  6
CONTINUOUS
 10
325.896033
 20
194.725779
 40
5.500000
 50
0.000000
 51
90.000000
  0
ARC
  8
NEVIDITELNA
 62
     2
  6
CONTINUOUS
 10
325.896033
 20
194.725779
 40
5.500000
 50
90.000000
 51
180.000000
  0
ARC
  8
OBRYS
 10
368.396033
 20
255.225779
 40
70.000000
 50
308.147347
 51
323.119740
  0
ARC
  8
OBRYS
 10
368.396033
 20
255.225779
 40
49.817170
 50
308.094654
 51
329.460032
  0
LINE
  8
OBRYS
 10
394.996219
 20
183.336142
 11
394.996219
 21
199.288173
  0
LINE
  8
NEVIDITELNA
 62
     2
  6
CONTINUOUS
 10
389.896033
 20
190.546148
 11
389.896033
 21
170.225779
  0
ARC
  8
OBRYS
 10
368.396033
 20
255.225779
 40
49.817170
 50
263.094654
 51
276.905346
  0
ARC
  8
NEVIDITELNA
 62
     2
  6
CONTINUOUS
 10
379.896033
 20
190.546148
 40
10.000000
 50
0.000000
 51
67.560444
  0
ARC
  8
OBRYS
 10
387.530204
 20
209.031802
 40
10.000000
 50
213.255291
 51
247.560444
  0
ARC
  8
OBRYS
 10
374.986672
 20
200.806246
 40
5.000000
 50
33.255291
 51
96.905346
  0
ARC
  8
OBRYS
 10
402.216168
 20
212.085073
 40
5.000000
 50
128.094654
 51
191.744709
  0
ARC
  8
OBRYS
 10
387.530204
 20
209.031802
 40
10.000000
 50
330.844503
 51
11.744709
  0
ARC
  8
OBRYS
 10
404.996219
 20
199.288173
 40
10.000000
 50
150.844503
 51
180.000000
  0
ARC
  8
OBRYS
 10
387.530204
 20
209.031802
 40
10.000000
 50
265.969643
 51
311.179382
  0
ARC
  8
OBRYS
 10
349.261861
 20
209.031802
 40
10.000000
 50
228.820618
 51
274.030357
  0
ARC
  8
OBRYS
 10
331.795846
 20
199.288173
 40
10.000000
 50
0.000000
 51
29.155497
  0
ARC
  8
OBRYS
 10
349.261861
 20
209.031802
 40
10.000000
 50
168.255291
 51
209.155497
  0
LINE
  8
OBRYS
 10
341.795846
 20
183.336142
 11
341.795846
 21
199.288173
  0
ARC
  8
OBRYS
 10
334.575897
 20
212.085073
 40
5.000000
 50
348.255291
 51
51.905346
  0
ARC
  8
OBRYS
 10
368.396033
 20
255.225779
 40
49.817170
 50
210.539968
 51
231.905346
  0
ARC
  8
OBRYS
 10
361.805394
 20
200.806246
 40
5.000000
 50
83.094654
 51
146.744709
  0
ARC
  8
OBRYS
 10
349.261861
 20
209.031802
 40
10.000000
 50
292.439556
 51
326.744709
  0
ARC
  8
NEVIDITELNA
 62
     2
  6
CONTINUOUS
 10
356.896033
 20
190.546148
 40
10.000000
 50
112.439556
 51
180.000000
  0
LINE
  8
NEVIDITELNA
 62
     2
  6
CONTINUOUS
 10
346.896033
 20
190.546148
 11
346.896033
 21
170.225779
  0
LINE
  8
OBRYS
 10
405.715572
 20
220.734667
 11
417.056087
 21
209.394152
  0
LINE
  8
OBRYS
 10
402.887145
 20
217.906240
 11
414.227660
 21
206.565725
  0
LINE
  8
OBRYS
 10
370.396033
 20
204.447981
 11
370.396033
 21
188.410071
  0
LINE
  8
OBRYS
 10
366.396033
 20
204.447981
 11
366.396033
 21
188.410071
  0
LINE
  8
OBRYS
 10
331.076494
 20
220.734667
 11
319.735979
 21
209.394152
  0
LINE
  8
OBRYS
 10
333.904921
 20
217.906240
 11
322.564406
 21
206.565725
  0
LINE
  8
OBRYS
 10
341.855033
 20
180.225779
 11
345.814033
 21
180.225779
  0
LINE
  8
OBRYS
 10
394.937033
 20
180.225779
 11
390.978032
 21
180.225779
  0
LINE
  8
OSA
 10
368.396033
 20
255.225779
 11
368.396033
 21
168.178710
  0
ARC
  8
NEVIDITELNA
 62
     2
  6
CONTINUOUS
 10
398.896033
 20
184.225779
 40
4.000000
 50
192.850592
 51
270.000000
  0
ARC
  8
OBRYS
 10
368.396033
 20
255.225779
 40
56.000000
 50
167.670398
 51
180.000000
  0
ARC
  8
OBRYS
 10
368.396033
 20
255.225779
 40
56.000000
 50
0.000000
 51
12.329597
  0
LINE
  8
OBRYS
 10
405.715572
 20
289.716891
 11
408.762599
 21
292.763918
  0
LINE
  8
OBRYS
 10
419.173831
 20
253.225779
 11
423.482978
 21
253.225779
  0
LINE
  8
OBRYS
 10
317.618235
 20
257.225779
 11
313.309087
 21
257.225779
  0
LINE
  8
OBRYS
 10
333.904921
 20
292.545318
 11
330.857894
 21
295.592345
  0
LINE
  8
OBRYS
 10
402.887145
 20
292.545318
 11
405.934172
 21
295.592345
  0
LINE
  8
OBRYS
 10
419.173831
 20
257.225779
 11
423.482978
 21
257.225779
  0
LINE
  8
OBRYS
 10
317.618235
 20
253.225779
 11
313.309087
 21
253.225779
  0
LINE
  8
OBRYS
 10
331.076494
 20
289.716891
 11
328.029467
 21
292.763918
  0
LINE
  8
OBRYS
 10
312.396033
 20
178.138534
 11
312.396033
 21
255.225779
  0
LINE
  8
OBRYS
 10
424.388435
 20
178.051620
 11
424.388435
 21
255.225779
  0
LINE
  8
OBRYS
 10
366.396033
 20
306.003577
 11
366.396033
 21
310.312724
  0
LINE
  8
OBRYS
 10
370.396033
 20
306.003577
 11
370.396033
 21
310.312724
  0
ARC
  8
OBRYS
 10
368.396033
 20
255.225779
 40
49.817170
 50
345.539968
 51
14.385574
  0
ARC
  8
OBRYS
 10
368.396033
 20
255.225779
 40
49.817170
 50
165.539968
 51
194.460032
  0
ARC
  8
OBRYS
 10
368.396033
 20
255.225779
 40
49.817170
 50
120.547846
 51
149.460032
  0
ARC
  8
OBRYS
 10
368.396033
 20
255.225779
 40
49.817170
 50
30.547846
 51
59.460032
  0
ARC
  8
OBRYS
 10
368.396033
 20
255.225779
 40
49.817170
 50
75.539968
 51
104.385574
  0
ARC
  8
OBRYS
 10
368.396033
 20
255.225779
 40
56.000000
 50
77.670398
 51
102.329602
  0
ARC
  8
OBRYS
 10
368.396033
 20
255.225779
 40
56.000000
 50
32.670395
 51
57.329602
  0
ARC
  8
OBRYS
 10
368.396033
 20
255.225779
 40
56.000000
 50
122.670398
 51
147.329602
  0
ARC
  8
OBRYS
 10
379.926931
 20
307.980290
 40
2.000000
 50
345.547846
 51
77.670398
  0
ARC
  8
OBRYS
 10
397.545528
 20
300.682428
 40
2.000000
 50
57.329602
 51
149.452154
  0
ARC
  8
OBRYS
 10
387.530204
 20
301.419756
 40
7.000000
 50
165.547868
 51
329.452134
  0
LINE
  8
OBRYS
 10
393.558641
 20
297.861954
 11
395.823118
 21
301.698943
  0
LINE
  8
OBRYS
 10
380.695993
 20
303.181084
 11
381.802912
 21
307.496761
  0
LINE
  8
OBRYS
 10
356.096073
 20
303.181084
 11
354.989153
 21
307.496761
  0
LINE
  8
OBRYS
 10
343.233425
 20
297.861954
 11
340.968947
 21
301.698943
  0
ARC
  8
OBRYS
 10
349.261861
 20
301.419756
 40
7.000000
 50
210.547866
 51
14.452132
  0
ARC
  8
OBRYS
 10
339.246537
 20
300.682428
 40
2.000000
 50
30.547846
 51
122.670398
  0
ARC
  8
OBRYS
 10
356.865134
 20
307.980290
 40
2.000000
 50
102.329602
 51
194.452154
  0
LINE
  8
OBRYS
 10
416.351337
 20
267.525739
 11
420.667015
 21
268.632658
  0
LINE
  8
OBRYS
 10
411.032207
 20
280.388387
 11
414.869197
 21
282.652865
  0
ARC
  8
OBRYS
 10
414.590009
 20
274.359951
 40
7.000000
 50
120.547866
 51
284.452132
  0
ARC
  8
OBRYS
 10
413.852681
 20
284.375275
 40
2.000000
 50
300.547846
 51
32.670398
  0
ARC
  8
OBRYS
 10
421.150543
 20
266.756678
 40
2.000000
 50
12.329602
 51
104.452154
  0
ARC
  8
OBRYS
 10
315.641522
 20
266.756678
 40
2.000000
 50
75.547846
 51
167.670398
  0
ARC
  8
OBRYS
 10
322.939384
 20
284.375275
 40
2.000000
 50
147.329602
 51
239.452154
  0
ARC
  8
OBRYS
 10
322.202056
 20
274.359951
 40
7.000000
 50
255.547868
 51
59.452134
  0
LINE
  8
OBRYS
 10
325.759858
 20
280.388387
 11
321.922869
 21
282.652865
  0
LINE
  8
OBRYS
 10
320.440728
 20
267.525739
 11
316.125050
 21
268.632658
  0
CIRCLE
  8
OBRYS
 10
322.202056
 20
236.091607
 40
7.000000
  0
CIRCLE
  8
OBRYS
 10
349.261861
 20
209.031802
 40
7.000000
  0
CIRCLE
  8
OBRYS
 10
387.530204
 20
209.031802
 40
7.000000
  0
CIRCLE
  8
OBRYS
 10
414.590009
 20
236.091607
 40
7.000000
  0
LINE
  8
OBRYS
 10
389.896033
 20
170.225779
 11
389.896033
 21
172.225779
  0
LINE
  8
NEVIDITELNA
 62
     2
  6
CONTINUOUS
 10
389.896033
 20
172.225779
 11
346.896033
 21
172.225779
  0
CIRCLE
  8
OSA
 10
368.396033
 20
255.225779
 40
37.500000
  0
LINE
  8
OSA
 10
410.896033
 20
200.025779
 11
410.896033
 21
170.225779
  0
ARC
  8
NEVIDITELNA
 62
     2
  6
CONTINUOUS
 10
410.896033
 20
194.725779
 40
5.500000
 50
0.000000
 51
90.000000
  0
ARC
  8
NEVIDITELNA
 62
     2
  6
CONTINUOUS
 10
410.896033
 20
194.725779
 40
5.500000
 50
90.000000
 51
180.000000
  0
LINE
  8
NEVIDITELNA
 62
     2
  6
CONTINUOUS
 10
405.396033
 20
194.725779
 11
405.396033
 21
180.225779
  0
LINE
  8
NEVIDITELNA
 62
     2
  6
CONTINUOUS
 10
416.396033
 20
194.725779
 11
416.396033
 21
180.225779
  0
ARC
  8
NEVIDITELNA
 62
     2
  6
CONTINUOUS
 10
337.896033
 20
184.225779
 40
4.000000
 50
270.000000
 51
360.000000
  0
LINE
  8
NEVIDITELNA
 62
     2
  6
CONTINUOUS
 10
346.896033
 20
176.225779
 11
389.896033
 21
176.225779
  0
LINE
  8
OSA
 10
325.896033
 20
200.025779
 11
325.896033
 21
170.225779
  0
LINE
  8
NEVIDITELNA
 62
     2
  6
CONTINUOUS
 10
424.396033
 20
170.225779
 11
389.896033
 21
170.225779
  0
LINE
  8
NEVIDITELNA
 62
     2
  6
CONTINUOUS
 10
422.396033
 20
180.225779
 11
398.896033
 21
180.225779
  0
ARC
  8
NEVIDITELNA
 62
     2
  6
CONTINUOUS
 10
422.396033
 20
178.225779
 40
2.000000
 50
0.000000
 51
90.000000
  0
LINE
  8
NEVIDITELNA
 62
     2
  6
CONTINUOUS
 10
424.396033
 20
178.138534
 11
424.396033
 21
170.225779
  0
LINE
  8
NEVIDITELNA
 62
     2
  6
CONTINUOUS
 10
312.396033
 20
178.138534
 11
312.396033
 21
170.225779
  0
ARC
  8
NEVIDITELNA
 62
     2
  6
CONTINUOUS
 10
314.396033
 20
178.225779
 40
2.000000
 50
90.000000
 51
180.000000
  0
LINE
  8
NEVIDITELNA
 62
     2
  6
CONTINUOUS
 10
314.396033
 20
180.225779
 11
337.896033
 21
180.225779
  0
LINE
  8
NEVIDITELNA
 62
     2
  6
CONTINUOUS
 10
312.396033
 20
170.225779
 11
346.896033
 21
170.225779
  0
LINE
  8
NEVIDITELNA
 10
321.396033
 20
180.225779
 11
321.396033
 21
170.225779
  0
LINE
  8
NEVIDITELNA
 10
330.396033
 20
180.225779
 11
330.396033
 21
170.225779
  0
LINE
  8
NEVIDITELNA
 10
415.396033
 20
180.225779
 11
415.396033
 21
170.225779
  0
LINE
  8
NEVIDITELNA
 10
406.396033
 20
180.225779
 11
406.396033
 21
170.225779
  0
ARC
  8
OBRYS
 10
368.396033
 20
292.725779
 40
5.500000
 50
0.000000
 51
180.000000
  0
ARC
  8
OBRYS
 10
330.896033
 20
255.225779
 40
5.500000
 50
90.000000
 51
270.000000
  0
ARC
  8
OBRYS
 10
405.896033
 20
255.225779
 40
5.500000
 50
270.000000
 51
90.000000
  0
LINE
  8
OBRYS
 10
373.881224
 20
293.129112
 11
373.881224
 21
286.338026
  0
ARC
  8
OBRYS
 10
375.881224
 20
286.338026
 40
2.000000
 50
180.000000
 51
256.472489
  0
LINE
  8
OBRYS
 10
362.910842
 20
293.129112
 11
362.910842
 21
286.338026
  0
ARC
  8
OBRYS
 10
360.910842
 20
286.338026
 40
2.000000
 50
283.527511
 51
360.000000
  0
LINE
  8
OBRYS
 10
406.299366
 20
260.710970
 11
399.508280
 21
260.710970
  0
ARC
  8
OSA
 62
     2
  6
CONTINUOUS
 10
368.396033
 20
255.225779
 40
30.000000
 50
13.527511
 51
76.472489
  0
ARC
  8
OBRYS
 10
399.508280
 20
262.710970
 40
2.000000
 50
193.527511
 51
270.000000
  0
LINE
  8
OBRYS
 10
406.299366
 20
249.740588
 11
399.508280
 21
249.740588
  0
ARC
  8
OBRYS
 10
399.508280
 20
247.740588
 40
2.000000
 50
90.000000
 51
166.472489
  0
LINE
  8
OBRYS
 10
373.881224
 20
217.322446
 11
373.881224
 21
224.113532
  0
ARC
  8
OBRYS
 10
375.881224
 20
224.113532
 40
2.000000
 50
103.527511
 51
180.000000
  0
LINE
  8
OBRYS
 10
362.910842
 20
217.322446
 11
362.910842
 21
224.113532
  0
ARC
  8
OBRYS
 10
360.910842
 20
224.113532
 40
2.000000
 50
0.000000
 51
76.472489
  0
LINE
  8
OBRYS
 10
330.492699
 20
249.740588
 11
337.283786
 21
249.740588
  0
ARC
  8
OSA
 62
     2
  6
CONTINUOUS
 10
368.396033
 20
255.225779
 40
30.000000
 50
193.527511
 51
256.472489
  0
ARC
  8
OBRYS
 10
337.283786
 20
247.740588
 40
2.000000
 50
13.527511
 51
90.000000
  0
LINE
  8
OBRYS
 10
330.492699
 20
260.710970
 11
337.283786
 21
260.710970
  0
ARC
  8
OSA
 62
     2
  6
CONTINUOUS
 10
368.396033
 20
255.225779
 40
30.000000
 50
103.527511
 51
166.472489
  0
ARC
  8
OBRYS
 10
337.283786
 20
262.710970
 40
2.000000
 50
270.000000
 51
346.472489
  0
ARC
  8
OBRYS
 10
368.396033
 20
255.225779
 40
31.000000
 50
259.623734
 51
280.376266
  0
ARC
  8
OBRYS
 10
368.396033
 20
255.225779
 40
31.000000
 50
349.623734
 51
10.376266
  0
ARC
  8
OBRYS
 10
368.396033
 20
255.225779
 40
31.000000
 50
79.623734
 51
100.376266
  0
ARC
  8
OBRYS
 10
368.396033
 20
255.225779
 40
31.000000
 50
169.623734
 51
190.376266
  0
ARC
  8
OSA
 62
     2
  6
CONTINUOUS
 10
368.396033
 20
255.225779
 40
30.000000
 50
283.527511
 51
346.472489
  0
ARC
  8
OBRYS
 10
368.396033
 20
217.725779
 40
5.500000
 50
180.000000
 51
360.000000
  0
ARC
  8
OBRYS
 10
368.396033
 20
255.225779
 40
70.000000
 50
252.112870
 51
287.887130
  0
ARC
  8
OBRYS
 10
368.396033
 20
255.225779
 40
70.000000
 50
292.333848
 51
302.027150
  0
LINE
  8
OSA
 10
368.396033
 20
249.225779
 11
368.396033
 21
196.225779
  0
LINE
  8
OSA
 10
374.396033
 20
255.225779
 11
427.396033
 21
255.225779
  0
LINE
  8
OSA
 10
362.396033
 20
255.225779
 11
309.396033
 21
255.225779
  0
LINE
  8
OSA
 10
368.396033
 20
252.225779
 11
368.396033
 21
258.225779
  0
LINE
  8
OSA
 10
365.396033
 20
255.225779
 11
371.396033
 21
255.225779
  0
LINE
  8
OSA
 10
368.396033
 20
261.225779
 11
368.396033
 21
319.166380
  0
CIRCLE
  8
OSA
 62
     2
  6
CONTINUOUS
 10
368.396033
 20
255.225779
 40
25.000000
  0
ARC
  8
OBRYS
 10
368.396033
 20
255.225779
 40
12.000000
 50
109.471221
 51
70.528779
  0
LINE
  8
OBRYS
 10
364.396033
 20
266.539488
 11
364.396033
 21
270.125779
  0
LINE
  8
OBRYS
 10
364.396033
 20
270.125779
 11
372.396033
 21
270.125779
  0
LINE
  8
OBRYS
 10
372.396033
 20
270.125779
 11
372.396033
 21
266.539488
  0
CIRCLE
  8
OBRYS
 10
368.396033
 20
255.225779
 40
17.500000
  0
ARC
  8
OBRYS
 10
368.396033
 20
255.225779
 40
52.000000
 50
59.452154
 51
75.614426
  0
ARC
  8
OBRYS
 10
368.396033
 20
255.225779
 40
52.000000
 50
104.452154
 51
120.614426
  0
ARC
  8
OBRYS
 10
368.396033
 20
255.225779
 40
52.000000
 50
149.452154
 51
165.614426
  0
ARC
  8
OBRYS
 10
368.396033
 20
255.225779
 40
52.000000
 50
14.452154
 51
30.614426
  0
ARC
  8
OBRYS
 10
368.396033
 20
255.225779
 40
52.000000
 50
194.956795
 51
210.043205
  0
ARC
  8
OBRYS
 10
368.396033
 20
255.225779
 40
52.000000
 50
239.956795
 51
255.043205
  0
ARC
  8
OBRYS
 10
368.396033
 20
255.225779
 40
52.000000
 50
284.956795
 51
300.043205
  0
ARC
  8
OBRYS
 10
368.396033
 20
255.225779
 40
52.000000
 50
329.956795
 51
345.043205
  0
ENDBLK
  8
OBRYS
  0
BLOCK
  8
OBRYS
  2
Srouby_s_valcovou_hlavou___27
 70
   66
 10
368.396033
 20
217.725779
  0
LINE
  8
OBRYS
 10
366.396033
 20
216.571071
 11
366.396033
 21
218.880487
  0
LINE
  8
OBRYS
 10
366.396033
 20
218.880487
 11
368.396033
 21
220.035195
  0
LINE
  8
OBRYS
 10
368.396033
 20
220.035195
 11
370.396033
 21
218.880487
  0
LINE
  8
OBRYS
 10
370.396033
 20
218.880487
 11
370.396033
 21
216.571071
  0
LINE
  8
OBRYS
 10
370.396033
 20
216.571071
 11
368.396033
 21
215.416364
  0
LINE
  8
OBRYS
 10
368.396033
 20
215.416364
 11
366.396033
 21
216.571071
  0
CIRCLE
  8
OBRYS
 10
368.396033
 20
217.725779
 40
2.309415
  0
CIRCLE
  8
OBRYS
 10
368.396033
 20
217.725779
 40
5.000000
  0
ENDBLK
  8
OBRYS
  0
BLOCK
  8
OBRYS
  2
Srouby_s_valcovou_hlavou___28
 70
   66
 10
405.896033
 20
255.225779
  0
LINE
  8
OBRYS
 10
403.896033
 20
254.071071
 11
403.896033
 21
256.380487
  0
LINE
  8
OBRYS
 10
403.896033
 20
256.380487
 11
405.896033
 21
257.535195
  0
LINE
  8
OBRYS
 10
405.896033
 20
257.535195
 11
407.896033
 21
256.380487
  0
LINE
  8
OBRYS
 10
407.896033
 20
256.380487
 11
407.896033
 21
254.071071
  0
LINE
  8
OBRYS
 10
407.896033
 20
254.071071
 11
405.896033
 21
252.916364
  0
LINE
  8
OBRYS
 10
405.896033
 20
252.916364
 11
403.896033
 21
254.071071
  0
CIRCLE
  8
OBRYS
 10
405.896033
 20
255.225779
 40
2.309415
  0
CIRCLE
  8
OBRYS
 10
405.896033
 20
255.225779
 40
5.000000
  0
ENDBLK
  8
OBRYS
  0
BLOCK
  8
OBRYS
  2
Srouby_s_valcovou_hlavou___29
 70
   66
 10
368.396033
 20
292.725779
  0
LINE
  8
OBRYS
 10
366.396033
 20
291.571071
 11
366.396033
 21
293.880487
  0
LINE
  8
OBRYS
 10
366.396033
 20
293.880487
 11
368.396033
 21
295.035195
  0
LINE
  8
OBRYS
 10
368.396033
 20
295.035195
 11
370.396033
 21
293.880487
  0
LINE
  8
OBRYS
 10
370.396033
 20
293.880487
 11
370.396033
 21
291.571071
  0
LINE
  8
OBRYS
 10
370.396033
 20
291.571071
 11
368.396033
 21
290.416364
  0
LINE
  8
OBRYS
 10
368.396033
 20
290.416364
 11
366.396033
 21
291.571071
  0
CIRCLE
  8
OBRYS
 10
368.396033
 20
292.725779
 40
2.309415
  0
CIRCLE
  8
OBRYS
 10
368.396033
 20
292.725779
 40
5.000000
  0
ENDBLK
  8
OBRYS
  0
BLOCK
  8
OBRYS
  2
Srouby_s_valcovou_hlavou___30
 70
   66
 10
330.896033
 20
255.225779
  0
LINE
  8
OBRYS
 10
328.896033
 20
254.071071
 11
328.896033
 21
256.380487
  0
LINE
  8
OBRYS
 10
328.896033
 20
256.380487
 11
330.896033
 21
257.535195
  0
LINE
  8
OBRYS
 10
330.896033
 20
257.535195
 11
332.896033
 21
256.380487
  0
LINE
  8
OBRYS
 10
332.896033
 20
256.380487
 11
332.896033
 21
254.071071
  0
LINE
  8
OBRYS
 10
332.896033
 20
254.071071
 11
330.896033
 21
252.916364
  0
LINE
  8
OBRYS
 10
330.896033
 20
252.916364
 11
328.896033
 21
254.071071
  0
CIRCLE
  8
OBRYS
 10
330.896033
 20
255.225779
 40
2.309415
  0
CIRCLE
  8
OBRYS
 10
330.896033
 20
255.225779
 40
5.000000
  0
ENDBLK
  8
OBRYS
  0
ENDSEC
  0
SECTION
  2
ENTITIES
  0
INSERT
  8
OBRYS
  2
_0
 62
     7
 10
817.697805
 20
205.225779
  0
INSERT
  8
OBRYS
  2
_1
 62
     7
 10
307.396033
 20
205.225779
  0
TEXT
  8
NEVIDITELNA
 62
     2
  6
CONTINUOUS
 10
254.428970
 20
578.112610
 40
15.000000
  1
MRP 50A - B
 50
0.00
 51
0.00
 41
0.80
  0
TEXT
  8
NEVIDITELNA
 62
     2
  6
CONTINUOUS
 10
253.219696
 20
546.709229
 40
15.000000
  1
MRP 50A - FT + 2x adaptér
 50
0.00
 51
0.00
 41
0.80
  0
ARC
  8
OBRYS
 10
562.546919
 20
105.786024
 40
5.500000
 50
111.323686
 51
68.676314
  0
LINE
  8
OBRYS
 10
560.546919
 20
110.909499
 11
560.546919
 21
112.886024
  0
LINE
  8
OBRYS
 10
560.546919
 20
112.886024
 11
564.546919
 21
112.886024
  0
LINE
  8
OBRYS
 10
564.546919
 20
112.886024
 11
564.546919
 21
110.909499
  0
CIRCLE
  8
OBRYS
 10
562.546919
 20
105.786024
 40
10.000000
  0
LINE
  8
OSA
 10
562.546919
 20
105.786024
 11
562.546919
 21
92.661027
  0
LINE
  8
OSA
 10
562.546919
 20
105.786024
 11
562.546919
 21
118.911021
  0
LINE
  8
OSA
 10
562.546919
 20
105.786024
 11
549.421921
 21
105.786024
  0
LINE
  8
OSA
 10
562.546919
 20
105.786024
 11
575.671916
 21
105.786024
  0
LINE
  8
OSA
 10
562.546919
 20
132.036019
 11
575.671916
 21
132.036019
  0
LINE
  8
OSA
 10
562.546919
 20
132.036019
 11
549.421921
 21
132.036019
  0
LINE
  8
OSA
 10
562.546919
 20
132.036019
 11
562.546919
 21
145.161016
  0
LINE
  8
OSA
 10
562.546919
 20
132.036019
 11
562.546919
 21
118.911021
  0
LINE
  8
OBRYS
 10
561.046919
 20
136.278659
 11
561.046919
 21
137.836019
  0
LINE
  8
OBRYS
 10
561.046919
 20
137.836019
 11
564.046919
 21
137.836019
  0
LINE
  8
OBRYS
 10
564.046919
 20
137.836019
 11
564.046919
 21
136.278659
  0
ARC
  8
OBRYS
 10
562.546919
 20
132.036019
 40
4.500000
 50
109.471221
 51
70.528779
  0
CIRCLE
  8
OBRYS
 10
562.546919
 20
132.036019
 40
10.000000
  0
LINE
  8
OBRYS
 10
172.331699
 20
199.223857
 11
172.385455
 21
199.225718
  0
LINE
  8
POMOC
 62
     2
  6
CONTINUOUS
 10
172.385455
 20
199.225779
 11
172.385455
 21
255.225779
  0
LINE
  8
NEVIDITELNA
 10
148.385455
 20
303.225779
 11
126.385455
 21
303.225779
  0
ARC
  8
0
 62
     2
 10
126.385455
 20
308.225779
 40
5.000000
 50
270.000000
 51
360.000000
  0
LINE
  8
POMOC
 62
     2
  6
CONTINUOUS
 10
149.385455
 20
308.225779
 11
140.385455
 21
308.225779
  0
LINE
  8
POMOC
 62
     2
  6
CONTINUOUS
 10
131.385455
 20
308.225779
 11
140.385455
 21
308.225779
  0
ARC
  8
0
 62
     2
 10
114.385455
 20
305.225779
 40
2.000000
 50
180.000000
 51
270.000000
  0
ARC
  8
OBRYS
 10
110.385455
 20
309.225779
 40
2.000000
 50
0.000000
 51
90.000000
  0
LINE
  8
OSA
 10
88.476657
 20
255.225779
 11
140.385455
 21
255.225779
  0
LINE
  8
OSA
 10
173.385455
 20
205.225779
 11
140.385455
 21
205.225779
  0
LINE
  8
OSA
 10
173.835729
 20
255.225779
 11
140.385455
 21
255.225779
  0
LINE
  8
POMOC
 62
     2
  6
CONTINUOUS
 10
172.385455
 20
311.225779
 11
172.385455
 21
255.225779
  0
ARC
  8
OBRYS
 10
161.385455
 20
217.350135
 40
10.000000
 50
0.000000
 51
60.000000
  0
LINE
  8
OBRYS
 10
171.385455
 20
193.101423
 11
171.385455
 21
217.350135
  0
LINE
  8
OBRYS
 10
166.385455
 20
226.010389
 11
145.385455
 21
238.134744
  0
ARC
  8
OBRYS
 10
140.385455
 20
229.474490
 40
10.000000
 50
60.000000
 51
120.000000
  0
LINE
  8
OBRYS
 10
135.385455
 20
238.134744
 11
114.385455
 21
226.010389
  0
ARC
  8
OBRYS
 10
119.385455
 20
217.350135
 40
10.000000
 50
120.000000
 51
180.000000
  0
LINE
  8
OBRYS
 10
109.385455
 20
217.350135
 11
109.385455
 21
193.101423
  0
ARC
  8
OBRYS
 10
119.385455
 20
193.101423
 40
10.000000
 50
180.000000
 51
240.000000
  0
LINE
  8
OBRYS
 10
114.385455
 20
184.441169
 11
135.385455
 21
172.316814
  0
ARC
  8
OBRYS
 10
161.385455
 20
193.101423
 40
10.000000
 50
300.000000
 51
360.000000
  0
LINE
  8
OBRYS
 10
145.385455
 20
172.316814
 11
166.385455
 21
184.441169
  0
ARC
  8
OBRYS
 10
140.385455
 20
180.977068
 40
10.000000
 50
240.000000
 51
300.000000
  0
CIRCLE
  8
OBRYS
 10
140.385455
 20
205.225779
 40
26.000000
  0
LINE
  8
OBRYS
 10
155.385455
 20
242.091610
 11
169.019844
 21
242.091610
  0
ARC
  8
OBRYS
 10
172.400895
 20
197.225054
 40
2.000000
 50
91.982723
 51
120.512083
  0
LINE
  8
OBRYS
 10
112.385455
 20
309.225779
 11
112.385455
 21
224.855688
  0
ARC
  8
OBRYS
 10
170.019844
 20
310.225779
 40
1.000000
 50
90.000000
 51
180.000000
  0
LINE
  8
OBRYS
 10
159.316573
 20
230.091610
 11
169.019844
 21
230.091610
  0
LINE
  8
OBRYS
 10
169.019844
 20
310.225779
 11
169.019844
 21
223.808935
  0
ARC
  8
OBRYS
 10
155.385455
 20
236.091610
 40
6.000000
 50
90.000000
 51
158.848608
  0
ARC
  8
OBRYS
 10
147.924413
 20
238.978277
 40
2.000000
 50
240.000000
 51
338.848608
  0
LINE
  8
OBRYS
 10
155.385455
 20
268.359949
 11
169.019844
 21
268.359949
  0
LINE
  8
OBRYS
 10
155.385455
 20
280.359949
 11
169.019844
 21
280.359949
  0
ARC
  8
OBRYS
 10
155.385455
 20
274.359949
 40
6.000000
 50
180.000000
 51
270.000000
  0
ARC
  8
OBRYS
 10
155.385455
 20
274.359949
 40
6.000000
 50
90.000000
 51
180.000000
  0
LINE
  8
OBRYS
 10
154.385455
 20
297.158846
 11
169.019844
 21
297.158846
  0
ARC
  8
OBRYS
 10
154.385455
 20
302.158846
 40
5.000000
 50
180.000000
 51
270.000000
  0
LINE
  8
OBRYS
 10
154.385455
 20
307.419756
 11
169.019844
 21
307.419756
  0
LINE
  8
OBRYS
 10
149.385455
 20
302.158846
 11
149.385455
 21
302.419756
  0
ARC
  8
OBRYS
 10
154.385455
 20
302.419756
 40
5.000000
 50
90.000000
 51
180.000000
  0
LINE
  8
OBRYS
 10
172.385455
 20
311.225779
 11
170.019844
 21
311.225779
  0
LINE
  8
0
 62
     2
 10
149.450850
 20
303.225779
 11
114.385455
 21
303.225779
  0
ARC
  8
0
 62
     2
 10
154.385455
 20
308.225779
 40
5.000000
 50
180.000000
 51
215.492919
  0
ARC
  8
OBRYS
 10
146.385455
 20
310.225779
 40
1.000000
 50
0.000000
 51
90.000000
  0
LINE
  8
OBRYS
 10
146.385455
 20
311.225779
 11
134.385455
 21
311.225779
  0
ARC
  8
OBRYS
 10
134.385455
 20
310.225779
 40
1.000000
 50
90.000000
 51
180.000000
  0
LINE
  8
OBRYS
 10
147.385455
 20
308.225779
 11
147.385455
 21
310.225779
  0
LINE
  8
OBRYS
 10
133.385455
 20
308.225779
 11
133.385455
 21
310.225779
  0
LINE
  8
OBRYS
 10
147.385455
 20
308.225779
 11
133.385455
 21
308.225779
  0
LINE
  8
OSA
 10
140.385455
 20
298.896877
 11
140.385455
 21
312.671127
  0
LINE
  8
OSA
 10
107.385455
 20
205.225779
 11
140.385455
 21
205.225779
  0
LINE
  8
OSA
 10
140.385455
 20
205.225779
 11
140.385455
 21
310.443498
  0
LINE
  8
OBRYS
 10
173.385455
 20
311.225779
 11
170.207213
 21
311.225779
  0
LINE
  8
OBRYS
 10
178.885455
 20
255.225779
 11
178.885455
 21
270.346318
  0
LINE
  8
OBRYS
 10
178.885455
 20
258.409997
 11
179.385455
 21
258.444653
  0
LINE
  8
OBRYS
 10
178.885455
 20
252.041561
 11
179.385455
 21
252.006905
  0
LINE
  8
OBRYS
 10
107.385455
 20
311.225779
 11
110.563698
 21
311.225779
  0
LINE
  8
OBRYS
 10
101.885455
 20
255.225779
 11
101.885455
 21
270.346318
  0
LINE
  8
OBRYS
 10
101.885455
 20
258.409997
 11
101.385455
 21
258.444653
  0
LINE
  8
OBRYS
 10
101.885455
 20
252.041561
 11
101.385455
 21
252.006905
  0
LINE
  8
OSA
 10
140.385455
 20
165.503415
 11
140.385455
 21
205.225779
  0
ARC
  8
OBRYS
 10
113.868951
 20
178.709275
 40
5.000000
 50
205.830081
 51
236.488335
  0
LINE
  8
OSA
 10
180.385452
 20
205.225779
 11
100.385459
 21
205.225779
  0
LINE
  8
OSA
 10
140.385455
 20
158.936644
 11
140.385455
 21
301.225779
  0
LINE
  8
OSA
 10
200.385455
 20
241.225779
 11
80.385455
 21
241.225779
  0
ARC
  8
OBRYS
 10
140.385455
 20
218.753688
 40
53.027909
 50
236.488379
 51
303.511629
  0
ARC
  8
OBRYS
 10
166.901959
 20
178.709275
 40
5.000000
 50
303.511664
 51
334.169919
  0
ARC
  8
OBRYS
 10
140.385455
 20
241.225779
 40
60.000000
 50
324.807953
 51
35.247761
  0
ARC
  8
OBRYS
 10
140.385455
 20
241.225779
 40
60.000000
 50
144.752242
 51
215.192042
  0
LINE
  8
OBRYS
 10
178.885455
 20
258.409997
 11
179.385455
 21
258.444653
  0
LINE
  8
OBRYS
 10
178.885455
 20
252.041561
 11
179.385455
 21
252.006905
  0
LINE
  8
OBRYS
 10
178.885455
 20
309.067417
 11
178.885455
 21
240.105241
  0
LINE
  8
OBRYS
 10
172.385455
 20
311.225840
 11
176.955254
 21
311.066198
  0
ARC
  8
OSA
 62
     2
  6
CONTINUOUS
 10
176.885455
 20
309.067417
 40
2.000000
 50
0.000000
 51
88.000000
  0
INSERT
  8
OBRYS
  2
_2
 62
     7
 10
189.385455
 20
255.225779
  0
LINE
  8
OSA
 62
     2
  6
CONTINUOUS
 10
108.439803
 20
311.227677
 11
103.815656
 21
311.066198
  0
LINE
  8
OSA
 62
     2
  6
CONTINUOUS
 10
91.385455
 20
284.725779
 11
91.385455
 21
255.225779
  0
ARC
  8
OSA
 62
     2
  6
CONTINUOUS
 10
103.885455
 20
309.067417
 40
2.000000
 50
92.000000
 51
180.000000
  0
LINE
  8
OBRYS
 10
101.885455
 20
309.067417
 11
101.885455
 21
255.225779
  0
INSERT
  8
OBRYS
  2
_3
 62
     7
 10
91.385455
 20
255.225779
  0
LINE
  8
OBRYS
 10
101.885455
 20
255.225779
 11
101.885455
 21
240.105241
  0
LINE
  8
OBRYS
 10
101.885455
 20
252.041561
 11
101.385455
 21
252.006905
  0
LINE
  8
OBRYS
 10
101.885455
 20
258.409997
 11
101.385455
 21
258.444653
  0
LINE
  8
0
 62
     2
 10
107.385455
 20
180.627392
 11
109.368500
 21
176.530756
  0
LINE
  8
0
 62
     2
 10
173.385455
 20
180.627392
 11
171.402410
 21
176.530756
  0
INSERT
  8
OBRYS
  2
_4
 62
     7
 10
611.546919
 20
255.225779
  0
INSERT
  8
OBRYS
  2
_5
 62
     7
 10
513.546919
 20
255.225779
  0
LINE
  8
OBRYS
 10
601.046919
 20
309.225779
 11
601.046919
 21
287.244797
  0
LINE
  8
OBRYS
 10
524.046919
 20
309.225779
 11
524.046919
 21
287.244797
  0
LINE
  8
OBRYS
 10
599.046919
 20
311.225779
 11
592.368676
 21
311.225779
  0
ARC
  8
OSA
 62
     2
  6
CONTINUOUS
 10
599.046919
 20
309.067417
 40
2.000000
 50
0.000000
 51
88.000000
  0
ARC
  8
OSA
 62
     2
  6
CONTINUOUS
 10
526.046919
 20
309.067417
 40
2.000000
 50
92.000000
 51
180.000000
  0
LINE
  8
OBRYS
 10
526.046919
 20
311.225779
 11
532.725161
 21
311.225779
  0
LINE
  8
OSA
 10
562.546919
 20
165.503415
 11
562.546919
 21
205.225779
  0
LINE
  8
OBRYS
 10
601.046919
 20
252.041561
 11
601.546919
 21
252.006905
  0
LINE
  8
OBRYS
 10
601.046919
 20
258.409997
 11
601.546919
 21
258.444653
  0
LINE
  8
OBRYS
 10
595.546919
 20
311.225779
 11
592.368676
 21
311.225779
  0
LINE
  8
OBRYS
 10
529.546919
 20
311.225779
 11
532.725161
 21
311.225779
  0
LINE
  8
OSA
 10
562.546919
 20
205.225779
 11
562.546919
 21
310.443498
  0
LINE
  8
OSA
 10
595.546919
 20
205.225779
 11
562.546919
 21
205.225779
  0
LINE
  8
OSA
 10
562.546919
 20
298.896877
 11
562.546919
 21
312.671127
  0
LINE
  8
OBRYS
 10
555.546919
 20
308.225779
 11
569.546919
 21
308.225779
  0
LINE
  8
OBRYS
 10
569.546919
 20
308.225779
 11
569.546919
 21
310.225779
  0
LINE
  8
OBRYS
 10
555.546919
 20
308.225779
 11
555.546919
 21
310.225779
  0
ARC
  8
OBRYS
 10
568.546919
 20
310.225779
 40
1.000000
 50
0.000000
 51
90.000000
  0
LINE
  8
OBRYS
 10
556.546919
 20
311.225779
 11
568.546919
 21
311.225779
  0
ARC
  8
OBRYS
 10
556.546919
 20
310.225779
 40
1.000000
 50
90.000000
 51
180.000000
  0
ARC
  8
0
 62
     2
 10
548.546919
 20
308.225779
 40
5.000000
 50
324.507081
 51
360.000000
  0
LINE
  8
0
 62
     2
 10
553.481524
 20
303.225779
 11
588.546919
 21
303.225779
  0
LINE
  8
OBRYS
 10
530.546919
 20
311.225779
 11
532.912530
 21
311.225779
  0
ARC
  8
OBRYS
 10
548.546919
 20
302.419756
 40
5.000000
 50
0.000000
 51
90.000000
  0
LINE
  8
OBRYS
 10
553.546919
 20
302.158846
 11
553.546919
 21
302.419756
  0
LINE
  8
OBRYS
 10
548.546919
 20
307.419756
 11
533.912530
 21
307.419756
  0
ARC
  8
OBRYS
 10
532.912530
 20
310.225779
 40
1.000000
 50
0.000000
 51
90.000000
  0
LINE
  8
OSA
 10
529.546919
 20
205.225779
 11
562.546919
 21
205.225779
  0
LINE
  8
OSA
 10
614.455717
 20
255.225779
 11
562.546919
 21
255.225779
  0
ARC
  8
OBRYS
 10
592.546919
 20
309.225779
 40
2.000000
 50
90.000000
 51
180.000000
  0
ARC
  8
0
 62
     2
 10
588.546919
 20
305.225779
 40
2.000000
 50
270.000000
 51
360.000000
  0
LINE
  8
POMOC
 62
     2
  6
CONTINUOUS
 10
571.546919
 20
308.225779
 11
562.546919
 21
308.225779
  0
LINE
  8
POMOC
 62
     2
  6
CONTINUOUS
 10
553.546919
 20
308.225779
 11
562.546919
 21
308.225779
  0
ARC
  8
0
 62
     2
 10
576.546919
 20
308.225779
 40
5.000000
 50
180.000000
 51
270.000000
  0
LINE
  8
NEVIDITELNA
 10
554.546919
 20
303.225779
 11
576.546919
 21
303.225779
  0
INSERT
  8
OSA
  2
_6
  6
CONTINUOUS
 10
562.546919
 20
205.225779
  0
LINE
  8
OBRYS
 10
590.546919
 20
309.225779
 11
590.546919
 21
294.291776
  0
LINE
  8
POMOC
 62
     2
  6
CONTINUOUS
 10
530.546919
 20
311.225779
 11
530.546919
 21
291.980089
  0
LINE
  8
OBRYS
 10
533.912530
 20
310.225779
 11
533.912530
 21
293.952165
  0
LINE
  8
OBRYS
 10
540.833052
 20
297.158846
 11
533.912530
 21
297.158846
  0
ARC
  8
OBRYS
 10
548.546919
 20
302.158846
 40
5.000000
 50
340.665974
 51
360.000000
  0
LINE
  8
OSA
 10
510.638121
 20
255.225779
 11
562.546919
 21
255.225779
  0
INSERT
  8
OBRYS
  2
_7
 62
     7
 10
307.396033
 20
424.740309
  0
INSERT
  8
OBRYS
  2
_8
 62
     7
 10
307.396033
 20
52.203038
  0
LINE
  8
OBRYS
 10
335.779818
 20
455.740309
 11
307.396033
 21
455.740309
  0
LINE
  8
OBRYS
 10
307.396033
 20
455.740309
 11
307.396033
 21
397.940309
  0
LINE
  8
OBRYS
 10
312.396033
 20
88.703038
 11
312.396033
 21
83.203038
  0
LINE
  8
OBRYS
 10
368.396033
 20
90.703038
 11
314.396033
 21
90.703038
  0
ARC
  8
OBRYS
 10
314.396033
 20
88.703038
 40
2.000000
 50
90.000000
 51
180.000000
  0
ARC
  8
OBRYS
 10
422.396033
 20
88.703038
 40
2.000000
 50
0.000000
 51
90.000000
  0
LINE
  8
OBRYS
 10
368.396033
 20
90.703038
 11
422.396033
 21
90.703038
  0
LINE
  8
OBRYS
 10
424.396033
 20
88.703038
 11
424.396033
 21
83.203038
  0
INSERT
  8
OBRYS
  2
_9
 62
     7
 10
368.396033
 20
52.203038
  0
LINE
  8
OBRYS
 10
312.396033
 20
84.203038
 11
312.396033
 21
81.837427
  0
LINE
  8
POMOC
 62
     2
  6
CONTINUOUS
 10
312.396033
 20
84.203038
 11
368.396033
 21
84.203038
  0
LINE
  8
OSA
 10
290.049885
 20
52.203038
 11
436.428870
 21
52.203038
  0
LINE
  8
NEVIDITELNA
 10
416.396033
 20
60.203038
 11
416.396033
 21
38.203038
  0
ARC
  8
0
 62
     2
 10
418.396033
 20
26.203038
 40
2.000000
 50
180.000000
 51
270.000000
  0
ARC
  8
OBRYS
 10
422.396033
 20
22.203038
 40
2.000000
 50
0.000000
 51
90.000000
  0
LINE
  8
OSA
 10
368.396033
 20
0.294240
 11
368.396033
 21
52.203038
  0
LINE
  8
POMOC
 62
     2
  6
CONTINUOUS
 10
424.396033
 20
84.203038
 11
368.396033
 21
84.203038
  0
ARC
  8
OBRYS
 10
423.396033
 20
81.837427
 40
1.000000
 50
270.000000
 51
360.000000
  0
LINE
  8
OBRYS
 10
381.530202
 20
67.203038
 11
381.530202
 21
80.837427
  0
LINE
  8
OBRYS
 10
393.530202
 20
67.203038
 11
393.530202
 21
80.837427
  0
ARC
  8
OBRYS
 10
387.530202
 20
67.203038
 40
6.000000
 50
180.000000
 51
270.000000
  0
ARC
  8
OBRYS
 10
387.530202
 20
67.203038
 40
6.000000
 50
270.000000
 51
360.000000
  0
LINE
  8
OBRYS
 10
410.329100
 20
66.203038
 11
410.329100
 21
80.837427
  0
ARC
  8
OBRYS
 10
415.329100
 20
66.203038
 40
5.000000
 50
180.000000
 51
270.000000
  0
LINE
  8
OBRYS
 10
420.590009
 20
66.203038
 11
420.590009
 21
80.837427
  0
LINE
  8
OBRYS
 10
415.329100
 20
61.203038
 11
415.590009
 21
61.203038
  0
ARC
  8
OBRYS
 10
415.590009
 20
66.203038
 40
5.000000
 50
270.000000
 51
360.000000
  0
LINE
  8
OBRYS
 10
424.396033
 20
84.203038
 11
424.396033
 21
81.837427
  0
LINE
  8
0
 62
     2
 10
416.396033
 20
61.268433
 11
416.396033
 21
26.203038
  0
LINE
  8
OBRYS
 10
424.396033
 20
19.203038
 11
424.396033
 21
22.381280
  0
ARC
  8
OBRYS
 10
349.261863
 20
67.203038
 40
6.000000
 50
180.000000
 51
270.000000
  0
ARC
  8
OBRYS
 10
349.261863
 20
67.203038
 40
6.000000
 50
270.000000
 51
360.000000
  0
LINE
  8
OBRYS
 10
343.261863
 20
67.203038
 11
343.261863
 21
80.837427
  0
LINE
  8
OBRYS
 10
355.261863
 20
67.203038
 11
355.261863
 21
80.837427
  0
ARC
  8
OBRYS
 10
321.202056
 20
66.203038
 40
5.000000
 50
180.000000
 51
270.000000
  0
LINE
  8
OBRYS
 10
316.202056
 20
66.203038
 11
316.202056
 21
80.837427
  0
ARC
  8
OBRYS
 10
321.462966
 20
66.203038
 40
5.000000
 50
270.000000
 51
360.000000
  0
LINE
  8
OBRYS
 10
326.462966
 20
66.203038
 11
326.462966
 21
80.837427
  0
CIRCLE
  8
OBRYS
 10
368.396033
 20
52.203038
 40
9.000000
  0
INSERT
  8
OSA
 66
     1
  2
Sroub_M10x16_10
  6
CONTINUOUS
 10
368.396033
 20
52.203038
  0
ATTRIB
  8
OSA
  6
CONTINUOUS
 10
0.000000
 20
0.000000
 40
2.500000
  1
DIN 912
  2
norma roz.
 70
     1
  0
ATTRIB
  8
OSA
  6
CONTINUOUS
 10
0.000000
 20
0.000000
 40
2.500000
  1
1.5
  2
roztec
 70
     1
  0
ATTRIB
  8
OSA
  6
CONTINUOUS
 10
0.000000
 20
0.000000
 40
2.500000
  1
*N
  2
puvod
 70
     1
  0
SEQEND
  8
OSA
  0
ARC
  8
OBRYS
 10
313.396033
 20
81.837427
 40
1.000000
 50
180.000000
 51
270.000000
  0
LINE
  8
OBRYS
 10
423.396033
 20
80.837427
 11
313.396033
 21
80.837427
  0
LINE
  8
0
 62
     2
 10
320.396033
 20
61.268433
 11
320.396033
 21
26.203038
  0
ARC
  8
0
 62
     2
 10
318.396033
 20
26.203038
 40
2.000000
 50
270.000000
 51
360.000000
  0
ARC
  8
OBRYS
 10
314.396033
 20
22.203038
 40
2.000000
 50
90.000000
 51
180.000000
  0
LINE
  8
OBRYS
 10
422.396033
 20
24.203038
 11
314.396033
 21
24.203038
  0
LINE
  8
OBRYS
 10
424.396033
 20
83.203038
 11
433.396033
 21
83.203038
  0
LINE
  8
OBRYS
 10
307.396033
 20
83.203038
 11
312.396033
 21
83.203038
  0
LINE
  8
OBRYS
 10
309.009520
 20
57.203039
 11
319.126535
 21
57.203039
  0
LINE
  8
OBRYS
 10
309.009520
 20
47.203036
 11
319.126535
 21
47.203036
  0
LINE
  8
OBRYS
 10
307.396033
 20
83.203038
 11
307.396033
 21
21.203038
  0
LINE
  8
OBRYS
 10
431.444007
 20
47.203036
 11
417.665530
 21
47.203036
  0
LINE
  8
OBRYS
 10
431.444007
 20
57.203039
 11
417.665530
 21
57.203039
  0
LINE
  8
OBRYS
 10
433.396033
 20
21.203038
 11
424.371669
 21
21.203038
  0
LINE
  8
OBRYS
 10
433.396033
 20
83.203038
 11
433.396033
 21
21.203038
  0
LINE
  8
OBRYS
 10
307.396033
 20
21.203038
 11
312.420396
 21
21.203038
  0
LINE
  8
OSA
 10
368.396033
 20
103.411966
 11
368.396033
 21
52.203038
  0
LINE
  8
OBRYS
 10
312.396033
 20
22.203038
 11
312.469123
 21
19.203038
  0
LINE
  8
OBRYS
 10
424.396033
 20
19.203038
 11
424.396033
 21
21.203038
  0
LINE
  8
OBRYS
 10
312.396033
 20
15.703038
 11
312.396033
 21
21.203038
  0
LINE
  8
OSA
 62
     2
  6
CONTINUOUS
 10
424.397931
 20
20.257385
 11
424.236452
 21
15.633239
  0
ARC
  8
OSA
 62
     2
  6
CONTINUOUS
 10
422.237670
 20
15.703038
 40
2.000000
 50
270.000000
 51
358.000000
  0
ARC
  8
OBRYS
 10
314.396033
 20
15.703038
 40
2.000000
 50
180.000000
 51
270.000000
  0
LINE
  8
OBRYS
 10
368.396033
 20
13.703038
 11
314.396033
 21
13.703038
  0
LINE
  8
OBRYS
 10
422.237670
 20
13.703038
 11
368.396033
 21
13.703038
  0
INSERT
  8
OBRYS
  2
_11
 62
     7
 10
368.396033
 20
52.203038
  0
LINE
  8
OBRYS
 10
312.396033
 20
391.740309
 11
312.395972
 21
392.740309
  0
LINE
  8
OBRYS
 10
424.396033
 20
391.740309
 11
424.396033
 21
393.740309
  0
INSERT
  8
OBRYS
  2
_12
 62
     7
 10
368.396033
 20
424.740309
  0
LINE
  8
OBRYS
 10
307.396033
 20
393.740309
 11
335.779818
 21
393.740309
  0
LINE
  8
OBRYS
 10
307.396033
 20
422.240309
 11
307.396033
 21
393.740309
  0
LINE
  8
OSA
 10
318.396033
 20
424.740309
 11
433.396033
 21
424.740309
  0
LINE
  8
OBRYS
 10
424.396033
 20
392.740309
 11
424.396033
 21
393.740309
  0
LINE
  8
OBRYS
 10
433.396033
 20
393.740309
 11
397.012248
 21
393.740309
  0
LINE
  8
OBRYS
 10
307.396033
 20
396.240309
 11
335.979966
 21
396.240309
  0
LINE
  8
OBRYS
 10
433.396033
 20
422.240309
 11
433.396033
 21
396.240309
  0
LINE
  8
OBRYS
 10
433.396033
 20
396.240309
 11
396.812099
 21
396.240309
  0
LINE
  8
OBRYS
 10
307.396033
 20
422.240309
 11
335.751585
 21
422.240309
  0
LINE
  8
OBRYS
 10
433.396033
 20
422.240309
 11
397.040481
 21
422.240309
  0
LINE
  8
OBRYS
 10
307.396033
 20
427.240309
 11
335.751585
 21
427.240309
  0
LINE
  8
OBRYS
 10
433.396033
 20
453.240309
 11
433.396033
 21
427.240309
  0
LINE
  8
OBRYS
 10
433.396033
 20
427.240309
 11
397.040481
 21
427.240309
  0
LINE
  8
OBRYS
 10
307.396033
 20
453.240309
 11
335.979966
 21
453.240309
  0
LINE
  8
OBRYS
 10
433.396033
 20
453.240309
 11
396.812099
 21
453.240309
  0
LINE
  8
OBRYS
 10
397.012248
 20
455.740309
 11
433.396033
 21
455.740309
  0
LINE
  8
OBRYS
 10
409.776592
 20
393.740309
 11
390.830046
 21
393.740309
  0
LINE
  8
OBRYS
 10
341.962019
 20
393.740309
 11
323.015473
 21
393.740309
  0
LINE
  8
OBRYS
 10
390.830046
 20
455.740309
 11
409.776592
 21
455.740309
  0
LINE
  8
OBRYS
 10
323.015473
 20
455.740309
 11
341.962019
 21
455.740309
  0
LINE
  8
OBRYS
 10
433.396033
 20
396.240309
 11
433.396033
 21
393.740309
  0
LINE
  8
OBRYS
 10
433.396033
 20
427.240309
 11
433.396033
 21
422.240309
  0
LINE
  8
OBRYS
 10
433.396033
 20
455.740309
 11
433.396033
 21
453.240309
  0
POLYLINE
  8
OBRYS
 66
    1
  0
VERTEX
  8
OBRYS
 10
390.830048
 20
455.740326
  0
VERTEX
  8
OBRYS
 10
391.859497
 20
455.740326
  0
VERTEX
  8
OBRYS
 10
395.231506
 20
455.740326
  0
VERTEX
  8
OBRYS
 10
397.012238
 20
455.740326
  0
VERTEX
  8
OBRYS
 10
397.697418
 20
455.631073
  0
VERTEX
  8
OBRYS
 10
398.017242
 20
455.308014
  0
VERTEX
  8
OBRYS
 10
397.957703
 20
454.785370
  0
VERTEX
  8
OBRYS
 10
397.521454
 20
454.085968
  0
VERTEX
  8
OBRYS
 10
396.928192
 20
453.454071
  0
VERTEX
  8
OBRYS
 10
396.812103
 20
453.240326
  0
VERTEX
  8
OBRYS
 10
392.701660
 20
447.433868
  0
VERTEX
  8
OBRYS
 10
390.922791
 20
441.999908
  0
VERTEX
  8
OBRYS
 10
391.270874
 20
436.705841
  0
VERTEX
  8
OBRYS
 10
393.816772
 20
431.127045
  0
VERTEX
  8
OBRYS
 10
397.040466
 20
427.240326
  0
VERTEX
  8
OBRYS
 10
397.613953
 20
426.285370
  0
VERTEX
  8
OBRYS
 10
397.815979
 20
425.262970
  0
VERTEX
  8
OBRYS
 10
397.726807
 20
424.740326
  0
VERTEX
  8
OBRYS
 10
397.815979
 20
424.217682
  0
VERTEX
  8
OBRYS
 10
397.613953
 20
423.195221
  0
VERTEX
  8
OBRYS
 10
397.040466
 20
422.240326
  0
VERTEX
  8
OBRYS
 10
393.816772
 20
418.353546
  0
VERTEX
  8
OBRYS
 10
391.270874
 20
412.774750
  0
VERTEX
  8
OBRYS
 10
390.922791
 20
407.480682
  0
VERTEX
  8
OBRYS
 10
392.701660
 20
402.046722
  0
VERTEX
  8
OBRYS
 10
396.812103
 20
396.240326
  0
VERTEX
  8
OBRYS
 10
396.928192
 20
396.026520
  0
VERTEX
  8
OBRYS
 10
397.521454
 20
395.394684
  0
VERTEX
  8
OBRYS
 10
397.957703
 20
394.695221
  0
VERTEX
  8
OBRYS
 10
398.017242
 20
394.172577
  0
VERTEX
  8
OBRYS
 10
397.697418
 20
393.849579
  0
VERTEX
  8
OBRYS
 10
397.012238
 20
393.740326
  0
VERTEX
  8
OBRYS
 10
395.231506
 20
393.740326
  0
VERTEX
  8
OBRYS
 10
391.859497
 20
393.740326
  0
VERTEX
  8
OBRYS
 10
390.830048
 20
393.740326
  0
SEQEND
  8
OBRYS
  0
LINE
  8
OBRYS
 10
390.807575
 20
455.726153
 11
390.807575
 21
393.754466
  0
POLYLINE
  8
OBRYS
 66
    1
  0
VERTEX
  8
OBRYS
 10
341.962006
 20
455.740326
  0
VERTEX
  8
OBRYS
 10
341.984497
 20
455.726166
  0
VERTEX
  8
OBRYS
 10
344.965759
 20
455.569183
  0
VERTEX
  8
OBRYS
 10
355.470978
 20
455.255341
  0
VERTEX
  8
OBRYS
 10
366.396027
 20
455.149384
  0
VERTEX
  8
OBRYS
 10
377.321106
 20
455.255341
  0
VERTEX
  8
OBRYS
 10
387.826294
 20
455.569183
  0
VERTEX
  8
OBRYS
 10
390.807556
 20
455.726166
  0
VERTEX
  8
OBRYS
 10
390.830048
 20
455.740326
  0
SEQEND
  8
OBRYS
  0
POLYLINE
  8
OBRYS
 66
    1
  0
VERTEX
  8
OBRYS
 10
390.830048
 20
393.740326
  0
VERTEX
  8
OBRYS
 10
390.807556
 20
393.754486
  0
VERTEX
  8
OBRYS
 10
387.826294
 20
393.911407
  0
VERTEX
  8
OBRYS
 10
377.321106
 20
394.225250
  0
VERTEX
  8
OBRYS
 10
366.396027
 20
394.331268
  0
VERTEX
  8
OBRYS
 10
355.470978
 20
394.225250
  0
VERTEX
  8
OBRYS
 10
344.965759
 20
393.911407
  0
VERTEX
  8
OBRYS
 10
341.984497
 20
393.754486
  0
VERTEX
  8
OBRYS
 10
341.962006
 20
393.740326
  0
SEQEND
  8
OBRYS
  0
POLYLINE
  8
OBRYS
 66
    1
  0
VERTEX
  8
OBRYS
 10
341.962006
 20
393.740326
  0
VERTEX
  8
OBRYS
 10
340.932587
 20
393.740326
  0
VERTEX
  8
OBRYS
 10
337.560547
 20
393.740326
  0
VERTEX
  8
OBRYS
 10
335.779816
 20
393.740326
  0
VERTEX
  8
OBRYS
 10
335.094635
 20
393.849579
  0
VERTEX
  8
OBRYS
 10
334.774811
 20
394.172577
  0
VERTEX
  8
OBRYS
 10
334.834351
 20
394.695221
  0
VERTEX
  8
OBRYS
 10
335.270599
 20
395.394684
  0
VERTEX
  8
OBRYS
 10
335.863861
 20
396.026520
  0
VERTEX
  8
OBRYS
 10
335.979980
 20
396.240326
  0
VERTEX
  8
OBRYS
 10
340.090393
 20
402.046722
  0
VERTEX
  8
OBRYS
 10
341.869293
 20
407.480682
  0
VERTEX
  8
OBRYS
 10
341.521179
 20
412.774750
  0
VERTEX
  8
OBRYS
 10
338.975281
 20
418.353546
  0
VERTEX
  8
OBRYS
 10
335.751587
 20
422.240326
  0
VERTEX
  8
OBRYS
 10
335.178101
 20
423.195221
  0
VERTEX
  8
OBRYS
 10
334.976105
 20
424.217682
  0
VERTEX
  8
OBRYS
 10
335.065247
 20
424.740326
  0
VERTEX
  8
OBRYS
 10
334.976105
 20
425.262970
  0
VERTEX
  8
OBRYS
 10
335.178101
 20
426.285370
  0
VERTEX
  8
OBRYS
 10
335.751587
 20
427.240326
  0
VERTEX
  8
OBRYS
 10
338.975281
 20
431.127045
  0
VERTEX
  8
OBRYS
 10
341.521179
 20
436.705841
  0
VERTEX
  8
OBRYS
 10
341.869293
 20
441.999908
  0
VERTEX
  8
OBRYS
 10
340.090393
 20
447.433868
  0
VERTEX
  8
OBRYS
 10
335.979980
 20
453.240326
  0
VERTEX
  8
OBRYS
 10
335.863861
 20
453.454071
  0
VERTEX
  8
OBRYS
 10
335.270599
 20
454.085968
  0
VERTEX
  8
OBRYS
 10
334.834351
 20
454.785370
  0
VERTEX
  8
OBRYS
 10
334.774811
 20
455.308014
  0
VERTEX
  8
OBRYS
 10
335.094635
 20
455.631073
  0
VERTEX
  8
OBRYS
 10
335.779816
 20
455.740326
  0
VERTEX
  8
OBRYS
 10
337.560547
 20
455.740326
  0
VERTEX
  8
OBRYS
 10
340.932587
 20
455.740326
  0
VERTEX
  8
OBRYS
 10
341.962006
 20
455.740326
  0
SEQEND
  8
OBRYS
  0
LINE
  8
OBRYS
 10
341.984490
 20
455.726153
 11
341.984490
 21
393.754466
  0
LINE
  8
OBRYS
 10
433.396033
 20
397.940309
 11
433.396033
 21
451.540309
  0
LINE
  8
OBRYS
 10
312.394111
 20
392.794065
 11
312.395972
 21
392.740309
  0
LINE
  8
POMOC
 62
     2
  6
CONTINUOUS
 10
312.396033
 20
392.740309
 11
368.396033
 21
392.740309
  0
LINE
  8
OSA
 10
368.396033
 20
476.649107
 11
368.396033
 21
424.740309
  0
LINE
  8
OSA
 10
368.396033
 20
391.290035
 11
368.396033
 21
424.740309
  0
LINE
  8
POMOC
 62
     2
  6
CONTINUOUS
 10
424.396033
 20
392.740309
 11
368.396033
 21
392.740309
  0
ARC
  8
OBRYS
 10
310.395308
 20
392.724869
 40
2.000000
 50
1.982723
 51
30.512083
  0
INSERT
  8
OBRYS
  2
_13
 62
     7
 10
368.396033
 20
424.740309
  0
LINE
  8
OBRYS
 10
424.396712
 20
456.755761
 11
424.396712
 21
457.740309
  0
ARC
  8
OSA
 62
     2
  6
CONTINUOUS
 10
426.396712
 20
456.755761
 40
2.000000
 50
182.000000
 51
210.512458
  0
ARC
  8
OSA
 62
     2
  6
CONTINUOUS
 10
310.395353
 20
456.755761
 40
2.000000
 50
329.487542
 51
358.000000
  0
LINE
  8
OBRYS
 10
312.395353
 20
456.755761
 11
312.395353
 21
457.740309
  0
LINE
  8
OSA
 10
288.396033
 20
205.225779
 11
315.396033
 21
205.225779
  0
LINE
  8
OSA
 10
368.396033
 20
205.225779
 11
432.153115
 21
205.225779
  0
LINE
  8
OSA
 10
368.396033
 20
205.225779
 11
310.396033
 21
205.225779
  0
LINE
  8
OBRYS
 10
433.396033
 20
240.247993
 11
433.396033
 21
170.203565
  0
LINE
  8
0
 62
     2
 10
433.396033
 20
239.578120
 11
424.388435
 21
239.578120
  0
LINE
  8
OBRYS
 10
433.396033
 20
240.247993
 11
424.388435
 21
240.247993
  0
LINE
  8
0
 62
     2
 10
433.396033
 20
220.236886
 11
424.388435
 21
220.236886
  0
LINE
  8
0
 62
     2
 10
433.396033
 20
224.567013
 11
424.388435
 21
224.567013
  0
LINE
  8
0
 62
     2
 10
433.396033
 20
170.873438
 11
424.388435
 21
170.873438
  0
LINE
  8
0
 62
     2
 10
433.396033
 20
185.884545
 11
424.388435
 21
185.884545
  0
LINE
  8
0
 62
     2
 10
433.396033
 20
190.214672
 11
424.388435
 21
190.214672
  0
LINE
  8
OBRYS
 10
433.396033
 20
170.203565
 11
424.388435
 21
170.203565
  0
LINE
  8
0
 62
     2
 10
307.396033
 20
185.884545
 11
312.396033
 21
185.884545
  0
LINE
  8
0
 62
     2
 10
307.396033
 20
190.214672
 11
312.396033
 21
190.214672
  0
LINE
  8
0
 62
     2
 10
307.396033
 20
220.236886
 11
312.396033
 21
220.236886
  0
LINE
  8
0
 62
     2
 10
307.396033
 20
224.567013
 11
312.396033
 21
224.567013
  0
LINE
  8
0
 62
     2
 10
307.396033
 20
239.578120
 11
312.396033
 21
239.578120
  0
LINE
  8
OBRYS
 10
307.396033
 20
240.247993
 11
312.396033
 21
240.247993
  0
LINE
  8
0
 62
     2
 10
307.396033
 20
171.543311
 11
312.396033
 21
171.543311
  0
LINE
  8
OBRYS
 10
307.396033
 20
170.873438
 11
312.396033
 21
170.873438
  0
LINE
  8
OBRYS
 10
307.396033
 20
240.247993
 11
307.396033
 21
170.873438
  0
LINE
  8
OBRYS
 10
817.697805
 20
240.247993
 11
817.697805
 21
170.873438
  0
LINE
  8
OBRYS
 10
817.697805
 20
170.873438
 11
812.697805
 21
170.873438
  0
LINE
  8
0
 62
     2
 10
817.697805
 20
171.543311
 11
812.697805
 21
171.543311
  0
LINE
  8
OBRYS
 10
817.697805
 20
240.247993
 11
812.697805
 21
240.247993
  0
LINE
  8
0
 62
     2
 10
817.697805
 20
239.578120
 11
812.697805
 21
239.578120
  0
LINE
  8
0
 62
     2
 10
817.697805
 20
224.567013
 11
812.697805
 21
224.567013
  0
LINE
  8
0
 62
     2
 10
817.697805
 20
220.236886
 11
812.697805
 21
220.236886
  0
LINE
  8
0
 62
     2
 10
817.697805
 20
190.214672
 11
812.697805
 21
190.214672
  0
LINE
  8
0
 62
     2
 10
817.697805
 20
185.884545
 11
812.697805
 21
185.884545
  0
LINE
  8
OBRYS
 10
691.697805
 20
170.203565
 11
700.705402
 21
170.203565
  0
LINE
  8
0
 62
     2
 10
691.697805
 20
190.214672
 11
700.705402
 21
190.214672
  0
LINE
  8
0
 62
     2
 10
691.697805
 20
185.884545
 11
700.705402
 21
185.884545
  0
LINE
  8
0
 62
     2
 10
691.697805
 20
170.873438
 11
700.705402
 21
170.873438
  0
LINE
  8
0
 62
     2
 10
691.697805
 20
224.567013
 11
700.705402
 21
224.567013
  0
LINE
  8
0
 62
     2
 10
691.697805
 20
220.236886
 11
700.705402
 21
220.236886
  0
LINE
  8
OBRYS
 10
691.697805
 20
240.247993
 11
700.705402
 21
240.247993
  0
LINE
  8
0
 62
     2
 10
691.697805
 20
239.578120
 11
700.705402
 21
239.578120
  0
LINE
  8
OBRYS
 10
691.697805
 20
240.247993
 11
691.697805
 21
170.203565
  0
LINE
  8
OSA
 10
756.697805
 20
205.225779
 11
814.697805
 21
205.225779
  0
LINE
  8
OSA
 10
756.697805
 20
205.225779
 11
692.940723
 21
205.225779
  0
LINE
  8
OSA
 10
836.697805
 20
205.225779
 11
809.697805
 21
205.225779
  0
LINE
  8
OBRYS
 10
817.697805
 20
232.025779
 11
817.697805
 21
240.253985
  0
INSERT
  8
OBRYS
  2
_14
 62
     7
 10
756.697805
 20
255.225779
  0
LINE
  8
OSA
 10
368.396033
 20
252.225779
 11
368.396033
 21
258.225779
  0
LINE
  8
OSA
 10
371.396033
 20
255.225779
 11
365.396033
 21
255.225779
  0
INSERT
  8
OBRYS
  2
_15
 62
     7
 10
368.396033
 20
255.225779
  0
LINE
  8
OSA
 10
753.697805
 20
255.225779
 11
759.697805
 21
255.225779
  0
LINE
  8
OSA
 10
756.697805
 20
252.225779
 11
756.697805
 21
258.225779
  0
ENDSEC
  0
EOF

