  0
SECTION
  2
HEADER
  9
$ACADVER
  1
AC1009
  9
$INSBASE
 10
0.0
 20
0.0
 30
0.0
  9
$LIMMIN
 10
0.0
 20
0.0
  9
$LIMMAX
 10
430.0000
 20
307.0000
  9
$EXTMIN
 10
99999999999999998000000000000000000000.0000
 20
99999999999999998000000000000000000000.0000
  9
$EXTMAX
 10
99999999999999998000000000000000000000.0000
 20
99999999999999998000000000000000000000.0000
  9
$VIEWCTR
 10
429.9795
 20
286.7116
  9
$VIEWSIZE
 40
843.0385
  9
$DIMLFAC
 40
0.6667
  9
$MEASUREMENT
 70
     1
  9
$DWGCODEPAGE
 3
ANSI_1250
  9
$CLAYER
  8
OBRYS
  9
$CELTYPE
  6
BYLAYER
  9
$CECOLOR
 62
  256
  9
$ORTHOMODE
 70
     0
  9
$REGENMODE
 70
     1
  9
$FILLMODE
 70
     1
  9
$QTEXTMODE
 70
     0
  9
$MIRRTEXT
 70
     1
  9
$DRAGMODE
 70
     2
  9
$LTSCALE
 40
1.0
  9
$OSMODE
 70
    37
  9
$ATTMODE
 70
     1
  9
$TEXTSIZE
 40
2.5
  9
$TRACEWID
 40
1.0
  9
$TEXTSTYLE
  7
STANDARD
  9
$CLAYER
  8
0
  9
$CELTYPE
  6
BYLAYER
  9
$CECOLOR
 62
   256
  9
$DIMSCALE
 40
1.0
  9
$DIMASZ
 40
2.5
  9
$DIMEXO
 40
0.625
  9
$DIMDLI
 40
3.75
  9
$DIMRND
 40
0.0
  9
$DIMDLE
 40
0.0
  9
$DIMEXE
 40
1.25
  9
$DIMTP
 40
0.0
  9
$DIMTM
 40
0.0
  9
$DIMTXT
 40
2.5
  9
$DIMCEN
 40
2.5
  9
$DIMTSZ
 40
0.0
  9
$DIMTOL
 70
     0
  9
$DIMLIM
 70
     0
  9
$DIMTIH
 70
     0
  9
$DIMTOH
 70
     0
  9
$DIMSE1
 70
     0
  9
$DIMSE2
 70
     0
  9
$DIMTAD
 70
     1
  9
$DIMZIN
 70
     8
  9
$DIMBLK
  1

  9
$DIMASO
 70
     1
  9
$DIMSHO
 70
     1
  9
$DIMPOST
  1

  9
$DIMAPOST
  1

  9
$DIMALT
 70
     0
  9
$DIMALTD
 70
     3
  9
$DIMALTF
 40
0.03937007874016
  9
$DIMTOFL
 70
     1
  9
$DIMTVP
 40
0.0
  9
$DIMTIX
 70
     0
  9
$DIMSOXD
 70
     0
  9
$DIMSAH
 70
     0
  9
$DIMBLK1
  1

  9
$DIMBLK2
  1

  9
$DIMSTYLE
  2
ISO-25
  9
$DIMCLRD
 70
     0
  9
$DIMCLRE
 70
     0
  9
$DIMCLRT
 70
     0
  9
$DIMTFAC
 40
1.0
  9
$DIMGAP
 40
0.625
  9
$LUNITS
 70
     2
  9
$LUPREC
 70
     4
  9
$SKETCHINC
 40
1.0
  9
$FILLETRAD
 40
10.0
  9
$AUNITS
 70
     0
  9
$AUPREC
 70
     0
  9
$MENU
  1
.
  9
$ELEVATION
 40
0.0
  9
$PELEVATION
 40
0.0
  9
$THICKNESS
 40
0.0
  9
$LIMCHECK
 70
     0
  9
$BLIPMODE
 70
     0
  9
$CHAMFERA
 40
10.0
  9
$CHAMFERB
 40
10.0
  9
$SKPOLY
 70
     0
  9
$TDCREATE
 40
2451579.5163292708
  9
$TDUPDATE
 40
2451579.6904035881
  9
$TDINDWG
 40
0.0082924769
  9
$TDUSRTIMER
 40
0.0082825116
  9
$USRTIMER
 70
     1
  9
$ANGBASE
 50
0.0
  9
$ANGDIR
 70
     0
  9
$PDMODE
 70
     0
  9
$PDSIZE
 40
0.0
  9
$PLINEWID
 40
0.0
  9
$COORDS
 70
     1
  9
$SPLFRAME
 70
     0
  9
$SPLINETYPE
 70
     6
  9
$SPLINESEGS
 70
     8
  9
$ATTDIA
 70
     0
  9
$ATTREQ
 70
     1
  9
$SURFTAB1
 70
     6
  9
$SURFTAB2
 70
     6
  9
$SURFTYPE
 70
     6
  9
$SURFU
 70
     6
  9
$SURFV
 70
     6
  9
$UCSNAME
  2

  9
$UCSORG
 10
0.0
 20
0.0
 30
0.0
  9
$UCSXDIR
 10
1.0
 20
0.0
 30
0.0
  9
$UCSYDIR
 10
0.0
 20
1.0
 30
0.0
  9
$PUCSNAME
  2

  9
$PUCSORG
 10
0.0
 20
0.0
 30
0.0
  9
$PUCSXDIR
 10
1.0
 20
0.0
 30
0.0
  9
$PUCSYDIR
 10
0.0
 20
1.0
 30
0.0
  9
$USERI1
 70
     0
  9
$USERI2
 70
     0
  9
$USERI3
 70
     0
  9
$USERI4
 70
     0
  9
$USERI5
 70
     0
  9
$USERR1
 40
0.0
  9
$USERR2
 40
0.0
  9
$USERR3
 40
0.0
  9
$USERR4
 40
0.0
  9
$USERR5
 40
0.0
  9
$WORLDVIEW
 70
     1
  9
$SHADEDGE
 70
     3
  9
$SHADEDIF
 70
    70
  9
$TILEMODE
 70
     1
  9
$MAXACTVP
 70
    64
  9
$PLIMCHECK
 70
     0
  9
$PEXTMIN
 10
1.0000000000000000E+020
 20
1.0000000000000000E+020
 30
1.0000000000000000E+020
  9
$PEXTMAX
 10
-1.0000000000000000E+020
 20
-1.0000000000000000E+020
 30
-1.0000000000000000E+020
  9
$PLIMMIN
 10
0.0
 20
0.0
  9
$PLIMMAX
 10
420.0
 20
297.0
  9
$UNITMODE
 70
     0
  9
$VISRETAIN
 70
     1
  9
$PLINEGEN
 70
     0
  9
$PSLTSCALE
 70
     1
  0
ENDSEC
  0
SECTION
  2
TABLES
  0
TABLE
  2
VPORT
 70
     2
  0
VPORT
  2
*ACTIVE
 70
     0
 10
0.0
 20
0.0
 11
1.0
 21
1.0
 12
429.9795
 22
286.7116
 13
0.0
 23
0.0
 14
10.0
 24
10.0
 15
10.0
 25
10.0
 16
0.0
 26
0.0
 36
1.0
 17
0.0
 27
0.0
 37
0.0
 40
843.0385
 41
1.6916
 42
50.0
 43
0.0
 44
0.0
 50
0.0
 51
0.0
 71
     0
 72
   100
 73
     1
 74
     3
 75
     0
 76
     0
 77
     0
 78
     0
  0
ENDTAB
  0
TABLE
  2
LTYPE
 70
     7
  0
LTYPE
  2
CONTINUOUS
 70
     0
  3
Solid line
 72
    65
 73
     0
 40
0.0
  0
LTYPE
  2
HIDDEN2
 70
     0
  3
Hidden (.5x) _ _ _ _ _ _ _ _ _ _ _ _ _ _ _ _ _
 72
    65
 73
     2
 40
5.1
 49
3.5
 49
-1.6
  0
LTYPE
  2
DASHDOT
 70
     0
  3
Dash dot __ . __ . __ . __ . __ . __ . __ . __
 72
    65
 73
     4
 40
10.4
 49
6.2
 49
-2.1
 49
0.0
 49
-2.1
  0
LTYPE
  2
DOT
 70
     0
  3
Dot . . . . . . . . . . . . . . . . . . . . . .
 72
    65
 73
     2
 40
2.2
 49
1.1
 49
-1.1
  0
LTYPE
  2
DASHED
 70
     0
  3
Dashed __ __ __ __ __ __ __ __ __ __ __ __ __ _
 72
    65
 73
     2
 40
11.049999999999979
 49
8.699999999999999
 49
-2.3499999999999979
  0
LTYPE
  2
PHANTOM2
 70
     0
  3
Phantom (.5x) ___ _ _ ___ _ _ ___ _ _ ___ _ _
 72
    65
 73
     6
 40
18.3
 49
7.8
 49
-2.1
 49
2.1
 49
-2.1
 49
2.1
 49
-2.1
  0
LTYPE
  2
CENTER
 70
     0
  3
Center ____ _ ____ _ ____ _ ____ _ ____ _ ____
 72
    65
 73
     4
 40
14.1
 49
7.8
 49
-2.1
 49
2.1
 49
-2.1
  0
ENDTAB
  0
TABLE
  2
LAYER
 70
     7
  0
LAYER
  2
0
 70
    64
 62
     7
  6
CONTINUOUS
  0
LAYER
  2
OBRYS
 70
    64
 62
     2
  6
CONTINUOUS
  0
LAYER
  2
OSA
 70
    64
 62
     7
  6
DASHDOT
  0
LAYER
  2
KOTA
 70
    64
 62
     3
  6
CONTINUOUS
  0
LAYER
  2
SRAFY
 70
    64
 62
     7
  6
CONTINUOUS
  0
LAYER
  2
POMOC
 70
    64
 62
     1
  6
DOT
  0
LAYER
  2
NEVIDITELNA
 70
    64
 62
     4
  6
HIDDEN2
  0
ENDTAB
  0
TABLE
  2
STYLE
 70
     1
  0
STYLE
  2
STANDARD
 70
     0
 40
0.0
 41
1.0
 50
0.0
 71
     0
 42
2.5
  3
txt
  4

  0
ENDTAB
  0
TABLE
  2
VIEW
 70
     0
  0
ENDTAB
  0
TABLE
  2
UCS
 70
     0
  0
ENDTAB
  0
TABLE
  2
APPID
 70
     1
  0
APPID
  2
ACAD
 70
     0
  0
ENDTAB
  0
TABLE
  2
DIMSTYLE
 70
     1
  0
DIMSTYLE
  2
ISO-25
 70
     0
  3

  4

  5

  6

  7

 40
1.0
 41
2.5
 42
0.625
 43
3.75
 44
1.25
 45
0.0
 46
0.0
 47
0.0
 48
0.0
140
2.5
141
2.5
142
0.0
143
0.03937007874016
144
1.0
145
0.0
146
1.0
147
0.625
 71
     0
 72
     0
 73
     0
 74
     0
 75
     0
 76
     0
 77
     1
 78
     8
170
     0
171
     3
172
     1
173
     0
174
     0
175
     0
176
     0
177
     0
178
     0
  0
ENDTAB
  0
ENDSEC
  0
SECTION
  2
BLOCKS
  0
BLOCK
  8
0
  2
$MODEL_SPACE
 70
     0
 10
0.0
 20
0.0
 30
0.0
  3
$MODEL_SPACE
  1

  0
ENDBLK
  8
0
  0
BLOCK
 67
     1
  8
0
  2
$PAPER_SPACE
 70
     0
 10
0.0
 20
0.0
 30
0.0
  3
$PAPER_SPACE
  1

  0
ENDBLK
 67
     1
  8
0
  0
BLOCK
  8
OBRYS
  2
_0
 70
   64
 10
844.321731
 20
305.225779
  0
ARC
  8
OBRYS
 10
874.321742
 20
323.492283
 40
2.000000
 50
0.000000
 51
90.000000
  0
ARC
  8
OBRYS
 10
874.321742
 20
327.492283
 40
2.000000
 50
180.000000
 51
270.000000
  0
INSERT
  8
OBRYS
  2
Srouby_s_valcovou_hlavou___1
 62
     7
 10
373.573563
 20
331.742283
  0
LINE
  8
OBRYS
 10
896.321742
 20
260.059112
 11
896.321742
 21
209.225779
  0
LINE
  8
OBRYS
 10
896.321742
 20
329.225779
 11
896.321742
 21
278.392446
  0
LINE
  8
OBRYS
 10
895.321742
 20
278.392446
 11
895.321742
 21
260.059112
  0
LINE
  8
OBRYS
 10
885.321742
 20
236.225779
 11
867.321742
 21
236.225779
  0
LINE
  8
OBRYS
 10
878.321742
 20
296.225779
 11
885.321742
 21
296.225779
  0
ARC
  8
OBRYS
 10
885.321742
 20
298.225779
 40
2.000000
 50
270.000000
 51
360.000000
  0
ARC
  8
OBRYS
 10
885.321742
 20
234.225779
 40
2.000000
 50
0.000000
 51
90.000000
  0
ARC
  8
OBRYS
 10
889.321742
 20
211.225779
 40
2.000000
 50
180.000000
 51
270.000000
  0
LINE
  8
OBRYS
 10
896.321742
 20
209.225779
 11
889.321742
 21
209.225779
  0
ARC
  8
OBRYS
 10
889.321742
 20
327.225779
 40
2.000000
 50
90.000000
 51
180.000000
  0
LINE
  8
OBRYS
 10
896.321742
 20
329.225779
 11
889.321742
 21
329.225779
  0
ARC
  8
OBRYS
 10
870.321742
 20
342.725779
 40
2.000000
 50
0.000000
 51
90.000000
  0
LINE
  8
OBRYS
 10
872.321742
 20
328.742283
 11
872.321742
 21
342.725779
  0
LINE
  8
OBRYS
 62
     7
  6
DASHDOT
 10
865.554293
 20
269.225779
 11
895.041373
 21
269.225779
  0
LINE
  8
OBRYS
 10
867.321742
 20
269.225779
 11
867.321742
 21
344.725779
  0
LINE
  8
OBRYS
 10
872.321742
 20
344.725779
 11
867.321742
 21
344.725779
  0
ARC
  8
OBRYS
 10
878.321742
 20
298.225779
 40
2.000000
 50
180.000000
 51
270.000000
  0
ARC
  8
OBRYS
 10
872.321742
 20
340.725779
 40
4.000000
 50
0.000000
 51
90.000000
  0
LINE
  8
OBRYS
 10
887.321742
 20
211.225779
 11
887.321742
 21
269.225779
  0
LINE
  8
OBRYS
 10
887.321742
 20
327.225779
 11
887.321742
 21
269.225779
  0
LINE
  8
OBRYS
 10
876.321742
 20
280.167724
 11
876.321742
 21
340.725779
  0
LINE
  8
OBRYS
 62
     7
  6
DASHDOT
 10
863.321742
 20
331.742283
 11
880.321742
 21
331.742283
  0
LINE
  8
OBRYS
 10
893.821742
 20
278.392446
 11
896.321742
 21
278.392446
  0
ARC
  8
OBRYS
 10
893.821742
 20
277.392446
 40
1.000000
 50
90.000000
 51
180.000000
  0
LINE
  8
OBRYS
 10
894.821742
 20
279.225779
 11
896.321742
 21
279.225779
  0
ARC
  8
OBRYS
 10
894.821742
 20
277.225779
 40
2.000000
 50
90.000000
 51
180.000000
  0
ARC
  8
OBRYS
 10
894.821742
 20
261.225779
 40
2.000000
 50
180.000000
 51
270.000000
  0
LINE
  8
OBRYS
 10
894.821742
 20
259.225779
 11
896.321742
 21
259.225779
  0
ARC
  8
OBRYS
 10
893.821742
 20
261.059112
 40
1.000000
 50
180.000000
 51
270.000000
  0
LINE
  8
OBRYS
 10
893.821742
 20
260.059112
 11
896.321742
 21
260.059112
  0
LINE
  8
OBRYS
 10
892.821742
 20
277.225779
 11
892.821742
 21
261.225779
  0
LINE
  8
OBRYS
 62
     7
  6
DASHDOT
 10
865.649784
 20
305.225779
 11
895.041373
 21
305.225779
  0
LINE
  8
OBRYS
 62
     7
  6
DASHDOT
 10
865.480023
 20
241.225779
 11
899.541370
 21
241.225779
  0
LINE
  8
OBRYS
 10
867.321742
 20
251.745779
 11
867.321742
 21
269.225779
  0
LINE
  8
OBRYS
 10
867.321742
 20
251.745779
 11
867.321742
 21
236.225779
  0
LINE
  8
OBRYS
 10
849.321742
 20
236.225779
 11
867.321742
 21
236.225779
  0
LINE
  8
OBRYS
 10
867.321742
 20
251.745779
 11
867.321742
 21
305.225779
  0
LINE
  8
OBRYS
 10
867.321742
 20
305.225779
 11
867.321742
 21
344.725779
  0
LINE
  8
OBRYS
 10
867.321742
 20
344.725779
 11
849.321742
 21
344.725779
  0
LINE
  8
OBRYS
 62
     7
  6
DASHDOT
 10
833.821745
 20
305.225779
 11
874.821738
 21
305.225779
  0
LINE
  8
OBRYS
 10
844.321731
 20
340.247993
 11
844.349087
 21
340.247993
  0
ARC
  8
OBRYS
 10
844.321742
 20
269.203565
 40
1.000000
 50
0.000000
 51
90.000000
  0
ARC
  8
OBRYS
 10
849.321742
 20
340.725779
 40
4.000000
 50
90.000000
 51
174.004934
  0
ARC
  8
OBRYS
 10
844.349087
 20
341.247993
 40
1.000000
 50
270.000000
 51
354.004934
  0
ARC
  8
OBRYS
 10
849.321742
 20
240.225779
 40
4.000000
 50
180.000000
 51
270.000000
  0
LINE
  8
OBRYS
 10
867.321742
 20
251.745779
 11
867.321742
 21
236.225779
  0
LINE
  8
OBRYS
 10
844.321731
 20
305.225779
 11
844.321731
 21
270.203565
  0
LINE
  8
OBRYS
 10
844.321731
 20
340.247993
 11
844.321731
 21
305.225779
  0
LINE
  8
OBRYS
 10
845.321742
 20
240.225779
 11
845.321742
 21
305.225779
  0
LINE
  8
OBRYS
 10
845.321742
 20
305.225779
 11
845.321742
 21
341.143550
  0
LINE
  8
OBRYS
 10
867.321742
 20
322.633501
 11
849.321741
 21
322.633501
  0
LINE
  8
OBRYS
 10
867.321742
 20
335.121734
 11
849.321741
 21
335.121734
  0
LINE
  8
OBRYS
 10
867.321742
 20
288.375043
 11
849.321741
 21
288.375043
  0
ENDBLK
  8
OBRYS
  0
BLOCK
  8
OBRYS
  2
Srouby_s_valcovou_hlavou___1
 70
   66
 10
373.573563
 20
331.742283
  0
LINE
  8
OBRYS
 10
875.821742
 20
327.992283
 11
875.821742
 21
335.492283
  0
LINE
  8
OBRYS
 10
875.321742
 20
327.492283
 11
872.321742
 21
327.492283
  0
LINE
  8
OBRYS
 10
872.321742
 20
327.492283
 11
872.321742
 21
335.992283
  0
LINE
  8
OBRYS
 10
872.321742
 20
335.992283
 11
875.321742
 21
335.992283
  0
ARC
  8
OBRYS
 10
875.321742
 20
327.992283
 40
0.500000
 50
270.000000
 51
360.000000
  0
ARC
  8
OBRYS
 10
875.321742
 20
335.492283
 40
0.500000
 50
0.000000
 51
90.000000
  0
LINE
  8
OBRYS
 62
     7
  6
DOT
 10
875.821742
 20
329.432868
 11
874.155075
 21
329.432868
  0
LINE
  8
OBRYS
 62
     7
  6
DOT
 10
875.821742
 20
330.587576
 11
874.155075
 21
330.587576
  0
LINE
  8
OBRYS
 62
     7
  6
DOT
 10
875.821742
 20
332.896991
 11
874.155075
 21
332.896991
  0
LINE
  8
OBRYS
 62
     7
  6
DOT
 10
875.821742
 20
334.051699
 11
874.155075
 21
334.051699
  0
ARC
  8
OBRYS
 62
     7
  6
DOT
 10
876.155081
 20
330.010222
 40
0.666673
 50
120.000310
 51
239.999690
  0
ARC
  8
OBRYS
 62
     7
  6
DOT
 10
877.655100
 20
331.742283
 40
2.166692
 50
147.795963
 51
212.204037
  0
ARC
  8
OBRYS
 62
     7
  6
DOT
 10
876.155081
 20
333.474345
 40
0.666673
 50
120.000310
 51
239.999690
  0
ARC
  8
OBRYS
 62
     7
  6
DOT
 10
874.488415
 20
330.010222
 40
0.666673
 50
120.000310
 51
239.999690
  0
ARC
  8
OBRYS
 62
     7
  6
DOT
 10
875.988433
 20
331.742283
 40
2.166692
 50
147.795963
 51
212.204037
  0
ARC
  8
OBRYS
 62
     7
  6
DOT
 10
874.488415
 20
333.474345
 40
0.666673
 50
120.000310
 51
239.999690
  0
LINE
  8
OBRYS
 62
     7
  6
DOT
 10
873.821742
 20
330.010222
 11
872.667034
 21
331.742283
  0
LINE
  8
OBRYS
 62
     7
  6
DOT
 10
872.667034
 20
331.742283
 11
873.821742
 21
333.474345
  0
ENDBLK
  8
OBRYS
  0
BLOCK
  8
OSA
  2
_1
 70
   64
 10
562.546919
 20
305.225779
  0
CIRCLE
  8
OBRYS
 10
562.546919
 20
269.225779
 40
10.000000
  0
ARC
  8
OBRYS
 10
562.546919
 20
269.225779
 40
4.500000
 50
109.471221
 51
70.528779
  0
LINE
  8
OBRYS
 10
561.046919
 20
273.468420
 11
561.046919
 21
275.025779
  0
LINE
  8
OBRYS
 10
561.046919
 20
275.025779
 11
564.046919
 21
275.025779
  0
LINE
  8
OBRYS
 10
564.046919
 20
275.025779
 11
564.046919
 21
273.468420
  0
LINE
  8
OSA
 10
562.546919
 20
269.225779
 11
568.713585
 21
269.225779
  0
LINE
  8
OSA
 10
562.546919
 20
269.225779
 11
556.380252
 21
269.225779
  0
LINE
  8
OSA
 10
562.546919
 20
269.225779
 11
562.546919
 21
275.392446
  0
LINE
  8
OSA
 10
562.546919
 20
269.225779
 11
562.546919
 21
263.059112
  0
INSERT
  8
OSA
  2
Srouby_s_valcovou_hlavou___3
  6
CONTINUOUS
 10
562.546919
 20
241.225779
  0
INSERT
  8
OSA
  2
Srouby_s_valcovou_hlavou___4
  6
CONTINUOUS
 10
536.030414
 20
278.709275
  0
INSERT
  8
OSA
  2
Srouby_s_valcovou_hlavou___5
  6
CONTINUOUS
 10
589.063423
 20
278.709275
  0
LINE
  8
OSA
 10
536.030414
 20
278.709275
 11
542.639787
 21
278.709275
  0
LINE
  8
OSA
 10
536.030414
 20
278.709275
 11
529.421041
 21
278.709275
  0
LINE
  8
OSA
 10
536.030414
 20
278.709275
 11
536.030414
 21
285.318648
  0
LINE
  8
OSA
 10
536.030414
 20
278.709275
 11
536.030414
 21
272.099902
  0
LINE
  8
OSA
 10
589.063423
 20
278.709275
 11
595.672796
 21
278.709275
  0
LINE
  8
OSA
 10
589.063423
 20
278.709275
 11
582.454050
 21
278.709275
  0
LINE
  8
OSA
 10
589.063423
 20
278.709275
 11
589.063423
 21
285.318648
  0
LINE
  8
OSA
 10
589.063423
 20
278.709275
 11
589.063423
 21
272.099902
  0
LINE
  8
OSA
 10
536.030414
 20
331.742283
 11
542.639787
 21
331.742283
  0
LINE
  8
OSA
 10
536.030414
 20
331.742283
 11
529.421041
 21
331.742283
  0
LINE
  8
OSA
 10
536.030414
 20
331.742283
 11
536.030414
 21
338.351656
  0
LINE
  8
OSA
 10
536.030414
 20
331.742283
 11
536.030414
 21
325.132910
  0
LINE
  8
OSA
 10
589.063423
 20
331.742283
 11
589.063423
 21
325.132910
  0
LINE
  8
OSA
 10
589.063423
 20
331.742283
 11
589.063423
 21
338.351656
  0
LINE
  8
OSA
 10
589.063423
 20
331.742283
 11
582.454050
 21
331.742283
  0
LINE
  8
OSA
 10
589.063423
 20
331.742283
 11
595.672796
 21
331.742283
  0
INSERT
  8
OSA
  2
Srouby_s_valcovou_hlavou___6
  6
CONTINUOUS
 10
536.030414
 20
331.742283
  0
INSERT
  8
OSA
  2
Srouby_s_valcovou_hlavou___7
  6
CONTINUOUS
 10
589.063423
 20
331.742283
  0
LINE
  8
0
 62
     2
 10
526.066157
 20
316.861417
 11
526.066157
 21
320.225779
  0
LINE
  8
0
 62
     2
 10
599.027681
 20
316.861417
 11
599.027681
 21
320.225779
  0
ARC
  8
OBRYS
 10
562.546919
 20
269.225779
 40
55.000000
 50
90.000000
 51
270.000000
  0
ARC
  8
OBRYS
 10
537.825657
 20
230.433264
 40
2.000000
 50
57.491906
 51
145.000000
  0
LINE
  8
OBRYS
 10
536.187353
 20
231.580417
 11
532.169020
 21
225.841643
  0
ARC
  8
OBRYS
 10
533.807324
 20
224.694490
 40
2.000000
 50
145.000000
 51
237.162618
  0
ARC
  8
OBRYS
 10
562.546919
 20
269.225779
 40
44.000000
 50
90.000000
 51
270.000000
  0
ARC
  8
OBRYS
 10
518.015630
 20
240.486184
 40
2.000000
 50
212.837382
 51
305.000000
  0
LINE
  8
OBRYS
 10
524.901557
 20
242.866213
 11
519.162783
 21
238.847880
  0
ARC
  8
OBRYS
 10
523.754404
 20
244.504517
 40
2.000000
 50
305.000000
 51
32.508094
  0
LINE
  8
OBRYS
 10
503.386121
 20
259.225779
 11
508.316187
 21
260.059112
  0
LINE
  8
OBRYS
 10
503.386121
 20
279.225779
 11
508.316187
 21
278.392446
  0
ARC
  8
OBRYS
 10
523.754404
 20
293.947041
 40
2.000000
 50
327.491906
 51
55.000000
  0
LINE
  8
OBRYS
 10
524.901557
 20
295.585345
 11
519.162783
 21
299.603678
  0
ARC
  8
OBRYS
 10
518.015630
 20
297.965374
 40
2.000000
 50
55.000000
 51
147.162618
  0
ARC
  8
OBRYS
 10
533.807324
 20
313.757068
 40
2.000000
 50
122.837382
 51
215.000000
  0
LINE
  8
OBRYS
 10
536.187353
 20
306.871141
 11
532.169020
 21
312.609915
  0
ARC
  8
OBRYS
 10
537.825657
 20
308.018294
 40
2.000000
 50
215.000000
 51
302.508094
  0
ARC
  8
OBRYS
 10
587.268181
 20
308.018294
 40
2.000000
 50
237.491906
 51
325.000000
  0
LINE
  8
OBRYS
 10
588.906485
 20
306.871141
 11
592.924818
 21
312.609915
  0
ARC
  8
OBRYS
 10
591.286514
 20
313.757068
 40
2.000000
 50
325.000000
 51
57.162618
  0
ARC
  8
OBRYS
 10
607.078208
 20
297.965374
 40
2.000000
 50
32.837382
 51
125.000000
  0
LINE
  8
OBRYS
 10
600.192281
 20
295.585345
 11
605.931055
 21
299.603678
  0
ARC
  8
OBRYS
 10
601.339434
 20
293.947041
 40
2.000000
 50
125.000000
 51
212.508094
  0
LINE
  8
OBRYS
 10
621.707717
 20
279.225779
 11
616.777650
 21
278.392446
  0
LINE
  8
OBRYS
 10
621.707717
 20
259.225779
 11
616.777650
 21
260.059112
  0
ARC
  8
OBRYS
 10
601.339434
 20
244.504517
 40
2.000000
 50
147.491906
 51
235.000000
  0
LINE
  8
OBRYS
 10
600.192281
 20
242.866213
 11
605.931055
 21
238.847880
  0
ARC
  8
OBRYS
 10
607.078208
 20
240.486184
 40
2.000000
 50
235.000000
 51
327.162618
  0
ARC
  8
OBRYS
 10
562.546919
 20
269.225779
 40
44.000000
 50
270.000000
 51
90.000000
  0
ARC
  8
OBRYS
 10
591.286514
 20
224.694490
 40
2.000000
 50
302.837382
 51
35.000000
  0
LINE
  8
OBRYS
 10
588.906485
 20
231.580417
 11
592.924818
 21
225.841643
  0
ARC
  8
OBRYS
 10
587.268181
 20
230.433264
 40
2.000000
 50
35.000000
 51
122.508094
  0
ARC
  8
OBRYS
 10
562.546919
 20
269.225779
 40
55.000000
 50
270.000000
 51
90.000000
  0
CIRCLE
  8
OBRYS
 10
562.546919
 20
269.225779
 40
17.480000
  0
ARC
  8
OBRYS
 10
562.546919
 20
269.225779
 40
24.000000
 50
90.000000
 51
154.208906
  0
ARC
  8
OSA
 10
562.546919
 20
269.225779
 40
50.000000
 50
90.000000
 51
270.000000
  0
ARC
  8
OBRYS
 10
562.546919
 20
269.225779
 40
40.000000
 50
90.000000
 51
270.000000
  0
ARC
  8
OBRYS
 10
562.546919
 20
269.225779
 40
60.000000
 50
90.000000
 51
270.000000
  0
ARC
  8
OBRYS
 10
562.546919
 20
269.225779
 40
21.000000
 50
90.000000
 51
270.000000
  0
LINE
  8
OSA
 10
562.546919
 20
241.225779
 11
552.546906
 21
241.225779
  0
ARC
  8
OBRYS
 10
562.546902
 20
241.225779
 40
5.000000
 50
90.000000
 51
270.000000
  0
LINE
  8
OSA
 10
562.546919
 20
305.225779
 11
522.546922
 21
305.225779
  0
LINE
  8
OSA
 10
562.546919
 20
269.225779
 11
502.546919
 21
269.225779
  0
ARC
  8
OBRYS
 10
536.566157
 20
320.225779
 40
10.500000
 50
154.169919
 51
179.999994
  0
LINE
  8
0
 62
     2
 10
527.115210
 20
324.800668
 11
531.529964
 21
333.920802
  0
CIRCLE
  8
OBRYS
 10
536.030414
 20
278.709275
 40
5.000000
  0
ARC
  8
OBRYS
 10
536.030414
 20
331.742283
 40
5.000000
 50
269.999964
 51
360.000000
  0
ARC
  8
OBRYS
 10
529.308948
 20
324.742283
 40
2.000000
 50
90.000000
 51
154.169919
  0
LINE
  8
OBRYS
 10
536.030414
 20
326.742283
 11
529.308948
 21
326.742283
  0
CIRCLE
  8
OBRYS
 10
527.191580
 20
304.581118
 40
3.500000
  0
LINE
  8
OSA
 10
562.546919
 20
269.225779
 11
520.120512
 21
226.799372
  0
LINE
  8
OSA
 10
562.546919
 20
269.225779
 11
520.120512
 21
311.652186
  0
CIRCLE
  8
OBRYS
 10
527.191580
 20
233.870440
 40
3.500000
  0
ARC
  8
OBRYS
 10
536.030414
 20
278.709275
 40
5.000000
 50
356.832544
 51
45.000000
  0
ARC
  8
OBRYS
 10
562.546919
 20
269.225779
 40
24.000000
 50
166.432420
 51
263.365562
  0
ARC
  8
OBRYS
 10
562.546919
 20
269.225779
 40
24.000000
 50
276.634438
 51
13.567580
  0
ARC
  8
OBRYS
 10
589.063423
 20
278.709275
 40
5.000000
 50
135.000000
 51
183.167456
  0
CIRCLE
  8
OBRYS
 10
597.902258
 20
233.870440
 40
3.500000
  0
LINE
  8
OSA
 10
562.546919
 20
269.225779
 11
604.973326
 21
311.652186
  0
LINE
  8
OSA
 10
562.546919
 20
269.225779
 11
604.973326
 21
226.799372
  0
CIRCLE
  8
OBRYS
 10
597.902258
 20
304.581118
 40
3.500000
  0
LINE
  8
OBRYS
 10
589.063423
 20
326.742283
 11
595.784890
 21
326.742283
  0
ARC
  8
OBRYS
 10
595.784890
 20
324.742283
 40
2.000000
 50
25.830081
 51
90.000000
  0
ARC
  8
OBRYS
 10
589.063423
 20
331.742283
 40
5.000000
 50
180.000000
 51
270.000036
  0
CIRCLE
  8
OBRYS
 10
589.063423
 20
278.709275
 40
5.000000
  0
LINE
  8
0
 62
     2
 10
597.978627
 20
324.800668
 11
593.563874
 21
333.920802
  0
ARC
  8
OBRYS
 10
588.527681
 20
320.225779
 40
10.500000
 50
0.000006
 51
25.830081
  0
LINE
  8
OSA
 10
562.546919
 20
350.869826
 11
562.546919
 21
209.225779
  0
LINE
  8
OSA
 10
562.546919
 20
269.225779
 11
622.546919
 21
269.225779
  0
LINE
  8
OSA
 10
562.546919
 20
305.225779
 11
602.546915
 21
305.225779
  0
ARC
  8
OBRYS
 10
562.546935
 20
241.225779
 40
5.000000
 50
270.000000
 51
90.000000
  0
LINE
  8
OSA
 10
562.546919
 20
241.225779
 11
572.546932
 21
241.225779
  0
ARC
  8
OBRYS
 10
562.546919
 20
269.225779
 40
21.000000
 50
270.000000
 51
90.000000
  0
ARC
  8
OBRYS
 10
562.546919
 20
269.225779
 40
60.000000
 50
270.000000
 51
90.000000
  0
ARC
  8
OBRYS
 10
562.546919
 20
269.225779
 40
40.000000
 50
270.000000
 51
90.000000
  0
ARC
  8
OSA
 10
562.546919
 20
269.225779
 40
50.000000
 50
270.000000
 51
90.000000
  0
ARC
  8
OBRYS
 10
562.546919
 20
269.225779
 40
24.000000
 50
25.791094
 51
90.000000
  0
ARC
  8
OBRYS
 10
536.030414
 20
331.742283
 40
5.000000
 50
123.511664
 51
154.169919
  0
ARC
  8
OBRYS
 10
589.063423
 20
331.742283
 40
5.000000
 50
25.830081
 51
56.488335
  0
ARC
  8
OBRYS
 10
562.546919
 20
291.697871
 40
53.027909
 50
56.488379
 51
123.511629
  0
LINE
  8
OBRYS
 10
584.063423
 20
331.742283
 11
584.063423
 21
338.846078
  0
ARC
  8
OBRYS
 10
582.063423
 20
338.846078
 40
2.000000
 50
0.000000
 51
67.513406
  0
LINE
  8
OBRYS
 10
541.030414
 20
331.742283
 11
541.030414
 21
338.846078
  0
ARC
  8
OBRYS
 10
543.030414
 20
338.846078
 40
2.000000
 50
112.486594
 51
180.000000
  0
ENDBLK
  8
OSA
  0
BLOCK
  8
OSA
  2
Srouby_s_valcovou_hlavou___3
 70
   66
 10
562.546919
 20
241.225779
  0
LINE
  8
OSA
 62
     2
  6
CONTINUOUS
 10
560.546919
 20
240.071071
 11
560.546919
 21
242.380487
  0
LINE
  8
OSA
 62
     2
  6
CONTINUOUS
 10
560.546919
 20
242.380487
 11
562.546919
 21
243.535195
  0
LINE
  8
OSA
 62
     2
  6
CONTINUOUS
 10
562.546919
 20
243.535195
 11
564.546919
 21
242.380487
  0
LINE
  8
OSA
 62
     2
  6
CONTINUOUS
 10
564.546919
 20
242.380487
 11
564.546919
 21
240.071071
  0
LINE
  8
OSA
 62
     2
  6
CONTINUOUS
 10
564.546919
 20
240.071071
 11
562.546919
 21
238.916364
  0
LINE
  8
OSA
 62
     2
  6
CONTINUOUS
 10
562.546919
 20
238.916364
 11
560.546919
 21
240.071071
  0
CIRCLE
  8
OSA
 62
     2
  6
CONTINUOUS
 10
562.546919
 20
241.225779
 40
2.309415
  0
CIRCLE
  8
OSA
 62
     2
  6
CONTINUOUS
 10
562.546919
 20
241.225779
 40
4.250000
  0
ENDBLK
  8
OSA
  0
BLOCK
  8
OSA
  2
Srouby_s_valcovou_hlavou___4
 70
   66
 10
536.030414
 20
278.709275
  0
LINE
  8
OSA
 62
     2
  6
CONTINUOUS
 10
534.030414
 20
277.554567
 11
534.030414
 21
279.863983
  0
LINE
  8
OSA
 62
     2
  6
CONTINUOUS
 10
534.030414
 20
279.863983
 11
536.030414
 21
281.018690
  0
LINE
  8
OSA
 62
     2
  6
CONTINUOUS
 10
536.030414
 20
281.018690
 11
538.030414
 21
279.863983
  0
LINE
  8
OSA
 62
     2
  6
CONTINUOUS
 10
538.030414
 20
279.863983
 11
538.030414
 21
277.554567
  0
LINE
  8
OSA
 62
     2
  6
CONTINUOUS
 10
538.030414
 20
277.554567
 11
536.030414
 21
276.399859
  0
LINE
  8
OSA
 62
     2
  6
CONTINUOUS
 10
536.030414
 20
276.399859
 11
534.030414
 21
277.554567
  0
CIRCLE
  8
OSA
 62
     2
  6
CONTINUOUS
 10
536.030414
 20
278.709275
 40
2.309415
  0
CIRCLE
  8
OSA
 62
     2
  6
CONTINUOUS
 10
536.030414
 20
278.709275
 40
4.250000
  0
ENDBLK
  8
OSA
  0
BLOCK
  8
OSA
  2
Srouby_s_valcovou_hlavou___5
 70
   66
 10
589.063423
 20
278.709275
  0
LINE
  8
OSA
 62
     2
  6
CONTINUOUS
 10
587.063423
 20
277.554567
 11
587.063423
 21
279.863983
  0
LINE
  8
OSA
 62
     2
  6
CONTINUOUS
 10
587.063423
 20
279.863983
 11
589.063423
 21
281.018690
  0
LINE
  8
OSA
 62
     2
  6
CONTINUOUS
 10
589.063423
 20
281.018690
 11
591.063423
 21
279.863983
  0
LINE
  8
OSA
 62
     2
  6
CONTINUOUS
 10
591.063423
 20
279.863983
 11
591.063423
 21
277.554567
  0
LINE
  8
OSA
 62
     2
  6
CONTINUOUS
 10
591.063423
 20
277.554567
 11
589.063423
 21
276.399859
  0
LINE
  8
OSA
 62
     2
  6
CONTINUOUS
 10
589.063423
 20
276.399859
 11
587.063423
 21
277.554567
  0
CIRCLE
  8
OSA
 62
     2
  6
CONTINUOUS
 10
589.063423
 20
278.709275
 40
2.309415
  0
CIRCLE
  8
OSA
 62
     2
  6
CONTINUOUS
 10
589.063423
 20
278.709275
 40
4.250000
  0
ENDBLK
  8
OSA
  0
BLOCK
  8
OSA
  2
Srouby_s_valcovou_hlavou___6
 70
   66
 10
536.030414
 20
331.742283
  0
LINE
  8
OSA
 62
     2
  6
CONTINUOUS
 10
534.030414
 20
330.587576
 11
534.030414
 21
332.896991
  0
LINE
  8
OSA
 62
     2
  6
CONTINUOUS
 10
534.030414
 20
332.896991
 11
536.030414
 21
334.051699
  0
LINE
  8
OSA
 62
     2
  6
CONTINUOUS
 10
536.030414
 20
334.051699
 11
538.030414
 21
332.896991
  0
LINE
  8
OSA
 62
     2
  6
CONTINUOUS
 10
538.030414
 20
332.896991
 11
538.030414
 21
330.587576
  0
LINE
  8
OSA
 62
     2
  6
CONTINUOUS
 10
538.030414
 20
330.587576
 11
536.030414
 21
329.432868
  0
LINE
  8
OSA
 62
     2
  6
CONTINUOUS
 10
536.030414
 20
329.432868
 11
534.030414
 21
330.587576
  0
CIRCLE
  8
OSA
 62
     2
  6
CONTINUOUS
 10
536.030414
 20
331.742283
 40
2.309415
  0
CIRCLE
  8
OSA
 62
     2
  6
CONTINUOUS
 10
536.030414
 20
331.742283
 40
4.250000
  0
ENDBLK
  8
OSA
  0
BLOCK
  8
OSA
  2
Srouby_s_valcovou_hlavou___7
 70
   66
 10
589.063423
 20
331.742283
  0
LINE
  8
OSA
 62
     2
  6
CONTINUOUS
 10
587.063423
 20
330.587576
 11
587.063423
 21
332.896991
  0
LINE
  8
OSA
 62
     2
  6
CONTINUOUS
 10
587.063423
 20
332.896991
 11
589.063423
 21
334.051699
  0
LINE
  8
OSA
 62
     2
  6
CONTINUOUS
 10
589.063423
 20
334.051699
 11
591.063423
 21
332.896991
  0
LINE
  8
OSA
 62
     2
  6
CONTINUOUS
 10
591.063423
 20
332.896991
 11
591.063423
 21
330.587576
  0
LINE
  8
OSA
 62
     2
  6
CONTINUOUS
 10
591.063423
 20
330.587576
 11
589.063423
 21
329.432868
  0
LINE
  8
OSA
 62
     2
  6
CONTINUOUS
 10
589.063423
 20
329.432868
 11
587.063423
 21
330.587576
  0
CIRCLE
  8
OSA
 62
     2
  6
CONTINUOUS
 10
589.063423
 20
331.742283
 40
2.309415
  0
CIRCLE
  8
OSA
 62
     2
  6
CONTINUOUS
 10
589.063423
 20
331.742283
 40
4.250000
  0
ENDBLK
  8
OSA
  0
BLOCK
  8
OBRYS
  2
_2
 70
   64
 10
307.396033
 20
319.140252
  0
LINE
  8
OBRYS
 10
284.396022
 20
302.289516
 11
302.396023
 21
302.289516
  0
LINE
  8
OBRYS
 10
284.396022
 20
349.036207
 11
302.396023
 21
349.036207
  0
LINE
  8
OBRYS
 10
284.396022
 20
336.547974
 11
302.396023
 21
336.547974
  0
LINE
  8
OBRYS
 10
306.396022
 20
319.140252
 11
306.396022
 21
355.058023
  0
LINE
  8
OBRYS
 10
307.396033
 20
354.162466
 11
307.396033
 21
319.140252
  0
LINE
  8
OBRYS
 10
284.396022
 20
265.660252
 11
284.396022
 21
250.140252
  0
ARC
  8
OBRYS
 10
307.368676
 20
355.162466
 40
1.000000
 50
185.995066
 51
270.000000
  0
ARC
  8
OBRYS
 10
302.396022
 20
354.640252
 40
4.000000
 50
5.995066
 51
90.000000
  0
LINE
  8
OBRYS
 10
307.396033
 20
354.162466
 11
307.368676
 21
354.162466
  0
LINE
  8
OBRYS
 62
     7
  6
DASHDOT
 10
317.896018
 20
319.140252
 11
276.896025
 21
319.140252
  0
LINE
  8
OBRYS
 10
284.396022
 20
358.640252
 11
302.396022
 21
358.640252
  0
LINE
  8
OBRYS
 10
284.396022
 20
319.140252
 11
284.396022
 21
358.640252
  0
LINE
  8
OBRYS
 10
284.396022
 20
265.660252
 11
284.396022
 21
319.140252
  0
LINE
  8
OBRYS
 10
284.396022
 20
265.660252
 11
284.396022
 21
250.140252
  0
LINE
  8
OBRYS
 10
284.396022
 20
265.660252
 11
284.396022
 21
283.140252
  0
LINE
  8
OBRYS
 62
     7
  6
DASHDOT
 10
286.237741
 20
255.140252
 11
252.176394
 21
255.140252
  0
LINE
  8
OBRYS
 62
     7
  6
DASHDOT
 10
286.067980
 20
319.140252
 11
256.676390
 21
319.140252
  0
LINE
  8
OBRYS
 10
258.896022
 20
291.140252
 11
258.896022
 21
275.140252
  0
LINE
  8
OBRYS
 10
257.896022
 20
273.973586
 11
255.396022
 21
273.973586
  0
ARC
  8
OBRYS
 10
257.896022
 20
274.973586
 40
1.000000
 50
270.000000
 51
360.000000
  0
LINE
  8
OBRYS
 10
256.896022
 20
273.140252
 11
255.396022
 21
273.140252
  0
ARC
  8
OBRYS
 10
256.896022
 20
275.140252
 40
2.000000
 50
270.000000
 51
360.000000
  0
ARC
  8
OBRYS
 10
256.896022
 20
291.140252
 40
2.000000
 50
0.000000
 51
90.000000
  0
LINE
  8
OBRYS
 10
256.896022
 20
293.140252
 11
255.396022
 21
293.140252
  0
ARC
  8
OBRYS
 10
257.896022
 20
291.306919
 40
1.000000
 50
0.000000
 51
90.000000
  0
LINE
  8
OBRYS
 10
257.896022
 20
292.306919
 11
255.396022
 21
292.306919
  0
LINE
  8
OBRYS
 62
     7
  6
DASHDOT
 10
288.396022
 20
345.656757
 11
271.396022
 21
345.656757
  0
LINE
  8
OBRYS
 10
275.396022
 20
294.082198
 11
275.396022
 21
354.640252
  0
LINE
  8
OBRYS
 10
264.396022
 20
341.140252
 11
264.396022
 21
283.140252
  0
LINE
  8
OBRYS
 10
264.396022
 20
225.140252
 11
264.396022
 21
283.140252
  0
ARC
  8
OBRYS
 10
279.396022
 20
354.640252
 40
4.000000
 50
90.000000
 51
180.000000
  0
ARC
  8
OBRYS
 10
273.396022
 20
312.140252
 40
2.000000
 50
270.000000
 51
360.000000
  0
LINE
  8
OBRYS
 10
279.396022
 20
358.640252
 11
284.396022
 21
358.640252
  0
LINE
  8
OBRYS
 10
284.396022
 20
283.140252
 11
284.396022
 21
358.640252
  0
LINE
  8
OBRYS
 62
     7
  6
DASHDOT
 10
286.163470
 20
283.140252
 11
256.676390
 21
283.140252
  0
LINE
  8
OBRYS
 10
279.396022
 20
342.656757
 11
279.396022
 21
356.640252
  0
ARC
  8
OBRYS
 10
281.396022
 20
356.640252
 40
2.000000
 50
90.000000
 51
180.000000
  0
LINE
  8
OBRYS
 10
255.396022
 20
343.140252
 11
262.396022
 21
343.140252
  0
ARC
  8
OBRYS
 10
262.396022
 20
341.140252
 40
2.000000
 50
0.000000
 51
90.000000
  0
LINE
  8
OBRYS
 10
255.396022
 20
223.140252
 11
262.396022
 21
223.140252
  0
ARC
  8
OBRYS
 10
262.396022
 20
225.140252
 40
2.000000
 50
270.000000
 51
360.000000
  0
ARC
  8
OBRYS
 10
266.396022
 20
248.140252
 40
2.000000
 50
90.000000
 51
180.000000
  0
ARC
  8
OBRYS
 10
266.396022
 20
312.140252
 40
2.000000
 50
180.000000
 51
270.000000
  0
LINE
  8
OBRYS
 10
273.396022
 20
310.140252
 11
266.396022
 21
310.140252
  0
LINE
  8
OBRYS
 10
266.396022
 20
250.140252
 11
284.396022
 21
250.140252
  0
LINE
  8
OBRYS
 10
256.396022
 20
292.306919
 11
256.396022
 21
273.973586
  0
LINE
  8
OBRYS
 10
255.396022
 20
343.140252
 11
255.396022
 21
292.306919
  0
LINE
  8
OBRYS
 10
255.396022
 20
273.973586
 11
255.396022
 21
223.140252
  0
INSERT
  8
OBRYS
  2
Srouby_s_valcovou_hlavou___9
 62
     7
 10
279.396022
 20
345.656757
  0
ARC
  8
OBRYS
 10
277.396022
 20
341.406757
 40
2.000000
 50
270.000000
 51
360.000000
  0
ARC
  8
OBRYS
 10
277.396022
 20
337.406757
 40
2.000000
 50
90.000000
 51
180.000000
  0
LINE
  8
OBRYS
 10
288.557838
 20
250.140252
 11
284.396022
 21
250.140252
  0
LINE
  8
OBRYS
 10
307.396033
 20
319.140252
 11
307.396033
 21
306.984836
  0
LINE
  8
OBRYS
 10
306.396022
 20
305.782664
 11
306.396022
 21
319.140252
  0
ENDBLK
  8
OBRYS
  0
BLOCK
  8
OBRYS
  2
Srouby_s_valcovou_hlavou___9
 70
   66
 10
279.396022
 20
345.656757
  0
LINE
  8
OBRYS
 10
275.896022
 20
341.906757
 11
275.896022
 21
349.406757
  0
LINE
  8
OBRYS
 10
276.396022
 20
341.406757
 11
279.396022
 21
341.406757
  0
LINE
  8
OBRYS
 10
279.396022
 20
341.406757
 11
279.396022
 21
349.906757
  0
LINE
  8
OBRYS
 10
279.396022
 20
349.906757
 11
276.396022
 21
349.906757
  0
ARC
  8
OBRYS
 10
276.396022
 20
341.906757
 40
0.500000
 50
180.000000
 51
270.000000
  0
ARC
  8
OBRYS
 10
276.396022
 20
349.406757
 40
0.500000
 50
90.000000
 51
180.000000
  0
LINE
  8
OBRYS
 62
     7
  6
DOT
 10
275.896022
 20
343.347341
 11
277.562688
 21
343.347341
  0
LINE
  8
OBRYS
 62
     7
  6
DOT
 10
275.896022
 20
344.502049
 11
277.562688
 21
344.502049
  0
LINE
  8
OBRYS
 62
     7
  6
DOT
 10
275.896022
 20
346.811464
 11
277.562688
 21
346.811464
  0
LINE
  8
OBRYS
 62
     7
  6
DOT
 10
275.896022
 20
347.966172
 11
277.562688
 21
347.966172
  0
ARC
  8
OBRYS
 62
     7
  6
DOT
 10
275.562682
 20
343.924695
 40
0.666673
 50
300.000310
 51
59.999690
  0
ARC
  8
OBRYS
 62
     7
  6
DOT
 10
274.062663
 20
345.656757
 40
2.166692
 50
327.795963
 51
32.204037
  0
ARC
  8
OBRYS
 62
     7
  6
DOT
 10
275.562682
 20
347.388818
 40
0.666673
 50
300.000310
 51
59.999690
  0
ARC
  8
OBRYS
 62
     7
  6
DOT
 10
277.229349
 20
343.924695
 40
0.666673
 50
300.000310
 51
59.999690
  0
ARC
  8
OBRYS
 62
     7
  6
DOT
 10
275.729330
 20
345.656757
 40
2.166692
 50
327.795963
 51
32.204037
  0
ARC
  8
OBRYS
 62
     7
  6
DOT
 10
277.229349
 20
347.388818
 40
0.666673
 50
300.000310
 51
59.999690
  0
LINE
  8
OBRYS
 62
     7
  6
DOT
 10
277.896022
 20
343.924695
 11
279.050729
 21
345.656757
  0
LINE
  8
OBRYS
 62
     7
  6
DOT
 10
279.050729
 20
345.656757
 11
277.896022
 21
347.388818
  0
ENDBLK
  8
OBRYS
  0
BLOCK
  8
OBRYS
  2
_3
 70
   64
 10
307.396033
 20
85.947208
  0
LINE
  8
OBRYS
 10
284.396022
 20
49.466446
 11
284.396022
 21
122.427970
  0
ARC
  8
OBRYS
 10
262.396022
 20
27.947208
 40
2.000000
 50
270.000000
 51
360.000000
  0
LINE
  8
OBRYS
 10
255.396022
 20
25.947208
 11
262.396022
 21
25.947208
  0
ARC
  8
OBRYS
 10
262.396022
 20
143.947208
 40
2.000000
 50
0.000000
 51
90.000000
  0
LINE
  8
OBRYS
 10
255.396022
 20
145.947208
 11
262.396022
 21
145.947208
  0
LINE
  8
OSA
 10
286.163470
 20
85.947208
 11
256.676390
 21
85.947208
  0
LINE
  8
OBRYS
 10
264.396022
 20
27.947208
 11
264.396022
 21
85.947208
  0
LINE
  8
OBRYS
 10
264.396022
 20
143.947208
 11
264.396022
 21
85.947208
  0
LINE
  8
OBRYS
 10
255.396022
 20
85.947208
 11
255.396022
 21
25.947208
  0
LINE
  8
OBRYS
 10
255.396022
 20
145.947208
 11
255.396022
 21
85.947208
  0
LINE
  8
OBRYS
 10
284.396022
 20
116.382832
 11
280.329479
 21
116.382832
  0
ARC
  8
OBRYS
 10
277.396022
 20
109.463712
 40
2.000000
 50
270.000000
 51
360.000000
  0
ARC
  8
OBRYS
 10
277.396022
 20
105.463712
 40
2.000000
 50
90.000000
 51
180.000000
  0
ARC
  8
OBRYS
 10
281.396022
 20
120.427970
 40
2.000000
 50
90.000000
 51
180.000000
  0
LINE
  8
OBRYS
 10
279.396022
 20
120.427970
 11
279.396022
 21
51.466446
  0
ARC
  8
OBRYS
 10
281.396022
 20
51.466446
 40
2.000000
 50
180.000000
 51
270.000000
  0
ARC
  8
OBRYS
 10
277.396022
 20
66.430703
 40
2.000000
 50
180.000000
 51
270.000000
  0
ARC
  8
OBRYS
 10
277.396022
 20
62.430703
 40
2.000000
 50
0.000000
 51
90.000000
  0
LINE
  8
OBRYS
 10
284.396022
 20
55.511584
 11
280.329479
 21
55.511584
  0
LINE
  8
OSA
 10
281.799586
 20
59.430703
 11
271.396022
 21
59.430703
  0
INSERT
  8
OBRYS
  2
Srouby_s_valcovou_hlavou___11
 62
     7
 10
279.396022
 20
59.430703
  0
INSERT
  8
OBRYS
  2
Srouby_s_valcovou_hlavou___12
 62
     7
 10
279.396022
 20
112.463712
  0
LINE
  8
OSA
 10
281.799586
 20
112.463712
 11
271.396022
 21
112.463712
  0
ARC
  8
OBRYS
 10
273.896022
 20
50.711417
 40
1.500000
 50
4.876572
 51
90.000000
  0
ARC
  8
OBRYS
 10
276.885162
 20
50.966446
 40
1.500000
 50
184.876572
 51
270.000000
  0
LINE
  8
OBRYS
 10
265.896022
 20
52.211417
 11
273.896022
 21
52.211417
  0
ARC
  8
OBRYS
 10
265.896022
 20
50.711417
 40
1.500000
 50
90.000000
 51
180.000000
  0
ARC
  8
OBRYS
 10
265.896022
 20
121.182998
 40
1.500000
 50
180.000000
 51
270.000000
  0
LINE
  8
OBRYS
 10
265.896022
 20
119.682998
 11
273.896022
 21
119.682998
  0
ARC
  8
OBRYS
 10
276.885162
 20
120.927970
 40
1.500000
 50
90.000000
 51
175.123428
  0
ARC
  8
OBRYS
 10
273.896022
 20
121.182998
 40
1.500000
 50
270.000000
 51
355.123428
  0
LINE
  8
OBRYS
 10
275.396022
 20
120.747801
 11
275.396022
 21
51.146614
  0
LINE
  8
OBRYS
 10
276.885144
 20
49.466446
 11
284.396022
 21
49.466446
  0
LINE
  8
OBRYS
 10
276.885146
 20
122.427970
 11
284.396022
 21
122.427970
  0
LINE
  8
OBRYS
 10
284.396022
 20
55.511584
 11
302.396023
 21
55.511584
  0
LINE
  8
OBRYS
 10
284.396022
 20
116.382832
 11
302.396023
 21
116.382832
  0
LINE
  8
OBRYS
 10
306.396022
 20
85.947208
 11
306.396022
 21
118.845741
  0
LINE
  8
OBRYS
 10
306.396022
 20
53.466446
 11
306.396022
 21
85.947208
  0
LINE
  8
OBRYS
 10
307.396033
 20
116.946834
 11
307.396033
 21
85.947208
  0
LINE
  8
OBRYS
 10
307.396033
 20
85.947208
 11
307.396033
 21
54.947208
  0
ARC
  8
OBRYS
 10
302.396022
 20
53.466446
 40
4.000000
 50
270.000000
 51
360.000000
  0
ARC
  8
OBRYS
 10
307.368676
 20
117.946834
 40
1.000000
 50
185.995066
 51
270.000000
  0
ARC
  8
OBRYS
 10
302.396022
 20
118.427970
 40
4.000000
 50
5.995066
 51
90.000000
  0
ARC
  8
OBRYS
 10
307.396022
 20
53.947208
 40
1.000000
 50
90.000000
 51
180.000000
  0
LINE
  8
OBRYS
 10
307.396033
 20
116.946834
 11
307.368676
 21
116.946834
  0
LINE
  8
OSA
 10
317.896018
 20
85.947208
 11
276.896025
 21
85.947208
  0
LINE
  8
OBRYS
 10
284.396022
 20
122.427970
 11
302.396022
 21
122.427970
  0
LINE
  8
OBRYS
 10
284.396022
 20
85.947208
 11
284.396022
 21
122.427970
  0
LINE
  8
OBRYS
 10
284.396022
 20
49.466446
 11
284.396022
 21
85.947208
  0
LINE
  8
OBRYS
 10
302.396022
 20
49.466446
 11
284.396022
 21
49.466446
  0
ENDBLK
  8
OBRYS
  0
BLOCK
  8
OBRYS
  2
Srouby_s_valcovou_hlavou___11
 70
   66
 10
279.396022
 20
59.430703
  0
LINE
  8
OBRYS
 10
275.896022
 20
55.680703
 11
275.896022
 21
63.180703
  0
LINE
  8
OBRYS
 10
276.396022
 20
55.180703
 11
279.396022
 21
55.180703
  0
LINE
  8
OBRYS
 10
279.396022
 20
55.180703
 11
279.396022
 21
63.680703
  0
LINE
  8
OBRYS
 10
279.396022
 20
63.680703
 11
276.396022
 21
63.680703
  0
ARC
  8
OBRYS
 10
276.396022
 20
55.680703
 40
0.500000
 50
180.000000
 51
270.000000
  0
ARC
  8
OBRYS
 10
276.396022
 20
63.180703
 40
0.500000
 50
90.000000
 51
180.000000
  0
LINE
  8
OBRYS
 62
     7
  6
DOT
 10
275.896022
 20
57.121288
 11
277.562688
 21
57.121288
  0
LINE
  8
OBRYS
 62
     7
  6
DOT
 10
275.896022
 20
58.275996
 11
277.562688
 21
58.275996
  0
LINE
  8
OBRYS
 62
     7
  6
DOT
 10
275.896022
 20
60.585411
 11
277.562688
 21
60.585411
  0
LINE
  8
OBRYS
 62
     7
  6
DOT
 10
275.896022
 20
61.740119
 11
277.562688
 21
61.740119
  0
ARC
  8
OBRYS
 62
     7
  6
DOT
 10
275.562682
 20
57.698642
 40
0.666673
 50
300.000310
 51
59.999690
  0
ARC
  8
OBRYS
 62
     7
  6
DOT
 10
274.062663
 20
59.430703
 40
2.166692
 50
327.795963
 51
32.204037
  0
ARC
  8
OBRYS
 62
     7
  6
DOT
 10
275.562682
 20
61.162765
 40
0.666673
 50
300.000310
 51
59.999690
  0
ARC
  8
OBRYS
 62
     7
  6
DOT
 10
277.229349
 20
57.698642
 40
0.666673
 50
300.000310
 51
59.999690
  0
ARC
  8
OBRYS
 62
     7
  6
DOT
 10
275.729330
 20
59.430703
 40
2.166692
 50
327.795963
 51
32.204037
  0
ARC
  8
OBRYS
 62
     7
  6
DOT
 10
277.229349
 20
61.162765
 40
0.666673
 50
300.000310
 51
59.999690
  0
LINE
  8
OBRYS
 62
     7
  6
DOT
 10
277.896022
 20
57.698642
 11
279.050729
 21
59.430703
  0
LINE
  8
OBRYS
 62
     7
  6
DOT
 10
279.050729
 20
59.430703
 11
277.896022
 21
61.162765
  0
ENDBLK
  8
OBRYS
  0
BLOCK
  8
OBRYS
  2
Srouby_s_valcovou_hlavou___12
 70
   66
 10
279.396022
 20
112.463712
  0
LINE
  8
OBRYS
 10
275.896022
 20
116.213712
 11
275.896022
 21
108.713712
  0
LINE
  8
OBRYS
 10
276.396022
 20
116.713712
 11
279.396022
 21
116.713712
  0
LINE
  8
OBRYS
 10
279.396022
 20
116.713712
 11
279.396022
 21
108.213712
  0
LINE
  8
OBRYS
 10
279.396022
 20
108.213712
 11
276.396022
 21
108.213712
  0
ARC
  8
OBRYS
 10
276.396022
 20
116.213712
 40
0.500000
 50
90.000000
 51
180.000000
  0
ARC
  8
OBRYS
 10
276.396022
 20
108.713712
 40
0.500000
 50
180.000000
 51
270.000000
  0
LINE
  8
OBRYS
 62
     7
  6
DOT
 10
275.896022
 20
114.773128
 11
277.562688
 21
114.773128
  0
LINE
  8
OBRYS
 62
     7
  6
DOT
 10
275.896022
 20
113.618420
 11
277.562688
 21
113.618420
  0
LINE
  8
OBRYS
 62
     7
  6
DOT
 10
275.896022
 20
111.309004
 11
277.562688
 21
111.309004
  0
LINE
  8
OBRYS
 62
     7
  6
DOT
 10
275.896022
 20
110.154297
 11
277.562688
 21
110.154297
  0
ARC
  8
OBRYS
 62
     7
  6
DOT
 10
275.562682
 20
114.195774
 40
0.666673
 50
300.000310
 51
59.999690
  0
ARC
  8
OBRYS
 62
     7
  6
DOT
 10
274.062663
 20
112.463712
 40
2.166692
 50
327.795963
 51
32.204037
  0
ARC
  8
OBRYS
 62
     7
  6
DOT
 10
275.562682
 20
110.731650
 40
0.666673
 50
300.000310
 51
59.999690
  0
ARC
  8
OBRYS
 62
     7
  6
DOT
 10
277.229349
 20
114.195774
 40
0.666673
 50
300.000310
 51
59.999690
  0
ARC
  8
OBRYS
 62
     7
  6
DOT
 10
275.729330
 20
112.463712
 40
2.166692
 50
327.795963
 51
32.204037
  0
ARC
  8
OBRYS
 62
     7
  6
DOT
 10
277.229349
 20
110.731650
 40
0.666673
 50
300.000310
 51
59.999690
  0
LINE
  8
OBRYS
 62
     7
  6
DOT
 10
277.896022
 20
114.195774
 11
279.050729
 21
112.463712
  0
LINE
  8
OBRYS
 62
     7
  6
DOT
 10
279.050729
 20
112.463712
 11
277.896022
 21
110.731650
  0
ENDBLK
  8
OBRYS
  0
BLOCK
  8
OBRYS
  2
_4
 70
   64
 10
307.396033
 20
466.095987
  0
LINE
  8
OBRYS
 10
255.396022
 20
406.095987
 11
255.396022
 21
466.095987
  0
LINE
  8
OBRYS
 10
255.396022
 20
466.095987
 11
255.396022
 21
526.095987
  0
LINE
  8
OBRYS
 10
264.396022
 20
408.095987
 11
264.396022
 21
466.095987
  0
LINE
  8
OBRYS
 10
264.396022
 20
524.095987
 11
264.396022
 21
466.095987
  0
LINE
  8
OSA
 10
286.163470
 20
466.095987
 11
256.676390
 21
466.095987
  0
LINE
  8
OBRYS
 10
255.396022
 20
406.095987
 11
262.396022
 21
406.095987
  0
ARC
  8
OBRYS
 10
262.396022
 20
408.095987
 40
2.000000
 50
270.000000
 51
360.000000
  0
LINE
  8
OBRYS
 10
255.396022
 20
526.095987
 11
262.396022
 21
526.095987
  0
ARC
  8
OBRYS
 10
262.396022
 20
524.095987
 40
2.000000
 50
0.000000
 51
90.000000
  0
LINE
  8
OBRYS
 10
284.396022
 20
502.576749
 11
284.396022
 21
429.615225
  0
ARC
  8
OBRYS
 10
273.896022
 20
430.860196
 40
1.500000
 50
4.876572
 51
90.000000
  0
ARC
  8
OBRYS
 10
276.885162
 20
431.115225
 40
1.500000
 50
184.876572
 51
270.000000
  0
LINE
  8
OBRYS
 10
265.896022
 20
432.360196
 11
273.896022
 21
432.360196
  0
ARC
  8
OBRYS
 10
265.896022
 20
430.860196
 40
1.500000
 50
90.000000
 51
180.000000
  0
ARC
  8
OBRYS
 10
265.896022
 20
501.331777
 40
1.500000
 50
180.000000
 51
270.000000
  0
LINE
  8
OBRYS
 10
265.896022
 20
499.831777
 11
273.896022
 21
499.831777
  0
ARC
  8
OBRYS
 10
276.885162
 20
501.076749
 40
1.500000
 50
90.000000
 51
175.123428
  0
ARC
  8
OBRYS
 10
273.896022
 20
501.331777
 40
1.500000
 50
270.000000
 51
355.123428
  0
LINE
  8
OBRYS
 10
276.885177
 20
429.615225
 11
284.396022
 21
429.615225
  0
LINE
  8
OBRYS
 10
276.885176
 20
502.576749
 11
284.396022
 21
502.576749
  0
LINE
  8
OBRYS
 10
302.396022
 20
502.576749
 11
284.396022
 21
502.576749
  0
LINE
  8
OBRYS
 10
284.396022
 20
502.576749
 11
284.396022
 21
466.095987
  0
LINE
  8
OBRYS
 10
284.396022
 20
466.095987
 11
284.396022
 21
429.615225
  0
LINE
  8
OBRYS
 10
284.396022
 20
429.615225
 11
302.396022
 21
429.615225
  0
LINE
  8
OSA
 10
317.896018
 20
466.095987
 11
276.896025
 21
466.095987
  0
LINE
  8
OBRYS
 10
307.396033
 20
435.096361
 11
307.368676
 21
435.096361
  0
ARC
  8
OBRYS
 10
307.396022
 20
498.095987
 40
1.000000
 50
180.000000
 51
270.000000
  0
ARC
  8
OBRYS
 10
302.396022
 20
433.615225
 40
4.000000
 50
270.000000
 51
354.004934
  0
ARC
  8
OBRYS
 10
307.368676
 20
434.096361
 40
1.000000
 50
90.000000
 51
174.004934
  0
ARC
  8
OBRYS
 10
302.396022
 20
498.576749
 40
4.000000
 50
0.000000
 51
90.000000
  0
LINE
  8
OBRYS
 10
307.396033
 20
466.095987
 11
307.396033
 21
497.095987
  0
LINE
  8
OBRYS
 10
307.396033
 20
435.096361
 11
307.396033
 21
466.095987
  0
LINE
  8
OBRYS
 10
306.396022
 20
498.576749
 11
306.396022
 21
466.095987
  0
LINE
  8
OBRYS
 10
306.396022
 20
466.095987
 11
306.396022
 21
433.197454
  0
ENDBLK
  8
OBRYS
  0
BLOCK
  8
OBRYS
  2
Srouby_s_valcovou_hlavou__5
 70
   66
 10
405.896033
 20
255.225779
  0
LINE
  8
OBRYS
 10
407.896033
 20
254.071071
 11
407.896033
 21
256.380487
  0
LINE
  8
OBRYS
 10
407.896033
 20
256.380487
 11
405.896033
 21
257.535195
  0
LINE
  8
OBRYS
 10
405.896033
 20
257.535195
 11
403.896033
 21
256.380487
  0
LINE
  8
OBRYS
 10
403.896033
 20
256.380487
 11
403.896033
 21
254.071071
  0
LINE
  8
OBRYS
 10
403.896033
 20
254.071071
 11
405.896033
 21
252.916364
  0
LINE
  8
OBRYS
 10
405.896033
 20
252.916364
 11
407.896033
 21
254.071071
  0
CIRCLE
  8
OBRYS
 10
405.896033
 20
255.225779
 40
2.309415
  0
CIRCLE
  8
OBRYS
 10
405.896033
 20
255.225779
 40
5.000000
  0
ENDBLK
  8
OBRYS
  0
BLOCK
  8
OBRYS
  2
Srouby_s_valcovou_hlavou__6
 70
   66
 10
368.396033
 20
292.725779
  0
LINE
  8
OBRYS
 10
370.396033
 20
291.571071
 11
370.396033
 21
293.880487
  0
LINE
  8
OBRYS
 10
370.396033
 20
293.880487
 11
368.396033
 21
295.035195
  0
LINE
  8
OBRYS
 10
368.396033
 20
295.035195
 11
366.396033
 21
293.880487
  0
LINE
  8
OBRYS
 10
366.396033
 20
293.880487
 11
366.396033
 21
291.571071
  0
LINE
  8
OBRYS
 10
366.396033
 20
291.571071
 11
368.396033
 21
290.416364
  0
LINE
  8
OBRYS
 10
368.396033
 20
290.416364
 11
370.396033
 21
291.571071
  0
CIRCLE
  8
OBRYS
 10
368.396033
 20
292.725779
 40
2.309415
  0
CIRCLE
  8
OBRYS
 10
368.396033
 20
292.725779
 40
5.000000
  0
ENDBLK
  8
OBRYS
  0
BLOCK
  8
OBRYS
  2
Srouby_s_valcovou_hlavou__7
 70
   66
 10
368.396033
 20
217.725779
  0
LINE
  8
OBRYS
 10
370.396033
 20
216.571071
 11
370.396033
 21
218.880487
  0
LINE
  8
OBRYS
 10
370.396033
 20
218.880487
 11
368.396033
 21
220.035195
  0
LINE
  8
OBRYS
 10
368.396033
 20
220.035195
 11
366.396033
 21
218.880487
  0
LINE
  8
OBRYS
 10
366.396033
 20
218.880487
 11
366.396033
 21
216.571071
  0
LINE
  8
OBRYS
 10
366.396033
 20
216.571071
 11
368.396033
 21
215.416364
  0
LINE
  8
OBRYS
 10
368.396033
 20
215.416364
 11
370.396033
 21
216.571071
  0
CIRCLE
  8
OBRYS
 10
368.396033
 20
217.725779
 40
2.309415
  0
CIRCLE
  8
OBRYS
 10
368.396033
 20
217.725779
 40
5.000000
  0
ENDBLK
  8
OBRYS
  0
BLOCK
  8
OBRYS
  2
Srouby_s_valcovou_hlavou__8
 70
   66
 10
330.896033
 20
255.225779
  0
LINE
  8
OBRYS
 10
332.896033
 20
254.071071
 11
332.896033
 21
256.380487
  0
LINE
  8
OBRYS
 10
332.896033
 20
256.380487
 11
330.896033
 21
257.535195
  0
LINE
  8
OBRYS
 10
330.896033
 20
257.535195
 11
328.896033
 21
256.380487
  0
LINE
  8
OBRYS
 10
328.896033
 20
256.380487
 11
328.896033
 21
254.071071
  0
LINE
  8
OBRYS
 10
328.896033
 20
254.071071
 11
330.896033
 21
252.916364
  0
LINE
  8
OBRYS
 10
330.896033
 20
252.916364
 11
332.896033
 21
254.071071
  0
CIRCLE
  8
OBRYS
 10
330.896033
 20
255.225779
 40
2.309415
  0
CIRCLE
  8
OBRYS
 10
330.896033
 20
255.225779
 40
5.000000
  0
ENDBLK
  8
OBRYS
  0
BLOCK
  8
OSA
  2
Sroub_M10x16_9
 70
   66
 10
368.396033
 20
466.095987
  0
LINE
  8
OSA
 62
     2
  6
CONTINUOUS
 10
364.396033
 20
468.405402
 11
364.396033
 21
463.786571
  0
LINE
  8
OSA
 62
     2
  6
CONTINUOUS
 10
364.396033
 20
463.786571
 11
368.396033
 21
461.477156
  0
LINE
  8
OSA
 62
     2
  6
CONTINUOUS
 10
368.396033
 20
461.477156
 11
372.396033
 21
463.786571
  0
LINE
  8
OSA
 62
     2
  6
CONTINUOUS
 10
372.396033
 20
463.786571
 11
372.396033
 21
468.405402
  0
LINE
  8
OSA
 62
     2
  6
CONTINUOUS
 10
372.396033
 20
468.405402
 11
368.396033
 21
470.714818
  0
LINE
  8
OSA
 62
     2
  6
CONTINUOUS
 10
368.396033
 20
470.714818
 11
364.396033
 21
468.405402
  0
CIRCLE
  8
OSA
 62
     2
  6
CONTINUOUS
 10
368.396033
 20
466.095987
 40
4.618831
  0
CIRCLE
  8
OSA
 62
     2
  6
CONTINUOUS
 10
368.396033
 20
466.095987
 40
8.000000
  0
ENDBLK
  8
OSA
  0
ENDSEC
  0
SECTION
  2
ENTITIES
  0
ARC
  8
OBRYS
 10
783.321731
 20
255.225779
 40
80.000000
 50
144.340912
 51
346.260965
  0
LINE
  8
OBRYS
 10
839.286005
 20
257.225779
 11
845.321742
 21
257.225779
  0
LINE
  8
OBRYS
 10
839.286005
 20
253.225779
 11
845.321742
 21
253.225779
  0
INSERT
  8
OBRYS
  2
_0
 62
     7
 10
844.321731
 20
305.225779
  0
LINE
  8
OSA
 10
562.546919
 20
344.948143
 11
562.546919
 21
305.225779
  0
LINE
  8
OBRYS
 10
524.046919
 20
258.409997
 11
523.546919
 21
258.444653
  0
LINE
  8
OBRYS
 10
524.046919
 20
252.041561
 11
523.546919
 21
252.006905
  0
LINE
  8
OBRYS
 10
529.546919
 20
199.225779
 11
532.725161
 21
199.225779
  0
LINE
  8
OBRYS
 10
595.546919
 20
199.225779
 11
592.368676
 21
199.225779
  0
LINE
  8
OSA
 10
562.546919
 20
305.225779
 11
562.546919
 21
200.008060
  0
LINE
  8
OSA
 10
529.546919
 20
305.225779
 11
562.546919
 21
305.225779
  0
LINE
  8
OSA
 10
562.546919
 20
211.554681
 11
562.546919
 21
197.780431
  0
LINE
  8
OBRYS
 10
569.546919
 20
202.225779
 11
555.546919
 21
202.225779
  0
LINE
  8
OBRYS
 10
555.546919
 20
202.225779
 11
555.546919
 21
200.225779
  0
LINE
  8
OBRYS
 10
569.546919
 20
202.225779
 11
569.546919
 21
200.225779
  0
ARC
  8
OBRYS
 10
556.546919
 20
200.225779
 40
1.000000
 50
180.000000
 51
270.000000
  0
LINE
  8
OBRYS
 10
568.546919
 20
199.225779
 11
556.546919
 21
199.225779
  0
ARC
  8
OBRYS
 10
568.546919
 20
200.225779
 40
1.000000
 50
270.000000
 51
360.000000
  0
ARC
  8
0
 62
     2
 10
576.546919
 20
202.225779
 40
5.000000
 50
144.507081
 51
180.000000
  0
LINE
  8
0
 62
     2
 10
571.612314
 20
207.225779
 11
536.546919
 21
207.225779
  0
LINE
  8
OBRYS
 10
594.546919
 20
199.225779
 11
592.181308
 21
199.225779
  0
ARC
  8
OBRYS
 10
576.546919
 20
208.031802
 40
5.000000
 50
180.000000
 51
270.000000
  0
LINE
  8
OBRYS
 10
571.546919
 20
208.292712
 11
571.546919
 21
208.031802
  0
LINE
  8
OBRYS
 10
576.546919
 20
203.031802
 11
591.181308
 21
203.031802
  0
ARC
  8
OBRYS
 10
592.181308
 20
200.225779
 40
1.000000
 50
180.000000
 51
270.000000
  0
LINE
  8
OSA
 10
595.546919
 20
305.225779
 11
562.546919
 21
305.225779
  0
LINE
  8
OSA
 10
510.638121
 20
255.225779
 11
562.546919
 21
255.225779
  0
ARC
  8
OBRYS
 10
532.546919
 20
201.225779
 40
2.000000
 50
270.000000
 51
360.000000
  0
ARC
  8
0
 62
     2
 10
536.546919
 20
205.225779
 40
2.000000
 50
90.000000
 51
180.000000
  0
LINE
  8
POMOC
 62
     2
  6
CONTINUOUS
 10
553.546919
 20
202.225779
 11
562.546919
 21
202.225779
  0
LINE
  8
POMOC
 62
     2
  6
CONTINUOUS
 10
571.546919
 20
202.225779
 11
562.546919
 21
202.225779
  0
ARC
  8
0
 62
     2
 10
548.546919
 20
202.225779
 40
5.000000
 50
0.000000
 51
90.000000
  0
LINE
  8
NEVIDITELNA
 10
570.546919
 20
207.225779
 11
548.546919
 21
207.225779
  0
CIRCLE
  8
OBRYS
 10
562.546919
 20
132.036019
 40
10.000000
  0
ARC
  8
OBRYS
 10
562.546919
 20
132.036019
 40
4.500000
 50
109.471221
 51
70.528779
  0
LINE
  8
OBRYS
 10
561.046919
 20
136.278659
 11
561.046919
 21
137.836019
  0
LINE
  8
OBRYS
 10
561.046919
 20
137.836019
 11
564.046919
 21
137.836019
  0
LINE
  8
OBRYS
 10
564.046919
 20
137.836019
 11
564.046919
 21
136.278659
  0
LINE
  8
OSA
 10
562.546919
 20
132.036019
 11
562.546919
 21
118.911021
  0
LINE
  8
OSA
 10
562.546919
 20
132.036019
 11
562.546919
 21
145.161016
  0
LINE
  8
OSA
 10
562.546919
 20
132.036019
 11
549.421921
 21
132.036019
  0
LINE
  8
OSA
 10
562.546919
 20
132.036019
 11
575.671916
 21
132.036019
  0
LINE
  8
OSA
 10
562.546919
 20
105.786024
 11
575.671916
 21
105.786024
  0
LINE
  8
OSA
 10
562.546919
 20
105.786024
 11
549.421921
 21
105.786024
  0
LINE
  8
OSA
 10
562.546919
 20
105.786024
 11
562.546919
 21
118.911021
  0
LINE
  8
OSA
 10
562.546919
 20
105.786024
 11
562.546919
 21
92.661027
  0
CIRCLE
  8
OBRYS
 10
562.546919
 20
105.786024
 40
10.000000
  0
LINE
  8
OBRYS
 10
560.546919
 20
110.909499
 11
560.546919
 21
112.886024
  0
LINE
  8
OBRYS
 10
560.546919
 20
112.886024
 11
564.546919
 21
112.886024
  0
LINE
  8
OBRYS
 10
564.546919
 20
112.886024
 11
564.546919
 21
110.909499
  0
ARC
  8
OBRYS
 10
562.546919
 20
105.786024
 40
5.500000
 50
111.323686
 51
68.676314
  0
INSERT
  8
OSA
  2
_1
  6
CONTINUOUS
 10
562.546919
 20
305.225779
  0
LINE
  8
OBRYS
 10
534.546919
 20
201.225779
 11
534.546919
 21
216.159782
  0
LINE
  8
POMOC
 62
     2
  6
CONTINUOUS
 10
594.546919
 20
199.225779
 11
594.546919
 21
218.471469
  0
LINE
  8
OBRYS
 10
591.181308
 20
200.225779
 11
591.181308
 21
216.499393
  0
LINE
  8
OBRYS
 10
584.260785
 20
213.292712
 11
591.181308
 21
213.292712
  0
ARC
  8
OBRYS
 10
576.546919
 20
208.292712
 40
5.000000
 50
160.665974
 51
180.000000
  0
LINE
  8
OSA
 10
614.455717
 20
255.225779
 11
562.546919
 21
255.225779
  0
LINE
  8
OSA
 62
     2
  6
CONTINUOUS
 10
513.546919
 20
225.725779
 11
513.546919
 21
234.599200
  0
LINE
  8
OBRYS
 10
524.046919
 20
223.206761
 11
524.046919
 21
201.225779
  0
LINE
  8
OBRYS
 10
516.046919
 20
231.308105
 11
516.046919
 21
222.170951
  0
LINE
  8
OSA
 62
     2
  6
CONTINUOUS
 10
514.046919
 20
225.225779
 11
513.546919
 21
225.725779
  0
ARC
  8
OBRYS
 10
526.046919
 20
201.225779
 40
2.000000
 50
180.000000
 51
270.000000
  0
LINE
  8
OBRYS
 10
526.046919
 20
199.225779
 11
532.725161
 21
199.225779
  0
LINE
  8
OSA
 62
     2
  6
CONTINUOUS
 10
513.546919
 20
225.725779
 11
514.046919
 21
225.225779
  0
LINE
  8
OSA
 62
     2
  6
CONTINUOUS
 10
514.046919
 20
225.225779
 11
516.046919
 21
225.225779
  0
LINE
  8
OBRYS
 10
521.546919
 20
206.152848
 11
521.546919
 21
218.996640
  0
ARC
  8
OBRYS
 10
521.046919
 20
203.194808
 40
3.000000
 50
0.000000
 51
80.405932
  0
ARC
  8
OBRYS
 10
522.046919
 20
221.644949
 40
2.000000
 50
0.000000
 51
56.832335
  0
LINE
  8
OBRYS
 10
516.952737
 20
227.363661
 11
523.141101
 21
223.319096
  0
ARC
  8
OBRYS
 10
522.046919
 20
216.748967
 40
2.000000
 50
0.000000
 51
72.835167
  0
LINE
  8
OBRYS
 10
517.456675
 20
220.260031
 11
522.637162
 21
218.659887
  0
ARC
  8
OBRYS
 10
518.046919
 20
222.170951
 40
2.000000
 50
180.000000
 51
252.835167
  0
ARC
  8
OBRYS
 10
518.046919
 20
229.037808
 40
2.000000
 50
180.000000
 51
236.832335
  0
LINE
  8
OBRYS
 10
614.919296
 20
301.567348
 11
642.064557
 21
308.742702
  0
LINE
  8
OBRYS
 10
653.046919
 20
265.225779
 11
654.546919
 21
265.225779
  0
LINE
  8
OBRYS
 10
653.046919
 20
245.225779
 11
654.546919
 21
245.225779
  0
ARC
  8
OBRYS
 10
653.046919
 20
263.225779
 40
2.000000
 50
90.000000
 51
180.000000
  0
LINE
  8
OBRYS
 10
651.046919
 20
263.225779
 11
651.046919
 21
247.225779
  0
ARC
  8
OBRYS
 10
653.046919
 20
247.225779
 40
2.000000
 50
180.000000
 51
270.000000
  0
ARC
  8
OBRYS
 10
645.546919
 20
333.225779
 40
2.000000
 50
90.000000
 51
180.000000
  0
LINE
  8
OBRYS
 10
654.546919
 20
335.225779
 11
645.546919
 21
335.225779
  0
LINE
  8
OBRYS
 10
654.546919
 20
310.225779
 11
654.546919
 21
255.225779
  0
LINE
  8
OBRYS
 10
654.546919
 20
335.225779
 11
654.546919
 21
310.225779
  0
LINE
  8
OBRYS
 10
654.546919
 20
175.225779
 11
654.546919
 21
200.225779
  0
LINE
  8
OBRYS
 10
654.546919
 20
200.225779
 11
654.546919
 21
255.225779
  0
LINE
  8
OBRYS
 10
654.546919
 20
175.225779
 11
645.546919
 21
175.225779
  0
ARC
  8
OBRYS
 10
645.546919
 20
177.225779
 40
2.000000
 50
180.000000
 51
270.000000
  0
ARC
  8
OBRYS
 10
641.546919
 20
310.674553
 40
2.000000
 50
285.000000
 51
360.000000
  0
ARC
  8
OBRYS
 10
640.546919
 20
199.009678
 40
3.000000
 50
0.000000
 51
75.000000
  0
LINE
  8
OBRYS
 62
     7
  6
DASHDOT
 10
601.046919
 20
255.225779
 11
659.546919
 21
255.225779
  0
LINE
  8
OBRYS
 10
622.959850
 20
206.725779
 11
641.323376
 21
201.907455
  0
LINE
  8
OBRYS
 10
622.959850
 20
206.725779
 11
608.546919
 21
206.725779
  0
ARC
  8
OBRYS
 10
608.546919
 20
211.725779
 40
5.000000
 50
180.000000
 51
270.000000
  0
LINE
  8
OBRYS
 10
605.359950
 20
207.873088
 11
644.272131
 21
175.684703
  0
LINE
  8
OBRYS
 10
643.546919
 20
177.225779
 11
643.546919
 21
255.225779
  0
LINE
  8
OBRYS
 10
643.546919
 20
333.225779
 11
643.546919
 21
255.225779
  0
LINE
  8
OBRYS
 10
607.269146
 20
210.906387
 11
642.064557
 21
201.708857
  0
ARC
  8
OBRYS
 10
608.546919
 20
215.740360
 40
5.000000
 50
180.000000
 51
255.193557
  0
ARC
  8
OBRYS
 10
641.546919
 20
259.225779
 40
2.000000
 50
270.000000
 51
360.000000
  0
ARC
  8
OBRYS
 10
641.546919
 20
251.225779
 40
2.000000
 50
0.000000
 51
90.000000
  0
LINE
  8
OBRYS
 10
609.546919
 20
218.868636
 11
603.546919
 21
218.868636
  0
LINE
  8
OBRYS
 10
609.546919
 20
230.443564
 11
609.546919
 21
218.868636
  0
LINE
  8
OBRYS
 10
603.546919
 20
218.868636
 11
603.546919
 21
211.725779
  0
ARC
  8
OBRYS
 10
599.046919
 20
201.225779
 40
2.000000
 50
270.000000
 51
360.000000
  0
LINE
  8
OBRYS
 10
599.046919
 20
199.225779
 11
592.368676
 21
199.225779
  0
LINE
  8
OBRYS
 10
603.546919
 20
206.152848
 11
603.546919
 21
218.996640
  0
ARC
  8
OBRYS
 10
604.046919
 20
203.194808
 40
3.000000
 50
99.594068
 51
180.000000
  0
ARC
  8
OBRYS
 10
603.046919
 20
221.644949
 40
2.000000
 50
123.167665
 51
180.000000
  0
LINE
  8
OBRYS
 10
608.141101
 20
227.363661
 11
601.952737
 21
223.319096
  0
ARC
  8
OBRYS
 10
603.046919
 20
216.748967
 40
2.000000
 50
107.164833
 51
180.000000
  0
LINE
  8
OBRYS
 10
607.637162
 20
220.260031
 11
602.456675
 21
218.659887
  0
ARC
  8
OBRYS
 10
607.046919
 20
222.170951
 40
2.000000
 50
287.164833
 51
360.000000
  0
ARC
  8
OBRYS
 10
607.046919
 20
229.037808
 40
2.000000
 50
303.167665
 51
360.000000
  0
LINE
  8
OBRYS
 10
609.046919
 20
230.443564
 11
609.046919
 21
222.170951
  0
LINE
  8
OBRYS
 10
609.775961
 20
306.231421
 11
644.272131
 21
334.766856
  0
LINE
  8
OBRYS
 10
613.319765
 20
301.196360
 11
641.323376
 21
308.544103
  0
LINE
  8
OBRYS
 10
622.959850
 20
303.725779
 11
611.636123
 21
303.725779
  0
LINE
  8
OBRYS
 10
623.084910
 20
248.169624
 11
618.730888
 21
248.169624
  0
LINE
  8
OBRYS
 10
623.084910
 20
263.396089
 11
622.263036
 21
263.396089
  0
LINE
  8
OBRYS
 10
609.546919
 20
230.443564
 11
608.328354
 21
230.443564
  0
LINE
  8
OBRYS
 10
601.046919
 20
223.206761
 11
601.046919
 21
201.225779
  0
LINE
  8
OBRYS
 10
621.334673
 20
257.225779
 11
641.546919
 21
257.225779
  0
LINE
  8
OBRYS
 10
620.374248
 20
253.225779
 11
641.546919
 21
253.225779
  0
ARC
  8
OBRYS
 10
174.245147
 20
269.225779
 40
60.000000
 50
127.445947
 51
141.920033
  0
LINE
  8
0
 62
     2
 10
210.725909
 20
311.067324
 11
210.725909
 21
320.225779
  0
LINE
  8
0
 62
     2
 10
137.764385
 20
311.069307
 11
137.764385
 21
320.225779
  0
ARC
  8
OBRYS
 10
147.728642
 20
331.742283
 40
5.000000
 50
123.511664
 51
154.169919
  0
ARC
  8
OBRYS
 10
174.245147
 20
291.697871
 40
53.027909
 50
56.488379
 51
123.511629
  0
ARC
  8
OBRYS
 10
200.225909
 20
320.225779
 40
10.500000
 50
0.000006
 51
25.830081
  0
ARC
  8
OBRYS
 10
148.264385
 20
320.225779
 40
10.500000
 50
154.169919
 51
179.999994
  0
LINE
  8
0
 62
     2
 10
138.813438
 20
324.800668
 11
143.228192
 21
333.920802
  0
ARC
  8
OBRYS
 10
200.761651
 20
331.742283
 40
5.000000
 50
25.830081
 51
56.488335
  0
LINE
  8
0
 62
     2
 10
209.676855
 20
324.800668
 11
205.262102
 21
333.920802
  0
ARC
  8
OBRYS
 10
174.245147
 20
269.225779
 40
60.000000
 50
324.752242
 51
52.554053
  0
INSERT
  8
OBRYS
  2
_2
 62
     7
 10
307.396033
 20
319.140252
  0
INSERT
  8
OBRYS
  2
_3
 62
     7
 10
307.396033
 20
85.947208
  0
INSERT
  8
OBRYS
  2
_4
 62
     7
 10
307.396033
 20
466.095987
  0
TEXT
  8
NEVIDITELNA
 62
     2
  6
CONTINUOUS
 10
291.732391
 20
625.928101
 40
15.000000
  1
MRP 50A - FF-R
 50
0.00
 51
0.00
 41
0.80
  0
LINE
  8
OBRYS
 10
785.321731
 20
199.261505
 11
785.321731
 21
176.225779
  0
LINE
  8
OBRYS
 10
781.321731
 20
199.261505
 11
781.321731
 21
176.225779
  0
LINE
  8
OBRYS
 10
727.357456
 20
257.225779
 11
704.321731
 21
257.225779
  0
LINE
  8
OBRYS
 10
727.357456
 20
253.225779
 11
704.321731
 21
253.225779
  0
ARC
  8
OSA
 10
783.321731
 20
255.225779
 40
65.000000
 50
212.263573
 51
270.000000
  0
ARC
  8
OSA
 10
783.321731
 20
255.225779
 40
65.000000
 50
270.000000
 51
327.016397
  0
LINE
  8
OSA
 10
747.612838
 20
219.516887
 11
727.106742
 21
199.010790
  0
CIRCLE
  8
OBRYS
 10
737.359790
 20
209.263838
 40
5.000000
  0
CIRCLE
  8
OBRYS
 10
829.283672
 20
209.263838
 40
5.000000
  0
LINE
  8
OSA
 10
819.030623
 20
219.516887
 11
839.536720
 21
199.010790
  0
LINE
  8
OSA
 10
368.396033
 20
564.145709
 11
368.396033
 21
490.595990
  0
LINE
  8
OSA
 10
368.396033
 20
59.996930
 11
368.396033
 21
-13.552789
  0
LINE
  8
OBRYS
 10
343.613818
 20
513.095987
 11
343.613818
 21
507.095987
  0
LINE
  8
OBRYS
 10
343.613818
 20
507.095987
 11
393.178247
 21
507.095987
  0
LINE
  8
OBRYS
 10
393.178247
 20
513.095987
 11
393.178247
 21
507.095987
  0
LINE
  8
OBRYS
 10
393.178247
 20
512.595987
 11
401.450861
 21
512.595987
  0
LINE
  8
OBRYS
 10
335.341204
 20
512.595987
 11
343.613818
 21
512.595987
  0
LINE
  8
OBRYS
 10
343.613818
 20
513.095987
 11
332.038890
 21
513.095987
  0
LINE
  8
OBRYS
 10
332.038890
 20
513.095987
 11
332.038890
 21
507.095987
  0
LINE
  8
OBRYS
 10
404.753176
 20
513.095987
 11
404.753176
 21
507.095987
  0
LINE
  8
OBRYS
 10
393.178247
 20
513.095987
 11
404.753176
 21
513.095987
  0
LINE
  8
OBRYS
 10
376.566343
 20
526.633978
 11
376.566343
 21
507.095987
  0
LINE
  8
OBRYS
 10
361.339878
 20
526.633978
 11
361.339878
 21
507.095987
  0
LINE
  8
OBRYS
 10
370.396033
 20
507.095987
 11
370.396033
 21
545.095987
  0
LINE
  8
OBRYS
 10
366.396033
 20
507.095987
 11
366.396033
 21
545.095987
  0
ARC
  8
OBRYS
 10
364.396033
 20
545.095987
 40
2.000000
 50
0.000000
 51
90.000000
  0
ARC
  8
OBRYS
 10
372.396033
 20
545.095987
 40
2.000000
 50
90.000000
 51
180.000000
  0
ARC
  8
OBRYS
 10
407.881452
 20
512.095987
 40
5.000000
 50
270.000000
 51
345.193557
  0
LINE
  8
OBRYS
 10
412.715425
 20
510.818214
 11
421.912955
 21
545.613625
  0
ARC
  8
OBRYS
 10
328.910614
 20
512.095987
 40
5.000000
 50
194.806443
 51
270.000000
  0
LINE
  8
OBRYS
 10
324.076641
 20
510.818214
 11
314.879110
 21
545.613625
  0
LINE
  8
OBRYS
 10
446.396033
 20
547.095987
 11
368.396033
 21
547.095987
  0
LINE
  8
OBRYS
 10
290.396033
 20
547.095987
 11
368.396033
 21
547.095987
  0
LINE
  8
OBRYS
 10
416.896033
 20
526.508918
 11
421.714356
 21
544.872444
  0
LINE
  8
OBRYS
 10
416.896033
 20
526.508918
 11
416.896033
 21
512.095987
  0
ARC
  8
OBRYS
 10
411.896033
 20
512.095987
 40
5.000000
 50
270.000000
 51
360.000000
  0
LINE
  8
OBRYS
 10
415.748724
 20
508.909018
 11
447.937109
 21
547.821199
  0
LINE
  8
OBRYS
 10
321.043342
 20
508.909018
 11
288.854956
 21
547.821199
  0
ARC
  8
OBRYS
 10
324.896033
 20
512.095987
 40
5.000000
 50
180.000000
 51
270.000000
  0
LINE
  8
OBRYS
 10
319.896033
 20
526.508918
 11
319.896033
 21
512.095987
  0
LINE
  8
OBRYS
 10
319.896033
 20
526.508918
 11
315.077709
 21
544.872444
  0
ARC
  8
OBRYS
 10
312.179932
 20
544.095987
 40
3.000000
 50
15.000000
 51
90.000000
  0
ARC
  8
OBRYS
 10
423.844807
 20
545.095987
 40
2.000000
 50
90.000000
 51
165.000000
  0
ARC
  8
OBRYS
 10
290.396033
 20
549.095987
 40
2.000000
 50
180.000000
 51
270.000000
  0
LINE
  8
OBRYS
 10
288.396033
 20
558.095987
 11
288.396033
 21
549.095987
  0
LINE
  8
OBRYS
 10
313.396033
 20
558.095987
 11
368.396033
 21
558.095987
  0
LINE
  8
OBRYS
 10
288.396033
 20
558.095987
 11
313.396033
 21
558.095987
  0
LINE
  8
OBRYS
 10
448.396033
 20
558.095987
 11
423.396033
 21
558.095987
  0
LINE
  8
OBRYS
 10
423.396033
 20
558.095987
 11
368.396033
 21
558.095987
  0
LINE
  8
OBRYS
 10
448.396033
 20
558.095987
 11
448.396033
 21
549.095987
  0
ARC
  8
OBRYS
 10
446.396033
 20
549.095987
 40
2.000000
 50
270.000000
 51
360.000000
  0
LINE
  8
OBRYS
 10
393.178247
 20
38.947208
 11
393.178247
 21
44.947208
  0
LINE
  8
OBRYS
 10
343.613818
 20
38.947208
 11
343.613818
 21
44.947208
  0
LINE
  8
OBRYS
 10
343.613818
 20
38.947208
 11
332.038890
 21
38.947208
  0
LINE
  8
OBRYS
 10
332.038890
 20
38.947208
 11
332.038890
 21
44.947208
  0
LINE
  8
OBRYS
 10
404.753176
 20
38.947208
 11
404.753176
 21
44.947208
  0
LINE
  8
OBRYS
 10
393.178247
 20
38.947208
 11
404.753176
 21
38.947208
  0
LINE
  8
OBRYS
 10
376.566343
 20
25.409217
 11
376.566343
 21
44.947208
  0
LINE
  8
OBRYS
 10
361.339878
 20
25.409217
 11
361.339878
 21
44.947208
  0
LINE
  8
OBRYS
 10
370.396033
 20
44.947208
 11
370.396033
 21
6.947208
  0
LINE
  8
OBRYS
 10
366.396033
 20
44.947208
 11
366.396033
 21
6.947208
  0
ARC
  8
OBRYS
 10
364.396033
 20
6.947208
 40
2.000000
 50
270.000000
 51
360.000000
  0
ARC
  8
OBRYS
 10
372.396033
 20
6.947208
 40
2.000000
 50
180.000000
 51
270.000000
  0
ARC
  8
OBRYS
 10
407.881452
 20
39.947208
 40
5.000000
 50
14.806443
 51
90.000000
  0
LINE
  8
OBRYS
 10
412.715425
 20
41.224980
 11
421.912955
 21
6.429570
  0
ARC
  8
OBRYS
 10
328.910614
 20
39.947208
 40
5.000000
 50
90.000000
 51
165.193557
  0
LINE
  8
OBRYS
 10
324.076641
 20
41.224980
 11
314.879110
 21
6.429570
  0
LINE
  8
OBRYS
 10
446.396033
 20
4.947208
 11
368.396033
 21
4.947208
  0
LINE
  8
OBRYS
 10
290.396033
 20
4.947208
 11
368.396033
 21
4.947208
  0
LINE
  8
OBRYS
 10
416.896033
 20
25.534277
 11
421.714356
 21
7.170751
  0
LINE
  8
OBRYS
 10
416.896033
 20
25.534277
 11
416.896033
 21
39.947208
  0
ARC
  8
OBRYS
 10
411.896033
 20
39.947208
 40
5.000000
 50
0.000000
 51
90.000000
  0
LINE
  8
OBRYS
 10
415.748724
 20
43.134177
 11
447.937109
 21
4.221995
  0
LINE
  8
OBRYS
 10
321.043342
 20
43.134177
 11
288.854956
 21
4.221995
  0
ARC
  8
OBRYS
 10
324.896033
 20
39.947208
 40
5.000000
 50
90.000000
 51
180.000000
  0
LINE
  8
OBRYS
 10
319.896033
 20
25.534277
 11
319.896033
 21
39.947208
  0
LINE
  8
OBRYS
 10
319.896033
 20
25.534277
 11
315.077709
 21
7.170751
  0
ARC
  8
OBRYS
 10
312.179932
 20
7.947208
 40
3.000000
 50
270.000000
 51
345.000000
  0
ARC
  8
OBRYS
 10
423.844807
 20
6.947208
 40
2.000000
 50
195.000000
 51
270.000000
  0
ARC
  8
OBRYS
 10
290.396033
 20
2.947208
 40
2.000000
 50
90.000000
 51
180.000000
  0
LINE
  8
OBRYS
 10
288.396033
 20
-6.052792
 11
288.396033
 21
2.947208
  0
LINE
  8
OBRYS
 10
313.396033
 20
-6.052792
 11
368.396033
 21
-6.052792
  0
LINE
  8
OBRYS
 10
288.396033
 20
-6.052792
 11
313.396033
 21
-6.052792
  0
LINE
  8
OBRYS
 10
448.396033
 20
-6.052792
 11
423.396033
 21
-6.052792
  0
LINE
  8
OBRYS
 10
423.396033
 20
-6.052792
 11
368.396033
 21
-6.052792
  0
LINE
  8
OBRYS
 10
448.396033
 20
-6.052792
 11
448.396033
 21
2.947208
  0
ARC
  8
OBRYS
 10
446.396033
 20
2.947208
 40
2.000000
 50
0.000000
 51
90.000000
  0
LINE
  8
OSA
 10
318.396033
 20
85.947208
 11
433.396033
 21
85.947208
  0
LINE
  8
OBRYS
 10
393.178247
 20
39.447208
 11
401.450861
 21
39.447208
  0
LINE
  8
OBRYS
 10
335.341204
 20
39.447208
 11
343.613818
 21
39.447208
  0
LINE
  8
OBRYS
 10
343.613818
 20
44.947208
 11
393.178247
 21
44.947208
  0
LINE
  8
OSA
 10
368.396033
 20
267.955701
 11
368.396033
 21
346.732407
  0
ARC
  8
OBRYS
 10
316.337574
 20
288.899461
 40
3.000000
 50
327.103449
 51
45.000000
  0
LINE
  8
OBRYS
 10
318.458894
 20
291.020782
 11
311.250021
 21
298.229655
  0
LINE
  8
OBRYS
 10
433.396033
 20
301.862674
 11
433.396033
 21
340.247993
  0
LINE
  8
0
 62
     2
 10
433.396033
 20
324.567013
 11
408.293317
 21
324.567013
  0
LINE
  8
0
 62
     2
 10
433.396033
 20
320.236886
 11
415.017444
 21
320.236886
  0
POLYLINE
  8
0
 62
     2
 66
    1
  0
VERTEX
  8
0
 62
     2
 10
405.648682
 20
326.022949
  0
VERTEX
  8
0
 62
     2
 10
403.323486
 20
327.919373
  0
VERTEX
  8
0
 62
     2
 10
401.544556
 20
331.056702
  0
VERTEX
  8
0
 62
     2
 10
401.892700
 20
334.113220
  0
VERTEX
  8
0
 62
     2
 10
404.438599
 20
337.334167
  0
VERTEX
  8
0
 62
     2
 10
407.662231
 20
339.578186
  0
VERTEX
  8
0
 62
     2
 10
408.235718
 20
340.003296
  0
VERTEX
  8
0
 62
     2
 10
408.437744
 20
340.220642
  0
VERTEX
  8
0
 62
     2
 10
408.348511
 20
340.220642
  0
SEQEND
  8
0
  0
LINE
  8
0
 62
     2
 10
401.429354
 20
336.225779
 11
401.429354
 21
328.087290
  0
LINE
  8
0
 62
     2
 10
307.396033
 20
324.567013
 11
328.498749
 21
324.567013
  0
LINE
  8
0
 62
     2
 10
307.396033
 20
320.236886
 11
321.774622
 21
320.236886
  0
LINE
  8
0
 62
     2
 10
335.362712
 20
336.225779
 11
335.362712
 21
328.087290
  0
POLYLINE
  8
0
 62
     2
 66
    1
  0
VERTEX
  8
0
 62
     2
 10
331.143311
 20
326.022949
  0
VERTEX
  8
0
 62
     2
 10
333.468628
 20
327.919373
  0
VERTEX
  8
0
 62
     2
 10
335.247437
 20
331.056702
  0
VERTEX
  8
0
 62
     2
 10
334.899414
 20
334.113220
  0
VERTEX
  8
0
 62
     2
 10
332.353516
 20
337.334167
  0
VERTEX
  8
0
 62
     2
 10
329.129761
 20
339.578186
  0
VERTEX
  8
0
 62
     2
 10
328.556274
 20
340.003296
  0
VERTEX
  8
0
 62
     2
 10
328.354248
 20
340.220642
  0
VERTEX
  8
0
 62
     2
 10
328.443481
 20
340.220642
  0
SEQEND
  8
0
  0
LINE
  8
OBRYS
 10
307.396033
 20
306.984836
 11
307.396033
 21
340.247993
  0
LINE
  8
OBRYS
 10
447.768572
 20
245.225779
 11
442.807788
 21
245.850779
  0
LINE
  8
OBRYS
 10
447.768572
 20
265.225779
 11
442.807788
 21
264.600779
  0
ARC
  8
OBRYS
 10
409.278588
 20
195.958447
 40
3.000000
 50
304.597879
 51
45.000000
  0
LINE
  8
OBRYS
 10
404.191035
 20
205.288641
 11
411.399909
 21
198.079767
  0
ARC
  8
OBRYS
 10
402.069715
 20
203.167320
 40
3.000000
 50
45.000000
 51
122.896551
  0
ARC
  8
OBRYS
 10
420.454491
 20
221.552097
 40
3.000000
 50
147.103449
 51
225.000000
  0
LINE
  8
OBRYS
 10
418.333171
 20
219.430776
 11
425.542044
 21
212.221903
  0
ARC
  8
OBRYS
 10
427.663365
 20
214.343223
 40
3.000000
 50
225.000000
 51
325.402121
  0
ARC
  8
OBRYS
 10
427.663365
 20
296.108335
 40
3.000000
 50
34.597879
 51
135.000000
  0
LINE
  8
OBRYS
 10
418.333171
 20
291.020782
 11
425.542044
 21
298.229655
  0
ARC
  8
OBRYS
 10
420.454491
 20
288.899461
 40
3.000000
 50
135.000000
 51
212.896551
  0
ARC
  8
OBRYS
 10
402.069715
 20
307.284238
 40
3.000000
 50
237.103449
 51
315.000000
  0
LINE
  8
OBRYS
 10
404.191035
 20
305.162917
 11
411.399909
 21
312.371791
  0
ARC
  8
OBRYS
 10
409.278588
 20
314.493111
 40
3.000000
 50
315.000000
 51
55.402121
  0
CIRCLE
  8
OBRYS
 10
414.357974
 20
301.187720
 40
5.000000
  0
LINE
  8
OSA
 10
404.104925
 20
290.934672
 11
424.611022
 21
311.440768
  0
LINE
  8
OSA
 10
404.104925
 20
219.516887
 11
424.611022
 21
199.010790
  0
CIRCLE
  8
OBRYS
 10
414.357974
 20
209.263838
 40
5.000000
  0
LINE
  8
OSA
 10
368.396033
 20
223.477581
 11
368.396033
 21
212.403057
  0
LINE
  8
OSA
 10
400.144230
 20
255.225779
 11
411.218755
 21
255.225779
  0
LINE
  8
OSA
 10
368.396033
 20
286.973977
 11
368.396033
 21
298.048501
  0
LINE
  8
OSA
 10
368.396033
 20
255.225779
 11
452.578198
 21
255.225779
  0
LINE
  8
OSA
 10
368.396033
 20
255.225779
 11
368.396033
 21
169.409781
  0
ARC
  8
OBRYS
 10
368.396033
 20
255.225779
 40
40.796047
 50
7.349274
 51
82.650726
  0
ARC
  8
OBRYS
 10
368.396033
 20
255.225779
 40
40.796047
 50
277.349274
 51
352.650726
  0
ARC
  8
OBRYS
 10
368.396033
 20
255.225779
 40
50.000000
 50
270.000000
 51
90.000000
  0
ARC
  8
OBRYS
 10
368.396033
 20
255.225779
 40
30.000000
 50
270.000000
 51
90.000000
  0
ARC
  8
OBRYS
 10
368.396033
 20
255.225779
 40
55.000000
 50
270.000000
 51
90.000000
  0
ARC
  8
OSA
 10
368.396033
 20
255.225779
 40
65.000000
 50
270.000000
 51
90.000000
  0
ARC
  8
OBRYS
 10
368.396033
 20
255.225779
 40
80.000000
 50
270.000000
 51
90.000000
  0
ARC
  8
OSA
 10
368.396033
 20
255.225779
 40
37.500000
 50
270.000000
 51
90.000000
  0
ARC
  8
OBRYS
 10
368.396033
 20
255.225779
 40
59.000000
 50
270.000000
 51
315.000000
  0
ARC
  8
OBRYS
 10
368.396033
 20
255.225779
 40
75.000000
 50
270.000000
 51
315.000000
  0
ARC
  8
OBRYS
 10
368.396033
 20
255.225779
 40
75.000000
 50
315.000000
 51
45.000000
  0
ARC
  8
OBRYS
 10
368.396033
 20
255.225779
 40
75.000000
 50
45.000000
 51
90.000000
  0
ARC
  8
OBRYS
 10
368.396033
 20
255.225779
 40
59.000000
 50
45.000000
 51
90.000000
  0
ARC
  8
OBRYS
 10
368.396033
 20
255.225779
 40
59.000000
 50
315.000000
 51
45.000000
  0
ARC
  8
OBRYS
 10
405.896033
 20
255.225779
 40
6.000000
 50
299.569787
 51
60.430213
  0
ARC
  8
OBRYS
 10
368.396033
 20
292.725779
 40
6.000000
 50
29.569787
 51
90.000000
  0
ARC
  8
OBRYS
 10
368.396033
 20
217.725779
 40
6.000000
 50
270.000000
 51
330.430213
  0
ARC
  8
OBRYS
 10
368.396033
 20
217.725779
 40
6.000000
 50
209.569787
 51
270.000000
  0
ARC
  8
OBRYS
 10
368.396033
 20
292.725779
 40
6.000000
 50
90.000000
 51
150.430213
  0
ARC
  8
OBRYS
 10
330.896033
 20
255.225779
 40
6.000000
 50
119.569787
 51
240.430213
  0
ARC
  8
OBRYS
 10
368.396033
 20
255.225779
 40
59.000000
 50
135.000000
 51
225.000000
  0
ARC
  8
OBRYS
 10
368.396033
 20
255.225779
 40
59.000000
 50
90.000000
 51
135.000000
  0
ARC
  8
OBRYS
 10
368.396033
 20
255.225779
 40
75.000000
 50
90.000000
 51
135.000000
  0
ARC
  8
OBRYS
 10
368.396033
 20
255.225779
 40
75.000000
 50
135.000000
 51
225.000000
  0
ARC
  8
OBRYS
 10
368.396033
 20
255.225779
 40
75.000000
 50
225.000000
 51
270.000000
  0
ARC
  8
OBRYS
 10
368.396033
 20
255.225779
 40
59.000000
 50
225.000000
 51
270.000000
  0
ARC
  8
OSA
 10
368.396033
 20
255.225779
 40
37.500000
 50
90.000000
 51
270.000000
  0
ARC
  8
OBRYS
 10
368.396033
 20
255.225779
 40
80.000000
 50
90.000000
 51
270.000000
  0
ARC
  8
OSA
 10
368.396033
 20
255.225779
 40
65.000000
 50
90.000000
 51
270.000000
  0
ARC
  8
OBRYS
 10
368.396033
 20
255.225779
 40
55.000000
 50
90.000000
 51
270.000000
  0
ARC
  8
OBRYS
 10
368.396033
 20
255.225779
 40
30.000000
 50
90.000000
 51
270.000000
  0
ARC
  8
OBRYS
 10
368.396033
 20
255.225779
 40
50.000000
 50
90.000000
 51
270.000000
  0
ARC
  8
OBRYS
 10
368.396033
 20
255.225779
 40
40.796047
 50
187.349274
 51
262.650726
  0
ARC
  8
OBRYS
 10
368.396033
 20
255.225779
 40
40.796047
 50
97.349274
 51
172.650726
  0
LINE
  8
OSA
 10
368.396033
 20
286.973977
 11
368.396033
 21
298.048501
  0
LINE
  8
OSA
 10
336.647835
 20
255.225779
 11
325.573310
 21
255.225779
  0
LINE
  8
OSA
 10
368.396033
 20
223.477581
 11
368.396033
 21
212.403057
  0
CIRCLE
  8
OBRYS
 10
322.434092
 20
209.263838
 40
5.000000
  0
LINE
  8
OSA
 10
332.687140
 20
219.516887
 11
312.181044
 21
199.010790
  0
LINE
  8
OSA
 10
332.687140
 20
290.934672
 11
312.181044
 21
311.440768
  0
CIRCLE
  8
OBRYS
 10
322.434092
 20
301.187720
 40
5.000000
  0
ARC
  8
OBRYS
 10
327.513477
 20
314.493111
 40
3.000000
 50
124.597879
 51
225.000000
  0
LINE
  8
OBRYS
 10
332.601030
 20
305.162917
 11
325.392157
 21
312.371791
  0
ARC
  8
OBRYS
 10
334.722350
 20
307.284238
 40
3.000000
 50
225.000000
 51
302.896551
  0
LINE
  8
OBRYS
 10
318.458894
 20
291.020782
 11
311.250021
 21
298.229655
  0
ARC
  8
OBRYS
 10
309.128701
 20
296.108335
 40
3.000000
 50
45.000000
 51
145.402121
  0
ARC
  8
OBRYS
 10
309.128701
 20
214.343223
 40
3.000000
 50
214.597879
 51
315.000000
  0
LINE
  8
OBRYS
 10
318.458894
 20
219.430776
 11
311.250021
 21
212.221903
  0
ARC
  8
OBRYS
 10
316.337574
 20
221.552097
 40
3.000000
 50
315.000000
 51
32.896551
  0
ARC
  8
OBRYS
 10
334.722350
 20
203.167320
 40
3.000000
 50
57.103449
 51
135.000000
  0
LINE
  8
OBRYS
 10
332.601030
 20
205.288641
 11
325.392157
 21
198.079767
  0
ARC
  8
OBRYS
 10
327.513477
 20
195.958447
 40
3.000000
 50
135.000000
 51
235.402121
  0
LINE
  8
OBRYS
 10
289.023493
 20
265.225779
 11
293.984277
 21
264.600779
  0
LINE
  8
OBRYS
 10
289.023493
 20
245.225779
 11
293.984277
 21
245.850779
  0
LINE
  8
OSA
 10
368.396033
 20
255.225779
 11
284.213867
 21
255.225779
  0
LINE
  8
OBRYS
 10
408.396033
 20
340.247993
 11
401.429354
 21
336.225779
  0
LINE
  8
OBRYS
 10
328.396033
 20
340.247993
 11
335.362712
 21
336.225779
  0
LINE
  8
OBRYS
 10
401.429354
 20
336.225779
 11
335.362712
 21
336.225779
  0
LINE
  8
0
 62
     2
 10
307.396033
 20
339.578120
 11
329.129806
 21
339.578120
  0
LINE
  8
0
 62
     2
 10
433.396033
 20
339.578120
 11
407.662259
 21
339.578120
  0
LINE
  8
OBRYS
 10
307.396033
 20
340.247993
 11
328.396033
 21
340.247993
  0
LINE
  8
OBRYS
 10
433.396033
 20
340.247993
 11
408.396033
 21
340.247993
  0
LINE
  8
OSA
 10
368.396033
 20
252.225779
 11
368.396033
 21
258.225779
  0
LINE
  8
OSA
 10
371.396033
 20
255.225779
 11
365.396033
 21
255.225779
  0
LINE
  8
OSA
 10
368.396033
 20
305.225779
 11
310.396033
 21
305.225779
  0
LINE
  8
OSA
 10
368.396033
 20
305.225779
 11
432.153115
 21
305.225779
  0
CIRCLE
  8
OSA
 62
     2
  6
CONTINUOUS
 10
368.396033
 20
255.225779
 40
25.000000
  0
ARC
  8
OBRYS
 10
368.396033
 20
255.225779
 40
12.000000
 50
109.471221
 51
70.528779
  0
LINE
  8
OBRYS
 10
372.396033
 20
266.539488
 11
372.396033
 21
270.125779
  0
LINE
  8
OBRYS
 10
372.396033
 20
270.125779
 11
364.396033
 21
270.125779
  0
LINE
  8
OBRYS
 10
364.396033
 20
270.125779
 11
364.396033
 21
266.539488
  0
CIRCLE
  8
OBRYS
 10
368.396033
 20
255.225779
 40
17.500000
  0
LINE
  8
OBRYS
 10
307.396033
 20
332.025779
 11
307.396033
 21
340.253985
  0
LINE
  8
OSA
 10
288.396033
 20
305.225779
 11
315.396033
 21
305.225779
  0
ARC
  8
OBRYS
 10
306.396033
 20
266.203565
 40
2.000000
 50
150.000000
 51
180.000000
  0
INSERT
  8
OBRYS
 66
     1
  2
Srouby_s_valcovou_hlavou__5
 62
     7
 10
405.896033
 20
255.225779
  0
ATTRIB
  8
OBRYS
 10
0.000000
 20
0.000000
 40
3.749998
  1
DIN 7984
  2
norma roz.
 70
     1
  0
ATTRIB
  8
OBRYS
 10
0.000000
 20
0.000000
 40
3.749998
  1
1
  2
roztec
 70
     1
  0
ATTRIB
  8
OBRYS
 10
0.000000
 20
0.000000
 40
3.749998
  1
*N
  2
puvod
 70
     1
  0
SEQEND
  8
OBRYS
  0
INSERT
  8
OBRYS
 66
     1
  2
Srouby_s_valcovou_hlavou__6
 62
     7
 10
368.396033
 20
292.725779
  0
ATTRIB
  8
OBRYS
 10
0.000000
 20
0.000000
 40
3.749998
  1
DIN 7984
  2
norma roz.
 70
     1
  0
ATTRIB
  8
OBRYS
 10
0.000000
 20
0.000000
 40
3.749998
  1
1
  2
roztec
 70
     1
  0
ATTRIB
  8
OBRYS
 10
0.000000
 20
0.000000
 40
3.749998
  1
*N
  2
puvod
 70
     1
  0
SEQEND
  8
OBRYS
  0
INSERT
  8
OBRYS
 66
     1
  2
Srouby_s_valcovou_hlavou__7
 62
     7
 10
368.396033
 20
217.725779
  0
ATTRIB
  8
OBRYS
 10
0.000000
 20
0.000000
 40
3.749998
  1
DIN 7984
  2
norma roz.
 70
     1
  0
ATTRIB
  8
OBRYS
 10
0.000000
 20
0.000000
 40
3.749998
  1
1
  2
roztec
 70
     1
  0
ATTRIB
  8
OBRYS
 10
0.000000
 20
0.000000
 40
3.749998
  1
*N
  2
puvod
 70
     1
  0
SEQEND
  8
OBRYS
  0
INSERT
  8
OBRYS
 66
     1
  2
Srouby_s_valcovou_hlavou__8
 62
     7
 10
330.896033
 20
255.225779
  0
ATTRIB
  8
OBRYS
 10
0.000000
 20
0.000000
 40
3.749998
  1
DIN 7984
  2
norma roz.
 70
     1
  0
ATTRIB
  8
OBRYS
 10
0.000000
 20
0.000000
 40
3.749998
  1
1
  2
roztec
 70
     1
  0
ATTRIB
  8
OBRYS
 10
0.000000
 20
0.000000
 40
3.749998
  1
*N
  2
puvod
 70
     1
  0
SEQEND
  8
OBRYS
  0
LINE
  8
SRAFY
 62
     4
  6
HIDDEN2
 10
125.745147
 20
285.225779
 11
127.745147
 21
285.225779
  0
LINE
  8
SRAFY
 62
     4
  6
HIDDEN2
 10
125.245147
 20
284.725779
 11
125.745147
 21
285.225779
  0
LINE
  8
SRAFY
 62
     4
  6
HIDDEN2
 10
125.245147
 20
225.725779
 11
125.245147
 21
228.725779
  0
LINE
  8
SRAFY
 62
     4
  6
HIDDEN2
 10
125.745147
 20
225.225779
 11
125.245147
 21
225.725779
  0
LINE
  8
SRAFY
 62
     4
  6
HIDDEN2
 10
125.245147
 20
225.725779
 11
125.745147
 21
225.225779
  0
LINE
  8
SRAFY
 62
     4
  6
HIDDEN2
 10
125.745147
 20
225.225779
 11
127.745147
 21
225.225779
  0
LINE
  8
SRAFY
 62
     4
  6
HIDDEN2
 10
125.245147
 20
284.725779
 11
125.245147
 21
255.225779
  0
LINE
  8
SRAFY
 62
     4
  6
HIDDEN2
 10
125.245147
 20
228.725779
 11
125.245147
 21
255.225779
  0
LINE
  8
SRAFY
 62
     4
  6
HIDDEN2
 10
82.245147
 20
310.225779
 11
86.245147
 21
310.225779
  0
LINE
  8
SRAFY
 62
     4
  6
HIDDEN2
 10
86.245147
 20
310.225779
 11
86.245147
 21
306.874439
  0
LINE
  8
SRAFY
 62
     4
  6
HIDDEN2
 10
86.245147
 20
306.874439
 11
86.245147
 21
255.225779
  0
LINE
  8
SRAFY
 62
     4
  6
HIDDEN2
 10
86.245147
 20
203.577119
 11
86.245147
 21
255.225779
  0
LINE
  8
SRAFY
 62
     4
  6
HIDDEN2
 10
82.245147
 20
200.225779
 11
85.445147
 21
200.225779
  0
LINE
  8
SRAFY
 62
     4
  6
HIDDEN2
 10
86.245147
 20
201.025779
 11
86.245147
 21
203.577119
  0
ARC
  8
SRAFY
 62
     4
  6
HIDDEN2
 10
85.445147
 20
201.025779
 40
0.800000
 50
270.000000
 51
360.000000
  0
LINE
  8
OBRYS
 10
83.745147
 20
265.225779
 11
82.245147
 21
265.225779
  0
LINE
  8
OBRYS
 10
83.745147
 20
245.225779
 11
82.245147
 21
245.225779
  0
ARC
  8
OBRYS
 10
83.745147
 20
263.225779
 40
2.000000
 50
0.000000
 51
90.000000
  0
LINE
  8
OBRYS
 10
85.745147
 20
263.225779
 11
85.745147
 21
247.225779
  0
ARC
  8
OBRYS
 10
83.745147
 20
247.225779
 40
2.000000
 50
270.000000
 51
360.000000
  0
ARC
  8
OBRYS
 10
91.245147
 20
333.225779
 40
2.000000
 50
0.000000
 51
90.000000
  0
LINE
  8
OBRYS
 10
82.245147
 20
335.225779
 11
91.245147
 21
335.225779
  0
LINE
  8
OBRYS
 10
82.245147
 20
310.225779
 11
82.245147
 21
255.225779
  0
LINE
  8
OBRYS
 10
82.245147
 20
335.225779
 11
82.245147
 21
310.225779
  0
LINE
  8
OBRYS
 10
82.245147
 20
175.225779
 11
82.245147
 21
200.225779
  0
LINE
  8
OBRYS
 10
82.245147
 20
200.225779
 11
82.245147
 21
255.225779
  0
LINE
  8
OBRYS
 10
82.245147
 20
175.225779
 11
91.245147
 21
175.225779
  0
ARC
  8
OBRYS
 10
91.245147
 20
177.225779
 40
2.000000
 50
270.000000
 51
360.000000
  0
ARC
  8
OBRYS
 10
95.245147
 20
310.674553
 40
2.000000
 50
180.000000
 51
255.000000
  0
ARC
  8
OBRYS
 10
96.245147
 20
199.009678
 40
3.000000
 50
105.000000
 51
180.000000
  0
LINE
  8
OBRYS
 62
     7
  6
DASHDOT
 10
135.745147
 20
255.225779
 11
77.245147
 21
255.225779
  0
LINE
  8
OBRYS
 10
113.832216
 20
206.725779
 11
95.468690
 21
201.907455
  0
LINE
  8
OBRYS
 10
113.832216
 20
206.725779
 11
128.245147
 21
206.725779
  0
ARC
  8
OBRYS
 10
128.245147
 20
211.725779
 40
5.000000
 50
270.000000
 51
360.000000
  0
LINE
  8
OBRYS
 10
131.432116
 20
207.873088
 11
92.519934
 21
175.684703
  0
LINE
  8
OBRYS
 10
131.432116
 20
302.578470
 11
92.519934
 21
334.766856
  0
ARC
  8
OBRYS
 10
128.245147
 20
298.725779
 40
5.000000
 50
0.000000
 51
90.000000
  0
LINE
  8
OBRYS
 10
113.832216
 20
303.725779
 11
128.245147
 21
303.725779
  0
LINE
  8
OBRYS
 10
113.832216
 20
303.725779
 11
95.468690
 21
308.544103
  0
LINE
  8
OBRYS
 10
93.245147
 20
177.225779
 11
93.245147
 21
255.225779
  0
LINE
  8
OBRYS
 10
93.245147
 20
333.225779
 11
93.245147
 21
255.225779
  0
LINE
  8
OBRYS
 10
129.522919
 20
210.906387
 11
94.727509
 21
201.708857
  0
ARC
  8
OBRYS
 10
128.245147
 20
215.740360
 40
5.000000
 50
284.806443
 51
360.000000
  0
LINE
  8
OBRYS
 10
129.522919
 20
299.545171
 11
94.727509
 21
308.742702
  0
ARC
  8
OBRYS
 10
128.245147
 20
294.711198
 40
5.000000
 50
0.000000
 51
75.193557
  0
ARC
  8
OBRYS
 10
95.245147
 20
259.225779
 40
2.000000
 50
180.000000
 51
270.000000
  0
ARC
  8
OBRYS
 10
95.245147
 20
251.225779
 40
2.000000
 50
90.000000
 51
180.000000
  0
LINE
  8
OBRYS
 10
133.245147
 20
253.225779
 11
95.245147
 21
253.225779
  0
LINE
  8
OBRYS
 10
133.245147
 20
257.225779
 11
95.245147
 21
257.225779
  0
LINE
  8
OBRYS
 10
113.707155
 20
248.169624
 11
133.245147
 21
248.169624
  0
LINE
  8
OBRYS
 10
113.707155
 20
263.396089
 11
133.245147
 21
263.396089
  0
LINE
  8
OBRYS
 10
127.245147
 20
280.007994
 11
127.245147
 21
291.582922
  0
LINE
  8
OBRYS
 10
127.245147
 20
291.582922
 11
133.245147
 21
291.582922
  0
LINE
  8
OBRYS
 10
133.245147
 20
291.582922
 11
133.245147
 21
298.725779
  0
LINE
  8
OBRYS
 10
127.245147
 20
280.007994
 11
133.245147
 21
280.007994
  0
LINE
  8
OBRYS
 10
133.245147
 20
255.225779
 11
133.245147
 21
280.007994
  0
LINE
  8
OBRYS
 10
127.245147
 20
230.443564
 11
133.245147
 21
230.443564
  0
LINE
  8
OBRYS
 10
127.245147
 20
218.868636
 11
133.245147
 21
218.868636
  0
LINE
  8
OBRYS
 10
127.245147
 20
230.443564
 11
127.245147
 21
218.868636
  0
LINE
  8
OBRYS
 10
133.245147
 20
255.225779
 11
133.245147
 21
230.443564
  0
LINE
  8
OBRYS
 10
133.245147
 20
218.868636
 11
133.245147
 21
211.725779
  0
LINE
  8
OSA
 10
174.245147
 20
305.225779
 11
174.245147
 21
200.008060
  0
LINE
  8
OBRYS
 10
220.745147
 20
248.885700
 11
223.245147
 21
248.885700
  0
LINE
  8
OBRYS
 10
220.745147
 20
261.565858
 11
223.245147
 21
261.565858
  0
LINE
  8
OBRYS
 10
220.745147
 20
248.885700
 11
220.745147
 21
222.170951
  0
LINE
  8
OBRYS
 10
220.745147
 20
288.280607
 11
220.745147
 21
261.565858
  0
LINE
  8
OSA
 10
174.245147
 20
357.725779
 11
174.245147
 21
305.225779
  0
LINE
  8
OSA
 10
174.245147
 20
305.225779
 11
174.245147
 21
200.008060
  0
LINE
  8
OSA
 10
207.245147
 20
305.225779
 11
174.245147
 21
305.225779
  0
ARC
  8
OBRYS
 10
132.745147
 20
307.256750
 40
3.000000
 50
279.594068
 51
360.000000
  0
LINE
  8
OSA
 62
     2
  6
CONTINUOUS
 10
142.299494
 20
311.227677
 11
137.675348
 21
311.066198
  0
LINE
  8
OSA
 62
     2
  6
CONTINUOUS
 10
125.745147
 20
225.225779
 11
125.245147
 21
225.725779
  0
ARC
  8
OSA
 62
     2
  6
CONTINUOUS
 10
137.745147
 20
309.067417
 40
2.000000
 50
92.000000
 51
180.000000
  0
ARC
  8
OBRYS
 10
137.745147
 20
201.225779
 40
2.000000
 50
180.000000
 51
270.000000
  0
LINE
  8
OBRYS
 10
137.745147
 20
199.225779
 11
144.423389
 21
199.225779
  0
LINE
  8
OBRYS
 10
135.745147
 20
255.225779
 11
135.745147
 21
201.225779
  0
ARC
  8
OBRYS
 10
129.745147
 20
281.413750
 40
2.000000
 50
123.167665
 51
180.000000
  0
ARC
  8
OBRYS
 10
129.745147
 20
288.280607
 40
2.000000
 50
107.164833
 51
180.000000
  0
LINE
  8
OBRYS
 10
129.154903
 20
290.191527
 11
134.335390
 21
291.791672
  0
ARC
  8
OBRYS
 10
133.745147
 20
293.702591
 40
2.000000
 50
287.164833
 51
360.000000
  0
LINE
  8
OBRYS
 10
128.650965
 20
283.087897
 11
134.839328
 21
287.132462
  0
ARC
  8
OBRYS
 10
133.745147
 20
288.806609
 40
2.000000
 50
303.167665
 51
360.000000
  0
LINE
  8
OBRYS
 10
135.745147
 20
309.067417
 11
135.745147
 21
255.225779
  0
LINE
  8
OBRYS
 10
133.245147
 20
304.298710
 11
133.245147
 21
291.454918
  0
LINE
  8
OBRYS
 10
135.745147
 20
258.409997
 11
133.245147
 21
258.583277
  0
LINE
  8
OBRYS
 10
135.745147
 20
252.041561
 11
133.245147
 21
251.868281
  0
LINE
  8
OBRYS
 10
133.245147
 20
206.152848
 11
133.245147
 21
218.996640
  0
ARC
  8
OBRYS
 10
132.745147
 20
203.194808
 40
3.000000
 50
0.000000
 51
80.405932
  0
ARC
  8
OBRYS
 10
133.745147
 20
221.644949
 40
2.000000
 50
0.000000
 51
56.832335
  0
LINE
  8
OBRYS
 10
128.650965
 20
227.363661
 11
134.839328
 21
223.319096
  0
ARC
  8
OBRYS
 10
133.745147
 20
216.748967
 40
2.000000
 50
0.000000
 51
72.835167
  0
LINE
  8
OBRYS
 10
129.154903
 20
220.260031
 11
134.335390
 21
218.659887
  0
ARC
  8
OBRYS
 10
129.745147
 20
222.170951
 40
2.000000
 50
180.000000
 51
252.835167
  0
ARC
  8
OBRYS
 10
129.745147
 20
229.037808
 40
2.000000
 50
180.000000
 51
236.832335
  0
LINE
  8
OBRYS
 10
133.245147
 20
274.630909
 11
133.245147
 21
235.820649
  0
LINE
  8
OBRYS
 10
215.245147
 20
274.630909
 11
215.245147
 21
235.820649
  0
ARC
  8
OBRYS
 10
218.745147
 20
229.037808
 40
2.000000
 50
303.167665
 51
360.000000
  0
ARC
  8
OBRYS
 10
218.745147
 20
222.170951
 40
2.000000
 50
287.164833
 51
360.000000
  0
LINE
  8
OBRYS
 10
219.335390
 20
220.260031
 11
214.154903
 21
218.659887
  0
ARC
  8
OBRYS
 10
214.745147
 20
216.748967
 40
2.000000
 50
107.164833
 51
180.000000
  0
LINE
  8
OBRYS
 10
219.839328
 20
227.363661
 11
213.650965
 21
223.319096
  0
ARC
  8
OBRYS
 10
214.745147
 20
221.644949
 40
2.000000
 50
123.167665
 51
180.000000
  0
ARC
  8
OBRYS
 10
215.745147
 20
203.194808
 40
3.000000
 50
99.594068
 51
180.000000
  0
LINE
  8
OBRYS
 10
215.245147
 20
206.152848
 11
215.245147
 21
218.996640
  0
LINE
  8
OBRYS
 10
212.745147
 20
252.041561
 11
215.245147
 21
251.868281
  0
LINE
  8
OBRYS
 10
212.745147
 20
258.409997
 11
215.245147
 21
258.583277
  0
LINE
  8
OBRYS
 10
215.245147
 20
304.298710
 11
215.245147
 21
291.454918
  0
ARC
  8
OBRYS
 10
215.745147
 20
307.256750
 40
3.000000
 50
180.000000
 51
260.405932
  0
LINE
  8
OBRYS
 10
212.745147
 20
309.067417
 11
212.745147
 21
255.225779
  0
ARC
  8
OBRYS
 10
214.745147
 20
288.806609
 40
2.000000
 50
180.000000
 51
236.832335
  0
LINE
  8
OBRYS
 10
219.839328
 20
283.087897
 11
213.650965
 21
287.132462
  0
ARC
  8
OBRYS
 10
214.745147
 20
293.702591
 40
2.000000
 50
180.000000
 51
252.835167
  0
LINE
  8
OBRYS
 10
219.335390
 20
290.191527
 11
214.154903
 21
291.791672
  0
ARC
  8
OBRYS
 10
218.745147
 20
288.280607
 40
2.000000
 50
0.000000
 51
72.835167
  0
ARC
  8
OBRYS
 10
218.745147
 20
281.413750
 40
2.000000
 50
0.000000
 51
56.832335
  0
LINE
  8
OSA
 62
     2
  6
CONTINUOUS
 10
222.745147
 20
225.225779
 11
220.745147
 21
225.225779
  0
LINE
  8
OSA
 62
     2
  6
CONTINUOUS
 10
223.245147
 20
225.725779
 11
222.745147
 21
225.225779
  0
LINE
  8
OSA
 10
174.245147
 20
211.554681
 11
174.245147
 21
197.780431
  0
LINE
  8
OBRYS
 10
167.245147
 20
202.225779
 11
181.245147
 21
202.225779
  0
LINE
  8
OBRYS
 10
181.245147
 20
202.225779
 11
181.245147
 21
200.225779
  0
LINE
  8
OBRYS
 10
167.245147
 20
202.225779
 11
167.245147
 21
200.225779
  0
ARC
  8
OBRYS
 10
180.245147
 20
200.225779
 40
1.000000
 50
270.000000
 51
360.000000
  0
LINE
  8
OBRYS
 10
168.245147
 20
199.225779
 11
180.245147
 21
199.225779
  0
ARC
  8
OBRYS
 10
168.245147
 20
200.225779
 40
1.000000
 50
180.000000
 51
270.000000
  0
LINE
  8
OSA
 10
165.114658
 20
209.031803
 11
137.245147
 21
209.031803
  0
ARC
  8
0
 62
     2
 10
160.245147
 20
202.225779
 40
5.000000
 50
0.000000
 51
35.492919
  0
LINE
  8
0
 62
     2
 10
165.179752
 20
207.225779
 11
200.245147
 21
207.225779
  0
LINE
  8
OBRYS
 10
142.245147
 20
199.225779
 11
144.610758
 21
199.225779
  0
ARC
  8
OBRYS
 10
160.245147
 20
208.031802
 40
5.000000
 50
270.000000
 51
360.000000
  0
LINE
  8
OBRYS
 10
165.245147
 20
208.292712
 11
165.245147
 21
208.031802
  0
LINE
  8
OBRYS
 10
160.245147
 20
203.031802
 11
145.610758
 21
203.031802
  0
ARC
  8
OBRYS
 10
160.245147
 20
208.292712
 40
5.000000
 50
0.000000
 51
90.000000
  0
LINE
  8
OBRYS
 10
160.245147
 20
213.292712
 11
145.610758
 21
213.292712
  0
ARC
  8
OBRYS
 10
159.245147
 20
236.091610
 40
6.000000
 50
270.000000
 51
360.000000
  0
ARC
  8
OBRYS
 10
159.245147
 20
236.091610
 40
6.000000
 50
0.000000
 51
90.000000
  0
LINE
  8
OBRYS
 10
159.245147
 20
230.091610
 11
145.610758
 21
230.091610
  0
LINE
  8
OSA
 10
165.114658
 20
236.091610
 11
137.245147
 21
236.091610
  0
LINE
  8
OBRYS
 10
159.245147
 20
242.091610
 11
145.610758
 21
242.091610
  0
ARC
  8
OBRYS
 10
166.706189
 20
271.473281
 40
2.000000
 50
60.000000
 51
158.848608
  0
ARC
  8
OBRYS
 10
159.245147
 20
274.359949
 40
6.000000
 50
270.000000
 51
338.848608
  0
LINE
  8
OBRYS
 10
145.610758
 20
200.225779
 11
145.610758
 21
286.642623
  0
LINE
  8
OBRYS
 10
155.314029
 20
280.359949
 11
145.610758
 21
280.359949
  0
ARC
  8
OBRYS
 10
144.610758
 20
200.225779
 40
1.000000
 50
270.000000
 51
360.000000
  0
LINE
  8
OBRYS
 10
212.745147
 20
255.225779
 11
212.745147
 21
201.225779
  0
LINE
  8
OBRYS
 10
202.245147
 20
201.225779
 11
202.245147
 21
285.595870
  0
ARC
  8
OSA
 62
     2
  6
CONTINUOUS
 10
206.260598
 20
313.226459
 40
2.000000
 50
239.487542
 51
268.000000
  0
ARC
  8
OBRYS
 10
142.229707
 20
313.226504
 40
2.000000
 50
271.982723
 51
300.512083
  0
LINE
  8
OBRYS
 10
159.245147
 20
268.359949
 11
145.610758
 21
268.359949
  0
LINE
  8
OSA
 10
165.114658
 20
274.359949
 11
137.245147
 21
274.359949
  0
CIRCLE
  8
OBRYS
 10
174.245147
 20
305.225779
 40
26.000000
  0
ARC
  8
OBRYS
 10
174.245147
 20
329.474490
 40
10.000000
 50
60.000000
 51
120.000000
  0
LINE
  8
OBRYS
 10
169.245146
 20
338.134744
 11
148.245147
 21
326.010389
  0
ARC
  8
OBRYS
 10
153.245147
 20
317.350135
 40
10.000000
 50
120.000000
 51
180.000000
  0
LINE
  8
OBRYS
 10
200.245147
 20
326.010389
 11
179.245146
 21
338.134745
  0
ARC
  8
OBRYS
 10
195.245147
 20
317.350135
 40
10.000000
 50
0.000000
 51
60.000000
  0
LINE
  8
OBRYS
 10
205.245147
 20
293.101423
 11
205.245147
 21
317.350135
  0
ARC
  8
OBRYS
 10
195.245147
 20
293.101423
 40
10.000000
 50
300.000000
 51
360.000000
  0
LINE
  8
OBRYS
 10
179.245147
 20
272.316814
 11
200.245147
 21
284.441169
  0
ARC
  8
OBRYS
 10
174.245147
 20
280.977068
 40
10.000000
 50
240.000000
 51
300.000000
  0
LINE
  8
OBRYS
 10
148.245147
 20
284.441169
 11
169.245147
 21
272.316814
  0
LINE
  8
OBRYS
 10
143.245147
 20
317.350135
 11
143.245147
 21
293.101423
  0
ARC
  8
OBRYS
 10
153.245147
 20
293.101423
 40
10.000000
 50
180.000000
 51
240.000000
  0
LINE
  8
POMOC
 62
     2
  6
CONTINUOUS
 10
142.245147
 20
199.225779
 11
142.245147
 21
255.225779
  0
LINE
  8
OBRYS
 10
210.745147
 20
199.225779
 11
204.066904
 21
199.225779
  0
LINE
  8
OSA
 62
     2
  6
CONTINUOUS
 10
223.245147
 20
228.725779
 11
223.245147
 21
255.225779
  0
LINE
  8
OSA
 10
140.794873
 20
255.225779
 11
174.245147
 21
255.225779
  0
ARC
  8
OBRYS
 10
210.745147
 20
201.225779
 40
2.000000
 50
270.000000
 51
360.000000
  0
ARC
  8
OSA
 62
     2
  6
CONTINUOUS
 10
210.745147
 20
309.067417
 40
2.000000
 50
0.000000
 51
88.000000
  0
LINE
  8
OSA
 10
141.245147
 20
305.225779
 11
174.245147
 21
305.225779
  0
LINE
  8
OSA
 62
     2
  6
CONTINUOUS
 10
223.245147
 20
284.725779
 11
222.745147
 21
285.225779
  0
LINE
  8
OSA
 62
     2
  6
CONTINUOUS
 10
223.245147
 20
284.725779
 11
223.245147
 21
255.225779
  0
LINE
  8
OSA
 62
     2
  6
CONTINUOUS
 10
222.745147
 20
285.225779
 11
220.745147
 21
285.225779
  0
LINE
  8
OSA
 10
226.153944
 20
255.225779
 11
174.245147
 21
255.225779
  0
ARC
  8
OBRYS
 10
204.245147
 20
201.225779
 40
2.000000
 50
180.000000
 51
270.000000
  0
ARC
  8
0
 62
     2
 10
200.245147
 20
205.225779
 40
2.000000
 50
0.000000
 51
90.000000
  0
LINE
  8
POMOC
 62
     2
  6
CONTINUOUS
 10
183.245147
 20
202.225779
 11
174.245147
 21
202.225779
  0
LINE
  8
POMOC
 62
     2
  6
CONTINUOUS
 10
165.245147
 20
202.225779
 11
174.245147
 21
202.225779
  0
ARC
  8
0
 62
     2
 10
188.245147
 20
202.225779
 40
5.000000
 50
90.000000
 51
180.000000
  0
LINE
  8
NEVIDITELNA
 10
166.245147
 20
207.225779
 11
188.245147
 21
207.225779
  0
LINE
  8
POMOC
 62
     2
  6
CONTINUOUS
 10
142.245147
 20
311.225779
 11
142.245147
 21
255.225779
  0
LINE
  8
OSA
 62
     2
  6
CONTINUOUS
 10
222.745147
 20
225.225779
 11
223.245147
 21
225.725779
  0
LINE
  8
OSA
 62
     2
  6
CONTINUOUS
 10
223.245147
 20
225.725779
 11
223.245147
 21
228.725779
  0
LINE
  8
OBRYS
 10
142.298903
 20
311.227701
 11
142.245147
 21
311.225840
  0
LINE
  8
OSA
 62
     2
  6
CONTINUOUS
 10
206.190799
 20
311.227677
 11
210.814946
 21
311.066198
  0
LINE
  8
OBRYS
 10
127.745147
 20
230.443564
 11
127.745147
 21
222.170951
  0
LINE
  8
OBRYS
 10
127.745147
 20
288.280607
 11
127.745147
 21
280.007994
  0
LINE
  8
OBRYS
 10
374.736112
 20
132.447208
 11
374.736112
 21
134.947208
  0
LINE
  8
OBRYS
 10
362.055954
 20
132.447208
 11
362.055954
 21
134.947208
  0
LINE
  8
OBRYS
 10
374.736112
 20
132.447208
 11
401.450861
 21
132.447208
  0
LINE
  8
OBRYS
 10
335.341204
 20
132.447208
 11
362.055954
 21
132.447208
  0
ARC
  8
OBRYS
 10
316.365061
 20
44.447208
 40
3.000000
 50
9.594068
 51
90.000000
  0
LINE
  8
OSA
 62
     2
  6
CONTINUOUS
 10
312.394135
 20
54.001555
 11
312.555614
 21
49.377409
  0
ARC
  8
OSA
 62
     2
  6
CONTINUOUS
 10
314.554395
 20
49.447208
 40
2.000000
 50
182.000000
 51
270.000000
  0
ARC
  8
OBRYS
 10
422.396033
 20
49.447208
 40
2.000000
 50
270.000000
 51
360.000000
  0
LINE
  8
OBRYS
 10
368.396033
 20
47.447208
 11
422.396033
 21
47.447208
  0
ARC
  8
OBRYS
 10
342.208061
 20
41.447208
 40
2.000000
 50
213.167665
 51
270.000000
  0
ARC
  8
OBRYS
 10
335.341204
 20
41.447208
 40
2.000000
 50
197.164833
 51
270.000000
  0
LINE
  8
OBRYS
 10
333.430285
 20
40.856964
 11
331.830140
 21
46.037451
  0
ARC
  8
OBRYS
 10
329.919221
 20
45.447208
 40
2.000000
 50
17.164833
 51
90.000000
  0
LINE
  8
OBRYS
 10
340.533915
 20
40.353026
 11
336.489350
 21
46.541390
  0
ARC
  8
OBRYS
 10
334.815203
 20
45.447208
 40
2.000000
 50
33.167665
 51
90.000000
  0
LINE
  8
OBRYS
 10
314.554395
 20
47.447208
 11
368.396033
 21
47.447208
  0
LINE
  8
OBRYS
 10
319.323101
 20
44.947208
 11
332.166894
 21
44.947208
  0
LINE
  8
OBRYS
 10
365.211815
 20
47.447208
 11
365.038535
 21
44.947208
  0
LINE
  8
OBRYS
 10
371.580251
 20
47.447208
 11
371.753530
 21
44.947208
  0
LINE
  8
OBRYS
 10
417.468964
 20
44.947208
 11
404.625172
 21
44.947208
  0
ARC
  8
OBRYS
 10
420.427004
 20
44.447208
 40
3.000000
 50
90.000000
 51
170.405932
  0
ARC
  8
OBRYS
 10
401.976862
 20
45.447208
 40
2.000000
 50
90.000000
 51
146.832335
  0
LINE
  8
OBRYS
 10
396.258150
 20
40.353026
 11
400.302716
 21
46.541390
  0
ARC
  8
OBRYS
 10
406.872845
 20
45.447208
 40
2.000000
 50
90.000000
 51
162.835167
  0
LINE
  8
OBRYS
 10
403.361780
 20
40.856964
 11
404.961925
 21
46.037451
  0
ARC
  8
OBRYS
 10
401.450861
 20
41.447208
 40
2.000000
 50
270.000000
 51
342.835167
  0
ARC
  8
OBRYS
 10
394.584004
 20
41.447208
 40
2.000000
 50
270.000000
 51
326.832335
  0
LINE
  8
OBRYS
 10
348.990903
 20
126.947208
 11
387.801162
 21
126.947208
  0
ARC
  8
OBRYS
 10
394.584004
 20
130.447208
 40
2.000000
 50
33.167665
 51
90.000000
  0
ARC
  8
OBRYS
 10
401.450861
 20
130.447208
 40
2.000000
 50
17.164833
 51
90.000000
  0
LINE
  8
OBRYS
 10
403.361780
 20
131.037451
 11
404.961925
 21
125.856964
  0
ARC
  8
OBRYS
 10
406.872845
 20
126.447208
 40
2.000000
 50
197.164833
 51
270.000000
  0
LINE
  8
OBRYS
 10
396.258150
 20
131.541390
 11
400.302716
 21
125.353026
  0
ARC
  8
OBRYS
 10
401.976862
 20
126.447208
 40
2.000000
 50
213.167665
 51
270.000000
  0
ARC
  8
OBRYS
 10
420.427004
 20
127.447208
 40
3.000000
 50
189.594068
 51
270.000000
  0
LINE
  8
OBRYS
 10
417.468964
 20
126.947208
 11
404.625172
 21
126.947208
  0
LINE
  8
OBRYS
 10
371.580251
 20
124.447208
 11
371.753530
 21
126.947208
  0
LINE
  8
OBRYS
 10
365.211815
 20
124.447208
 11
365.038535
 21
126.947208
  0
LINE
  8
OBRYS
 10
319.323101
 20
126.947208
 11
332.166894
 21
126.947208
  0
ARC
  8
OBRYS
 10
316.365061
 20
127.447208
 40
3.000000
 50
270.000000
 51
350.405932
  0
LINE
  8
OBRYS
 10
314.554395
 20
124.447208
 11
368.396033
 21
124.447208
  0
ARC
  8
OBRYS
 10
334.815203
 20
126.447208
 40
2.000000
 50
270.000000
 51
326.832335
  0
LINE
  8
OBRYS
 10
340.533915
 20
131.541390
 11
336.489350
 21
125.353026
  0
ARC
  8
OBRYS
 10
329.919221
 20
126.447208
 40
2.000000
 50
270.000000
 51
342.835167
  0
LINE
  8
OBRYS
 10
333.430285
 20
131.037451
 11
331.830140
 21
125.856964
  0
ARC
  8
OBRYS
 10
335.341204
 20
130.447208
 40
2.000000
 50
90.000000
 51
162.835167
  0
ARC
  8
OBRYS
 10
342.208061
 20
130.447208
 40
2.000000
 50
90.000000
 51
146.832335
  0
LINE
  8
OSA
 62
     2
  6
CONTINUOUS
 10
398.396033
 20
134.447208
 11
398.396033
 21
132.447208
  0
LINE
  8
OSA
 62
     2
  6
CONTINUOUS
 10
397.896033
 20
134.947208
 11
398.396033
 21
134.447208
  0
LINE
  8
OBRYS
 10
368.396033
 20
124.447208
 11
422.396033
 21
124.447208
  0
ARC
  8
OSA
 62
     2
  6
CONTINUOUS
 10
310.395353
 20
117.962659
 40
2.000000
 50
329.487542
 51
358.000000
  0
ARC
  8
OBRYS
 10
310.395308
 20
53.931768
 40
2.000000
 50
1.982723
 51
30.512083
  0
LINE
  8
POMOC
 62
     2
  6
CONTINUOUS
 10
424.396033
 20
53.947208
 11
368.396033
 21
53.947208
  0
LINE
  8
OSA
 62
     2
  6
CONTINUOUS
 10
394.896033
 20
134.947208
 11
368.396033
 21
134.947208
  0
LINE
  8
OSA
 10
368.396033
 20
52.496934
 11
368.396033
 21
85.947208
  0
ARC
  8
OBRYS
 10
422.396033
 20
122.447208
 40
2.000000
 50
0.000000
 51
90.000000
  0
ARC
  8
OSA
 62
     2
  6
CONTINUOUS
 10
314.554395
 20
122.447208
 40
2.000000
 50
90.000000
 51
178.000000
  0
LINE
  8
OSA
 62
     2
  6
CONTINUOUS
 10
338.896033
 20
134.947208
 11
338.396033
 21
134.447208
  0
LINE
  8
OSA
 62
     2
  6
CONTINUOUS
 10
338.896033
 20
134.947208
 11
368.396033
 21
134.947208
  0
LINE
  8
OSA
 62
     2
  6
CONTINUOUS
 10
338.396033
 20
134.447208
 11
338.396033
 21
132.447208
  0
LINE
  8
OSA
 10
368.396033
 20
137.856006
 11
368.396033
 21
85.947208
  0
LINE
  8
POMOC
 62
     2
  6
CONTINUOUS
 10
312.396033
 20
53.947208
 11
368.396033
 21
53.947208
  0
LINE
  8
OSA
 62
     2
  6
CONTINUOUS
 10
398.396033
 20
134.447208
 11
397.896033
 21
134.947208
  0
LINE
  8
OSA
 62
     2
  6
CONTINUOUS
 10
397.896033
 20
134.947208
 11
394.896033
 21
134.947208
  0
LINE
  8
OBRYS
 10
312.394111
 20
54.000964
 11
312.395972
 21
53.947208
  0
LINE
  8
OSA
 62
     2
  6
CONTINUOUS
 10
312.394135
 20
117.892860
 11
312.555614
 21
122.517007
  0
LINE
  8
OBRYS
 10
307.396033
 20
109.776576
 11
307.396033
 21
113.867797
  0
LINE
  8
OBRYS
 10
307.396033
 20
109.776576
 11
307.396033
 21
113.867797
  0
LINE
  8
OBRYS
 10
307.396033
 20
112.747208
 11
307.396033
 21
59.147208
  0
LINE
  8
OBRYS
 10
433.396033
 20
59.147208
 11
433.396033
 21
112.747208
  0
LINE
  8
OBRYS
 10
341.984490
 20
116.933051
 11
341.984490
 21
54.961364
  0
POLYLINE
  8
OBRYS
 66
    1
  0
VERTEX
  8
OBRYS
 10
341.962006
 20
54.947224
  0
VERTEX
  8
OBRYS
 10
340.932587
 20
54.947224
  0
VERTEX
  8
OBRYS
 10
337.560547
 20
54.947224
  0
VERTEX
  8
OBRYS
 10
335.779816
 20
54.947224
  0
VERTEX
  8
OBRYS
 10
335.094635
 20
55.056477
  0
VERTEX
  8
OBRYS
 10
334.774811
 20
55.379475
  0
VERTEX
  8
OBRYS
 10
334.834351
 20
55.902119
  0
VERTEX
  8
OBRYS
 10
335.270599
 20
56.601582
  0
VERTEX
  8
OBRYS
 10
335.863861
 20
57.233418
  0
VERTEX
  8
OBRYS
 10
335.979980
 20
57.447224
  0
VERTEX
  8
OBRYS
 10
340.090393
 20
63.253620
  0
VERTEX
  8
OBRYS
 10
341.869293
 20
68.687584
  0
VERTEX
  8
OBRYS
 10
341.521179
 20
73.981651
  0
VERTEX
  8
OBRYS
 10
338.975281
 20
79.560448
  0
VERTEX
  8
OBRYS
 10
335.751587
 20
83.447227
  0
VERTEX
  8
OBRYS
 10
335.178101
 20
84.402122
  0
VERTEX
  8
OBRYS
 10
334.976105
 20
85.424583
  0
VERTEX
  8
OBRYS
 10
335.065247
 20
85.947227
  0
VERTEX
  8
OBRYS
 10
334.976105
 20
86.469872
  0
VERTEX
  8
OBRYS
 10
335.178101
 20
87.492271
  0
VERTEX
  8
OBRYS
 10
335.751587
 20
88.447227
  0
VERTEX
  8
OBRYS
 10
338.975281
 20
92.333946
  0
VERTEX
  8
OBRYS
 10
341.521179
 20
97.912743
  0
VERTEX
  8
OBRYS
 10
341.869293
 20
103.206810
  0
VERTEX
  8
OBRYS
 10
340.090393
 20
108.640770
  0
VERTEX
  8
OBRYS
 10
335.979980
 20
114.447227
  0
VERTEX
  8
OBRYS
 10
335.863861
 20
114.660973
  0
VERTEX
  8
OBRYS
 10
335.270599
 20
115.292870
  0
VERTEX
  8
OBRYS
 10
334.834351
 20
115.992271
  0
VERTEX
  8
OBRYS
 10
334.774811
 20
116.514915
  0
VERTEX
  8
OBRYS
 10
335.094635
 20
116.837975
  0
VERTEX
  8
OBRYS
 10
335.779816
 20
116.947227
  0
VERTEX
  8
OBRYS
 10
337.560547
 20
116.947227
  0
VERTEX
  8
OBRYS
 10
340.932587
 20
116.947227
  0
VERTEX
  8
OBRYS
 10
341.962006
 20
116.947227
  0
SEQEND
  8
OBRYS
  0
POLYLINE
  8
OBRYS
 66
    1
  0
VERTEX
  8
OBRYS
 10
390.830048
 20
54.947224
  0
VERTEX
  8
OBRYS
 10
390.807556
 20
54.961384
  0
VERTEX
  8
OBRYS
 10
387.826294
 20
55.118305
  0
VERTEX
  8
OBRYS
 10
377.321106
 20
55.432148
  0
VERTEX
  8
OBRYS
 10
366.396027
 20
55.538166
  0
VERTEX
  8
OBRYS
 10
355.470978
 20
55.432148
  0
VERTEX
  8
OBRYS
 10
344.965759
 20
55.118305
  0
VERTEX
  8
OBRYS
 10
341.984497
 20
54.961384
  0
VERTEX
  8
OBRYS
 10
341.962006
 20
54.947224
  0
SEQEND
  8
OBRYS
  0
POLYLINE
  8
OBRYS
 66
    1
  0
VERTEX
  8
OBRYS
 10
341.962006
 20
116.947227
  0
VERTEX
  8
OBRYS
 10
341.984497
 20
116.933067
  0
VERTEX
  8
OBRYS
 10
344.965759
 20
116.776085
  0
VERTEX
  8
OBRYS
 10
355.470978
 20
116.462242
  0
VERTEX
  8
OBRYS
 10
366.396027
 20
116.356285
  0
VERTEX
  8
OBRYS
 10
377.321106
 20
116.462242
  0
VERTEX
  8
OBRYS
 10
387.826294
 20
116.776085
  0
VERTEX
  8
OBRYS
 10
390.807556
 20
116.933067
  0
VERTEX
  8
OBRYS
 10
390.830048
 20
116.947227
  0
SEQEND
  8
OBRYS
  0
LINE
  8
OBRYS
 10
390.807575
 20
116.933051
 11
390.807575
 21
54.961364
  0
POLYLINE
  8
OBRYS
 66
    1
  0
VERTEX
  8
OBRYS
 10
390.830048
 20
116.947227
  0
VERTEX
  8
OBRYS
 10
391.859497
 20
116.947227
  0
VERTEX
  8
OBRYS
 10
395.231506
 20
116.947227
  0
VERTEX
  8
OBRYS
 10
397.012238
 20
116.947227
  0
VERTEX
  8
OBRYS
 10
397.697418
 20
116.837975
  0
VERTEX
  8
OBRYS
 10
398.017242
 20
116.514915
  0
VERTEX
  8
OBRYS
 10
397.957703
 20
115.992271
  0
VERTEX
  8
OBRYS
 10
397.521454
 20
115.292870
  0
VERTEX
  8
OBRYS
 10
396.928192
 20
114.660973
  0
VERTEX
  8
OBRYS
 10
396.812103
 20
114.447227
  0
VERTEX
  8
OBRYS
 10
392.701660
 20
108.640770
  0
VERTEX
  8
OBRYS
 10
390.922791
 20
103.206810
  0
VERTEX
  8
OBRYS
 10
391.270874
 20
97.912743
  0
VERTEX
  8
OBRYS
 10
393.816772
 20
92.333946
  0
VERTEX
  8
OBRYS
 10
397.040466
 20
88.447227
  0
VERTEX
  8
OBRYS
 10
397.613953
 20
87.492271
  0
VERTEX
  8
OBRYS
 10
397.815979
 20
86.469872
  0
VERTEX
  8
OBRYS
 10
397.726807
 20
85.947227
  0
VERTEX
  8
OBRYS
 10
397.815979
 20
85.424583
  0
VERTEX
  8
OBRYS
 10
397.613953
 20
84.402122
  0
VERTEX
  8
OBRYS
 10
397.040466
 20
83.447227
  0
VERTEX
  8
OBRYS
 10
393.816772
 20
79.560448
  0
VERTEX
  8
OBRYS
 10
391.270874
 20
73.981651
  0
VERTEX
  8
OBRYS
 10
390.922791
 20
68.687584
  0
VERTEX
  8
OBRYS
 10
392.701660
 20
63.253620
  0
VERTEX
  8
OBRYS
 10
396.812103
 20
57.447224
  0
VERTEX
  8
OBRYS
 10
396.928192
 20
57.233418
  0
VERTEX
  8
OBRYS
 10
397.521454
 20
56.601582
  0
VERTEX
  8
OBRYS
 10
397.957703
 20
55.902119
  0
VERTEX
  8
OBRYS
 10
398.017242
 20
55.379475
  0
VERTEX
  8
OBRYS
 10
397.697418
 20
55.056477
  0
VERTEX
  8
OBRYS
 10
397.012238
 20
54.947224
  0
VERTEX
  8
OBRYS
 10
395.231506
 20
54.947224
  0
VERTEX
  8
OBRYS
 10
391.859497
 20
54.947224
  0
VERTEX
  8
OBRYS
 10
390.830048
 20
54.947224
  0
SEQEND
  8
OBRYS
  0
LINE
  8
OBRYS
 10
433.396033
 20
116.947208
 11
433.396033
 21
114.447208
  0
LINE
  8
OBRYS
 10
307.396033
 20
116.947208
 11
307.396033
 21
114.447208
  0
LINE
  8
OBRYS
 10
433.396033
 20
88.447208
 11
433.396033
 21
83.447208
  0
LINE
  8
OBRYS
 10
433.396033
 20
57.447208
 11
433.396033
 21
54.947208
  0
LINE
  8
OBRYS
 10
323.015473
 20
116.947208
 11
341.962019
 21
116.947208
  0
LINE
  8
OBRYS
 10
390.830046
 20
116.947208
 11
409.776592
 21
116.947208
  0
LINE
  8
OBRYS
 10
341.962019
 20
54.947208
 11
323.015473
 21
54.947208
  0
LINE
  8
OBRYS
 10
409.776592
 20
54.947208
 11
390.830046
 21
54.947208
  0
LINE
  8
OBRYS
 10
397.012248
 20
116.947208
 11
433.396033
 21
116.947208
  0
LINE
  8
OBRYS
 10
335.779818
 20
116.947208
 11
307.396033
 21
116.947208
  0
LINE
  8
OBRYS
 10
433.396033
 20
114.447208
 11
396.812099
 21
114.447208
  0
LINE
  8
OBRYS
 10
307.396033
 20
114.447208
 11
335.979966
 21
114.447208
  0
LINE
  8
OBRYS
 10
433.396033
 20
88.447208
 11
397.040481
 21
88.447208
  0
LINE
  8
OBRYS
 10
433.396033
 20
114.447208
 11
433.396033
 21
88.447208
  0
LINE
  8
OBRYS
 10
307.396033
 20
88.447208
 11
335.751585
 21
88.447208
  0
LINE
  8
OBRYS
 10
307.396033
 20
114.447208
 11
307.396033
 21
88.447208
  0
LINE
  8
OBRYS
 10
433.396033
 20
83.447208
 11
397.040481
 21
83.447208
  0
LINE
  8
OBRYS
 10
307.396033
 20
83.447208
 11
335.751585
 21
83.447208
  0
LINE
  8
OBRYS
 10
433.396033
 20
57.447208
 11
396.812099
 21
57.447208
  0
LINE
  8
OBRYS
 10
433.396033
 20
83.447208
 11
433.396033
 21
57.447208
  0
LINE
  8
OBRYS
 10
307.396033
 20
57.447208
 11
335.979966
 21
57.447208
  0
LINE
  8
OBRYS
 10
433.396033
 20
54.947208
 11
397.012248
 21
54.947208
  0
LINE
  8
OBRYS
 10
424.396033
 20
53.947208
 11
424.396033
 21
54.947208
  0
LINE
  8
OBRYS
 10
424.396033
 20
122.447208
 11
424.396033
 21
116.947208
  0
LINE
  8
OBRYS
 10
424.396033
 20
49.447208
 11
424.396033
 21
54.947208
  0
LINE
  8
OBRYS
 10
307.396033
 20
83.447208
 11
307.396033
 21
54.947208
  0
LINE
  8
OBRYS
 10
307.396033
 20
54.947208
 11
335.779818
 21
54.947208
  0
LINE
  8
OSA
 10
290.239394
 20
85.947208
 11
318.396033
 21
85.947208
  0
LINE
  8
OSA
 10
368.396033
 20
517.304915
 11
368.396033
 21
466.095987
  0
LINE
  8
OBRYS
 10
424.396033
 20
429.595987
 11
424.396033
 21
435.095987
  0
LINE
  8
OSA
 62
     2
  6
CONTINUOUS
 10
397.896033
 20
417.095987
 11
394.896033
 21
417.095987
  0
LINE
  8
OSA
 62
     2
  6
CONTINUOUS
 10
398.396033
 20
417.595987
 11
397.896033
 21
417.095987
  0
LINE
  8
OSA
 62
     2
  6
CONTINUOUS
 10
338.396033
 20
417.595987
 11
338.396033
 21
419.595987
  0
LINE
  8
OSA
 62
     2
  6
CONTINUOUS
 10
338.896033
 20
417.095987
 11
368.396033
 21
417.095987
  0
LINE
  8
OSA
 62
     2
  6
CONTINUOUS
 10
338.896033
 20
417.095987
 11
338.396033
 21
417.595987
  0
ARC
  8
OBRYS
 10
422.396033
 20
429.595987
 40
2.000000
 50
270.000000
 51
360.000000
  0
LINE
  8
OSA
 62
     2
  6
CONTINUOUS
 10
394.896033
 20
417.095987
 11
368.396033
 21
417.095987
  0
LINE
  8
OBRYS
 10
368.396033
 20
427.595987
 11
422.396033
 21
427.595987
  0
LINE
  8
OSA
 62
     2
  6
CONTINUOUS
 10
397.896033
 20
417.095987
 11
398.396033
 21
417.595987
  0
LINE
  8
OSA
 62
     2
  6
CONTINUOUS
 10
398.396033
 20
417.595987
 11
398.396033
 21
419.595987
  0
ARC
  8
OBRYS
 10
342.208061
 20
421.595987
 40
2.000000
 50
213.167665
 51
270.000000
  0
ARC
  8
OBRYS
 10
335.341204
 20
421.595987
 40
2.000000
 50
197.164833
 51
270.000000
  0
LINE
  8
OBRYS
 10
333.430285
 20
421.005743
 11
331.830140
 21
426.186230
  0
ARC
  8
OBRYS
 10
329.919221
 20
425.595987
 40
2.000000
 50
17.164833
 51
90.000000
  0
LINE
  8
OBRYS
 10
340.533915
 20
420.501805
 11
336.489350
 21
426.690169
  0
ARC
  8
OBRYS
 10
316.365061
 20
424.595987
 40
3.000000
 50
9.594068
 51
90.000000
  0
LINE
  8
OBRYS
 10
319.323101
 20
425.095987
 11
332.166894
 21
425.095987
  0
LINE
  8
OBRYS
 10
365.211815
 20
427.595987
 11
365.038535
 21
425.095987
  0
LINE
  8
OBRYS
 10
371.580251
 20
427.595987
 11
371.753530
 21
425.095987
  0
LINE
  8
OBRYS
 10
417.468964
 20
425.095987
 11
404.625172
 21
425.095987
  0
ARC
  8
OBRYS
 10
420.427004
 20
424.595987
 40
3.000000
 50
90.000000
 51
170.405932
  0
ARC
  8
OBRYS
 10
401.976862
 20
425.595987
 40
2.000000
 50
90.000000
 51
146.832335
  0
LINE
  8
OBRYS
 10
396.258150
 20
420.501805
 11
400.302716
 21
426.690169
  0
ARC
  8
OBRYS
 10
406.872845
 20
425.595987
 40
2.000000
 50
90.000000
 51
162.835167
  0
LINE
  8
OBRYS
 10
403.361780
 20
421.005743
 11
404.961925
 21
426.186230
  0
ARC
  8
OBRYS
 10
401.450861
 20
421.595987
 40
2.000000
 50
270.000000
 51
342.835167
  0
ARC
  8
OBRYS
 10
394.584004
 20
421.595987
 40
2.000000
 50
270.000000
 51
326.832335
  0
LINE
  8
OBRYS
 10
348.990903
 20
425.095987
 11
387.801162
 21
425.095987
  0
LINE
  8
OBRYS
 10
335.341204
 20
419.595987
 11
362.055954
 21
419.595987
  0
LINE
  8
OBRYS
 10
374.736112
 20
419.595987
 11
401.450861
 21
419.595987
  0
LINE
  8
OBRYS
 10
362.055954
 20
419.595987
 11
362.055954
 21
417.095987
  0
LINE
  8
OBRYS
 10
374.736112
 20
419.595987
 11
374.736112
 21
417.095987
  0
LINE
  8
OBRYS
 10
424.396033
 20
502.595987
 11
424.396033
 21
497.095987
  0
ARC
  8
OBRYS
 10
394.584004
 20
510.595987
 40
2.000000
 50
33.167665
 51
90.000000
  0
ARC
  8
OBRYS
 10
401.450861
 20
510.595987
 40
2.000000
 50
17.164833
 51
90.000000
  0
LINE
  8
OBRYS
 10
403.361780
 20
511.186230
 11
404.961925
 21
506.005743
  0
ARC
  8
OBRYS
 10
406.872845
 20
506.595987
 40
2.000000
 50
197.164833
 51
270.000000
  0
LINE
  8
OBRYS
 10
396.258150
 20
511.690169
 11
400.302716
 21
505.501805
  0
ARC
  8
OBRYS
 10
401.976862
 20
506.595987
 40
2.000000
 50
213.167665
 51
270.000000
  0
ARC
  8
OBRYS
 10
420.427004
 20
507.595987
 40
3.000000
 50
189.594068
 51
270.000000
  0
LINE
  8
OBRYS
 10
417.468964
 20
507.095987
 11
404.625172
 21
507.095987
  0
LINE
  8
OBRYS
 10
371.580251
 20
504.595987
 11
371.753530
 21
507.095987
  0
LINE
  8
OBRYS
 10
365.211815
 20
504.595987
 11
365.038535
 21
507.095987
  0
LINE
  8
OBRYS
 10
319.323101
 20
507.095987
 11
332.166894
 21
507.095987
  0
LINE
  8
OBRYS
 10
314.554395
 20
504.595987
 11
368.396033
 21
504.595987
  0
ARC
  8
OBRYS
 10
334.815203
 20
506.595987
 40
2.000000
 50
270.000000
 51
326.832335
  0
LINE
  8
OBRYS
 10
340.533915
 20
511.690169
 11
336.489350
 21
505.501805
  0
ARC
  8
OBRYS
 10
329.919221
 20
506.595987
 40
2.000000
 50
270.000000
 51
342.835167
  0
LINE
  8
OBRYS
 10
333.430285
 20
511.186230
 11
331.830140
 21
506.005743
  0
ARC
  8
OBRYS
 10
335.341204
 20
510.595987
 40
2.000000
 50
90.000000
 51
162.835167
  0
ARC
  8
OBRYS
 10
342.208061
 20
510.595987
 40
2.000000
 50
90.000000
 51
146.832335
  0
LINE
  8
OBRYS
 10
368.396033
 20
504.595987
 11
422.396033
 21
504.595987
  0
ARC
  8
OBRYS
 10
422.396033
 20
502.595987
 40
2.000000
 50
0.000000
 51
90.000000
  0
ARC
  8
OSA
 62
     2
  6
CONTINUOUS
 10
314.554395
 20
502.595987
 40
2.000000
 50
90.000000
 51
178.000000
  0
LINE
  8
OSA
 62
     2
  6
CONTINUOUS
 10
312.394135
 20
498.041639
 11
312.555614
 21
502.665786
  0
ARC
  8
OBRYS
 10
316.365061
 20
507.595987
 40
3.000000
 50
270.000000
 51
350.405932
  0
LINE
  8
OBRYS
 10
307.396033
 20
435.095987
 11
312.420396
 21
435.095987
  0
LINE
  8
OBRYS
 10
433.396033
 20
497.095987
 11
433.396033
 21
435.095987
  0
LINE
  8
OBRYS
 10
433.396033
 20
435.095987
 11
424.371669
 21
435.095987
  0
LINE
  8
OBRYS
 10
431.444007
 20
471.095988
 11
417.665530
 21
471.095988
  0
LINE
  8
OBRYS
 10
431.444007
 20
461.095985
 11
417.665530
 21
461.095985
  0
LINE
  8
OBRYS
 10
307.396033
 20
497.095987
 11
307.396033
 21
435.095987
  0
LINE
  8
OBRYS
 10
309.009520
 20
461.095985
 11
319.126535
 21
461.095985
  0
LINE
  8
OBRYS
 10
309.009520
 20
471.095988
 11
319.126535
 21
471.095988
  0
LINE
  8
OBRYS
 10
307.396033
 20
497.095987
 11
312.396033
 21
497.095987
  0
LINE
  8
OBRYS
 10
424.396033
 20
497.095987
 11
433.396033
 21
497.095987
  0
LINE
  8
OBRYS
 10
312.396033
 20
436.095987
 11
312.554395
 21
429.595987
  0
ARC
  8
OSA
 62
     2
  6
CONTINUOUS
 10
314.554395
 20
429.595987
 40
2.000000
 50
182.000000
 51
270.000000
  0
LINE
  8
OBRYS
 10
422.396033
 20
438.095987
 11
314.396033
 21
438.095987
  0
ARC
  8
OBRYS
 10
314.396033
 20
436.095987
 40
2.000000
 50
90.000000
 51
180.000000
  0
ARC
  8
0
 62
     2
 10
318.396033
 20
440.095987
 40
2.000000
 50
270.000000
 51
360.000000
  0
LINE
  8
0
 62
     2
 10
320.396033
 20
475.161382
 11
320.396033
 21
440.095987
  0
LINE
  8
OBRYS
 10
312.396033
 20
499.095987
 11
312.396033
 21
495.730376
  0
LINE
  8
OBRYS
 10
423.396033
 20
494.730376
 11
313.396033
 21
494.730376
  0
ARC
  8
OBRYS
 10
313.396033
 20
495.730376
 40
1.000000
 50
180.000000
 51
270.000000
  0
INSERT
  8
OSA
 66
     1
  2
Sroub_M10x16_9
  6
CONTINUOUS
 10
368.396033
 20
466.095987
  0
ATTRIB
  8
OSA
  6
CONTINUOUS
 10
0.000000
 20
0.000000
 40
2.500000
  1
DIN 912
  2
norma roz.
 70
     1
  0
ATTRIB
  8
OSA
  6
CONTINUOUS
 10
0.000000
 20
0.000000
 40
2.500000
  1
1.5
  2
roztec
 70
     1
  0
ATTRIB
  8
OSA
  6
CONTINUOUS
 10
0.000000
 20
0.000000
 40
2.500000
  1
*N
  2
puvod
 70
     1
  0
SEQEND
  8
OSA
  0
CIRCLE
  8
OBRYS
 10
368.396033
 20
466.095987
 40
9.000000
  0
LINE
  8
OBRYS
 10
326.462966
 20
480.095987
 11
326.462966
 21
494.730376
  0
ARC
  8
OBRYS
 10
321.462966
 20
480.095987
 40
5.000000
 50
270.000000
 51
360.000000
  0
LINE
  8
OBRYS
 10
316.202056
 20
480.095987
 11
316.202056
 21
494.730376
  0
ARC
  8
OBRYS
 10
321.202056
 20
480.095987
 40
5.000000
 50
180.000000
 51
270.000000
  0
LINE
  8
OBRYS
 10
355.261863
 20
481.095987
 11
355.261863
 21
494.730376
  0
LINE
  8
OBRYS
 10
343.261863
 20
481.095987
 11
343.261863
 21
494.730376
  0
ARC
  8
OBRYS
 10
349.261863
 20
481.095987
 40
6.000000
 50
270.000000
 51
360.000000
  0
ARC
  8
OBRYS
 10
349.261863
 20
481.095987
 40
6.000000
 50
180.000000
 51
270.000000
  0
LINE
  8
OBRYS
 10
424.396033
 20
433.095987
 11
424.396033
 21
436.274229
  0
LINE
  8
OBRYS
 10
424.396033
 20
499.095987
 11
424.396033
 21
495.917744
  0
LINE
  8
OBRYS
 10
314.554395
 20
427.595987
 11
368.396033
 21
427.595987
  0
LINE
  8
0
 62
     2
 10
416.396033
 20
475.161382
 11
416.396033
 21
440.095987
  0
LINE
  8
OBRYS
 10
424.396033
 20
498.095987
 11
424.396033
 21
495.730376
  0
ARC
  8
OBRYS
 10
415.590009
 20
480.095987
 40
5.000000
 50
270.000000
 51
360.000000
  0
LINE
  8
OBRYS
 10
415.329100
 20
475.095987
 11
415.590009
 21
475.095987
  0
LINE
  8
OBRYS
 10
420.590009
 20
480.095987
 11
420.590009
 21
494.730376
  0
ARC
  8
OBRYS
 10
415.329100
 20
480.095987
 40
5.000000
 50
180.000000
 51
270.000000
  0
LINE
  8
OBRYS
 10
410.329100
 20
480.095987
 11
410.329100
 21
494.730376
  0
ARC
  8
OBRYS
 10
387.530202
 20
481.095987
 40
6.000000
 50
270.000000
 51
360.000000
  0
ARC
  8
OBRYS
 10
387.530202
 20
481.095987
 40
6.000000
 50
180.000000
 51
270.000000
  0
LINE
  8
OBRYS
 10
393.530202
 20
481.095987
 11
393.530202
 21
494.730376
  0
LINE
  8
OBRYS
 10
381.530202
 20
481.095987
 11
381.530202
 21
494.730376
  0
ARC
  8
OBRYS
 10
423.396033
 20
495.730376
 40
1.000000
 50
270.000000
 51
360.000000
  0
LINE
  8
POMOC
 62
     2
  6
CONTINUOUS
 10
424.396033
 20
498.095987
 11
368.396033
 21
498.095987
  0
LINE
  8
OSA
 10
368.396033
 20
414.187189
 11
368.396033
 21
466.095987
  0
ARC
  8
OBRYS
 10
422.396033
 20
436.095987
 40
2.000000
 50
0.000000
 51
90.000000
  0
ARC
  8
0
 62
     2
 10
418.396033
 20
440.095987
 40
2.000000
 50
180.000000
 51
270.000000
  0
LINE
  8
NEVIDITELNA
 10
416.396033
 20
474.095987
 11
416.396033
 21
452.095987
  0
LINE
  8
POMOC
 62
     2
  6
CONTINUOUS
 10
312.396033
 20
498.095987
 11
368.396033
 21
498.095987
  0
LINE
  8
OBRYS
 10
312.394111
 20
498.042231
 11
312.395972
 21
498.095987
  0
LINE
  8
OSA
 10
290.049885
 20
466.095987
 11
436.428870
 21
466.095987
  0
ARC
  8
OBRYS
 10
783.321731
 20
156.225779
 40
70.000000
 50
108.283383
 51
117.662807
  0
ARC
  8
OBRYS
 10
783.321731
 20
255.225779
 40
50.000000
 50
221.652443
 51
228.347557
  0
ARC
  8
OBRYS
 10
783.321731
 20
255.225779
 40
50.000000
 50
131.652443
 51
138.347557
  0
ARC
  8
OBRYS
 10
783.321731
 20
255.225779
 40
50.000000
 50
41.652443
 51
48.347557
  0
ARC
  8
OSA
 62
     2
  6
CONTINUOUS
 10
783.321731
 20
255.225779
 40
44.000000
 50
218.299700
 51
231.700300
  0
ARC
  8
OSA
 62
     2
  6
CONTINUOUS
 10
783.321731
 20
255.225779
 40
44.000000
 50
128.299700
 51
141.700300
  0
ARC
  8
OSA
 62
     2
  6
CONTINUOUS
 10
783.321731
 20
255.225779
 40
44.000000
 50
38.299700
 51
51.700300
  0
ARC
  8
OSA
 62
     2
  6
CONTINUOUS
 10
783.321731
 20
255.225779
 40
44.000000
 50
308.299700
 51
321.700300
  0
ARC
  8
OSA
 62
     2
  6
CONTINUOUS
 10
783.321731
 20
255.225779
 40
30.000000
 50
192.200655
 51
257.580550
  0
ARC
  8
OSA
 62
     2
  6
CONTINUOUS
 10
783.321731
 20
255.225779
 40
30.000000
 50
102.200655
 51
167.799345
  0
ARC
  8
OSA
 62
     2
  6
CONTINUOUS
 10
783.321731
 20
255.225779
 40
30.000000
 50
12.200655
 51
77.799345
  0
ARC
  8
OSA
 62
     2
  6
CONTINUOUS
 10
783.321731
 20
255.225779
 40
30.000000
 50
282.419450
 51
347.799345
  0
ARC
  8
OBRYS
 10
733.591218
 20
250.041561
 40
2.000000
 50
65.973924
 51
185.951372
  0
ARC
  8
OBRYS
 10
778.137513
 20
304.956292
 40
2.000000
 50
335.973924
 51
95.951372
  0
ARC
  8
OBRYS
 10
833.052243
 20
260.409997
 40
2.000000
 50
245.973924
 51
5.951372
  0
ARC
  8
OBRYS
 10
783.321731
 20
255.225779
 40
52.000000
 50
185.951372
 51
219.153739
  0
ARC
  8
OBRYS
 10
783.321731
 20
255.225779
 40
52.000000
 50
95.951372
 51
129.153739
  0
ARC
  8
OBRYS
 10
783.321731
 20
255.225779
 40
52.000000
 50
5.951372
 51
39.153739
  0
ARC
  8
OBRYS
 10
744.549003
 20
223.655609
 40
2.000000
 50
219.153739
 51
332.337193
  0
ARC
  8
OBRYS
 10
751.751561
 20
293.998506
 40
2.000000
 50
129.153739
 51
242.337193
  0
ARC
  8
OBRYS
 10
822.094458
 20
286.795949
 40
2.000000
 50
39.153739
 51
152.337193
  0
ARC
  8
OBRYS
 10
783.321731
 20
255.225779
 40
52.000000
 50
140.846261
 51
174.048628
  0
ARC
  8
OBRYS
 10
783.321731
 20
255.225779
 40
52.000000
 50
50.846261
 51
84.048628
  0
ARC
  8
OBRYS
 10
783.321731
 20
255.225779
 40
52.000000
 50
320.846261
 51
354.048628
  0
ARC
  8
OBRYS
 10
733.591218
 20
260.409997
 40
2.000000
 50
174.048628
 51
294.026076
  0
ARC
  8
OBRYS
 10
788.505949
 20
304.956292
 40
2.000000
 50
84.048628
 51
204.026076
  0
ARC
  8
OBRYS
 10
833.052243
 20
250.041561
 40
2.000000
 50
354.048628
 51
114.026076
  0
ARC
  8
OBRYS
 10
744.549003
 20
286.795949
 40
2.000000
 50
27.662807
 51
140.846261
  0
ARC
  8
OBRYS
 10
814.891901
 20
293.998506
 40
2.000000
 50
297.662807
 51
50.846261
  0
ARC
  8
OBRYS
 10
822.094458
 20
223.655609
 40
2.000000
 50
207.662807
 51
320.846261
  0
ARC
  8
OBRYS
 10
713.318159
 20
325.229350
 40
70.000000
 50
287.337193
 51
296.716617
  0
ARC
  8
OBRYS
 10
853.325302
 20
325.229350
 40
70.000000
 50
197.337193
 51
206.716617
  0
ARC
  8
OBRYS
 10
853.325302
 20
185.222208
 40
70.000000
 50
107.337193
 51
116.716617
  0
ARC
  8
OBRYS
 10
739.393688
 20
273.421370
 40
12.000000
 50
296.716617
 51
18.283383
  0
ARC
  8
OBRYS
 10
801.517322
 20
299.153822
 40
12.000000
 50
206.716617
 51
288.283383
  0
ARC
  8
OBRYS
 10
827.249774
 20
237.030188
 40
12.000000
 50
116.716617
 51
198.283383
  0
ARC
  8
OBRYS
 10
684.321731
 20
255.225779
 40
70.000000
 50
18.283383
 51
27.662807
  0
ARC
  8
OBRYS
 10
783.321731
 20
354.225779
 40
70.000000
 50
288.283383
 51
297.662807
  0
ARC
  8
OBRYS
 10
882.321731
 20
255.225779
 40
70.000000
 50
198.283383
 51
207.662807
  0
ARC
  8
OBRYS
 10
713.318159
 20
185.222208
 40
70.000000
 50
63.283383
 51
72.662807
  0
ARC
  8
OBRYS
 10
713.318159
 20
325.229350
 40
70.000000
 50
333.283383
 51
342.662807
  0
ARC
  8
OBRYS
 10
853.325302
 20
325.229350
 40
70.000000
 50
243.283383
 51
252.662807
  0
ARC
  8
OBRYS
 10
684.321731
 20
255.225779
 40
70.000000
 50
332.337193
 51
341.716617
  0
ARC
  8
OBRYS
 10
783.321731
 20
354.225779
 40
70.000000
 50
242.337193
 51
251.716617
  0
ARC
  8
OBRYS
 10
882.321731
 20
255.225779
 40
70.000000
 50
152.337193
 51
161.716617
  0
ARC
  8
OBRYS
 10
739.393688
 20
237.030188
 40
12.000000
 50
341.716617
 51
63.283383
  0
ARC
  8
OBRYS
 10
765.126140
 20
299.153822
 40
12.000000
 50
251.716617
 51
333.283383
  0
ARC
  8
OBRYS
 10
827.249774
 20
273.421370
 40
12.000000
 50
161.716617
 51
243.283383
  0
ARC
  8
OBRYS
 10
691.821731
 20
255.225779
 40
62.500000
 50
342.313290
 51
17.686710
  0
ARC
  8
OBRYS
 10
783.321731
 20
346.725779
 40
62.500000
 50
252.313290
 51
287.686710
  0
ARC
  8
OBRYS
 10
874.821731
 20
255.225779
 40
62.500000
 50
162.313290
 51
197.686710
  0
ARC
  8
OBRYS
 10
783.321731
 20
163.725779
 40
62.500000
 50
72.313290
 51
107.686710
  0
ARC
  8
OBRYS
 10
801.517322
 20
211.297736
 40
12.000000
 50
71.716617
 51
153.283383
  0
ARC
  8
OBRYS
 10
783.321731
 20
156.225779
 40
70.000000
 50
62.337193
 51
71.716617
  0
ARC
  8
OBRYS
 10
853.325302
 20
185.222208
 40
70.000000
 50
153.283383
 51
162.662807
  0
ARC
  8
OBRYS
 10
765.126140
 20
211.297736
 40
12.000000
 50
26.716617
 51
108.283383
  0
ARC
  8
OBRYS
 10
713.318159
 20
185.222208
 40
70.000000
 50
17.337193
 51
26.716617
  0
ARC
  8
OBRYS
 10
751.751561
 20
216.453052
 40
2.000000
 50
117.662807
 51
230.846261
  0
ARC
  8
OBRYS
 10
778.137513
 20
205.495267
 40
2.000000
 50
264.048628
 51
24.026076
  0
ARC
  8
OBRYS
 10
783.321731
 20
255.225779
 40
52.000000
 50
230.846261
 51
264.048628
  0
ARC
  8
OBRYS
 10
814.891901
 20
216.453052
 40
2.000000
 50
309.153739
 51
62.337193
  0
ARC
  8
OBRYS
 10
783.321731
 20
255.225779
 40
52.000000
 50
275.951372
 51
309.153739
  0
ARC
  8
OBRYS
 10
788.505949
 20
205.495267
 40
2.000000
 50
155.973924
 51
275.951372
  0
LINE
  8
OBRYS
 10
743.321731
 20
340.247993
 11
750.288410
 21
336.225779
  0
LINE
  8
OBRYS
 10
823.321731
 20
340.247993
 11
816.355052
 21
336.225779
  0
LINE
  8
OBRYS
 10
750.288410
 20
336.225779
 11
816.355052
 21
336.225779
  0
LINE
  8
0
 62
     2
 10
750.288410
 20
336.225779
 11
750.288410
 21
300.445241
  0
LINE
  8
0
 62
     2
 10
816.355052
 20
336.225779
 11
816.355052
 21
300.445241
  0
LINE
  8
OBRYS
 10
734.290760
 20
258.064308
 11
734.290760
 21
252.431553
  0
LINE
  8
OBRYS
 10
786.160259
 20
304.256750
 11
780.527504
 21
304.256750
  0
LINE
  8
OBRYS
 10
832.352702
 20
252.387251
 11
832.352702
 21
258.020005
  0
LINE
  8
OBRYS
 10
780.483202
 20
206.194808
 11
786.115957
 21
206.194808
  0
LINE
  8
0
 62
     2
 10
844.321731
 20
290.214672
 11
827.045607
 21
290.214672
  0
LINE
  8
0
 62
     2
 10
844.321731
 20
285.884545
 11
830.183656
 21
285.884545
  0
LINE
  8
0
 62
     2
 10
844.321731
 20
270.873438
 11
837.091153
 21
270.873438
  0
LINE
  8
0
 62
     2
 10
844.321731
 20
324.567013
 11
822.359576
 21
324.567013
  0
LINE
  8
0
 62
     2
 10
844.321731
 20
320.236886
 11
822.559724
 21
320.236886
  0
LINE
  8
0
 62
     2
 10
844.321731
 20
339.578120
 11
822.587957
 21
339.578120
  0
POLYLINE
  8
0
 62
     2
 66
    1
  0
VERTEX
  8
0
 62
     2
 10
817.289734
 20
299.747498
  0
VERTEX
  8
0
 62
     2
 10
816.355164
 20
305.225769
  0
VERTEX
  8
0
 62
     2
 10
817.407166
 20
311.392029
  0
VERTEX
  8
0
 62
     2
 10
820.779114
 20
318.066406
  0
VERTEX
  8
0
 62
     2
 10
822.559875
 20
320.236877
  0
VERTEX
  8
0
 62
     2
 10
823.245056
 20
321.276428
  0
VERTEX
  8
0
 62
     2
 10
823.564880
 20
322.270569
  0
VERTEX
  8
0
 62
     2
 10
823.505310
 20
323.175781
  0
VERTEX
  8
0
 62
     2
 10
823.069031
 20
323.952576
  0
VERTEX
  8
0
 62
     2
 10
822.475769
 20
324.411682
  0
VERTEX
  8
0
 62
     2
 10
822.359680
 20
324.567017
  0
VERTEX
  8
0
 62
     2
 10
818.249329
 20
327.919281
  0
VERTEX
  8
0
 62
     2
 10
816.470398
 20
331.056610
  0
VERTEX
  8
0
 62
     2
 10
816.818542
 20
334.113129
  0
VERTEX
  8
0
 62
     2
 10
819.364441
 20
337.334076
  0
VERTEX
  8
0
 62
     2
 10
822.588074
 20
339.578094
  0
VERTEX
  8
0
 62
     2
 10
823.161560
 20
340.003204
  0
VERTEX
  8
0
 62
     2
 10
823.363586
 20
340.220551
  0
VERTEX
  8
0
 62
     2
 10
823.274475
 20
340.220551
  0
SEQEND
  8
0
  0
POLYLINE
  8
0
 62
     2
 66
    1
  0
VERTEX
  8
0
 62
     2
 10
749.353943
 20
299.747498
  0
VERTEX
  8
0
 62
     2
 10
750.288513
 20
305.225769
  0
VERTEX
  8
0
 62
     2
 10
749.236633
 20
311.392029
  0
VERTEX
  8
0
 62
     2
 10
745.864563
 20
318.066406
  0
VERTEX
  8
0
 62
     2
 10
744.083801
 20
320.236877
  0
VERTEX
  8
0
 62
     2
 10
743.398621
 20
321.276428
  0
VERTEX
  8
0
 62
     2
 10
743.078918
 20
322.270569
  0
VERTEX
  8
0
 62
     2
 10
743.138367
 20
323.175781
  0
VERTEX
  8
0
 62
     2
 10
743.574646
 20
323.952576
  0
VERTEX
  8
0
 62
     2
 10
744.167908
 20
324.411682
  0
VERTEX
  8
0
 62
     2
 10
744.283997
 20
324.567017
  0
VERTEX
  8
0
 62
     2
 10
748.394470
 20
327.919281
  0
VERTEX
  8
0
 62
     2
 10
750.173279
 20
331.056610
  0
VERTEX
  8
0
 62
     2
 10
749.825256
 20
334.113129
  0
VERTEX
  8
0
 62
     2
 10
747.279358
 20
337.334076
  0
VERTEX
  8
0
 62
     2
 10
744.055603
 20
339.578094
  0
VERTEX
  8
0
 62
     2
 10
743.482117
 20
340.003204
  0
VERTEX
  8
0
 62
     2
 10
743.280090
 20
340.220551
  0
VERTEX
  8
0
 62
     2
 10
743.369324
 20
340.220551
  0
SEQEND
  8
0
  0
LINE
  8
0
 62
     2
 10
718.321731
 20
290.214672
 11
739.597854
 21
290.214672
  0
LINE
  8
0
 62
     2
 10
718.321731
 20
285.884545
 11
736.459805
 21
285.884545
  0
LINE
  8
0
 62
     2
 10
718.321731
 20
270.873438
 11
729.552308
 21
270.873438
  0
LINE
  8
0
 62
     2
 10
718.321731
 20
339.578120
 11
744.055504
 21
339.578120
  0
LINE
  8
0
 62
     2
 10
718.321731
 20
324.567013
 11
744.283886
 21
324.567013
  0
LINE
  8
0
 62
     2
 10
718.321731
 20
320.236886
 11
744.083738
 21
320.236886
  0
LINE
  8
OBRYS
 10
844.321731
 20
340.247993
 11
823.321731
 21
340.247993
  0
LINE
  8
OBRYS
 10
718.321731
 20
340.247993
 11
743.321731
 21
340.247993
  0
LINE
  8
OBRYS
 10
718.321731
 20
270.203565
 11
729.361876
 21
270.203565
  0
LINE
  8
OBRYS
 10
718.321731
 20
270.203565
 11
718.321731
 21
340.247993
  0
LINE
  8
OBRYS
 10
844.321731
 20
270.203565
 11
837.281586
 21
270.203565
  0
LINE
  8
OBRYS
 10
844.321731
 20
270.203565
 11
844.321731
 21
340.247993
  0
ARC
  8
POMOC
 62
     2
  6
CONTINUOUS
 10
783.321731
 20
255.225779
 40
56.000000
 50
270.000000
 51
17.043847
  0
ARC
  8
POMOC
 62
     2
  6
CONTINUOUS
 10
783.321731
 20
255.225779
 40
56.000000
 50
162.956153
 51
270.000000
  0
ARC
  8
OBRYS
 10
783.321731
 20
255.225779
 40
50.000000
 50
86.560187
 51
93.347557
  0
ARC
  8
OBRYS
 10
783.321731
 20
255.225779
 40
50.000000
 50
356.560187
 51
3.347557
  0
ARC
  8
OBRYS
 10
783.321731
 20
255.225779
 40
50.000000
 50
266.560187
 51
273.347557
  0
ARC
  8
OBRYS
 10
783.321731
 20
255.225779
 40
50.000000
 50
176.560187
 51
183.347557
  0
ARC
  8
OBRYS
 10
783.321731
 20
255.225779
 40
50.000000
 50
311.652443
 51
318.347557
  0
LINE
  8
OSA
 10
783.321731
 20
249.225779
 11
783.321731
 21
196.225779
  0
LINE
  8
OSA
 10
789.321731
 20
255.225779
 11
842.321731
 21
255.225779
  0
LINE
  8
OSA
 10
783.321731
 20
252.225779
 11
783.321731
 21
258.225779
  0
LINE
  8
OSA
 10
780.321731
 20
255.225779
 11
786.321731
 21
255.225779
  0
LINE
  8
OSA
 10
783.321731
 20
305.225779
 11
841.321731
 21
305.225779
  0
LINE
  8
OSA
 10
783.321731
 20
305.225779
 11
719.564648
 21
305.225779
  0
CIRCLE
  8
OSA
 62
     2
  6
CONTINUOUS
 10
745.821731
 20
255.225779
 40
2.500000
  0
CIRCLE
  8
OSA
 62
     2
  6
CONTINUOUS
 10
783.321731
 20
217.725779
 40
2.500000
  0
CIRCLE
  8
OSA
 62
     2
  6
CONTINUOUS
 10
820.821731
 20
255.225779
 40
2.500000
  0
CIRCLE
  8
OSA
 62
     2
  6
CONTINUOUS
 10
783.321731
 20
292.725779
 40
2.500000
  0
ARC
  8
0
 10
783.321731
 20
217.725779
 40
3.000000
 50
213.435067
 51
134.888966
  0
ARC
  8
0
 10
820.821731
 20
255.225779
 40
3.000000
 50
303.435067
 51
224.888966
  0
ARC
  8
0
 10
783.321731
 20
292.725779
 40
3.000000
 50
33.435067
 51
314.888966
  0
CIRCLE
  8
OSA
 62
     2
  6
CONTINUOUS
 10
783.321731
 20
255.225779
 40
25.000000
  0
CIRCLE
  8
OSA
 62
     2
  6
CONTINUOUS
 10
783.321731
 20
255.225779
 40
56.000000
  0
CIRCLE
  8
OSA
 10
783.321731
 20
255.225779
 40
37.500000
  0
ARC
  8
0
 10
756.805226
 20
281.742283
 40
3.000000
 50
78.435067
 51
359.888966
  0
CIRCLE
  8
OSA
 62
     2
  6
CONTINUOUS
 10
756.805226
 20
281.742283
 40
2.500000
  0
ARC
  8
0
 10
756.805226
 20
228.709275
 40
3.000000
 50
168.435067
 51
89.888966
  0
CIRCLE
  8
OSA
 62
     2
  6
CONTINUOUS
 10
756.805226
 20
228.709275
 40
2.500000
  0
ARC
  8
0
 10
809.838235
 20
228.709275
 40
3.000000
 50
258.435067
 51
179.888966
  0
CIRCLE
  8
OSA
 62
     2
  6
CONTINUOUS
 10
809.838235
 20
228.709275
 40
2.500000
  0
ARC
  8
0
 10
809.838235
 20
281.742283
 40
3.000000
 50
348.435067
 51
269.888966
  0
CIRCLE
  8
OSA
 62
     2
  6
CONTINUOUS
 10
809.838235
 20
281.742283
 40
2.500000
  0
ARC
  8
OBRYS
 10
783.321731
 20
255.225779
 40
12.000000
 50
109.471221
 51
70.528779
  0
LINE
  8
OBRYS
 10
779.321731
 20
266.539488
 11
779.321731
 21
270.125779
  0
LINE
  8
OBRYS
 10
779.321731
 20
270.125779
 11
787.321731
 21
270.125779
  0
LINE
  8
OBRYS
 10
787.321731
 20
270.125779
 11
787.321731
 21
266.539488
  0
CIRCLE
  8
OBRYS
 10
783.321731
 20
255.225779
 40
17.500000
  0
LINE
  8
OBRYS
 10
844.321731
 20
332.025779
 11
844.321731
 21
340.253985
  0
LINE
  8
OSA
 10
863.321731
 20
305.225779
 11
836.321731
 21
305.225779
  0
LINE
  8
OBRYS
 10
844.321731
 20
278.425779
 11
844.321731
 21
270.197573
  0
LINE
  8
OSA
 10
777.321731
 20
255.225779
 11
767.049889
 21
255.225779
  0
ARC
  8
0
 10
745.821731
 20
255.225779
 40
3.000000
 50
33.435067
 51
314.888966
  0
LINE
  8
OSA
 10
783.321731
 20
266.823883
 11
783.321731
 21
347.815536
  0
LINE
  8
OSA
 10
759.662036
 20
255.225779
 11
721.379572
 21
255.225779
  0
ENDSEC
  0
EOF

