  0
SECTION
  2
HEADER
  9
$ACADVER
  1
AC1009
  9
$INSBASE
 10
0.0
 20
0.0
 30
0.0
  9
$LIMMIN
 10
0.0
 20
0.0
  9
$LIMMAX
 10
430.0000
 20
307.0000
  9
$EXTMIN
 10
99999999999999998000000000000000000000.0000
 20
99999999999999998000000000000000000000.0000
  9
$EXTMAX
 10
99999999999999998000000000000000000000.0000
 20
99999999999999998000000000000000000000.0000
  9
$VIEWCTR
 10
473.7605
 20
292.2420
  9
$VIEWSIZE
 40
779.8604
  9
$DIMLFAC
 40
0.6667
  9
$MEASUREMENT
 70
     1
  9
$DWGCODEPAGE
 3
ANSI_1250
  9
$CLAYER
  8
OSA
  9
$CELTYPE
  6
BYLAYER
  9
$CECOLOR
 62
  256
  9
$ORTHOMODE
 70
     0
  9
$REGENMODE
 70
     1
  9
$FILLMODE
 70
     1
  9
$QTEXTMODE
 70
     0
  9
$MIRRTEXT
 70
     1
  9
$DRAGMODE
 70
     2
  9
$LTSCALE
 40
1.0
  9
$OSMODE
 70
    37
  9
$ATTMODE
 70
     1
  9
$TEXTSIZE
 40
2.5
  9
$TRACEWID
 40
1.0
  9
$TEXTSTYLE
  7
STANDARD
  9
$CLAYER
  8
0
  9
$CELTYPE
  6
BYLAYER
  9
$CECOLOR
 62
   256
  9
$DIMSCALE
 40
1.0
  9
$DIMASZ
 40
2.5
  9
$DIMEXO
 40
0.625
  9
$DIMDLI
 40
3.75
  9
$DIMRND
 40
0.0
  9
$DIMDLE
 40
0.0
  9
$DIMEXE
 40
1.25
  9
$DIMTP
 40
0.0
  9
$DIMTM
 40
0.0
  9
$DIMTXT
 40
2.5
  9
$DIMCEN
 40
2.5
  9
$DIMTSZ
 40
0.0
  9
$DIMTOL
 70
     0
  9
$DIMLIM
 70
     0
  9
$DIMTIH
 70
     0
  9
$DIMTOH
 70
     0
  9
$DIMSE1
 70
     0
  9
$DIMSE2
 70
     0
  9
$DIMTAD
 70
     1
  9
$DIMZIN
 70
     8
  9
$DIMBLK
  1

  9
$DIMASO
 70
     1
  9
$DIMSHO
 70
     1
  9
$DIMPOST
  1

  9
$DIMAPOST
  1

  9
$DIMALT
 70
     0
  9
$DIMALTD
 70
     3
  9
$DIMALTF
 40
0.03937007874016
  9
$DIMTOFL
 70
     1
  9
$DIMTVP
 40
0.0
  9
$DIMTIX
 70
     0
  9
$DIMSOXD
 70
     0
  9
$DIMSAH
 70
     0
  9
$DIMBLK1
  1

  9
$DIMBLK2
  1

  9
$DIMSTYLE
  2
ISO-25
  9
$DIMCLRD
 70
     0
  9
$DIMCLRE
 70
     0
  9
$DIMCLRT
 70
     0
  9
$DIMTFAC
 40
1.0
  9
$DIMGAP
 40
0.625
  9
$LUNITS
 70
     2
  9
$LUPREC
 70
     4
  9
$SKETCHINC
 40
1.0
  9
$FILLETRAD
 40
10.0
  9
$AUNITS
 70
     0
  9
$AUPREC
 70
     0
  9
$MENU
  1
.
  9
$ELEVATION
 40
0.0
  9
$PELEVATION
 40
0.0
  9
$THICKNESS
 40
0.0
  9
$LIMCHECK
 70
     0
  9
$BLIPMODE
 70
     0
  9
$CHAMFERA
 40
10.0
  9
$CHAMFERB
 40
10.0
  9
$SKPOLY
 70
     0
  9
$TDCREATE
 40
2451579.5163292708
  9
$TDUPDATE
 40
2451579.6904035881
  9
$TDINDWG
 40
0.0082924769
  9
$TDUSRTIMER
 40
0.0082825116
  9
$USRTIMER
 70
     1
  9
$ANGBASE
 50
0.0
  9
$ANGDIR
 70
     0
  9
$PDMODE
 70
     0
  9
$PDSIZE
 40
0.0
  9
$PLINEWID
 40
0.0
  9
$COORDS
 70
     1
  9
$SPLFRAME
 70
     0
  9
$SPLINETYPE
 70
     6
  9
$SPLINESEGS
 70
     8
  9
$ATTDIA
 70
     0
  9
$ATTREQ
 70
     1
  9
$SURFTAB1
 70
     6
  9
$SURFTAB2
 70
     6
  9
$SURFTYPE
 70
     6
  9
$SURFU
 70
     6
  9
$SURFV
 70
     6
  9
$UCSNAME
  2

  9
$UCSORG
 10
0.0
 20
0.0
 30
0.0
  9
$UCSXDIR
 10
1.0
 20
0.0
 30
0.0
  9
$UCSYDIR
 10
0.0
 20
1.0
 30
0.0
  9
$PUCSNAME
  2

  9
$PUCSORG
 10
0.0
 20
0.0
 30
0.0
  9
$PUCSXDIR
 10
1.0
 20
0.0
 30
0.0
  9
$PUCSYDIR
 10
0.0
 20
1.0
 30
0.0
  9
$USERI1
 70
     0
  9
$USERI2
 70
     0
  9
$USERI3
 70
     0
  9
$USERI4
 70
     0
  9
$USERI5
 70
     0
  9
$USERR1
 40
0.0
  9
$USERR2
 40
0.0
  9
$USERR3
 40
0.0
  9
$USERR4
 40
0.0
  9
$USERR5
 40
0.0
  9
$WORLDVIEW
 70
     1
  9
$SHADEDGE
 70
     3
  9
$SHADEDIF
 70
    70
  9
$TILEMODE
 70
     1
  9
$MAXACTVP
 70
    64
  9
$PLIMCHECK
 70
     0
  9
$PEXTMIN
 10
1.0000000000000000E+020
 20
1.0000000000000000E+020
 30
1.0000000000000000E+020
  9
$PEXTMAX
 10
-1.0000000000000000E+020
 20
-1.0000000000000000E+020
 30
-1.0000000000000000E+020
  9
$PLIMMIN
 10
0.0
 20
0.0
  9
$PLIMMAX
 10
420.0
 20
297.0
  9
$UNITMODE
 70
     0
  9
$VISRETAIN
 70
     1
  9
$PLINEGEN
 70
     0
  9
$PSLTSCALE
 70
     1
  0
ENDSEC
  0
SECTION
  2
TABLES
  0
TABLE
  2
VPORT
 70
     2
  0
VPORT
  2
*ACTIVE
 70
     0
 10
0.0
 20
0.0
 11
1.0
 21
1.0
 12
473.7605
 22
292.2420
 13
0.0
 23
0.0
 14
10.0
 24
10.0
 15
10.0
 25
10.0
 16
0.0
 26
0.0
 36
1.0
 17
0.0
 27
0.0
 37
0.0
 40
779.8604
 41
1.6916
 42
50.0
 43
0.0
 44
0.0
 50
0.0
 51
0.0
 71
     0
 72
   100
 73
     1
 74
     3
 75
     0
 76
     0
 77
     0
 78
     0
  0
ENDTAB
  0
TABLE
  2
LTYPE
 70
     7
  0
LTYPE
  2
CONTINUOUS
 70
     0
  3
Solid line
 72
    65
 73
     0
 40
0.0
  0
LTYPE
  2
HIDDEN2
 70
     0
  3
Hidden (.5x) _ _ _ _ _ _ _ _ _ _ _ _ _ _ _ _ _
 72
    65
 73
     2
 40
5.1
 49
3.5
 49
-1.6
  0
LTYPE
  2
DASHDOT
 70
     0
  3
Dash dot __ . __ . __ . __ . __ . __ . __ . __
 72
    65
 73
     4
 40
10.4
 49
6.2
 49
-2.1
 49
0.0
 49
-2.1
  0
LTYPE
  2
DOT
 70
     0
  3
Dot . . . . . . . . . . . . . . . . . . . . . .
 72
    65
 73
     2
 40
2.2
 49
1.1
 49
-1.1
  0
LTYPE
  2
DASHED
 70
     0
  3
Dashed __ __ __ __ __ __ __ __ __ __ __ __ __ _
 72
    65
 73
     2
 40
11.049999999999979
 49
8.699999999999999
 49
-2.3499999999999979
  0
LTYPE
  2
PHANTOM2
 70
     0
  3
Phantom (.5x) ___ _ _ ___ _ _ ___ _ _ ___ _ _
 72
    65
 73
     6
 40
18.3
 49
7.8
 49
-2.1
 49
2.1
 49
-2.1
 49
2.1
 49
-2.1
  0
LTYPE
  2
CENTER
 70
     0
  3
Center ____ _ ____ _ ____ _ ____ _ ____ _ ____
 72
    65
 73
     4
 40
14.1
 49
7.8
 49
-2.1
 49
2.1
 49
-2.1
  0
ENDTAB
  0
TABLE
  2
LAYER
 70
     7
  0
LAYER
  2
0
 70
    64
 62
     7
  6
CONTINUOUS
  0
LAYER
  2
OBRYS
 70
    64
 62
     2
  6
CONTINUOUS
  0
LAYER
  2
OSA
 70
    64
 62
     7
  6
DASHDOT
  0
LAYER
  2
KOTA
 70
    64
 62
     3
  6
CONTINUOUS
  0
LAYER
  2
SRAFY
 70
    64
 62
     7
  6
CONTINUOUS
  0
LAYER
  2
POMOC
 70
    64
 62
     1
  6
DOT
  0
LAYER
  2
NEVIDITELNA
 70
    64
 62
     4
  6
HIDDEN2
  0
ENDTAB
  0
TABLE
  2
STYLE
 70
     1
  0
STYLE
  2
STANDARD
 70
     0
 40
0.0
 41
1.0
 50
0.0
 71
     0
 42
2.5
  3
txt
  4

  0
ENDTAB
  0
TABLE
  2
VIEW
 70
     0
  0
ENDTAB
  0
TABLE
  2
UCS
 70
     0
  0
ENDTAB
  0
TABLE
  2
APPID
 70
     1
  0
APPID
  2
ACAD
 70
     0
  0
ENDTAB
  0
TABLE
  2
DIMSTYLE
 70
     1
  0
DIMSTYLE
  2
ISO-25
 70
     0
  3

  4

  5

  6

  7

 40
1.0
 41
2.5
 42
0.625
 43
3.75
 44
1.25
 45
0.0
 46
0.0
 47
0.0
 48
0.0
140
2.5
141
2.5
142
0.0
143
0.03937007874016
144
1.0
145
0.0
146
1.0
147
0.625
 71
     0
 72
     0
 73
     0
 74
     0
 75
     0
 76
     0
 77
     1
 78
     8
170
     0
171
     3
172
     1
173
     0
174
     0
175
     0
176
     0
177
     0
178
     0
  0
ENDTAB
  0
ENDSEC
  0
SECTION
  2
BLOCKS
  0
BLOCK
  8
0
  2
$MODEL_SPACE
 70
     0
 10
0.0
 20
0.0
 30
0.0
  3
$MODEL_SPACE
  1

  0
ENDBLK
  8
0
  0
BLOCK
 67
     1
  8
0
  2
$PAPER_SPACE
 70
     0
 10
0.0
 20
0.0
 30
0.0
  3
$PAPER_SPACE
  1

  0
ENDBLK
 67
     1
  8
0
  0
BLOCK
  8
OBRYS
  2
_0
 70
   64
 10
307.396033
 20
305.225779
  0
ARC
  8
OBRYS
 10
277.396022
 20
323.492283
 40
2.000000
 50
90.000000
 51
180.000000
  0
ARC
  8
OBRYS
 10
277.396022
 20
327.492283
 40
2.000000
 50
270.000000
 51
360.000000
  0
INSERT
  8
OBRYS
  2
Srouby_s_valcovou_hlavou___1
 62
     7
 10
279.396022
 20
331.742283
  0
LINE
  8
OBRYS
 10
255.396022
 20
260.059112
 11
255.396022
 21
209.225779
  0
LINE
  8
OBRYS
 10
255.396022
 20
329.225779
 11
255.396022
 21
278.392446
  0
LINE
  8
OBRYS
 10
256.396022
 20
278.392446
 11
256.396022
 21
260.059112
  0
LINE
  8
OBRYS
 10
266.396022
 20
236.225779
 11
284.396022
 21
236.225779
  0
LINE
  8
OBRYS
 10
273.396022
 20
296.225779
 11
266.396022
 21
296.225779
  0
ARC
  8
OBRYS
 10
266.396022
 20
298.225779
 40
2.000000
 50
180.000000
 51
270.000000
  0
ARC
  8
OBRYS
 10
266.396022
 20
234.225779
 40
2.000000
 50
90.000000
 51
180.000000
  0
ARC
  8
OBRYS
 10
262.396022
 20
211.225779
 40
2.000000
 50
270.000000
 51
360.000000
  0
LINE
  8
OBRYS
 10
255.396022
 20
209.225779
 11
262.396022
 21
209.225779
  0
ARC
  8
OBRYS
 10
262.396022
 20
327.225779
 40
2.000000
 50
0.000000
 51
90.000000
  0
LINE
  8
OBRYS
 10
255.396022
 20
329.225779
 11
262.396022
 21
329.225779
  0
ARC
  8
OBRYS
 10
281.396022
 20
342.725779
 40
2.000000
 50
90.000000
 51
180.000000
  0
LINE
  8
OBRYS
 10
279.396022
 20
328.742283
 11
279.396022
 21
342.725779
  0
LINE
  8
OBRYS
 62
     7
  6
DASHDOT
 10
286.163470
 20
269.225779
 11
256.676390
 21
269.225779
  0
LINE
  8
OBRYS
 10
284.396022
 20
269.225779
 11
284.396022
 21
344.725779
  0
LINE
  8
OBRYS
 10
279.396022
 20
344.725779
 11
284.396022
 21
344.725779
  0
ARC
  8
OBRYS
 10
273.396022
 20
298.225779
 40
2.000000
 50
270.000000
 51
360.000000
  0
ARC
  8
OBRYS
 10
279.396022
 20
340.725779
 40
4.000000
 50
90.000000
 51
180.000000
  0
LINE
  8
OBRYS
 10
264.396022
 20
211.225779
 11
264.396022
 21
269.225779
  0
LINE
  8
OBRYS
 10
264.396022
 20
327.225779
 11
264.396022
 21
269.225779
  0
LINE
  8
OBRYS
 10
275.396022
 20
280.167724
 11
275.396022
 21
340.725779
  0
LINE
  8
OBRYS
 62
     7
  6
DASHDOT
 10
288.396022
 20
331.742283
 11
271.396022
 21
331.742283
  0
LINE
  8
OBRYS
 10
257.896022
 20
278.392446
 11
255.396022
 21
278.392446
  0
ARC
  8
OBRYS
 10
257.896022
 20
277.392446
 40
1.000000
 50
0.000000
 51
90.000000
  0
LINE
  8
OBRYS
 10
256.896022
 20
279.225779
 11
255.396022
 21
279.225779
  0
ARC
  8
OBRYS
 10
256.896022
 20
277.225779
 40
2.000000
 50
0.000000
 51
90.000000
  0
ARC
  8
OBRYS
 10
256.896022
 20
261.225779
 40
2.000000
 50
270.000000
 51
360.000000
  0
LINE
  8
OBRYS
 10
256.896022
 20
259.225779
 11
255.396022
 21
259.225779
  0
ARC
  8
OBRYS
 10
257.896022
 20
261.059112
 40
1.000000
 50
270.000000
 51
360.000000
  0
LINE
  8
OBRYS
 10
257.896022
 20
260.059112
 11
255.396022
 21
260.059112
  0
LINE
  8
OBRYS
 10
258.896022
 20
277.225779
 11
258.896022
 21
261.225779
  0
LINE
  8
OBRYS
 62
     7
  6
DASHDOT
 10
286.067980
 20
305.225779
 11
256.676390
 21
305.225779
  0
LINE
  8
OBRYS
 62
     7
  6
DASHDOT
 10
286.237741
 20
241.225779
 11
252.176394
 21
241.225779
  0
LINE
  8
OBRYS
 10
284.396022
 20
251.745779
 11
284.396022
 21
269.225779
  0
LINE
  8
OBRYS
 10
284.396022
 20
251.745779
 11
284.396022
 21
236.225779
  0
LINE
  8
OBRYS
 10
302.396022
 20
236.225779
 11
284.396022
 21
236.225779
  0
LINE
  8
OBRYS
 10
284.396022
 20
251.745779
 11
284.396022
 21
305.225779
  0
LINE
  8
OBRYS
 10
284.396022
 20
305.225779
 11
284.396022
 21
344.725779
  0
LINE
  8
OBRYS
 10
284.396022
 20
344.725779
 11
302.396022
 21
344.725779
  0
LINE
  8
OBRYS
 62
     7
  6
DASHDOT
 10
317.896018
 20
305.225779
 11
276.896025
 21
305.225779
  0
LINE
  8
OBRYS
 10
307.396033
 20
340.247993
 11
307.368676
 21
340.247993
  0
ARC
  8
OBRYS
 10
307.396022
 20
269.203565
 40
1.000000
 50
90.000000
 51
180.000000
  0
ARC
  8
OBRYS
 10
302.396022
 20
340.725779
 40
4.000000
 50
5.995066
 51
90.000000
  0
ARC
  8
OBRYS
 10
307.368676
 20
341.247993
 40
1.000000
 50
185.995066
 51
270.000000
  0
ARC
  8
OBRYS
 10
302.396022
 20
240.225779
 40
4.000000
 50
270.000000
 51
360.000000
  0
LINE
  8
OBRYS
 10
284.396022
 20
251.745779
 11
284.396022
 21
236.225779
  0
LINE
  8
OBRYS
 10
307.396033
 20
305.225779
 11
307.396033
 21
270.203565
  0
LINE
  8
OBRYS
 10
307.396033
 20
340.247993
 11
307.396033
 21
305.225779
  0
LINE
  8
OBRYS
 10
306.396022
 20
240.225779
 11
306.396022
 21
305.225779
  0
LINE
  8
OBRYS
 10
306.396022
 20
305.225779
 11
306.396022
 21
341.143550
  0
LINE
  8
OBRYS
 10
284.396022
 20
322.633501
 11
302.396023
 21
322.633501
  0
LINE
  8
OBRYS
 10
284.396022
 20
335.121734
 11
302.396023
 21
335.121734
  0
LINE
  8
OBRYS
 10
284.396022
 20
288.375043
 11
302.396023
 21
288.375043
  0
ENDBLK
  8
OBRYS
  0
BLOCK
  8
OBRYS
  2
Srouby_s_valcovou_hlavou___1
 70
   66
 10
279.396022
 20
331.742283
  0
LINE
  8
OBRYS
 10
275.896022
 20
327.992283
 11
275.896022
 21
335.492283
  0
LINE
  8
OBRYS
 10
276.396022
 20
327.492283
 11
279.396022
 21
327.492283
  0
LINE
  8
OBRYS
 10
279.396022
 20
327.492283
 11
279.396022
 21
335.992283
  0
LINE
  8
OBRYS
 10
279.396022
 20
335.992283
 11
276.396022
 21
335.992283
  0
ARC
  8
OBRYS
 10
276.396022
 20
327.992283
 40
0.500000
 50
180.000000
 51
270.000000
  0
ARC
  8
OBRYS
 10
276.396022
 20
335.492283
 40
0.500000
 50
90.000000
 51
180.000000
  0
LINE
  8
OBRYS
 62
     7
  6
DOT
 10
275.896022
 20
329.432868
 11
277.562688
 21
329.432868
  0
LINE
  8
OBRYS
 62
     7
  6
DOT
 10
275.896022
 20
330.587576
 11
277.562688
 21
330.587576
  0
LINE
  8
OBRYS
 62
     7
  6
DOT
 10
275.896022
 20
332.896991
 11
277.562688
 21
332.896991
  0
LINE
  8
OBRYS
 62
     7
  6
DOT
 10
275.896022
 20
334.051699
 11
277.562688
 21
334.051699
  0
ARC
  8
OBRYS
 62
     7
  6
DOT
 10
275.562682
 20
330.010222
 40
0.666673
 50
300.000310
 51
59.999690
  0
ARC
  8
OBRYS
 62
     7
  6
DOT
 10
274.062663
 20
331.742283
 40
2.166692
 50
327.795963
 51
32.204037
  0
ARC
  8
OBRYS
 62
     7
  6
DOT
 10
275.562682
 20
333.474345
 40
0.666673
 50
300.000310
 51
59.999690
  0
ARC
  8
OBRYS
 62
     7
  6
DOT
 10
277.229349
 20
330.010222
 40
0.666673
 50
300.000310
 51
59.999690
  0
ARC
  8
OBRYS
 62
     7
  6
DOT
 10
275.729330
 20
331.742283
 40
2.166692
 50
327.795963
 51
32.204037
  0
ARC
  8
OBRYS
 62
     7
  6
DOT
 10
277.229349
 20
333.474345
 40
0.666673
 50
300.000310
 51
59.999690
  0
LINE
  8
OBRYS
 62
     7
  6
DOT
 10
277.896022
 20
330.010222
 11
279.050729
 21
331.742283
  0
LINE
  8
OBRYS
 62
     7
  6
DOT
 10
279.050729
 20
331.742283
 11
277.896022
 21
333.474345
  0
ENDBLK
  8
OBRYS
  0
BLOCK
  8
OBRYS
  2
_1
 70
   64
 10
817.697805
 20
305.225779
  0
ARC
  8
OBRYS
 10
847.697816
 20
323.492283
 40
2.000000
 50
0.000000
 51
90.000000
  0
ARC
  8
OBRYS
 10
847.697816
 20
327.492283
 40
2.000000
 50
180.000000
 51
270.000000
  0
INSERT
  8
OBRYS
  2
Srouby_s_valcovou_hlavou___3
 62
     7
 10
279.396022
 20
331.742283
  0
LINE
  8
OBRYS
 10
869.697816
 20
260.059112
 11
869.697816
 21
209.225779
  0
LINE
  8
OBRYS
 10
869.697816
 20
329.225779
 11
869.697816
 21
278.392446
  0
LINE
  8
OBRYS
 10
868.697816
 20
278.392446
 11
868.697816
 21
260.059112
  0
LINE
  8
OBRYS
 10
858.697816
 20
236.225779
 11
840.697816
 21
236.225779
  0
LINE
  8
OBRYS
 10
851.697816
 20
296.225779
 11
858.697816
 21
296.225779
  0
ARC
  8
OBRYS
 10
858.697816
 20
298.225779
 40
2.000000
 50
270.000000
 51
360.000000
  0
ARC
  8
OBRYS
 10
858.697816
 20
234.225779
 40
2.000000
 50
0.000000
 51
90.000000
  0
ARC
  8
OBRYS
 10
862.697816
 20
211.225779
 40
2.000000
 50
180.000000
 51
270.000000
  0
LINE
  8
OBRYS
 10
869.697816
 20
209.225779
 11
862.697816
 21
209.225779
  0
ARC
  8
OBRYS
 10
862.697816
 20
327.225779
 40
2.000000
 50
90.000000
 51
180.000000
  0
LINE
  8
OBRYS
 10
869.697816
 20
329.225779
 11
862.697816
 21
329.225779
  0
ARC
  8
OBRYS
 10
843.697816
 20
342.725779
 40
2.000000
 50
0.000000
 51
90.000000
  0
LINE
  8
OBRYS
 10
845.697816
 20
328.742283
 11
845.697816
 21
342.725779
  0
LINE
  8
OBRYS
 62
     7
  6
DASHDOT
 10
838.930367
 20
269.225779
 11
868.417447
 21
269.225779
  0
LINE
  8
OBRYS
 10
840.697816
 20
269.225779
 11
840.697816
 21
344.725779
  0
LINE
  8
OBRYS
 10
845.697816
 20
344.725779
 11
840.697816
 21
344.725779
  0
ARC
  8
OBRYS
 10
851.697816
 20
298.225779
 40
2.000000
 50
180.000000
 51
270.000000
  0
ARC
  8
OBRYS
 10
845.697816
 20
340.725779
 40
4.000000
 50
0.000000
 51
90.000000
  0
LINE
  8
OBRYS
 10
860.697816
 20
211.225779
 11
860.697816
 21
269.225779
  0
LINE
  8
OBRYS
 10
860.697816
 20
327.225779
 11
860.697816
 21
269.225779
  0
LINE
  8
OBRYS
 10
849.697816
 20
280.167724
 11
849.697816
 21
340.725779
  0
LINE
  8
OBRYS
 62
     7
  6
DASHDOT
 10
836.697816
 20
331.742283
 11
853.697816
 21
331.742283
  0
LINE
  8
OBRYS
 10
867.197816
 20
278.392446
 11
869.697816
 21
278.392446
  0
ARC
  8
OBRYS
 10
867.197816
 20
277.392446
 40
1.000000
 50
90.000000
 51
180.000000
  0
LINE
  8
OBRYS
 10
868.197816
 20
279.225779
 11
869.697816
 21
279.225779
  0
ARC
  8
OBRYS
 10
868.197816
 20
277.225779
 40
2.000000
 50
90.000000
 51
180.000000
  0
ARC
  8
OBRYS
 10
868.197816
 20
261.225779
 40
2.000000
 50
180.000000
 51
270.000000
  0
LINE
  8
OBRYS
 10
868.197816
 20
259.225779
 11
869.697816
 21
259.225779
  0
ARC
  8
OBRYS
 10
867.197816
 20
261.059112
 40
1.000000
 50
180.000000
 51
270.000000
  0
LINE
  8
OBRYS
 10
867.197816
 20
260.059112
 11
869.697816
 21
260.059112
  0
LINE
  8
OBRYS
 10
866.197816
 20
277.225779
 11
866.197816
 21
261.225779
  0
LINE
  8
OBRYS
 62
     7
  6
DASHDOT
 10
839.025858
 20
305.225779
 11
868.417447
 21
305.225779
  0
LINE
  8
OBRYS
 62
     7
  6
DASHDOT
 10
838.856097
 20
241.225779
 11
872.917444
 21
241.225779
  0
LINE
  8
OBRYS
 10
840.697816
 20
251.745779
 11
840.697816
 21
269.225779
  0
LINE
  8
OBRYS
 10
840.697816
 20
251.745779
 11
840.697816
 21
236.225779
  0
LINE
  8
OBRYS
 10
822.697816
 20
236.225779
 11
840.697816
 21
236.225779
  0
LINE
  8
OBRYS
 10
840.697816
 20
251.745779
 11
840.697816
 21
305.225779
  0
LINE
  8
OBRYS
 10
840.697816
 20
305.225779
 11
840.697816
 21
344.725779
  0
LINE
  8
OBRYS
 10
840.697816
 20
344.725779
 11
822.697816
 21
344.725779
  0
LINE
  8
OBRYS
 62
     7
  6
DASHDOT
 10
807.197819
 20
305.225779
 11
848.197812
 21
305.225779
  0
LINE
  8
OBRYS
 10
817.697805
 20
340.247993
 11
817.725161
 21
340.247993
  0
ARC
  8
OBRYS
 10
817.697816
 20
269.203565
 40
1.000000
 50
0.000000
 51
90.000000
  0
ARC
  8
OBRYS
 10
822.697816
 20
340.725779
 40
4.000000
 50
90.000000
 51
174.004934
  0
ARC
  8
OBRYS
 10
817.725161
 20
341.247993
 40
1.000000
 50
270.000000
 51
354.004934
  0
ARC
  8
OBRYS
 10
822.697816
 20
240.225779
 40
4.000000
 50
180.000000
 51
270.000000
  0
LINE
  8
OBRYS
 10
840.697816
 20
251.745779
 11
840.697816
 21
236.225779
  0
LINE
  8
OBRYS
 10
817.697805
 20
305.225779
 11
817.697805
 21
270.203565
  0
LINE
  8
OBRYS
 10
817.697805
 20
340.247993
 11
817.697805
 21
305.225779
  0
LINE
  8
OBRYS
 10
818.697816
 20
240.225779
 11
818.697816
 21
305.225779
  0
LINE
  8
OBRYS
 10
818.697816
 20
305.225779
 11
818.697816
 21
341.143550
  0
LINE
  8
OBRYS
 10
840.697816
 20
322.633501
 11
822.697815
 21
322.633501
  0
LINE
  8
OBRYS
 10
840.697816
 20
335.121734
 11
822.697815
 21
335.121734
  0
LINE
  8
OBRYS
 10
840.697816
 20
288.375043
 11
822.697815
 21
288.375043
  0
ENDBLK
  8
OBRYS
  0
BLOCK
  8
OBRYS
  2
Srouby_s_valcovou_hlavou___3
 70
   66
 10
279.396022
 20
331.742283
  0
LINE
  8
OBRYS
 10
849.197816
 20
327.992283
 11
849.197816
 21
335.492283
  0
LINE
  8
OBRYS
 10
848.697816
 20
327.492283
 11
845.697816
 21
327.492283
  0
LINE
  8
OBRYS
 10
845.697816
 20
327.492283
 11
845.697816
 21
335.992283
  0
LINE
  8
OBRYS
 10
845.697816
 20
335.992283
 11
848.697816
 21
335.992283
  0
ARC
  8
OBRYS
 10
848.697816
 20
327.992283
 40
0.500000
 50
270.000000
 51
360.000000
  0
ARC
  8
OBRYS
 10
848.697816
 20
335.492283
 40
0.500000
 50
0.000000
 51
90.000000
  0
LINE
  8
OBRYS
 62
     7
  6
DOT
 10
849.197816
 20
329.432868
 11
847.531149
 21
329.432868
  0
LINE
  8
OBRYS
 62
     7
  6
DOT
 10
849.197816
 20
330.587576
 11
847.531149
 21
330.587576
  0
LINE
  8
OBRYS
 62
     7
  6
DOT
 10
849.197816
 20
332.896991
 11
847.531149
 21
332.896991
  0
LINE
  8
OBRYS
 62
     7
  6
DOT
 10
849.197816
 20
334.051699
 11
847.531149
 21
334.051699
  0
ARC
  8
OBRYS
 62
     7
  6
DOT
 10
849.531155
 20
330.010222
 40
0.666673
 50
120.000310
 51
239.999690
  0
ARC
  8
OBRYS
 62
     7
  6
DOT
 10
851.031174
 20
331.742283
 40
2.166692
 50
147.795963
 51
212.204037
  0
ARC
  8
OBRYS
 62
     7
  6
DOT
 10
849.531155
 20
333.474345
 40
0.666673
 50
120.000310
 51
239.999690
  0
ARC
  8
OBRYS
 62
     7
  6
DOT
 10
847.864489
 20
330.010222
 40
0.666673
 50
120.000310
 51
239.999690
  0
ARC
  8
OBRYS
 62
     7
  6
DOT
 10
849.364507
 20
331.742283
 40
2.166692
 50
147.795963
 51
212.204037
  0
ARC
  8
OBRYS
 62
     7
  6
DOT
 10
847.864489
 20
333.474345
 40
0.666673
 50
120.000310
 51
239.999690
  0
LINE
  8
OBRYS
 62
     7
  6
DOT
 10
847.197816
 20
330.010222
 11
846.043108
 21
331.742283
  0
LINE
  8
OBRYS
 62
     7
  6
DOT
 10
846.043108
 20
331.742283
 11
847.197816
 21
333.474345
  0
ENDBLK
  8
OBRYS
  0
BLOCK
  8
OSA
  2
_2
 70
   64
 10
562.546919
 20
305.225779
  0
CIRCLE
  8
OBRYS
 10
562.546919
 20
269.225779
 40
10.000000
  0
ARC
  8
OBRYS
 10
562.546919
 20
269.225779
 40
4.500000
 50
109.471221
 51
70.528779
  0
LINE
  8
OBRYS
 10
561.046919
 20
273.468420
 11
561.046919
 21
275.025779
  0
LINE
  8
OBRYS
 10
561.046919
 20
275.025779
 11
564.046919
 21
275.025779
  0
LINE
  8
OBRYS
 10
564.046919
 20
275.025779
 11
564.046919
 21
273.468420
  0
LINE
  8
OSA
 10
562.546919
 20
269.225779
 11
568.713585
 21
269.225779
  0
LINE
  8
OSA
 10
562.546919
 20
269.225779
 11
556.380252
 21
269.225779
  0
LINE
  8
OSA
 10
562.546919
 20
269.225779
 11
562.546919
 21
275.392446
  0
LINE
  8
OSA
 10
562.546919
 20
269.225779
 11
562.546919
 21
263.059112
  0
INSERT
  8
OSA
  2
Srouby_s_valcovou_hlavou___5
  6
CONTINUOUS
 10
562.546919
 20
241.225779
  0
INSERT
  8
OSA
  2
Srouby_s_valcovou_hlavou___6
  6
CONTINUOUS
 10
536.030414
 20
278.709275
  0
INSERT
  8
OSA
  2
Srouby_s_valcovou_hlavou___7
  6
CONTINUOUS
 10
589.063423
 20
278.709275
  0
LINE
  8
OSA
 10
536.030414
 20
278.709275
 11
542.639787
 21
278.709275
  0
LINE
  8
OSA
 10
536.030414
 20
278.709275
 11
529.421041
 21
278.709275
  0
LINE
  8
OSA
 10
536.030414
 20
278.709275
 11
536.030414
 21
285.318648
  0
LINE
  8
OSA
 10
536.030414
 20
278.709275
 11
536.030414
 21
272.099902
  0
LINE
  8
OSA
 10
589.063423
 20
278.709275
 11
595.672796
 21
278.709275
  0
LINE
  8
OSA
 10
589.063423
 20
278.709275
 11
582.454050
 21
278.709275
  0
LINE
  8
OSA
 10
589.063423
 20
278.709275
 11
589.063423
 21
285.318648
  0
LINE
  8
OSA
 10
589.063423
 20
278.709275
 11
589.063423
 21
272.099902
  0
LINE
  8
OSA
 10
536.030414
 20
331.742283
 11
542.639787
 21
331.742283
  0
LINE
  8
OSA
 10
536.030414
 20
331.742283
 11
529.421041
 21
331.742283
  0
LINE
  8
OSA
 10
536.030414
 20
331.742283
 11
536.030414
 21
338.351656
  0
LINE
  8
OSA
 10
536.030414
 20
331.742283
 11
536.030414
 21
325.132910
  0
LINE
  8
OSA
 10
589.063423
 20
331.742283
 11
589.063423
 21
325.132910
  0
LINE
  8
OSA
 10
589.063423
 20
331.742283
 11
589.063423
 21
338.351656
  0
LINE
  8
OSA
 10
589.063423
 20
331.742283
 11
582.454050
 21
331.742283
  0
LINE
  8
OSA
 10
589.063423
 20
331.742283
 11
595.672796
 21
331.742283
  0
INSERT
  8
OSA
  2
Srouby_s_valcovou_hlavou___8
  6
CONTINUOUS
 10
536.030414
 20
331.742283
  0
INSERT
  8
OSA
  2
Srouby_s_valcovou_hlavou___9
  6
CONTINUOUS
 10
589.063423
 20
331.742283
  0
LINE
  8
0
 62
     2
 10
526.066157
 20
316.861417
 11
526.066157
 21
320.225779
  0
LINE
  8
0
 62
     2
 10
599.027681
 20
316.861417
 11
599.027681
 21
320.225779
  0
ARC
  8
OBRYS
 10
562.546919
 20
269.225779
 40
55.000000
 50
90.000000
 51
270.000000
  0
ARC
  8
OBRYS
 10
537.825657
 20
230.433264
 40
2.000000
 50
57.491906
 51
145.000000
  0
LINE
  8
OBRYS
 10
536.187353
 20
231.580417
 11
532.169020
 21
225.841643
  0
ARC
  8
OBRYS
 10
533.807324
 20
224.694490
 40
2.000000
 50
145.000000
 51
237.162618
  0
ARC
  8
OBRYS
 10
562.546919
 20
269.225779
 40
44.000000
 50
90.000000
 51
270.000000
  0
ARC
  8
OBRYS
 10
518.015630
 20
240.486184
 40
2.000000
 50
212.837382
 51
305.000000
  0
LINE
  8
OBRYS
 10
524.901557
 20
242.866213
 11
519.162783
 21
238.847880
  0
ARC
  8
OBRYS
 10
523.754404
 20
244.504517
 40
2.000000
 50
305.000000
 51
32.508094
  0
LINE
  8
OBRYS
 10
503.386121
 20
259.225779
 11
508.316187
 21
260.059112
  0
LINE
  8
OBRYS
 10
503.386121
 20
279.225779
 11
508.316187
 21
278.392446
  0
ARC
  8
OBRYS
 10
523.754404
 20
293.947041
 40
2.000000
 50
327.491906
 51
55.000000
  0
LINE
  8
OBRYS
 10
524.901557
 20
295.585345
 11
519.162783
 21
299.603678
  0
ARC
  8
OBRYS
 10
518.015630
 20
297.965374
 40
2.000000
 50
55.000000
 51
147.162618
  0
ARC
  8
OBRYS
 10
533.807324
 20
313.757068
 40
2.000000
 50
122.837382
 51
215.000000
  0
LINE
  8
OBRYS
 10
536.187353
 20
306.871141
 11
532.169020
 21
312.609915
  0
ARC
  8
OBRYS
 10
537.825657
 20
308.018294
 40
2.000000
 50
215.000000
 51
302.508094
  0
ARC
  8
OBRYS
 10
587.268181
 20
308.018294
 40
2.000000
 50
237.491906
 51
325.000000
  0
LINE
  8
OBRYS
 10
588.906485
 20
306.871141
 11
592.924818
 21
312.609915
  0
ARC
  8
OBRYS
 10
591.286514
 20
313.757068
 40
2.000000
 50
325.000000
 51
57.162618
  0
ARC
  8
OBRYS
 10
607.078208
 20
297.965374
 40
2.000000
 50
32.837382
 51
125.000000
  0
LINE
  8
OBRYS
 10
600.192281
 20
295.585345
 11
605.931055
 21
299.603678
  0
ARC
  8
OBRYS
 10
601.339434
 20
293.947041
 40
2.000000
 50
125.000000
 51
212.508094
  0
LINE
  8
OBRYS
 10
621.707717
 20
279.225779
 11
616.777650
 21
278.392446
  0
LINE
  8
OBRYS
 10
621.707717
 20
259.225779
 11
616.777650
 21
260.059112
  0
ARC
  8
OBRYS
 10
601.339434
 20
244.504517
 40
2.000000
 50
147.491906
 51
235.000000
  0
LINE
  8
OBRYS
 10
600.192281
 20
242.866213
 11
605.931055
 21
238.847880
  0
ARC
  8
OBRYS
 10
607.078208
 20
240.486184
 40
2.000000
 50
235.000000
 51
327.162618
  0
ARC
  8
OBRYS
 10
562.546919
 20
269.225779
 40
44.000000
 50
270.000000
 51
90.000000
  0
ARC
  8
OBRYS
 10
591.286514
 20
224.694490
 40
2.000000
 50
302.837382
 51
35.000000
  0
LINE
  8
OBRYS
 10
588.906485
 20
231.580417
 11
592.924818
 21
225.841643
  0
ARC
  8
OBRYS
 10
587.268181
 20
230.433264
 40
2.000000
 50
35.000000
 51
122.508094
  0
ARC
  8
OBRYS
 10
562.546919
 20
269.225779
 40
55.000000
 50
270.000000
 51
90.000000
  0
CIRCLE
  8
OBRYS
 10
562.546919
 20
269.225779
 40
17.480000
  0
ARC
  8
OBRYS
 10
562.546919
 20
269.225779
 40
24.000000
 50
90.000000
 51
154.208906
  0
ARC
  8
OSA
 10
562.546919
 20
269.225779
 40
50.000000
 50
90.000000
 51
270.000000
  0
ARC
  8
OBRYS
 10
562.546919
 20
269.225779
 40
40.000000
 50
90.000000
 51
270.000000
  0
ARC
  8
OBRYS
 10
562.546919
 20
269.225779
 40
60.000000
 50
90.000000
 51
270.000000
  0
ARC
  8
OBRYS
 10
562.546919
 20
269.225779
 40
21.000000
 50
90.000000
 51
270.000000
  0
LINE
  8
OSA
 10
562.546919
 20
241.225779
 11
552.546906
 21
241.225779
  0
ARC
  8
OBRYS
 10
562.546902
 20
241.225779
 40
5.000000
 50
90.000000
 51
270.000000
  0
LINE
  8
OSA
 10
562.546919
 20
305.225779
 11
522.546922
 21
305.225779
  0
LINE
  8
OSA
 10
562.546919
 20
269.225779
 11
502.546919
 21
269.225779
  0
ARC
  8
OBRYS
 10
536.566157
 20
320.225779
 40
10.500000
 50
154.169919
 51
179.999994
  0
LINE
  8
0
 62
     2
 10
527.115210
 20
324.800668
 11
531.529964
 21
333.920802
  0
CIRCLE
  8
OBRYS
 10
536.030414
 20
278.709275
 40
5.000000
  0
ARC
  8
OBRYS
 10
536.030414
 20
331.742283
 40
5.000000
 50
269.999964
 51
360.000000
  0
ARC
  8
OBRYS
 10
529.308948
 20
324.742283
 40
2.000000
 50
90.000000
 51
154.169919
  0
LINE
  8
OBRYS
 10
536.030414
 20
326.742283
 11
529.308948
 21
326.742283
  0
CIRCLE
  8
OBRYS
 10
527.191580
 20
304.581118
 40
3.500000
  0
LINE
  8
OSA
 10
562.546919
 20
269.225779
 11
520.120512
 21
226.799372
  0
LINE
  8
OSA
 10
562.546919
 20
269.225779
 11
520.120512
 21
311.652186
  0
CIRCLE
  8
OBRYS
 10
527.191580
 20
233.870440
 40
3.500000
  0
ARC
  8
OBRYS
 10
536.030414
 20
278.709275
 40
5.000000
 50
356.832544
 51
45.000000
  0
ARC
  8
OBRYS
 10
562.546919
 20
269.225779
 40
24.000000
 50
166.432420
 51
263.365562
  0
ARC
  8
OBRYS
 10
562.546919
 20
269.225779
 40
24.000000
 50
276.634438
 51
13.567580
  0
ARC
  8
OBRYS
 10
589.063423
 20
278.709275
 40
5.000000
 50
135.000000
 51
183.167456
  0
CIRCLE
  8
OBRYS
 10
597.902258
 20
233.870440
 40
3.500000
  0
LINE
  8
OSA
 10
562.546919
 20
269.225779
 11
604.973326
 21
311.652186
  0
LINE
  8
OSA
 10
562.546919
 20
269.225779
 11
604.973326
 21
226.799372
  0
CIRCLE
  8
OBRYS
 10
597.902258
 20
304.581118
 40
3.500000
  0
LINE
  8
OBRYS
 10
589.063423
 20
326.742283
 11
595.784890
 21
326.742283
  0
ARC
  8
OBRYS
 10
595.784890
 20
324.742283
 40
2.000000
 50
25.830081
 51
90.000000
  0
ARC
  8
OBRYS
 10
589.063423
 20
331.742283
 40
5.000000
 50
180.000000
 51
270.000036
  0
CIRCLE
  8
OBRYS
 10
589.063423
 20
278.709275
 40
5.000000
  0
LINE
  8
0
 62
     2
 10
597.978627
 20
324.800668
 11
593.563874
 21
333.920802
  0
ARC
  8
OBRYS
 10
588.527681
 20
320.225779
 40
10.500000
 50
0.000006
 51
25.830081
  0
LINE
  8
OSA
 10
562.546919
 20
350.869826
 11
562.546919
 21
209.225779
  0
LINE
  8
OSA
 10
562.546919
 20
269.225779
 11
622.546919
 21
269.225779
  0
LINE
  8
OSA
 10
562.546919
 20
305.225779
 11
602.546915
 21
305.225779
  0
ARC
  8
OBRYS
 10
562.546935
 20
241.225779
 40
5.000000
 50
270.000000
 51
90.000000
  0
LINE
  8
OSA
 10
562.546919
 20
241.225779
 11
572.546932
 21
241.225779
  0
ARC
  8
OBRYS
 10
562.546919
 20
269.225779
 40
21.000000
 50
270.000000
 51
90.000000
  0
ARC
  8
OBRYS
 10
562.546919
 20
269.225779
 40
60.000000
 50
270.000000
 51
90.000000
  0
ARC
  8
OBRYS
 10
562.546919
 20
269.225779
 40
40.000000
 50
270.000000
 51
90.000000
  0
ARC
  8
OSA
 10
562.546919
 20
269.225779
 40
50.000000
 50
270.000000
 51
90.000000
  0
ARC
  8
OBRYS
 10
562.546919
 20
269.225779
 40
24.000000
 50
25.791094
 51
90.000000
  0
ARC
  8
OBRYS
 10
536.030414
 20
331.742283
 40
5.000000
 50
123.511664
 51
154.169919
  0
ARC
  8
OBRYS
 10
589.063423
 20
331.742283
 40
5.000000
 50
25.830081
 51
56.488335
  0
ARC
  8
OBRYS
 10
562.546919
 20
291.697871
 40
53.027909
 50
56.488379
 51
123.511629
  0
LINE
  8
OBRYS
 10
584.063423
 20
331.742283
 11
584.063423
 21
338.846078
  0
ARC
  8
OBRYS
 10
582.063423
 20
338.846078
 40
2.000000
 50
0.000000
 51
67.513406
  0
LINE
  8
OBRYS
 10
541.030414
 20
331.742283
 11
541.030414
 21
338.846078
  0
ARC
  8
OBRYS
 10
543.030414
 20
338.846078
 40
2.000000
 50
112.486594
 51
180.000000
  0
ENDBLK
  8
OSA
  0
BLOCK
  8
OSA
  2
Srouby_s_valcovou_hlavou___5
 70
   66
 10
562.546919
 20
241.225779
  0
LINE
  8
OSA
 62
     2
  6
CONTINUOUS
 10
560.546919
 20
240.071071
 11
560.546919
 21
242.380487
  0
LINE
  8
OSA
 62
     2
  6
CONTINUOUS
 10
560.546919
 20
242.380487
 11
562.546919
 21
243.535195
  0
LINE
  8
OSA
 62
     2
  6
CONTINUOUS
 10
562.546919
 20
243.535195
 11
564.546919
 21
242.380487
  0
LINE
  8
OSA
 62
     2
  6
CONTINUOUS
 10
564.546919
 20
242.380487
 11
564.546919
 21
240.071071
  0
LINE
  8
OSA
 62
     2
  6
CONTINUOUS
 10
564.546919
 20
240.071071
 11
562.546919
 21
238.916364
  0
LINE
  8
OSA
 62
     2
  6
CONTINUOUS
 10
562.546919
 20
238.916364
 11
560.546919
 21
240.071071
  0
CIRCLE
  8
OSA
 62
     2
  6
CONTINUOUS
 10
562.546919
 20
241.225779
 40
2.309415
  0
CIRCLE
  8
OSA
 62
     2
  6
CONTINUOUS
 10
562.546919
 20
241.225779
 40
4.250000
  0
ENDBLK
  8
OSA
  0
BLOCK
  8
OSA
  2
Srouby_s_valcovou_hlavou___6
 70
   66
 10
536.030414
 20
278.709275
  0
LINE
  8
OSA
 62
     2
  6
CONTINUOUS
 10
534.030414
 20
277.554567
 11
534.030414
 21
279.863983
  0
LINE
  8
OSA
 62
     2
  6
CONTINUOUS
 10
534.030414
 20
279.863983
 11
536.030414
 21
281.018690
  0
LINE
  8
OSA
 62
     2
  6
CONTINUOUS
 10
536.030414
 20
281.018690
 11
538.030414
 21
279.863983
  0
LINE
  8
OSA
 62
     2
  6
CONTINUOUS
 10
538.030414
 20
279.863983
 11
538.030414
 21
277.554567
  0
LINE
  8
OSA
 62
     2
  6
CONTINUOUS
 10
538.030414
 20
277.554567
 11
536.030414
 21
276.399859
  0
LINE
  8
OSA
 62
     2
  6
CONTINUOUS
 10
536.030414
 20
276.399859
 11
534.030414
 21
277.554567
  0
CIRCLE
  8
OSA
 62
     2
  6
CONTINUOUS
 10
536.030414
 20
278.709275
 40
2.309415
  0
CIRCLE
  8
OSA
 62
     2
  6
CONTINUOUS
 10
536.030414
 20
278.709275
 40
4.250000
  0
ENDBLK
  8
OSA
  0
BLOCK
  8
OSA
  2
Srouby_s_valcovou_hlavou___7
 70
   66
 10
589.063423
 20
278.709275
  0
LINE
  8
OSA
 62
     2
  6
CONTINUOUS
 10
587.063423
 20
277.554567
 11
587.063423
 21
279.863983
  0
LINE
  8
OSA
 62
     2
  6
CONTINUOUS
 10
587.063423
 20
279.863983
 11
589.063423
 21
281.018690
  0
LINE
  8
OSA
 62
     2
  6
CONTINUOUS
 10
589.063423
 20
281.018690
 11
591.063423
 21
279.863983
  0
LINE
  8
OSA
 62
     2
  6
CONTINUOUS
 10
591.063423
 20
279.863983
 11
591.063423
 21
277.554567
  0
LINE
  8
OSA
 62
     2
  6
CONTINUOUS
 10
591.063423
 20
277.554567
 11
589.063423
 21
276.399859
  0
LINE
  8
OSA
 62
     2
  6
CONTINUOUS
 10
589.063423
 20
276.399859
 11
587.063423
 21
277.554567
  0
CIRCLE
  8
OSA
 62
     2
  6
CONTINUOUS
 10
589.063423
 20
278.709275
 40
2.309415
  0
CIRCLE
  8
OSA
 62
     2
  6
CONTINUOUS
 10
589.063423
 20
278.709275
 40
4.250000
  0
ENDBLK
  8
OSA
  0
BLOCK
  8
OSA
  2
Srouby_s_valcovou_hlavou___8
 70
   66
 10
536.030414
 20
331.742283
  0
LINE
  8
OSA
 62
     2
  6
CONTINUOUS
 10
534.030414
 20
330.587576
 11
534.030414
 21
332.896991
  0
LINE
  8
OSA
 62
     2
  6
CONTINUOUS
 10
534.030414
 20
332.896991
 11
536.030414
 21
334.051699
  0
LINE
  8
OSA
 62
     2
  6
CONTINUOUS
 10
536.030414
 20
334.051699
 11
538.030414
 21
332.896991
  0
LINE
  8
OSA
 62
     2
  6
CONTINUOUS
 10
538.030414
 20
332.896991
 11
538.030414
 21
330.587576
  0
LINE
  8
OSA
 62
     2
  6
CONTINUOUS
 10
538.030414
 20
330.587576
 11
536.030414
 21
329.432868
  0
LINE
  8
OSA
 62
     2
  6
CONTINUOUS
 10
536.030414
 20
329.432868
 11
534.030414
 21
330.587576
  0
CIRCLE
  8
OSA
 62
     2
  6
CONTINUOUS
 10
536.030414
 20
331.742283
 40
2.309415
  0
CIRCLE
  8
OSA
 62
     2
  6
CONTINUOUS
 10
536.030414
 20
331.742283
 40
4.250000
  0
ENDBLK
  8
OSA
  0
BLOCK
  8
OSA
  2
Srouby_s_valcovou_hlavou___9
 70
   66
 10
589.063423
 20
331.742283
  0
LINE
  8
OSA
 62
     2
  6
CONTINUOUS
 10
587.063423
 20
330.587576
 11
587.063423
 21
332.896991
  0
LINE
  8
OSA
 62
     2
  6
CONTINUOUS
 10
587.063423
 20
332.896991
 11
589.063423
 21
334.051699
  0
LINE
  8
OSA
 62
     2
  6
CONTINUOUS
 10
589.063423
 20
334.051699
 11
591.063423
 21
332.896991
  0
LINE
  8
OSA
 62
     2
  6
CONTINUOUS
 10
591.063423
 20
332.896991
 11
591.063423
 21
330.587576
  0
LINE
  8
OSA
 62
     2
  6
CONTINUOUS
 10
591.063423
 20
330.587576
 11
589.063423
 21
329.432868
  0
LINE
  8
OSA
 62
     2
  6
CONTINUOUS
 10
589.063423
 20
329.432868
 11
587.063423
 21
330.587576
  0
CIRCLE
  8
OSA
 62
     2
  6
CONTINUOUS
 10
589.063423
 20
331.742283
 40
2.309415
  0
CIRCLE
  8
OSA
 62
     2
  6
CONTINUOUS
 10
589.063423
 20
331.742283
 40
4.250000
  0
ENDBLK
  8
OSA
  0
BLOCK
  8
OBRYS
  2
_3
 70
   64
 10
307.396033
 20
103.564223
  0
LINE
  8
OBRYS
 10
284.396022
 20
67.083461
 11
284.396022
 21
140.044985
  0
ARC
  8
OBRYS
 10
262.396022
 20
45.564223
 40
2.000000
 50
270.000000
 51
360.000000
  0
LINE
  8
OBRYS
 10
255.396022
 20
43.564223
 11
262.396022
 21
43.564223
  0
ARC
  8
OBRYS
 10
262.396022
 20
161.564223
 40
2.000000
 50
0.000000
 51
90.000000
  0
LINE
  8
OBRYS
 10
255.396022
 20
163.564223
 11
262.396022
 21
163.564223
  0
LINE
  8
OSA
 10
286.163470
 20
103.564223
 11
256.676390
 21
103.564223
  0
LINE
  8
OBRYS
 10
264.396022
 20
45.564223
 11
264.396022
 21
103.564223
  0
LINE
  8
OBRYS
 10
264.396022
 20
161.564223
 11
264.396022
 21
103.564223
  0
LINE
  8
OBRYS
 10
255.396022
 20
103.564223
 11
255.396022
 21
43.564223
  0
LINE
  8
OBRYS
 10
255.396022
 20
163.564223
 11
255.396022
 21
103.564223
  0
LINE
  8
OBRYS
 10
284.396022
 20
133.999847
 11
280.329479
 21
133.999847
  0
ARC
  8
OBRYS
 10
277.396022
 20
127.080727
 40
2.000000
 50
270.000000
 51
360.000000
  0
ARC
  8
OBRYS
 10
277.396022
 20
123.080727
 40
2.000000
 50
90.000000
 51
180.000000
  0
ARC
  8
OBRYS
 10
281.396022
 20
138.044985
 40
2.000000
 50
90.000000
 51
180.000000
  0
LINE
  8
OBRYS
 10
279.396022
 20
138.044985
 11
279.396022
 21
69.083461
  0
ARC
  8
OBRYS
 10
281.396022
 20
69.083461
 40
2.000000
 50
180.000000
 51
270.000000
  0
ARC
  8
OBRYS
 10
277.396022
 20
84.047719
 40
2.000000
 50
180.000000
 51
270.000000
  0
ARC
  8
OBRYS
 10
277.396022
 20
80.047719
 40
2.000000
 50
0.000000
 51
90.000000
  0
LINE
  8
OBRYS
 10
284.396022
 20
73.128599
 11
280.329479
 21
73.128599
  0
LINE
  8
OSA
 10
281.799586
 20
77.047719
 11
271.396022
 21
77.047719
  0
INSERT
  8
OBRYS
  2
Srouby_s_valcovou_hlavou___11
 62
     7
 10
279.396022
 20
77.047719
  0
INSERT
  8
OBRYS
  2
Srouby_s_valcovou_hlavou___12
 62
     7
 10
279.396022
 20
130.080727
  0
LINE
  8
OSA
 10
281.799586
 20
130.080727
 11
271.396022
 21
130.080727
  0
ARC
  8
OBRYS
 10
273.896022
 20
68.328432
 40
1.500000
 50
4.876572
 51
90.000000
  0
ARC
  8
OBRYS
 10
276.885162
 20
68.583461
 40
1.500000
 50
184.876572
 51
270.000000
  0
LINE
  8
OBRYS
 10
265.896022
 20
69.828432
 11
273.896022
 21
69.828432
  0
ARC
  8
OBRYS
 10
265.896022
 20
68.328432
 40
1.500000
 50
90.000000
 51
180.000000
  0
ARC
  8
OBRYS
 10
265.896022
 20
138.800014
 40
1.500000
 50
180.000000
 51
270.000000
  0
LINE
  8
OBRYS
 10
265.896022
 20
137.300014
 11
273.896022
 21
137.300014
  0
ARC
  8
OBRYS
 10
276.885162
 20
138.544985
 40
1.500000
 50
90.000000
 51
175.123428
  0
ARC
  8
OBRYS
 10
273.896022
 20
138.800014
 40
1.500000
 50
270.000000
 51
355.123428
  0
LINE
  8
OBRYS
 10
275.396022
 20
138.364816
 11
275.396022
 21
68.763630
  0
LINE
  8
OBRYS
 10
276.885144
 20
67.083461
 11
284.396022
 21
67.083461
  0
LINE
  8
OBRYS
 10
276.885146
 20
140.044985
 11
284.396022
 21
140.044985
  0
LINE
  8
OBRYS
 10
284.396022
 20
73.128599
 11
302.396023
 21
73.128599
  0
LINE
  8
OBRYS
 10
284.396022
 20
133.999847
 11
302.396023
 21
133.999847
  0
LINE
  8
OBRYS
 10
306.396022
 20
103.564223
 11
306.396022
 21
136.462756
  0
LINE
  8
OBRYS
 10
306.396022
 20
71.083461
 11
306.396022
 21
103.564223
  0
LINE
  8
OBRYS
 10
307.396033
 20
134.563849
 11
307.396033
 21
103.564223
  0
LINE
  8
OBRYS
 10
307.396033
 20
103.564223
 11
307.396033
 21
72.564223
  0
ARC
  8
OBRYS
 10
302.396022
 20
71.083461
 40
4.000000
 50
270.000000
 51
360.000000
  0
ARC
  8
OBRYS
 10
307.368676
 20
135.563849
 40
1.000000
 50
185.995066
 51
270.000000
  0
ARC
  8
OBRYS
 10
302.396022
 20
136.044985
 40
4.000000
 50
5.995066
 51
90.000000
  0
ARC
  8
OBRYS
 10
307.396022
 20
71.564223
 40
1.000000
 50
90.000000
 51
180.000000
  0
LINE
  8
OBRYS
 10
307.396033
 20
134.563849
 11
307.368676
 21
134.563849
  0
LINE
  8
OSA
 10
317.896018
 20
103.564223
 11
276.896025
 21
103.564223
  0
LINE
  8
OBRYS
 10
284.396022
 20
140.044985
 11
302.396022
 21
140.044985
  0
LINE
  8
OBRYS
 10
284.396022
 20
103.564223
 11
284.396022
 21
140.044985
  0
LINE
  8
OBRYS
 10
284.396022
 20
67.083461
 11
284.396022
 21
103.564223
  0
LINE
  8
OBRYS
 10
302.396022
 20
67.083461
 11
284.396022
 21
67.083461
  0
ENDBLK
  8
OBRYS
  0
BLOCK
  8
OBRYS
  2
Srouby_s_valcovou_hlavou___11
 70
   66
 10
279.396022
 20
77.047719
  0
LINE
  8
OBRYS
 10
275.896022
 20
73.297719
 11
275.896022
 21
80.797719
  0
LINE
  8
OBRYS
 10
276.396022
 20
72.797719
 11
279.396022
 21
72.797719
  0
LINE
  8
OBRYS
 10
279.396022
 20
72.797719
 11
279.396022
 21
81.297719
  0
LINE
  8
OBRYS
 10
279.396022
 20
81.297719
 11
276.396022
 21
81.297719
  0
ARC
  8
OBRYS
 10
276.396022
 20
73.297719
 40
0.500000
 50
180.000000
 51
270.000000
  0
ARC
  8
OBRYS
 10
276.396022
 20
80.797719
 40
0.500000
 50
90.000000
 51
180.000000
  0
LINE
  8
OBRYS
 62
     7
  6
DOT
 10
275.896022
 20
74.738303
 11
277.562688
 21
74.738303
  0
LINE
  8
OBRYS
 62
     7
  6
DOT
 10
275.896022
 20
75.893011
 11
277.562688
 21
75.893011
  0
LINE
  8
OBRYS
 62
     7
  6
DOT
 10
275.896022
 20
78.202426
 11
277.562688
 21
78.202426
  0
LINE
  8
OBRYS
 62
     7
  6
DOT
 10
275.896022
 20
79.357134
 11
277.562688
 21
79.357134
  0
ARC
  8
OBRYS
 62
     7
  6
DOT
 10
275.562682
 20
75.315657
 40
0.666673
 50
300.000310
 51
59.999690
  0
ARC
  8
OBRYS
 62
     7
  6
DOT
 10
274.062663
 20
77.047719
 40
2.166692
 50
327.795963
 51
32.204037
  0
ARC
  8
OBRYS
 62
     7
  6
DOT
 10
275.562682
 20
78.779780
 40
0.666673
 50
300.000310
 51
59.999690
  0
ARC
  8
OBRYS
 62
     7
  6
DOT
 10
277.229349
 20
75.315657
 40
0.666673
 50
300.000310
 51
59.999690
  0
ARC
  8
OBRYS
 62
     7
  6
DOT
 10
275.729330
 20
77.047719
 40
2.166692
 50
327.795963
 51
32.204037
  0
ARC
  8
OBRYS
 62
     7
  6
DOT
 10
277.229349
 20
78.779780
 40
0.666673
 50
300.000310
 51
59.999690
  0
LINE
  8
OBRYS
 62
     7
  6
DOT
 10
277.896022
 20
75.315657
 11
279.050729
 21
77.047719
  0
LINE
  8
OBRYS
 62
     7
  6
DOT
 10
279.050729
 20
77.047719
 11
277.896022
 21
78.779780
  0
ENDBLK
  8
OBRYS
  0
BLOCK
  8
OBRYS
  2
Srouby_s_valcovou_hlavou___12
 70
   66
 10
279.396022
 20
130.080727
  0
LINE
  8
OBRYS
 10
275.896022
 20
133.830727
 11
275.896022
 21
126.330727
  0
LINE
  8
OBRYS
 10
276.396022
 20
134.330727
 11
279.396022
 21
134.330727
  0
LINE
  8
OBRYS
 10
279.396022
 20
134.330727
 11
279.396022
 21
125.830727
  0
LINE
  8
OBRYS
 10
279.396022
 20
125.830727
 11
276.396022
 21
125.830727
  0
ARC
  8
OBRYS
 10
276.396022
 20
133.830727
 40
0.500000
 50
90.000000
 51
180.000000
  0
ARC
  8
OBRYS
 10
276.396022
 20
126.330727
 40
0.500000
 50
180.000000
 51
270.000000
  0
LINE
  8
OBRYS
 62
     7
  6
DOT
 10
275.896022
 20
132.390143
 11
277.562688
 21
132.390143
  0
LINE
  8
OBRYS
 62
     7
  6
DOT
 10
275.896022
 20
131.235435
 11
277.562688
 21
131.235435
  0
LINE
  8
OBRYS
 62
     7
  6
DOT
 10
275.896022
 20
128.926020
 11
277.562688
 21
128.926020
  0
LINE
  8
OBRYS
 62
     7
  6
DOT
 10
275.896022
 20
127.771312
 11
277.562688
 21
127.771312
  0
ARC
  8
OBRYS
 62
     7
  6
DOT
 10
275.562682
 20
131.812789
 40
0.666673
 50
300.000310
 51
59.999690
  0
ARC
  8
OBRYS
 62
     7
  6
DOT
 10
274.062663
 20
130.080727
 40
2.166692
 50
327.795963
 51
32.204037
  0
ARC
  8
OBRYS
 62
     7
  6
DOT
 10
275.562682
 20
128.348666
 40
0.666673
 50
300.000310
 51
59.999690
  0
ARC
  8
OBRYS
 62
     7
  6
DOT
 10
277.229349
 20
131.812789
 40
0.666673
 50
300.000310
 51
59.999690
  0
ARC
  8
OBRYS
 62
     7
  6
DOT
 10
275.729330
 20
130.080727
 40
2.166692
 50
327.795963
 51
32.204037
  0
ARC
  8
OBRYS
 62
     7
  6
DOT
 10
277.229349
 20
128.348666
 40
0.666673
 50
300.000310
 51
59.999690
  0
LINE
  8
OBRYS
 62
     7
  6
DOT
 10
277.896022
 20
131.812789
 11
279.050729
 21
130.080727
  0
LINE
  8
OBRYS
 62
     7
  6
DOT
 10
279.050729
 20
130.080727
 11
277.896022
 21
128.348666
  0
ENDBLK
  8
OBRYS
  0
BLOCK
  8
OBRYS
  2
_4
 70
   64
 10
307.396033
 20
452.181514
  0
LINE
  8
OBRYS
 10
255.396022
 20
392.181514
 11
255.396022
 21
452.181514
  0
LINE
  8
OBRYS
 10
255.396022
 20
452.181514
 11
255.396022
 21
512.181514
  0
LINE
  8
OBRYS
 10
264.396022
 20
394.181514
 11
264.396022
 21
452.181514
  0
LINE
  8
OBRYS
 10
264.396022
 20
510.181514
 11
264.396022
 21
452.181514
  0
LINE
  8
OSA
 10
286.163470
 20
452.181514
 11
256.676390
 21
452.181514
  0
LINE
  8
OBRYS
 10
255.396022
 20
392.181514
 11
262.396022
 21
392.181514
  0
ARC
  8
OBRYS
 10
262.396022
 20
394.181514
 40
2.000000
 50
270.000000
 51
360.000000
  0
LINE
  8
OBRYS
 10
255.396022
 20
512.181514
 11
262.396022
 21
512.181514
  0
ARC
  8
OBRYS
 10
262.396022
 20
510.181514
 40
2.000000
 50
0.000000
 51
90.000000
  0
LINE
  8
OBRYS
 10
284.396022
 20
488.662276
 11
284.396022
 21
415.700751
  0
ARC
  8
OBRYS
 10
273.896022
 20
416.945723
 40
1.500000
 50
4.876572
 51
90.000000
  0
ARC
  8
OBRYS
 10
276.885162
 20
417.200751
 40
1.500000
 50
184.876572
 51
270.000000
  0
LINE
  8
OBRYS
 10
265.896022
 20
418.445723
 11
273.896022
 21
418.445723
  0
ARC
  8
OBRYS
 10
265.896022
 20
416.945723
 40
1.500000
 50
90.000000
 51
180.000000
  0
ARC
  8
OBRYS
 10
265.896022
 20
487.417304
 40
1.500000
 50
180.000000
 51
270.000000
  0
LINE
  8
OBRYS
 10
265.896022
 20
485.917304
 11
273.896022
 21
485.917304
  0
ARC
  8
OBRYS
 10
276.885162
 20
487.162276
 40
1.500000
 50
90.000000
 51
175.123428
  0
ARC
  8
OBRYS
 10
273.896022
 20
487.417304
 40
1.500000
 50
270.000000
 51
355.123428
  0
LINE
  8
OBRYS
 10
276.885177
 20
415.700751
 11
284.396022
 21
415.700751
  0
LINE
  8
OBRYS
 10
276.885176
 20
488.662276
 11
284.396022
 21
488.662276
  0
LINE
  8
OBRYS
 10
302.396022
 20
488.662276
 11
284.396022
 21
488.662276
  0
LINE
  8
OBRYS
 10
284.396022
 20
488.662276
 11
284.396022
 21
452.181514
  0
LINE
  8
OBRYS
 10
284.396022
 20
452.181514
 11
284.396022
 21
415.700751
  0
LINE
  8
OBRYS
 10
284.396022
 20
415.700751
 11
302.396022
 21
415.700751
  0
LINE
  8
OSA
 10
317.896018
 20
452.181514
 11
276.896025
 21
452.181514
  0
LINE
  8
OBRYS
 10
307.396033
 20
421.181888
 11
307.368676
 21
421.181888
  0
ARC
  8
OBRYS
 10
307.396022
 20
484.181514
 40
1.000000
 50
180.000000
 51
270.000000
  0
ARC
  8
OBRYS
 10
302.396022
 20
419.700751
 40
4.000000
 50
270.000000
 51
354.004934
  0
ARC
  8
OBRYS
 10
307.368676
 20
420.181888
 40
1.000000
 50
90.000000
 51
174.004934
  0
ARC
  8
OBRYS
 10
302.396022
 20
484.662276
 40
4.000000
 50
0.000000
 51
90.000000
  0
LINE
  8
OBRYS
 10
307.396033
 20
452.181514
 11
307.396033
 21
483.181514
  0
LINE
  8
OBRYS
 10
307.396033
 20
421.181888
 11
307.396033
 21
452.181514
  0
LINE
  8
OBRYS
 10
306.396022
 20
484.662276
 11
306.396022
 21
452.181514
  0
LINE
  8
OBRYS
 10
306.396022
 20
452.181514
 11
306.396022
 21
419.282980
  0
ENDBLK
  8
OBRYS
  0
BLOCK
  8
OSA
  2
Sroub_M10x16_5
 70
   66
 10
368.396033
 20
452.181514
  0
LINE
  8
OSA
 62
     2
  6
CONTINUOUS
 10
364.396033
 20
454.490929
 11
364.396033
 21
449.872098
  0
LINE
  8
OSA
 62
     2
  6
CONTINUOUS
 10
364.396033
 20
449.872098
 11
368.396033
 21
447.562683
  0
LINE
  8
OSA
 62
     2
  6
CONTINUOUS
 10
368.396033
 20
447.562683
 11
372.396033
 21
449.872098
  0
LINE
  8
OSA
 62
     2
  6
CONTINUOUS
 10
372.396033
 20
449.872098
 11
372.396033
 21
454.490929
  0
LINE
  8
OSA
 62
     2
  6
CONTINUOUS
 10
372.396033
 20
454.490929
 11
368.396033
 21
456.800344
  0
LINE
  8
OSA
 62
     2
  6
CONTINUOUS
 10
368.396033
 20
456.800344
 11
364.396033
 21
454.490929
  0
CIRCLE
  8
OSA
 62
     2
  6
CONTINUOUS
 10
368.396033
 20
452.181514
 40
4.618831
  0
CIRCLE
  8
OSA
 62
     2
  6
CONTINUOUS
 10
368.396033
 20
452.181514
 40
8.000000
  0
ENDBLK
  8
OSA
  0
BLOCK
  8
OBRYS
  2
Srouby_s_valcovou_hlavou__6
 70
   66
 10
387.530204
 20
301.419756
  0
LINE
  8
OBRYS
 10
389.530204
 20
300.265048
 11
389.530204
 21
302.574463
  0
LINE
  8
OBRYS
 10
389.530204
 20
302.574463
 11
387.530204
 21
303.729171
  0
LINE
  8
OBRYS
 10
387.530204
 20
303.729171
 11
385.530204
 21
302.574463
  0
LINE
  8
OBRYS
 10
385.530204
 20
302.574463
 11
385.530204
 21
300.265048
  0
LINE
  8
OBRYS
 10
385.530204
 20
300.265048
 11
387.530204
 21
299.110340
  0
LINE
  8
OBRYS
 10
387.530204
 20
299.110340
 11
389.530204
 21
300.265048
  0
CIRCLE
  8
OBRYS
 10
387.530204
 20
301.419756
 40
2.309415
  0
CIRCLE
  8
OBRYS
 10
387.530204
 20
301.419756
 40
5.000000
  0
ENDBLK
  8
OBRYS
  0
BLOCK
  8
OBRYS
  2
Srouby_s_valcovou_hlavou__7
 70
   66
 10
414.590009
 20
274.359951
  0
LINE
  8
OBRYS
 10
416.590009
 20
273.205243
 11
416.590009
 21
275.514659
  0
LINE
  8
OBRYS
 10
416.590009
 20
275.514659
 11
414.590009
 21
276.669367
  0
LINE
  8
OBRYS
 10
414.590009
 20
276.669367
 11
412.590009
 21
275.514659
  0
LINE
  8
OBRYS
 10
412.590009
 20
275.514659
 11
412.590009
 21
273.205243
  0
LINE
  8
OBRYS
 10
412.590009
 20
273.205243
 11
414.590009
 21
272.050536
  0
LINE
  8
OBRYS
 10
414.590009
 20
272.050536
 11
416.590009
 21
273.205243
  0
CIRCLE
  8
OBRYS
 10
414.590009
 20
274.359951
 40
2.309415
  0
CIRCLE
  8
OBRYS
 10
414.590009
 20
274.359951
 40
5.000000
  0
ENDBLK
  8
OBRYS
  0
BLOCK
  8
OBRYS
  2
Srouby_s_valcovou_hlavou__8
 70
   66
 10
414.590009
 20
236.091608
  0
LINE
  8
OBRYS
 10
416.590009
 20
234.936900
 11
416.590009
 21
237.246315
  0
LINE
  8
OBRYS
 10
416.590009
 20
237.246315
 11
414.590009
 21
238.401023
  0
LINE
  8
OBRYS
 10
414.590009
 20
238.401023
 11
412.590009
 21
237.246315
  0
LINE
  8
OBRYS
 10
412.590009
 20
237.246315
 11
412.590009
 21
234.936900
  0
LINE
  8
OBRYS
 10
412.590009
 20
234.936900
 11
414.590009
 21
233.782192
  0
LINE
  8
OBRYS
 10
414.590009
 20
233.782192
 11
416.590009
 21
234.936900
  0
CIRCLE
  8
OBRYS
 10
414.590009
 20
236.091608
 40
2.309415
  0
CIRCLE
  8
OBRYS
 10
414.590009
 20
236.091608
 40
5.000000
  0
ENDBLK
  8
OBRYS
  0
BLOCK
  8
OBRYS
  2
Srouby_s_valcovou_hlavou__9
 70
   66
 10
387.530204
 20
209.031802
  0
LINE
  8
OBRYS
 10
389.530204
 20
207.877095
 11
389.530204
 21
210.186510
  0
LINE
  8
OBRYS
 10
389.530204
 20
210.186510
 11
387.530204
 21
211.341218
  0
LINE
  8
OBRYS
 10
387.530204
 20
211.341218
 11
385.530204
 21
210.186510
  0
LINE
  8
OBRYS
 10
385.530204
 20
210.186510
 11
385.530204
 21
207.877095
  0
LINE
  8
OBRYS
 10
385.530204
 20
207.877095
 11
387.530204
 21
206.722387
  0
LINE
  8
OBRYS
 10
387.530204
 20
206.722387
 11
389.530204
 21
207.877095
  0
CIRCLE
  8
OBRYS
 10
387.530204
 20
209.031802
 40
2.309415
  0
CIRCLE
  8
OBRYS
 10
387.530204
 20
209.031802
 40
5.000000
  0
ENDBLK
  8
OBRYS
  0
BLOCK
  8
OBRYS
  2
Srouby_s_valcovou_hlavou__10
 70
   66
 10
349.261861
 20
209.031802
  0
LINE
  8
OBRYS
 10
351.261861
 20
207.877095
 11
351.261861
 21
210.186510
  0
LINE
  8
OBRYS
 10
351.261861
 20
210.186510
 11
349.261861
 21
211.341218
  0
LINE
  8
OBRYS
 10
349.261861
 20
211.341218
 11
347.261861
 21
210.186510
  0
LINE
  8
OBRYS
 10
347.261861
 20
210.186510
 11
347.261861
 21
207.877095
  0
LINE
  8
OBRYS
 10
347.261861
 20
207.877095
 11
349.261861
 21
206.722387
  0
LINE
  8
OBRYS
 10
349.261861
 20
206.722387
 11
351.261861
 21
207.877095
  0
CIRCLE
  8
OBRYS
 10
349.261861
 20
209.031802
 40
2.309415
  0
CIRCLE
  8
OBRYS
 10
349.261861
 20
209.031802
 40
5.000000
  0
ENDBLK
  8
OBRYS
  0
BLOCK
  8
OBRYS
  2
Srouby_s_valcovou_hlavou__11
 70
   66
 10
322.202056
 20
236.091607
  0
LINE
  8
OBRYS
 10
324.202056
 20
234.936900
 11
324.202056
 21
237.246315
  0
LINE
  8
OBRYS
 10
324.202056
 20
237.246315
 11
322.202056
 21
238.401023
  0
LINE
  8
OBRYS
 10
322.202056
 20
238.401023
 11
320.202056
 21
237.246315
  0
LINE
  8
OBRYS
 10
320.202056
 20
237.246315
 11
320.202056
 21
234.936900
  0
LINE
  8
OBRYS
 10
320.202056
 20
234.936900
 11
322.202056
 21
233.782192
  0
LINE
  8
OBRYS
 10
322.202056
 20
233.782192
 11
324.202056
 21
234.936900
  0
CIRCLE
  8
OBRYS
 10
322.202056
 20
236.091607
 40
2.309415
  0
CIRCLE
  8
OBRYS
 10
322.202056
 20
236.091607
 40
5.000000
  0
ENDBLK
  8
OBRYS
  0
BLOCK
  8
OBRYS
  2
Srouby_s_valcovou_hlavou__12
 70
   66
 10
322.202056
 20
274.359951
  0
LINE
  8
OBRYS
 10
324.202056
 20
273.205243
 11
324.202056
 21
275.514658
  0
LINE
  8
OBRYS
 10
324.202056
 20
275.514658
 11
322.202056
 21
276.669366
  0
LINE
  8
OBRYS
 10
322.202056
 20
276.669366
 11
320.202056
 21
275.514658
  0
LINE
  8
OBRYS
 10
320.202056
 20
275.514658
 11
320.202056
 21
273.205243
  0
LINE
  8
OBRYS
 10
320.202056
 20
273.205243
 11
322.202056
 21
272.050535
  0
LINE
  8
OBRYS
 10
322.202056
 20
272.050535
 11
324.202056
 21
273.205243
  0
CIRCLE
  8
OBRYS
 10
322.202056
 20
274.359951
 40
2.309415
  0
CIRCLE
  8
OBRYS
 10
322.202056
 20
274.359951
 40
5.000000
  0
ENDBLK
  8
OBRYS
  0
BLOCK
  8
OBRYS
  2
Srouby_s_valcovou_hlavou__13
 70
   66
 10
349.261861
 20
301.419756
  0
LINE
  8
OBRYS
 10
351.261861
 20
300.265048
 11
351.261861
 21
302.574463
  0
LINE
  8
OBRYS
 10
351.261861
 20
302.574463
 11
349.261861
 21
303.729171
  0
LINE
  8
OBRYS
 10
349.261861
 20
303.729171
 11
347.261861
 21
302.574463
  0
LINE
  8
OBRYS
 10
347.261861
 20
302.574463
 11
347.261861
 21
300.265048
  0
LINE
  8
OBRYS
 10
347.261861
 20
300.265048
 11
349.261861
 21
299.110340
  0
LINE
  8
OBRYS
 10
349.261861
 20
299.110340
 11
351.261861
 21
300.265048
  0
CIRCLE
  8
OBRYS
 10
349.261861
 20
301.419756
 40
2.309415
  0
CIRCLE
  8
OBRYS
 10
349.261861
 20
301.419756
 40
5.000000
  0
ENDBLK
  8
OBRYS
  0
ENDSEC
  0
SECTION
  2
ENTITIES
  0
TEXT
  8
NEVIDITELNA
 62
     2
  6
CONTINUOUS
 10
280.339813
 20
574.763062
 40
15.000000
  1
MRP 50A - FT
 50
0.00
 51
0.00
 41
0.80
  0
INSERT
  8
OBRYS
  2
_0
 62
     7
 10
307.396033
 20
305.225779
  0
INSERT
  8
OBRYS
  2
_1
 62
     7
 10
817.697805
 20
305.225779
  0
LINE
  8
OSA
 10
562.546919
 20
344.948143
 11
562.546919
 21
305.225779
  0
LINE
  8
OBRYS
 10
524.046919
 20
258.409997
 11
523.546919
 21
258.444653
  0
LINE
  8
OBRYS
 10
524.046919
 20
252.041561
 11
523.546919
 21
252.006905
  0
LINE
  8
OBRYS
 10
529.546919
 20
199.225779
 11
532.725161
 21
199.225779
  0
LINE
  8
OBRYS
 10
595.546919
 20
199.225779
 11
592.368676
 21
199.225779
  0
LINE
  8
OSA
 10
562.546919
 20
305.225779
 11
562.546919
 21
200.008060
  0
LINE
  8
OSA
 10
529.546919
 20
305.225779
 11
562.546919
 21
305.225779
  0
LINE
  8
OSA
 10
562.546919
 20
211.554681
 11
562.546919
 21
197.780431
  0
LINE
  8
OBRYS
 10
569.546919
 20
202.225779
 11
555.546919
 21
202.225779
  0
LINE
  8
OBRYS
 10
555.546919
 20
202.225779
 11
555.546919
 21
200.225779
  0
LINE
  8
OBRYS
 10
569.546919
 20
202.225779
 11
569.546919
 21
200.225779
  0
ARC
  8
OBRYS
 10
556.546919
 20
200.225779
 40
1.000000
 50
180.000000
 51
270.000000
  0
LINE
  8
OBRYS
 10
568.546919
 20
199.225779
 11
556.546919
 21
199.225779
  0
ARC
  8
OBRYS
 10
568.546919
 20
200.225779
 40
1.000000
 50
270.000000
 51
360.000000
  0
ARC
  8
0
 62
     2
 10
576.546919
 20
202.225779
 40
5.000000
 50
144.507081
 51
180.000000
  0
LINE
  8
0
 62
     2
 10
571.612314
 20
207.225779
 11
536.546919
 21
207.225779
  0
LINE
  8
OBRYS
 10
594.546919
 20
199.225779
 11
592.181308
 21
199.225779
  0
ARC
  8
OBRYS
 10
576.546919
 20
208.031802
 40
5.000000
 50
180.000000
 51
270.000000
  0
LINE
  8
OBRYS
 10
571.546919
 20
208.292712
 11
571.546919
 21
208.031802
  0
LINE
  8
OBRYS
 10
576.546919
 20
203.031802
 11
591.181308
 21
203.031802
  0
ARC
  8
OBRYS
 10
592.181308
 20
200.225779
 40
1.000000
 50
180.000000
 51
270.000000
  0
LINE
  8
OSA
 10
595.546919
 20
305.225779
 11
562.546919
 21
305.225779
  0
LINE
  8
OSA
 10
510.638121
 20
255.225779
 11
562.546919
 21
255.225779
  0
ARC
  8
OBRYS
 10
532.546919
 20
201.225779
 40
2.000000
 50
270.000000
 51
360.000000
  0
ARC
  8
0
 62
     2
 10
536.546919
 20
205.225779
 40
2.000000
 50
90.000000
 51
180.000000
  0
LINE
  8
POMOC
 62
     2
  6
CONTINUOUS
 10
553.546919
 20
202.225779
 11
562.546919
 21
202.225779
  0
LINE
  8
POMOC
 62
     2
  6
CONTINUOUS
 10
571.546919
 20
202.225779
 11
562.546919
 21
202.225779
  0
ARC
  8
0
 62
     2
 10
548.546919
 20
202.225779
 40
5.000000
 50
0.000000
 51
90.000000
  0
LINE
  8
NEVIDITELNA
 10
570.546919
 20
207.225779
 11
548.546919
 21
207.225779
  0
CIRCLE
  8
OBRYS
 10
562.546919
 20
132.036019
 40
10.000000
  0
ARC
  8
OBRYS
 10
562.546919
 20
132.036019
 40
4.500000
 50
109.471221
 51
70.528779
  0
LINE
  8
OBRYS
 10
561.046919
 20
136.278659
 11
561.046919
 21
137.836019
  0
LINE
  8
OBRYS
 10
561.046919
 20
137.836019
 11
564.046919
 21
137.836019
  0
LINE
  8
OBRYS
 10
564.046919
 20
137.836019
 11
564.046919
 21
136.278659
  0
LINE
  8
OSA
 10
562.546919
 20
132.036019
 11
562.546919
 21
118.911021
  0
LINE
  8
OSA
 10
562.546919
 20
132.036019
 11
562.546919
 21
145.161016
  0
LINE
  8
OSA
 10
562.546919
 20
132.036019
 11
549.421921
 21
132.036019
  0
LINE
  8
OSA
 10
562.546919
 20
132.036019
 11
575.671916
 21
132.036019
  0
LINE
  8
OSA
 10
562.546919
 20
105.786024
 11
575.671916
 21
105.786024
  0
LINE
  8
OSA
 10
562.546919
 20
105.786024
 11
549.421921
 21
105.786024
  0
LINE
  8
OSA
 10
562.546919
 20
105.786024
 11
562.546919
 21
118.911021
  0
LINE
  8
OSA
 10
562.546919
 20
105.786024
 11
562.546919
 21
92.661027
  0
CIRCLE
  8
OBRYS
 10
562.546919
 20
105.786024
 40
10.000000
  0
LINE
  8
OBRYS
 10
560.546919
 20
110.909499
 11
560.546919
 21
112.886024
  0
LINE
  8
OBRYS
 10
560.546919
 20
112.886024
 11
564.546919
 21
112.886024
  0
LINE
  8
OBRYS
 10
564.546919
 20
112.886024
 11
564.546919
 21
110.909499
  0
ARC
  8
OBRYS
 10
562.546919
 20
105.786024
 40
5.500000
 50
111.323686
 51
68.676314
  0
INSERT
  8
OSA
  2
_2
  6
CONTINUOUS
 10
562.546919
 20
305.225779
  0
LINE
  8
OBRYS
 10
534.546919
 20
201.225779
 11
534.546919
 21
216.159782
  0
LINE
  8
POMOC
 62
     2
  6
CONTINUOUS
 10
594.546919
 20
199.225779
 11
594.546919
 21
218.471469
  0
LINE
  8
OBRYS
 10
591.181308
 20
200.225779
 11
591.181308
 21
216.499393
  0
LINE
  8
OBRYS
 10
584.260785
 20
213.292712
 11
591.181308
 21
213.292712
  0
ARC
  8
OBRYS
 10
576.546919
 20
208.292712
 40
5.000000
 50
160.665974
 51
180.000000
  0
LINE
  8
OSA
 10
614.455717
 20
255.225779
 11
562.546919
 21
255.225779
  0
ARC
  8
OBRYS
 10
607.046919
 20
229.037808
 40
2.000000
 50
303.167665
 51
360.000000
  0
ARC
  8
OBRYS
 10
607.046919
 20
222.170951
 40
2.000000
 50
287.164833
 51
360.000000
  0
LINE
  8
OBRYS
 10
607.637162
 20
220.260031
 11
602.456675
 21
218.659887
  0
ARC
  8
OBRYS
 10
603.046919
 20
216.748967
 40
2.000000
 50
107.164833
 51
180.000000
  0
LINE
  8
OBRYS
 10
608.141101
 20
227.363661
 11
601.952737
 21
223.319096
  0
ARC
  8
OBRYS
 10
603.046919
 20
221.644949
 40
2.000000
 50
123.167665
 51
180.000000
  0
ARC
  8
OBRYS
 10
604.046919
 20
203.194808
 40
3.000000
 50
99.594068
 51
180.000000
  0
LINE
  8
OBRYS
 10
603.546919
 20
206.152848
 11
603.546919
 21
218.996640
  0
LINE
  8
OSA
 62
     2
  6
CONTINUOUS
 10
611.046919
 20
225.225779
 11
609.046919
 21
225.225779
  0
LINE
  8
OSA
 62
     2
  6
CONTINUOUS
 10
611.546919
 20
225.725779
 11
611.046919
 21
225.225779
  0
LINE
  8
OBRYS
 10
599.046919
 20
199.225779
 11
592.368676
 21
199.225779
  0
ARC
  8
OBRYS
 10
599.046919
 20
201.225779
 40
2.000000
 50
270.000000
 51
360.000000
  0
LINE
  8
OSA
 62
     2
  6
CONTINUOUS
 10
611.046919
 20
225.225779
 11
611.546919
 21
225.725779
  0
LINE
  8
OBRYS
 10
609.046919
 20
231.308105
 11
609.046919
 21
222.170951
  0
LINE
  8
OBRYS
 10
601.046919
 20
223.206761
 11
601.046919
 21
201.225779
  0
LINE
  8
OSA
 62
     2
  6
CONTINUOUS
 10
611.546919
 20
225.725779
 11
611.546919
 21
234.599200
  0
LINE
  8
OSA
 62
     2
  6
CONTINUOUS
 10
513.546919
 20
225.725779
 11
513.546919
 21
234.599200
  0
LINE
  8
OBRYS
 10
524.046919
 20
223.206761
 11
524.046919
 21
201.225779
  0
LINE
  8
OBRYS
 10
516.046919
 20
231.308105
 11
516.046919
 21
222.170951
  0
LINE
  8
OSA
 62
     2
  6
CONTINUOUS
 10
514.046919
 20
225.225779
 11
513.546919
 21
225.725779
  0
ARC
  8
OBRYS
 10
526.046919
 20
201.225779
 40
2.000000
 50
180.000000
 51
270.000000
  0
LINE
  8
OBRYS
 10
526.046919
 20
199.225779
 11
532.725161
 21
199.225779
  0
LINE
  8
OSA
 62
     2
  6
CONTINUOUS
 10
513.546919
 20
225.725779
 11
514.046919
 21
225.225779
  0
LINE
  8
OSA
 62
     2
  6
CONTINUOUS
 10
514.046919
 20
225.225779
 11
516.046919
 21
225.225779
  0
LINE
  8
OBRYS
 10
521.546919
 20
206.152848
 11
521.546919
 21
218.996640
  0
ARC
  8
OBRYS
 10
521.046919
 20
203.194808
 40
3.000000
 50
0.000000
 51
80.405932
  0
ARC
  8
OBRYS
 10
522.046919
 20
221.644949
 40
2.000000
 50
0.000000
 51
56.832335
  0
LINE
  8
OBRYS
 10
516.952737
 20
227.363661
 11
523.141101
 21
223.319096
  0
ARC
  8
OBRYS
 10
522.046919
 20
216.748967
 40
2.000000
 50
0.000000
 51
72.835167
  0
LINE
  8
OBRYS
 10
517.456675
 20
220.260031
 11
522.637162
 21
218.659887
  0
ARC
  8
OBRYS
 10
518.046919
 20
222.170951
 40
2.000000
 50
180.000000
 51
252.835167
  0
ARC
  8
OBRYS
 10
518.046919
 20
229.037808
 40
2.000000
 50
180.000000
 51
236.832335
  0
ARC
  8
OBRYS
 10
174.245147
 20
269.225779
 40
60.000000
 50
324.752242
 51
52.554053
  0
ARC
  8
OBRYS
 10
174.245147
 20
269.225779
 40
60.000000
 50
127.445947
 51
215.247761
  0
LINE
  8
OSA
 10
174.245147
 20
344.725779
 11
174.245147
 21
200.008060
  0
LINE
  8
0
 62
     2
 10
209.676855
 20
324.800668
 11
205.262102
 21
333.920802
  0
ARC
  8
OBRYS
 10
200.761651
 20
331.742283
 40
5.000000
 50
25.830081
 51
56.488335
  0
LINE
  8
0
 62
     2
 10
138.813438
 20
324.800668
 11
143.228192
 21
333.920802
  0
ARC
  8
OBRYS
 10
148.264385
 20
320.225779
 40
10.500000
 50
154.169919
 51
179.999994
  0
ARC
  8
OBRYS
 10
200.225909
 20
320.225779
 40
10.500000
 50
0.000006
 51
25.830081
  0
ARC
  8
OBRYS
 10
174.245147
 20
291.697871
 40
53.027909
 50
56.488379
 51
123.511629
  0
ARC
  8
OBRYS
 10
147.728642
 20
331.742283
 40
5.000000
 50
123.511664
 51
154.169919
  0
LINE
  8
0
 62
     2
 10
137.764385
 20
311.069307
 11
137.764385
 21
320.225779
  0
LINE
  8
0
 62
     2
 10
210.725909
 20
311.067324
 11
210.725909
 21
320.225779
  0
INSERT
  8
OBRYS
  2
_3
 62
     7
 10
307.396033
 20
103.564223
  0
INSERT
  8
OBRYS
  2
_4
 62
     7
 10
307.396033
 20
452.181514
  0
LINE
  8
OBRYS
 10
307.396033
 20
483.181514
 11
307.396033
 21
421.181514
  0
LINE
  8
OSA
 10
368.396033
 20
503.390442
 11
368.396033
 21
452.181514
  0
LINE
  8
OBRYS
 10
424.396033
 20
415.681514
 11
424.396033
 21
421.181514
  0
LINE
  8
OSA
 62
     2
  6
CONTINUOUS
 10
397.896033
 20
403.181514
 11
394.896033
 21
403.181514
  0
LINE
  8
OSA
 62
     2
  6
CONTINUOUS
 10
398.396033
 20
403.681514
 11
397.896033
 21
403.181514
  0
LINE
  8
OSA
 62
     2
  6
CONTINUOUS
 10
338.396033
 20
403.681514
 11
338.396033
 21
405.681514
  0
LINE
  8
OSA
 62
     2
  6
CONTINUOUS
 10
338.896033
 20
403.181514
 11
368.396033
 21
403.181514
  0
LINE
  8
OSA
 62
     2
  6
CONTINUOUS
 10
338.896033
 20
403.181514
 11
338.396033
 21
403.681514
  0
ARC
  8
OBRYS
 10
422.396033
 20
415.681514
 40
2.000000
 50
270.000000
 51
360.000000
  0
LINE
  8
OSA
 62
     2
  6
CONTINUOUS
 10
394.896033
 20
403.181514
 11
368.396033
 21
403.181514
  0
LINE
  8
OBRYS
 10
368.396033
 20
413.681514
 11
422.396033
 21
413.681514
  0
LINE
  8
OSA
 62
     2
  6
CONTINUOUS
 10
397.896033
 20
403.181514
 11
398.396033
 21
403.681514
  0
LINE
  8
OSA
 62
     2
  6
CONTINUOUS
 10
398.396033
 20
403.681514
 11
398.396033
 21
405.681514
  0
ARC
  8
OBRYS
 10
342.208061
 20
407.681514
 40
2.000000
 50
213.167665
 51
270.000000
  0
ARC
  8
OBRYS
 10
335.341204
 20
407.681514
 40
2.000000
 50
197.164833
 51
270.000000
  0
LINE
  8
OBRYS
 10
333.430285
 20
407.091270
 11
331.830140
 21
412.271757
  0
ARC
  8
OBRYS
 10
329.919221
 20
411.681514
 40
2.000000
 50
17.164833
 51
90.000000
  0
LINE
  8
OBRYS
 10
340.533915
 20
406.587332
 11
336.489350
 21
412.775695
  0
ARC
  8
OBRYS
 10
316.365061
 20
410.681514
 40
3.000000
 50
9.594068
 51
90.000000
  0
LINE
  8
OBRYS
 10
319.323101
 20
411.181514
 11
332.166894
 21
411.181514
  0
LINE
  8
OBRYS
 10
365.211815
 20
413.681514
 11
365.038535
 21
411.181514
  0
LINE
  8
OBRYS
 10
371.580251
 20
413.681514
 11
371.753530
 21
411.181514
  0
LINE
  8
OBRYS
 10
417.468964
 20
411.181514
 11
404.625172
 21
411.181514
  0
ARC
  8
OBRYS
 10
420.427004
 20
410.681514
 40
3.000000
 50
90.000000
 51
170.405932
  0
ARC
  8
OBRYS
 10
401.976862
 20
411.681514
 40
2.000000
 50
90.000000
 51
146.832335
  0
LINE
  8
OBRYS
 10
396.258150
 20
406.587332
 11
400.302716
 21
412.775695
  0
ARC
  8
OBRYS
 10
406.872845
 20
411.681514
 40
2.000000
 50
90.000000
 51
162.835167
  0
LINE
  8
OBRYS
 10
403.361780
 20
407.091270
 11
404.961925
 21
412.271757
  0
ARC
  8
OBRYS
 10
401.450861
 20
407.681514
 40
2.000000
 50
270.000000
 51
342.835167
  0
ARC
  8
OBRYS
 10
394.584004
 20
407.681514
 40
2.000000
 50
270.000000
 51
326.832335
  0
LINE
  8
OBRYS
 10
348.990903
 20
411.181514
 11
387.801162
 21
411.181514
  0
LINE
  8
OBRYS
 10
335.341204
 20
405.681514
 11
362.055954
 21
405.681514
  0
LINE
  8
OBRYS
 10
374.736112
 20
405.681514
 11
401.450861
 21
405.681514
  0
LINE
  8
OBRYS
 10
362.055954
 20
405.681514
 11
362.055954
 21
403.181514
  0
LINE
  8
OBRYS
 10
374.736112
 20
405.681514
 11
374.736112
 21
403.181514
  0
LINE
  8
OBRYS
 10
424.396033
 20
488.681514
 11
424.396033
 21
483.181514
  0
LINE
  8
OBRYS
 10
348.990903
 20
493.181514
 11
387.801162
 21
493.181514
  0
ARC
  8
OBRYS
 10
394.584004
 20
496.681514
 40
2.000000
 50
33.167665
 51
90.000000
  0
ARC
  8
OBRYS
 10
401.450861
 20
496.681514
 40
2.000000
 50
17.164833
 51
90.000000
  0
LINE
  8
OBRYS
 10
403.361780
 20
497.271757
 11
404.961925
 21
492.091270
  0
ARC
  8
OBRYS
 10
406.872845
 20
492.681514
 40
2.000000
 50
197.164833
 51
270.000000
  0
LINE
  8
OBRYS
 10
396.258150
 20
497.775695
 11
400.302716
 21
491.587332
  0
ARC
  8
OBRYS
 10
401.976862
 20
492.681514
 40
2.000000
 50
213.167665
 51
270.000000
  0
ARC
  8
OBRYS
 10
420.427004
 20
493.681514
 40
3.000000
 50
189.594068
 51
270.000000
  0
LINE
  8
OBRYS
 10
417.468964
 20
493.181514
 11
404.625172
 21
493.181514
  0
LINE
  8
OBRYS
 10
371.580251
 20
490.681514
 11
371.753530
 21
493.181514
  0
LINE
  8
OBRYS
 10
365.211815
 20
490.681514
 11
365.038535
 21
493.181514
  0
LINE
  8
OBRYS
 10
319.323101
 20
493.181514
 11
332.166894
 21
493.181514
  0
LINE
  8
OBRYS
 10
314.554395
 20
490.681514
 11
368.396033
 21
490.681514
  0
ARC
  8
OBRYS
 10
334.815203
 20
492.681514
 40
2.000000
 50
270.000000
 51
326.832335
  0
LINE
  8
OBRYS
 10
340.533915
 20
497.775695
 11
336.489350
 21
491.587332
  0
ARC
  8
OBRYS
 10
329.919221
 20
492.681514
 40
2.000000
 50
270.000000
 51
342.835167
  0
LINE
  8
OBRYS
 10
333.430285
 20
497.271757
 11
331.830140
 21
492.091270
  0
ARC
  8
OBRYS
 10
335.341204
 20
496.681514
 40
2.000000
 50
90.000000
 51
162.835167
  0
ARC
  8
OBRYS
 10
342.208061
 20
496.681514
 40
2.000000
 50
90.000000
 51
146.832335
  0
LINE
  8
OSA
 62
     2
  6
CONTINUOUS
 10
398.396033
 20
500.681514
 11
398.396033
 21
498.681514
  0
LINE
  8
OSA
 62
     2
  6
CONTINUOUS
 10
397.896033
 20
501.181514
 11
398.396033
 21
500.681514
  0
LINE
  8
OBRYS
 10
368.396033
 20
490.681514
 11
422.396033
 21
490.681514
  0
LINE
  8
OSA
 62
     2
  6
CONTINUOUS
 10
394.896033
 20
501.181514
 11
368.396033
 21
501.181514
  0
ARC
  8
OBRYS
 10
422.396033
 20
488.681514
 40
2.000000
 50
0.000000
 51
90.000000
  0
ARC
  8
OSA
 62
     2
  6
CONTINUOUS
 10
314.554395
 20
488.681514
 40
2.000000
 50
90.000000
 51
178.000000
  0
LINE
  8
OSA
 62
     2
  6
CONTINUOUS
 10
338.896033
 20
501.181514
 11
338.396033
 21
500.681514
  0
LINE
  8
OSA
 62
     2
  6
CONTINUOUS
 10
338.896033
 20
501.181514
 11
368.396033
 21
501.181514
  0
LINE
  8
OSA
 62
     2
  6
CONTINUOUS
 10
338.396033
 20
500.681514
 11
338.396033
 21
498.681514
  0
LINE
  8
OSA
 62
     2
  6
CONTINUOUS
 10
398.396033
 20
500.681514
 11
397.896033
 21
501.181514
  0
LINE
  8
OSA
 62
     2
  6
CONTINUOUS
 10
397.896033
 20
501.181514
 11
394.896033
 21
501.181514
  0
LINE
  8
OSA
 62
     2
  6
CONTINUOUS
 10
312.394135
 20
484.127166
 11
312.555614
 21
488.751313
  0
ARC
  8
OBRYS
 10
316.365061
 20
493.681514
 40
3.000000
 50
270.000000
 51
350.405932
  0
LINE
  8
OBRYS
 10
335.341204
 20
498.681514
 11
362.055954
 21
498.681514
  0
LINE
  8
OBRYS
 10
374.736112
 20
498.681514
 11
401.450861
 21
498.681514
  0
LINE
  8
OBRYS
 10
362.055954
 20
498.681514
 11
362.055954
 21
501.181514
  0
LINE
  8
OBRYS
 10
374.736112
 20
498.681514
 11
374.736112
 21
501.181514
  0
LINE
  8
OBRYS
 10
307.396033
 20
421.181514
 11
312.420396
 21
421.181514
  0
LINE
  8
OBRYS
 10
433.396033
 20
483.181514
 11
433.396033
 21
421.181514
  0
LINE
  8
OBRYS
 10
433.396033
 20
421.181514
 11
424.371669
 21
421.181514
  0
LINE
  8
OBRYS
 10
431.444007
 20
457.181515
 11
417.665530
 21
457.181515
  0
LINE
  8
OBRYS
 10
431.444007
 20
447.181512
 11
417.665530
 21
447.181512
  0
LINE
  8
OBRYS
 10
309.009520
 20
447.181512
 11
319.126535
 21
447.181512
  0
LINE
  8
OBRYS
 10
309.009520
 20
457.181515
 11
319.126535
 21
457.181515
  0
LINE
  8
OBRYS
 10
307.396033
 20
483.181514
 11
312.396033
 21
483.181514
  0
LINE
  8
OBRYS
 10
424.396033
 20
483.181514
 11
433.396033
 21
483.181514
  0
LINE
  8
OBRYS
 10
312.396033
 20
422.181514
 11
312.554395
 21
415.681514
  0
ARC
  8
OSA
 62
     2
  6
CONTINUOUS
 10
314.554395
 20
415.681514
 40
2.000000
 50
182.000000
 51
270.000000
  0
LINE
  8
OBRYS
 10
422.396033
 20
424.181514
 11
314.396033
 21
424.181514
  0
ARC
  8
OBRYS
 10
314.396033
 20
422.181514
 40
2.000000
 50
90.000000
 51
180.000000
  0
ARC
  8
0
 62
     2
 10
318.396033
 20
426.181514
 40
2.000000
 50
270.000000
 51
360.000000
  0
LINE
  8
0
 62
     2
 10
320.396033
 20
461.246909
 11
320.396033
 21
426.181514
  0
LINE
  8
OBRYS
 10
312.396033
 20
485.181514
 11
312.396033
 21
481.815902
  0
LINE
  8
OBRYS
 10
423.396033
 20
480.815902
 11
313.396033
 21
480.815902
  0
ARC
  8
OBRYS
 10
313.396033
 20
481.815902
 40
1.000000
 50
180.000000
 51
270.000000
  0
INSERT
  8
OSA
 66
     1
  2
Sroub_M10x16_5
  6
CONTINUOUS
 10
368.396033
 20
452.181514
  0
ATTRIB
  8
OSA
  6
CONTINUOUS
 10
0.000000
 20
0.000000
 40
2.500000
  1
DIN 912
  2
norma roz.
 70
     1
  0
ATTRIB
  8
OSA
  6
CONTINUOUS
 10
0.000000
 20
0.000000
 40
2.500000
  1
1.5
  2
roztec
 70
     1
  0
ATTRIB
  8
OSA
  6
CONTINUOUS
 10
0.000000
 20
0.000000
 40
2.500000
  1
*N
  2
puvod
 70
     1
  0
SEQEND
  8
OSA
  0
CIRCLE
  8
OBRYS
 10
368.396033
 20
452.181514
 40
9.000000
  0
LINE
  8
OBRYS
 10
326.462966
 20
466.181514
 11
326.462966
 21
480.815902
  0
ARC
  8
OBRYS
 10
321.462966
 20
466.181514
 40
5.000000
 50
270.000000
 51
360.000000
  0
LINE
  8
OBRYS
 10
316.202056
 20
466.181514
 11
316.202056
 21
480.815902
  0
ARC
  8
OBRYS
 10
321.202056
 20
466.181514
 40
5.000000
 50
180.000000
 51
270.000000
  0
LINE
  8
OBRYS
 10
355.261863
 20
467.181514
 11
355.261863
 21
480.815902
  0
LINE
  8
OBRYS
 10
343.261863
 20
467.181514
 11
343.261863
 21
480.815902
  0
ARC
  8
OBRYS
 10
349.261863
 20
467.181514
 40
6.000000
 50
270.000000
 51
360.000000
  0
ARC
  8
OBRYS
 10
349.261863
 20
467.181514
 40
6.000000
 50
180.000000
 51
270.000000
  0
LINE
  8
OBRYS
 10
424.396033
 20
419.181514
 11
424.396033
 21
422.359756
  0
LINE
  8
OBRYS
 10
424.396033
 20
485.181514
 11
424.396033
 21
482.003271
  0
LINE
  8
OBRYS
 10
314.554395
 20
413.681514
 11
368.396033
 21
413.681514
  0
LINE
  8
0
 62
     2
 10
416.396033
 20
461.246909
 11
416.396033
 21
426.181514
  0
LINE
  8
OBRYS
 10
424.396033
 20
484.181514
 11
424.396033
 21
481.815902
  0
ARC
  8
OBRYS
 10
415.590009
 20
466.181514
 40
5.000000
 50
270.000000
 51
360.000000
  0
LINE
  8
OBRYS
 10
415.329100
 20
461.181514
 11
415.590009
 21
461.181514
  0
LINE
  8
OBRYS
 10
420.590009
 20
466.181514
 11
420.590009
 21
480.815902
  0
ARC
  8
OBRYS
 10
415.329100
 20
466.181514
 40
5.000000
 50
180.000000
 51
270.000000
  0
LINE
  8
OBRYS
 10
410.329100
 20
466.181514
 11
410.329100
 21
480.815902
  0
ARC
  8
OBRYS
 10
387.530202
 20
467.181514
 40
6.000000
 50
270.000000
 51
360.000000
  0
ARC
  8
OBRYS
 10
387.530202
 20
467.181514
 40
6.000000
 50
180.000000
 51
270.000000
  0
LINE
  8
OBRYS
 10
393.530202
 20
467.181514
 11
393.530202
 21
480.815902
  0
LINE
  8
OBRYS
 10
381.530202
 20
467.181514
 11
381.530202
 21
480.815902
  0
ARC
  8
OBRYS
 10
423.396033
 20
481.815902
 40
1.000000
 50
270.000000
 51
360.000000
  0
LINE
  8
POMOC
 62
     2
  6
CONTINUOUS
 10
424.396033
 20
484.181514
 11
368.396033
 21
484.181514
  0
LINE
  8
OSA
 10
368.396033
 20
400.272716
 11
368.396033
 21
452.181514
  0
ARC
  8
OBRYS
 10
422.396033
 20
422.181514
 40
2.000000
 50
0.000000
 51
90.000000
  0
ARC
  8
0
 62
     2
 10
418.396033
 20
426.181514
 40
2.000000
 50
180.000000
 51
270.000000
  0
LINE
  8
NEVIDITELNA
 10
416.396033
 20
460.181514
 11
416.396033
 21
438.181514
  0
LINE
  8
POMOC
 62
     2
  6
CONTINUOUS
 10
312.396033
 20
484.181514
 11
368.396033
 21
484.181514
  0
LINE
  8
OBRYS
 10
312.394111
 20
484.127757
 11
312.395972
 21
484.181514
  0
LINE
  8
OSA
 10
290.049885
 20
452.181514
 11
436.428870
 21
452.181514
  0
LINE
  8
OBRYS
 10
374.736112
 20
150.064223
 11
374.736112
 21
152.564223
  0
LINE
  8
OBRYS
 10
362.055954
 20
150.064223
 11
362.055954
 21
152.564223
  0
LINE
  8
OBRYS
 10
374.736112
 20
57.064223
 11
374.736112
 21
54.564223
  0
LINE
  8
OBRYS
 10
362.055954
 20
57.064223
 11
362.055954
 21
54.564223
  0
LINE
  8
OBRYS
 10
374.736112
 20
150.064223
 11
401.450861
 21
150.064223
  0
LINE
  8
OBRYS
 10
335.341204
 20
150.064223
 11
362.055954
 21
150.064223
  0
LINE
  8
OBRYS
 10
374.736112
 20
57.064223
 11
401.450861
 21
57.064223
  0
LINE
  8
OBRYS
 10
335.341204
 20
57.064223
 11
362.055954
 21
57.064223
  0
ARC
  8
OBRYS
 10
316.365061
 20
62.064223
 40
3.000000
 50
9.594068
 51
90.000000
  0
LINE
  8
OSA
 62
     2
  6
CONTINUOUS
 10
312.394135
 20
71.618571
 11
312.555614
 21
66.994424
  0
LINE
  8
OSA
 62
     2
  6
CONTINUOUS
 10
397.896033
 20
54.564223
 11
394.896033
 21
54.564223
  0
LINE
  8
OSA
 62
     2
  6
CONTINUOUS
 10
398.396033
 20
55.064223
 11
397.896033
 21
54.564223
  0
LINE
  8
OSA
 62
     2
  6
CONTINUOUS
 10
338.396033
 20
55.064223
 11
338.396033
 21
57.064223
  0
LINE
  8
OSA
 62
     2
  6
CONTINUOUS
 10
338.896033
 20
54.564223
 11
368.396033
 21
54.564223
  0
LINE
  8
OSA
 62
     2
  6
CONTINUOUS
 10
338.896033
 20
54.564223
 11
338.396033
 21
55.064223
  0
ARC
  8
OSA
 62
     2
  6
CONTINUOUS
 10
314.554395
 20
67.064223
 40
2.000000
 50
182.000000
 51
270.000000
  0
ARC
  8
OBRYS
 10
422.396033
 20
67.064223
 40
2.000000
 50
270.000000
 51
360.000000
  0
LINE
  8
OSA
 62
     2
  6
CONTINUOUS
 10
394.896033
 20
54.564223
 11
368.396033
 21
54.564223
  0
LINE
  8
OBRYS
 10
368.396033
 20
65.064223
 11
422.396033
 21
65.064223
  0
LINE
  8
OSA
 62
     2
  6
CONTINUOUS
 10
397.896033
 20
54.564223
 11
398.396033
 21
55.064223
  0
LINE
  8
OSA
 62
     2
  6
CONTINUOUS
 10
398.396033
 20
55.064223
 11
398.396033
 21
57.064223
  0
ARC
  8
OBRYS
 10
342.208061
 20
59.064223
 40
2.000000
 50
213.167665
 51
270.000000
  0
ARC
  8
OBRYS
 10
335.341204
 20
59.064223
 40
2.000000
 50
197.164833
 51
270.000000
  0
LINE
  8
OBRYS
 10
333.430285
 20
58.473980
 11
331.830140
 21
63.654466
  0
ARC
  8
OBRYS
 10
329.919221
 20
63.064223
 40
2.000000
 50
17.164833
 51
90.000000
  0
LINE
  8
OBRYS
 10
340.533915
 20
57.970041
 11
336.489350
 21
64.158405
  0
ARC
  8
OBRYS
 10
334.815203
 20
63.064223
 40
2.000000
 50
33.167665
 51
90.000000
  0
LINE
  8
OBRYS
 10
314.554395
 20
65.064223
 11
368.396033
 21
65.064223
  0
LINE
  8
OBRYS
 10
319.323101
 20
62.564223
 11
332.166894
 21
62.564223
  0
LINE
  8
OBRYS
 10
365.211815
 20
65.064223
 11
365.038535
 21
62.564223
  0
LINE
  8
OBRYS
 10
371.580251
 20
65.064223
 11
371.753530
 21
62.564223
  0
LINE
  8
OBRYS
 10
417.468964
 20
62.564223
 11
404.625172
 21
62.564223
  0
ARC
  8
OBRYS
 10
420.427004
 20
62.064223
 40
3.000000
 50
90.000000
 51
170.405932
  0
ARC
  8
OBRYS
 10
401.976862
 20
63.064223
 40
2.000000
 50
90.000000
 51
146.832335
  0
LINE
  8
OBRYS
 10
396.258150
 20
57.970041
 11
400.302716
 21
64.158405
  0
ARC
  8
OBRYS
 10
406.872845
 20
63.064223
 40
2.000000
 50
90.000000
 51
162.835167
  0
LINE
  8
OBRYS
 10
403.361780
 20
58.473980
 11
404.961925
 21
63.654466
  0
ARC
  8
OBRYS
 10
401.450861
 20
59.064223
 40
2.000000
 50
270.000000
 51
342.835167
  0
ARC
  8
OBRYS
 10
394.584004
 20
59.064223
 40
2.000000
 50
270.000000
 51
326.832335
  0
LINE
  8
OBRYS
 10
348.990903
 20
62.564223
 11
387.801162
 21
62.564223
  0
LINE
  8
OBRYS
 10
348.990903
 20
144.564223
 11
387.801162
 21
144.564223
  0
ARC
  8
OBRYS
 10
394.584004
 20
148.064223
 40
2.000000
 50
33.167665
 51
90.000000
  0
ARC
  8
OBRYS
 10
401.450861
 20
148.064223
 40
2.000000
 50
17.164833
 51
90.000000
  0
LINE
  8
OBRYS
 10
403.361780
 20
148.654466
 11
404.961925
 21
143.473980
  0
ARC
  8
OBRYS
 10
406.872845
 20
144.064223
 40
2.000000
 50
197.164833
 51
270.000000
  0
LINE
  8
OBRYS
 10
396.258150
 20
149.158405
 11
400.302716
 21
142.970041
  0
ARC
  8
OBRYS
 10
401.976862
 20
144.064223
 40
2.000000
 50
213.167665
 51
270.000000
  0
ARC
  8
OBRYS
 10
420.427004
 20
145.064223
 40
3.000000
 50
189.594068
 51
270.000000
  0
LINE
  8
OBRYS
 10
417.468964
 20
144.564223
 11
404.625172
 21
144.564223
  0
LINE
  8
OBRYS
 10
371.580251
 20
142.064223
 11
371.753530
 21
144.564223
  0
LINE
  8
OBRYS
 10
365.211815
 20
142.064223
 11
365.038535
 21
144.564223
  0
LINE
  8
OBRYS
 10
319.323101
 20
144.564223
 11
332.166894
 21
144.564223
  0
ARC
  8
OBRYS
 10
316.365061
 20
145.064223
 40
3.000000
 50
270.000000
 51
350.405932
  0
LINE
  8
OBRYS
 10
314.554395
 20
142.064223
 11
368.396033
 21
142.064223
  0
ARC
  8
OBRYS
 10
334.815203
 20
144.064223
 40
2.000000
 50
270.000000
 51
326.832335
  0
LINE
  8
OBRYS
 10
340.533915
 20
149.158405
 11
336.489350
 21
142.970041
  0
ARC
  8
OBRYS
 10
329.919221
 20
144.064223
 40
2.000000
 50
270.000000
 51
342.835167
  0
LINE
  8
OBRYS
 10
333.430285
 20
148.654466
 11
331.830140
 21
143.473980
  0
ARC
  8
OBRYS
 10
335.341204
 20
148.064223
 40
2.000000
 50
90.000000
 51
162.835167
  0
ARC
  8
OBRYS
 10
342.208061
 20
148.064223
 40
2.000000
 50
90.000000
 51
146.832335
  0
LINE
  8
OSA
 62
     2
  6
CONTINUOUS
 10
398.396033
 20
152.064223
 11
398.396033
 21
150.064223
  0
LINE
  8
OSA
 62
     2
  6
CONTINUOUS
 10
397.896033
 20
152.564223
 11
398.396033
 21
152.064223
  0
LINE
  8
OBRYS
 10
368.396033
 20
142.064223
 11
422.396033
 21
142.064223
  0
ARC
  8
OSA
 62
     2
  6
CONTINUOUS
 10
310.395353
 20
135.579674
 40
2.000000
 50
329.487542
 51
358.000000
  0
ARC
  8
OBRYS
 10
310.395308
 20
71.548783
 40
2.000000
 50
1.982723
 51
30.512083
  0
LINE
  8
POMOC
 62
     2
  6
CONTINUOUS
 10
424.396033
 20
71.564223
 11
368.396033
 21
71.564223
  0
LINE
  8
OSA
 62
     2
  6
CONTINUOUS
 10
394.896033
 20
152.564223
 11
368.396033
 21
152.564223
  0
LINE
  8
OSA
 10
368.396033
 20
70.113949
 11
368.396033
 21
103.564223
  0
ARC
  8
OBRYS
 10
422.396033
 20
140.064223
 40
2.000000
 50
0.000000
 51
90.000000
  0
ARC
  8
OSA
 62
     2
  6
CONTINUOUS
 10
314.554395
 20
140.064223
 40
2.000000
 50
90.000000
 51
178.000000
  0
LINE
  8
OSA
 62
     2
  6
CONTINUOUS
 10
338.896033
 20
152.564223
 11
338.396033
 21
152.064223
  0
LINE
  8
OSA
 62
     2
  6
CONTINUOUS
 10
338.896033
 20
152.564223
 11
368.396033
 21
152.564223
  0
LINE
  8
OSA
 62
     2
  6
CONTINUOUS
 10
338.396033
 20
152.064223
 11
338.396033
 21
150.064223
  0
LINE
  8
OSA
 10
368.396033
 20
155.473021
 11
368.396033
 21
103.564223
  0
LINE
  8
POMOC
 62
     2
  6
CONTINUOUS
 10
312.396033
 20
71.564223
 11
368.396033
 21
71.564223
  0
LINE
  8
OSA
 62
     2
  6
CONTINUOUS
 10
398.396033
 20
152.064223
 11
397.896033
 21
152.564223
  0
LINE
  8
OSA
 62
     2
  6
CONTINUOUS
 10
397.896033
 20
152.564223
 11
394.896033
 21
152.564223
  0
LINE
  8
OBRYS
 10
312.394111
 20
71.617979
 11
312.395972
 21
71.564223
  0
LINE
  8
OSA
 62
     2
  6
CONTINUOUS
 10
312.394135
 20
135.509875
 11
312.555614
 21
140.134022
  0
LINE
  8
OBRYS
 10
307.396033
 20
127.393591
 11
307.396033
 21
131.484812
  0
LINE
  8
OBRYS
 10
307.396033
 20
127.393591
 11
307.396033
 21
131.484812
  0
LINE
  8
OBRYS
 10
307.396033
 20
79.734855
 11
307.396033
 21
75.643634
  0
LINE
  8
OBRYS
 10
307.396033
 20
79.734855
 11
307.396033
 21
75.643634
  0
LINE
  8
OBRYS
 10
307.396033
 20
130.364223
 11
307.396033
 21
76.764223
  0
LINE
  8
OBRYS
 10
433.396033
 20
76.764223
 11
433.396033
 21
130.364223
  0
LINE
  8
OBRYS
 10
341.984490
 20
134.550067
 11
341.984490
 21
72.578379
  0
POLYLINE
  8
OBRYS
 66
    1
  0
VERTEX
  8
OBRYS
 10
341.962006
 20
72.564240
  0
VERTEX
  8
OBRYS
 10
340.932587
 20
72.564240
  0
VERTEX
  8
OBRYS
 10
337.560547
 20
72.564240
  0
VERTEX
  8
OBRYS
 10
335.779816
 20
72.564240
  0
VERTEX
  8
OBRYS
 10
335.094635
 20
72.673492
  0
VERTEX
  8
OBRYS
 10
334.774811
 20
72.996490
  0
VERTEX
  8
OBRYS
 10
334.834351
 20
73.519135
  0
VERTEX
  8
OBRYS
 10
335.270599
 20
74.218597
  0
VERTEX
  8
OBRYS
 10
335.863861
 20
74.850433
  0
VERTEX
  8
OBRYS
 10
335.979980
 20
75.064240
  0
VERTEX
  8
OBRYS
 10
340.090393
 20
80.870636
  0
VERTEX
  8
OBRYS
 10
341.869293
 20
86.304596
  0
VERTEX
  8
OBRYS
 10
341.521179
 20
91.598663
  0
VERTEX
  8
OBRYS
 10
338.975281
 20
97.177460
  0
VERTEX
  8
OBRYS
 10
335.751587
 20
101.064240
  0
VERTEX
  8
OBRYS
 10
335.178101
 20
102.019135
  0
VERTEX
  8
OBRYS
 10
334.976105
 20
103.041595
  0
VERTEX
  8
OBRYS
 10
335.065247
 20
103.564240
  0
VERTEX
  8
OBRYS
 10
334.976105
 20
104.086884
  0
VERTEX
  8
OBRYS
 10
335.178101
 20
105.109283
  0
VERTEX
  8
OBRYS
 10
335.751587
 20
106.064240
  0
VERTEX
  8
OBRYS
 10
338.975281
 20
109.950958
  0
VERTEX
  8
OBRYS
 10
341.521179
 20
115.529755
  0
VERTEX
  8
OBRYS
 10
341.869293
 20
120.823822
  0
VERTEX
  8
OBRYS
 10
340.090393
 20
126.257782
  0
VERTEX
  8
OBRYS
 10
335.979980
 20
132.064240
  0
VERTEX
  8
OBRYS
 10
335.863861
 20
132.277985
  0
VERTEX
  8
OBRYS
 10
335.270599
 20
132.909882
  0
VERTEX
  8
OBRYS
 10
334.834351
 20
133.609283
  0
VERTEX
  8
OBRYS
 10
334.774811
 20
134.131927
  0
VERTEX
  8
OBRYS
 10
335.094635
 20
134.454987
  0
VERTEX
  8
OBRYS
 10
335.779816
 20
134.564240
  0
VERTEX
  8
OBRYS
 10
337.560547
 20
134.564240
  0
VERTEX
  8
OBRYS
 10
340.932587
 20
134.564240
  0
VERTEX
  8
OBRYS
 10
341.962006
 20
134.564240
  0
SEQEND
  8
OBRYS
  0
POLYLINE
  8
OBRYS
 66
    1
  0
VERTEX
  8
OBRYS
 10
390.830048
 20
72.564240
  0
VERTEX
  8
OBRYS
 10
390.807556
 20
72.578400
  0
VERTEX
  8
OBRYS
 10
387.826294
 20
72.735321
  0
VERTEX
  8
OBRYS
 10
377.321106
 20
73.049164
  0
VERTEX
  8
OBRYS
 10
366.396027
 20
73.155182
  0
VERTEX
  8
OBRYS
 10
355.470978
 20
73.049164
  0
VERTEX
  8
OBRYS
 10
344.965759
 20
72.735321
  0
VERTEX
  8
OBRYS
 10
341.984497
 20
72.578400
  0
VERTEX
  8
OBRYS
 10
341.962006
 20
72.564240
  0
SEQEND
  8
OBRYS
  0
POLYLINE
  8
OBRYS
 66
    1
  0
VERTEX
  8
OBRYS
 10
341.962006
 20
134.564240
  0
VERTEX
  8
OBRYS
 10
341.984497
 20
134.550079
  0
VERTEX
  8
OBRYS
 10
344.965759
 20
134.393097
  0
VERTEX
  8
OBRYS
 10
355.470978
 20
134.079254
  0
VERTEX
  8
OBRYS
 10
366.396027
 20
133.973297
  0
VERTEX
  8
OBRYS
 10
377.321106
 20
134.079254
  0
VERTEX
  8
OBRYS
 10
387.826294
 20
134.393097
  0
VERTEX
  8
OBRYS
 10
390.807556
 20
134.550079
  0
VERTEX
  8
OBRYS
 10
390.830048
 20
134.564240
  0
SEQEND
  8
OBRYS
  0
LINE
  8
OBRYS
 10
390.807575
 20
134.550067
 11
390.807575
 21
72.578379
  0
POLYLINE
  8
OBRYS
 66
    1
  0
VERTEX
  8
OBRYS
 10
390.830048
 20
134.564240
  0
VERTEX
  8
OBRYS
 10
391.859497
 20
134.564240
  0
VERTEX
  8
OBRYS
 10
395.231506
 20
134.564240
  0
VERTEX
  8
OBRYS
 10
397.012238
 20
134.564240
  0
VERTEX
  8
OBRYS
 10
397.697418
 20
134.454987
  0
VERTEX
  8
OBRYS
 10
398.017242
 20
134.131927
  0
VERTEX
  8
OBRYS
 10
397.957703
 20
133.609283
  0
VERTEX
  8
OBRYS
 10
397.521454
 20
132.909882
  0
VERTEX
  8
OBRYS
 10
396.928192
 20
132.277985
  0
VERTEX
  8
OBRYS
 10
396.812103
 20
132.064240
  0
VERTEX
  8
OBRYS
 10
392.701660
 20
126.257782
  0
VERTEX
  8
OBRYS
 10
390.922791
 20
120.823822
  0
VERTEX
  8
OBRYS
 10
391.270874
 20
115.529755
  0
VERTEX
  8
OBRYS
 10
393.816772
 20
109.950958
  0
VERTEX
  8
OBRYS
 10
397.040466
 20
106.064240
  0
VERTEX
  8
OBRYS
 10
397.613953
 20
105.109283
  0
VERTEX
  8
OBRYS
 10
397.815979
 20
104.086884
  0
VERTEX
  8
OBRYS
 10
397.726807
 20
103.564240
  0
VERTEX
  8
OBRYS
 10
397.815979
 20
103.041595
  0
VERTEX
  8
OBRYS
 10
397.613953
 20
102.019135
  0
VERTEX
  8
OBRYS
 10
397.040466
 20
101.064240
  0
VERTEX
  8
OBRYS
 10
393.816772
 20
97.177460
  0
VERTEX
  8
OBRYS
 10
391.270874
 20
91.598663
  0
VERTEX
  8
OBRYS
 10
390.922791
 20
86.304596
  0
VERTEX
  8
OBRYS
 10
392.701660
 20
80.870636
  0
VERTEX
  8
OBRYS
 10
396.812103
 20
75.064240
  0
VERTEX
  8
OBRYS
 10
396.928192
 20
74.850433
  0
VERTEX
  8
OBRYS
 10
397.521454
 20
74.218597
  0
VERTEX
  8
OBRYS
 10
397.957703
 20
73.519135
  0
VERTEX
  8
OBRYS
 10
398.017242
 20
72.996490
  0
VERTEX
  8
OBRYS
 10
397.697418
 20
72.673492
  0
VERTEX
  8
OBRYS
 10
397.012238
 20
72.564240
  0
VERTEX
  8
OBRYS
 10
395.231506
 20
72.564240
  0
VERTEX
  8
OBRYS
 10
391.859497
 20
72.564240
  0
VERTEX
  8
OBRYS
 10
390.830048
 20
72.564240
  0
SEQEND
  8
OBRYS
  0
LINE
  8
OBRYS
 10
433.396033
 20
134.564223
 11
433.396033
 21
132.064223
  0
LINE
  8
OBRYS
 10
307.396033
 20
134.564223
 11
307.396033
 21
132.064223
  0
LINE
  8
OBRYS
 10
433.396033
 20
106.064223
 11
433.396033
 21
101.064223
  0
LINE
  8
OBRYS
 10
433.396033
 20
75.064223
 11
433.396033
 21
72.564223
  0
LINE
  8
OBRYS
 10
323.015473
 20
134.564223
 11
341.962019
 21
134.564223
  0
LINE
  8
OBRYS
 10
390.830046
 20
134.564223
 11
409.776592
 21
134.564223
  0
LINE
  8
OBRYS
 10
341.962019
 20
72.564223
 11
323.015473
 21
72.564223
  0
LINE
  8
OBRYS
 10
409.776592
 20
72.564223
 11
390.830046
 21
72.564223
  0
LINE
  8
OBRYS
 10
397.012248
 20
134.564223
 11
433.396033
 21
134.564223
  0
LINE
  8
OBRYS
 10
335.779818
 20
134.564223
 11
307.396033
 21
134.564223
  0
LINE
  8
OBRYS
 10
433.396033
 20
132.064223
 11
396.812099
 21
132.064223
  0
LINE
  8
OBRYS
 10
307.396033
 20
132.064223
 11
335.979966
 21
132.064223
  0
LINE
  8
OBRYS
 10
433.396033
 20
106.064223
 11
397.040481
 21
106.064223
  0
LINE
  8
OBRYS
 10
433.396033
 20
132.064223
 11
433.396033
 21
106.064223
  0
LINE
  8
OBRYS
 10
307.396033
 20
106.064223
 11
335.751585
 21
106.064223
  0
LINE
  8
OBRYS
 10
307.396033
 20
132.064223
 11
307.396033
 21
106.064223
  0
LINE
  8
OBRYS
 10
433.396033
 20
101.064223
 11
397.040481
 21
101.064223
  0
LINE
  8
OBRYS
 10
307.396033
 20
101.064223
 11
335.751585
 21
101.064223
  0
LINE
  8
OBRYS
 10
433.396033
 20
75.064223
 11
396.812099
 21
75.064223
  0
LINE
  8
OBRYS
 10
433.396033
 20
101.064223
 11
433.396033
 21
75.064223
  0
LINE
  8
OBRYS
 10
307.396033
 20
75.064223
 11
335.979966
 21
75.064223
  0
LINE
  8
OBRYS
 10
433.396033
 20
72.564223
 11
397.012248
 21
72.564223
  0
LINE
  8
OBRYS
 10
424.396033
 20
71.564223
 11
424.396033
 21
72.564223
  0
LINE
  8
OBRYS
 10
424.396033
 20
140.064223
 11
424.396033
 21
134.564223
  0
LINE
  8
OBRYS
 10
424.396033
 20
67.064223
 11
424.396033
 21
72.564223
  0
LINE
  8
OSA
 10
318.396033
 20
103.564223
 11
433.396033
 21
103.564223
  0
LINE
  8
OBRYS
 10
307.396033
 20
101.064223
 11
307.396033
 21
72.564223
  0
LINE
  8
OBRYS
 10
307.396033
 20
72.564223
 11
335.779818
 21
72.564223
  0
LINE
  8
OSA
 10
290.239394
 20
103.564223
 11
318.396033
 21
103.564223
  0
LINE
  8
OBRYS
 10
220.745147
 20
248.885700
 11
223.245147
 21
248.885700
  0
LINE
  8
OBRYS
 10
220.745147
 20
261.565858
 11
223.245147
 21
261.565858
  0
LINE
  8
OBRYS
 10
127.745147
 20
248.885700
 11
125.245147
 21
248.885700
  0
LINE
  8
OBRYS
 10
127.745147
 20
261.565858
 11
125.245147
 21
261.565858
  0
LINE
  8
OBRYS
 10
220.745147
 20
248.885700
 11
220.745147
 21
222.170951
  0
LINE
  8
OBRYS
 10
220.745147
 20
288.280607
 11
220.745147
 21
261.565858
  0
LINE
  8
OBRYS
 10
127.745147
 20
248.885700
 11
127.745147
 21
222.170951
  0
LINE
  8
OBRYS
 10
127.745147
 20
288.280607
 11
127.745147
 21
261.565858
  0
LINE
  8
OSA
 10
207.245147
 20
305.225779
 11
174.245147
 21
305.225779
  0
ARC
  8
OBRYS
 10
132.745147
 20
307.256750
 40
3.000000
 50
279.594068
 51
360.000000
  0
LINE
  8
OSA
 62
     2
  6
CONTINUOUS
 10
142.299494
 20
311.227677
 11
137.675348
 21
311.066198
  0
LINE
  8
OSA
 62
     2
  6
CONTINUOUS
 10
125.245147
 20
225.725779
 11
125.245147
 21
228.725779
  0
LINE
  8
OSA
 62
     2
  6
CONTINUOUS
 10
125.745147
 20
225.225779
 11
125.245147
 21
225.725779
  0
LINE
  8
OSA
 62
     2
  6
CONTINUOUS
 10
125.745147
 20
285.225779
 11
127.745147
 21
285.225779
  0
LINE
  8
OSA
 62
     2
  6
CONTINUOUS
 10
125.245147
 20
284.725779
 11
125.245147
 21
255.225779
  0
LINE
  8
OSA
 62
     2
  6
CONTINUOUS
 10
125.245147
 20
284.725779
 11
125.745147
 21
285.225779
  0
ARC
  8
OSA
 62
     2
  6
CONTINUOUS
 10
137.745147
 20
309.067417
 40
2.000000
 50
92.000000
 51
180.000000
  0
ARC
  8
OBRYS
 10
137.745147
 20
201.225779
 40
2.000000
 50
180.000000
 51
270.000000
  0
LINE
  8
OSA
 62
     2
  6
CONTINUOUS
 10
125.245147
 20
228.725779
 11
125.245147
 21
255.225779
  0
LINE
  8
OBRYS
 10
137.745147
 20
199.225779
 11
144.423389
 21
199.225779
  0
LINE
  8
OBRYS
 10
135.745147
 20
255.225779
 11
135.745147
 21
201.225779
  0
LINE
  8
OSA
 62
     2
  6
CONTINUOUS
 10
125.245147
 20
225.725779
 11
125.745147
 21
225.225779
  0
LINE
  8
OSA
 62
     2
  6
CONTINUOUS
 10
125.745147
 20
225.225779
 11
127.745147
 21
225.225779
  0
ARC
  8
OBRYS
 10
129.745147
 20
281.413750
 40
2.000000
 50
123.167665
 51
180.000000
  0
ARC
  8
OBRYS
 10
129.745147
 20
288.280607
 40
2.000000
 50
107.164833
 51
180.000000
  0
LINE
  8
OBRYS
 10
129.154903
 20
290.191527
 11
134.335390
 21
291.791672
  0
ARC
  8
OBRYS
 10
133.745147
 20
293.702591
 40
2.000000
 50
287.164833
 51
360.000000
  0
LINE
  8
OBRYS
 10
128.650965
 20
283.087897
 11
134.839328
 21
287.132462
  0
ARC
  8
OBRYS
 10
133.745147
 20
288.806609
 40
2.000000
 50
303.167665
 51
360.000000
  0
LINE
  8
OBRYS
 10
135.745147
 20
309.067417
 11
135.745147
 21
255.225779
  0
LINE
  8
OBRYS
 10
133.245147
 20
304.298710
 11
133.245147
 21
291.454918
  0
LINE
  8
OBRYS
 10
135.745147
 20
258.409997
 11
133.245147
 21
258.583277
  0
LINE
  8
OBRYS
 10
135.745147
 20
252.041561
 11
133.245147
 21
251.868281
  0
LINE
  8
OBRYS
 10
133.245147
 20
206.152848
 11
133.245147
 21
218.996640
  0
ARC
  8
OBRYS
 10
132.745147
 20
203.194808
 40
3.000000
 50
0.000000
 51
80.405932
  0
ARC
  8
OBRYS
 10
133.745147
 20
221.644949
 40
2.000000
 50
0.000000
 51
56.832335
  0
LINE
  8
OBRYS
 10
128.650965
 20
227.363661
 11
134.839328
 21
223.319096
  0
ARC
  8
OBRYS
 10
133.745147
 20
216.748967
 40
2.000000
 50
0.000000
 51
72.835167
  0
LINE
  8
OBRYS
 10
129.154903
 20
220.260031
 11
134.335390
 21
218.659887
  0
ARC
  8
OBRYS
 10
129.745147
 20
222.170951
 40
2.000000
 50
180.000000
 51
252.835167
  0
ARC
  8
OBRYS
 10
129.745147
 20
229.037808
 40
2.000000
 50
180.000000
 51
236.832335
  0
LINE
  8
OBRYS
 10
133.245147
 20
274.630909
 11
133.245147
 21
235.820649
  0
LINE
  8
OBRYS
 10
215.245147
 20
274.630909
 11
215.245147
 21
235.820649
  0
ARC
  8
OBRYS
 10
218.745147
 20
229.037808
 40
2.000000
 50
303.167665
 51
360.000000
  0
ARC
  8
OBRYS
 10
218.745147
 20
222.170951
 40
2.000000
 50
287.164833
 51
360.000000
  0
LINE
  8
OBRYS
 10
219.335390
 20
220.260031
 11
214.154903
 21
218.659887
  0
ARC
  8
OBRYS
 10
214.745147
 20
216.748967
 40
2.000000
 50
107.164833
 51
180.000000
  0
LINE
  8
OBRYS
 10
219.839328
 20
227.363661
 11
213.650965
 21
223.319096
  0
ARC
  8
OBRYS
 10
214.745147
 20
221.644949
 40
2.000000
 50
123.167665
 51
180.000000
  0
ARC
  8
OBRYS
 10
215.745147
 20
203.194808
 40
3.000000
 50
99.594068
 51
180.000000
  0
LINE
  8
OBRYS
 10
215.245147
 20
206.152848
 11
215.245147
 21
218.996640
  0
LINE
  8
OBRYS
 10
212.745147
 20
252.041561
 11
215.245147
 21
251.868281
  0
LINE
  8
OBRYS
 10
212.745147
 20
258.409997
 11
215.245147
 21
258.583277
  0
LINE
  8
OBRYS
 10
215.245147
 20
304.298710
 11
215.245147
 21
291.454918
  0
ARC
  8
OBRYS
 10
215.745147
 20
307.256750
 40
3.000000
 50
180.000000
 51
260.405932
  0
LINE
  8
OBRYS
 10
212.745147
 20
309.067417
 11
212.745147
 21
255.225779
  0
ARC
  8
OBRYS
 10
214.745147
 20
288.806609
 40
2.000000
 50
180.000000
 51
236.832335
  0
LINE
  8
OBRYS
 10
219.839328
 20
283.087897
 11
213.650965
 21
287.132462
  0
ARC
  8
OBRYS
 10
214.745147
 20
293.702591
 40
2.000000
 50
180.000000
 51
252.835167
  0
LINE
  8
OBRYS
 10
219.335390
 20
290.191527
 11
214.154903
 21
291.791672
  0
ARC
  8
OBRYS
 10
218.745147
 20
288.280607
 40
2.000000
 50
0.000000
 51
72.835167
  0
ARC
  8
OBRYS
 10
218.745147
 20
281.413750
 40
2.000000
 50
0.000000
 51
56.832335
  0
LINE
  8
OSA
 62
     2
  6
CONTINUOUS
 10
222.745147
 20
225.225779
 11
220.745147
 21
225.225779
  0
LINE
  8
OSA
 62
     2
  6
CONTINUOUS
 10
223.245147
 20
225.725779
 11
222.745147
 21
225.225779
  0
LINE
  8
OSA
 10
174.245147
 20
211.554681
 11
174.245147
 21
197.780431
  0
LINE
  8
OBRYS
 10
167.245147
 20
202.225779
 11
181.245147
 21
202.225779
  0
LINE
  8
OBRYS
 10
181.245147
 20
202.225779
 11
181.245147
 21
200.225779
  0
LINE
  8
OBRYS
 10
167.245147
 20
202.225779
 11
167.245147
 21
200.225779
  0
ARC
  8
OBRYS
 10
180.245147
 20
200.225779
 40
1.000000
 50
270.000000
 51
360.000000
  0
LINE
  8
OBRYS
 10
168.245147
 20
199.225779
 11
180.245147
 21
199.225779
  0
ARC
  8
OBRYS
 10
168.245147
 20
200.225779
 40
1.000000
 50
180.000000
 51
270.000000
  0
LINE
  8
OSA
 10
165.114658
 20
209.031803
 11
137.245147
 21
209.031803
  0
ARC
  8
0
 62
     2
 10
160.245147
 20
202.225779
 40
5.000000
 50
0.000000
 51
35.492919
  0
LINE
  8
0
 62
     2
 10
165.179752
 20
207.225779
 11
200.245147
 21
207.225779
  0
LINE
  8
OBRYS
 10
142.245147
 20
199.225779
 11
144.610758
 21
199.225779
  0
ARC
  8
OBRYS
 10
160.245147
 20
208.031802
 40
5.000000
 50
270.000000
 51
360.000000
  0
LINE
  8
OBRYS
 10
165.245147
 20
208.292712
 11
165.245147
 21
208.031802
  0
LINE
  8
OBRYS
 10
160.245147
 20
203.031802
 11
145.610758
 21
203.031802
  0
ARC
  8
OBRYS
 10
160.245147
 20
208.292712
 40
5.000000
 50
0.000000
 51
90.000000
  0
LINE
  8
OBRYS
 10
160.245147
 20
213.292712
 11
145.610758
 21
213.292712
  0
ARC
  8
OBRYS
 10
159.245147
 20
236.091610
 40
6.000000
 50
270.000000
 51
360.000000
  0
ARC
  8
OBRYS
 10
159.245147
 20
236.091610
 40
6.000000
 50
0.000000
 51
90.000000
  0
LINE
  8
OBRYS
 10
159.245147
 20
230.091610
 11
145.610758
 21
230.091610
  0
LINE
  8
OSA
 10
165.114658
 20
236.091610
 11
137.245147
 21
236.091610
  0
LINE
  8
OBRYS
 10
159.245147
 20
242.091610
 11
145.610758
 21
242.091610
  0
ARC
  8
OBRYS
 10
166.706189
 20
271.473281
 40
2.000000
 50
60.000000
 51
158.848608
  0
ARC
  8
OBRYS
 10
159.245147
 20
274.359949
 40
6.000000
 50
270.000000
 51
338.848608
  0
LINE
  8
OBRYS
 10
145.610758
 20
200.225779
 11
145.610758
 21
286.642623
  0
LINE
  8
OBRYS
 10
155.314029
 20
280.359949
 11
145.610758
 21
280.359949
  0
ARC
  8
OBRYS
 10
144.610758
 20
200.225779
 40
1.000000
 50
270.000000
 51
360.000000
  0
LINE
  8
OBRYS
 10
212.745147
 20
255.225779
 11
212.745147
 21
201.225779
  0
LINE
  8
OBRYS
 10
202.245147
 20
201.225779
 11
202.245147
 21
285.595870
  0
ARC
  8
OSA
 62
     2
  6
CONTINUOUS
 10
206.260598
 20
313.226459
 40
2.000000
 50
239.487542
 51
268.000000
  0
ARC
  8
OBRYS
 10
142.229707
 20
313.226504
 40
2.000000
 50
271.982723
 51
300.512083
  0
LINE
  8
OBRYS
 10
159.245147
 20
268.359949
 11
145.610758
 21
268.359949
  0
LINE
  8
OSA
 10
165.114658
 20
274.359949
 11
137.245147
 21
274.359949
  0
CIRCLE
  8
OBRYS
 10
174.245147
 20
305.225779
 40
26.000000
  0
ARC
  8
OBRYS
 10
174.245147
 20
329.474490
 40
10.000000
 50
60.000000
 51
120.000000
  0
LINE
  8
OBRYS
 10
169.245146
 20
338.134744
 11
148.245147
 21
326.010389
  0
ARC
  8
OBRYS
 10
153.245147
 20
317.350135
 40
10.000000
 50
120.000000
 51
180.000000
  0
LINE
  8
OBRYS
 10
200.245147
 20
326.010389
 11
179.245146
 21
338.134745
  0
ARC
  8
OBRYS
 10
195.245147
 20
317.350135
 40
10.000000
 50
0.000000
 51
60.000000
  0
LINE
  8
OBRYS
 10
205.245147
 20
293.101423
 11
205.245147
 21
317.350135
  0
ARC
  8
OBRYS
 10
195.245147
 20
293.101423
 40
10.000000
 50
300.000000
 51
360.000000
  0
LINE
  8
OBRYS
 10
179.245147
 20
272.316814
 11
200.245147
 21
284.441169
  0
ARC
  8
OBRYS
 10
174.245147
 20
280.977068
 40
10.000000
 50
240.000000
 51
300.000000
  0
LINE
  8
OBRYS
 10
148.245147
 20
284.441169
 11
169.245147
 21
272.316814
  0
LINE
  8
OBRYS
 10
143.245147
 20
317.350135
 11
143.245147
 21
293.101423
  0
ARC
  8
OBRYS
 10
153.245147
 20
293.101423
 40
10.000000
 50
180.000000
 51
240.000000
  0
LINE
  8
POMOC
 62
     2
  6
CONTINUOUS
 10
142.245147
 20
199.225779
 11
142.245147
 21
255.225779
  0
LINE
  8
OBRYS
 10
210.745147
 20
199.225779
 11
204.066904
 21
199.225779
  0
LINE
  8
OSA
 62
     2
  6
CONTINUOUS
 10
223.245147
 20
228.725779
 11
223.245147
 21
255.225779
  0
LINE
  8
OSA
 10
140.794873
 20
255.225779
 11
174.245147
 21
255.225779
  0
ARC
  8
OBRYS
 10
210.745147
 20
201.225779
 40
2.000000
 50
270.000000
 51
360.000000
  0
ARC
  8
OSA
 62
     2
  6
CONTINUOUS
 10
210.745147
 20
309.067417
 40
2.000000
 50
0.000000
 51
88.000000
  0
LINE
  8
OSA
 10
141.245147
 20
305.225779
 11
174.245147
 21
305.225779
  0
LINE
  8
OSA
 62
     2
  6
CONTINUOUS
 10
223.245147
 20
284.725779
 11
222.745147
 21
285.225779
  0
LINE
  8
OSA
 62
     2
  6
CONTINUOUS
 10
223.245147
 20
284.725779
 11
223.245147
 21
255.225779
  0
LINE
  8
OSA
 62
     2
  6
CONTINUOUS
 10
222.745147
 20
285.225779
 11
220.745147
 21
285.225779
  0
LINE
  8
OSA
 10
226.153944
 20
255.225779
 11
174.245147
 21
255.225779
  0
ARC
  8
OBRYS
 10
204.245147
 20
201.225779
 40
2.000000
 50
180.000000
 51
270.000000
  0
ARC
  8
0
 62
     2
 10
200.245147
 20
205.225779
 40
2.000000
 50
0.000000
 51
90.000000
  0
LINE
  8
POMOC
 62
     2
  6
CONTINUOUS
 10
183.245147
 20
202.225779
 11
174.245147
 21
202.225779
  0
LINE
  8
POMOC
 62
     2
  6
CONTINUOUS
 10
165.245147
 20
202.225779
 11
174.245147
 21
202.225779
  0
ARC
  8
0
 62
     2
 10
188.245147
 20
202.225779
 40
5.000000
 50
90.000000
 51
180.000000
  0
LINE
  8
NEVIDITELNA
 10
166.245147
 20
207.225779
 11
188.245147
 21
207.225779
  0
LINE
  8
POMOC
 62
     2
  6
CONTINUOUS
 10
142.245147
 20
311.225779
 11
142.245147
 21
255.225779
  0
LINE
  8
OSA
 62
     2
  6
CONTINUOUS
 10
222.745147
 20
225.225779
 11
223.245147
 21
225.725779
  0
LINE
  8
OSA
 62
     2
  6
CONTINUOUS
 10
223.245147
 20
225.725779
 11
223.245147
 21
228.725779
  0
LINE
  8
OBRYS
 10
142.298903
 20
311.227701
 11
142.245147
 21
311.225840
  0
LINE
  8
OSA
 62
     2
  6
CONTINUOUS
 10
206.190799
 20
311.227677
 11
210.814946
 21
311.066198
  0
ARC
  8
OBRYS
 10
756.697805
 20
156.225779
 40
70.000000
 50
108.283383
 51
117.662807
  0
ARC
  8
OBRYS
 10
756.697805
 20
255.225779
 40
50.000000
 50
221.652443
 51
228.347557
  0
ARC
  8
OBRYS
 10
756.697805
 20
255.225779
 40
50.000000
 50
131.652443
 51
138.347557
  0
ARC
  8
OBRYS
 10
756.697805
 20
255.225779
 40
50.000000
 50
41.652443
 51
48.347557
  0
ARC
  8
OSA
 62
     2
  6
CONTINUOUS
 10
756.697805
 20
255.225779
 40
44.000000
 50
218.299700
 51
231.700300
  0
ARC
  8
OSA
 62
     2
  6
CONTINUOUS
 10
756.697805
 20
255.225779
 40
44.000000
 50
128.299700
 51
141.700300
  0
ARC
  8
OSA
 62
     2
  6
CONTINUOUS
 10
756.697805
 20
255.225779
 40
44.000000
 50
38.299700
 51
51.700300
  0
ARC
  8
OSA
 62
     2
  6
CONTINUOUS
 10
756.697805
 20
255.225779
 40
44.000000
 50
308.299700
 51
321.700300
  0
ARC
  8
OSA
 62
     2
  6
CONTINUOUS
 10
756.697805
 20
255.225779
 40
30.000000
 50
192.200655
 51
257.580550
  0
ARC
  8
OSA
 62
     2
  6
CONTINUOUS
 10
756.697805
 20
255.225779
 40
30.000000
 50
102.200655
 51
167.799345
  0
ARC
  8
OSA
 62
     2
  6
CONTINUOUS
 10
756.697805
 20
255.225779
 40
30.000000
 50
12.200655
 51
77.799345
  0
ARC
  8
OSA
 62
     2
  6
CONTINUOUS
 10
756.697805
 20
255.225779
 40
30.000000
 50
282.419450
 51
347.799345
  0
ARC
  8
OBRYS
 10
706.967292
 20
250.041561
 40
2.000000
 50
65.973924
 51
185.951372
  0
ARC
  8
OBRYS
 10
751.513587
 20
304.956292
 40
2.000000
 50
335.973924
 51
95.951372
  0
ARC
  8
OBRYS
 10
806.428317
 20
260.409997
 40
2.000000
 50
245.973924
 51
5.951372
  0
ARC
  8
OBRYS
 10
756.697805
 20
255.225779
 40
52.000000
 50
185.951372
 51
219.153739
  0
ARC
  8
OBRYS
 10
756.697805
 20
255.225779
 40
52.000000
 50
95.951372
 51
129.153739
  0
ARC
  8
OBRYS
 10
756.697805
 20
255.225779
 40
52.000000
 50
5.951372
 51
39.153739
  0
ARC
  8
OBRYS
 10
717.925078
 20
223.655609
 40
2.000000
 50
219.153739
 51
332.337193
  0
ARC
  8
OBRYS
 10
725.127635
 20
293.998506
 40
2.000000
 50
129.153739
 51
242.337193
  0
ARC
  8
OBRYS
 10
795.470532
 20
286.795949
 40
2.000000
 50
39.153739
 51
152.337193
  0
ARC
  8
OBRYS
 10
756.697805
 20
255.225779
 40
52.000000
 50
140.846261
 51
174.048628
  0
ARC
  8
OBRYS
 10
756.697805
 20
255.225779
 40
52.000000
 50
50.846261
 51
84.048628
  0
ARC
  8
OBRYS
 10
756.697805
 20
255.225779
 40
52.000000
 50
320.846261
 51
354.048628
  0
ARC
  8
OBRYS
 10
706.967292
 20
260.409997
 40
2.000000
 50
174.048628
 51
294.026076
  0
ARC
  8
OBRYS
 10
761.882023
 20
304.956292
 40
2.000000
 50
84.048628
 51
204.026076
  0
ARC
  8
OBRYS
 10
806.428317
 20
250.041561
 40
2.000000
 50
354.048628
 51
114.026076
  0
ARC
  8
OBRYS
 10
717.925078
 20
286.795949
 40
2.000000
 50
27.662807
 51
140.846261
  0
ARC
  8
OBRYS
 10
788.267975
 20
293.998506
 40
2.000000
 50
297.662807
 51
50.846261
  0
ARC
  8
OBRYS
 10
795.470532
 20
223.655609
 40
2.000000
 50
207.662807
 51
320.846261
  0
ARC
  8
OBRYS
 10
686.694233
 20
325.229350
 40
70.000000
 50
287.337193
 51
296.716617
  0
ARC
  8
OBRYS
 10
826.701376
 20
325.229350
 40
70.000000
 50
197.337193
 51
206.716617
  0
ARC
  8
OBRYS
 10
826.701376
 20
185.222208
 40
70.000000
 50
107.337193
 51
116.716617
  0
ARC
  8
OBRYS
 10
712.769762
 20
273.421370
 40
12.000000
 50
296.716617
 51
18.283383
  0
ARC
  8
OBRYS
 10
774.893396
 20
299.153822
 40
12.000000
 50
206.716617
 51
288.283383
  0
ARC
  8
OBRYS
 10
800.625848
 20
237.030188
 40
12.000000
 50
116.716617
 51
198.283383
  0
ARC
  8
OBRYS
 10
657.697805
 20
255.225779
 40
70.000000
 50
18.283383
 51
27.662807
  0
ARC
  8
OBRYS
 10
756.697805
 20
354.225779
 40
70.000000
 50
288.283383
 51
297.662807
  0
ARC
  8
OBRYS
 10
855.697805
 20
255.225779
 40
70.000000
 50
198.283383
 51
207.662807
  0
ARC
  8
OBRYS
 10
686.694233
 20
185.222208
 40
70.000000
 50
63.283383
 51
72.662807
  0
ARC
  8
OBRYS
 10
686.694233
 20
325.229350
 40
70.000000
 50
333.283383
 51
342.662807
  0
ARC
  8
OBRYS
 10
826.701376
 20
325.229350
 40
70.000000
 50
243.283383
 51
252.662807
  0
ARC
  8
OBRYS
 10
657.697805
 20
255.225779
 40
70.000000
 50
332.337193
 51
341.716617
  0
ARC
  8
OBRYS
 10
756.697805
 20
354.225779
 40
70.000000
 50
242.337193
 51
251.716617
  0
ARC
  8
OBRYS
 10
855.697805
 20
255.225779
 40
70.000000
 50
152.337193
 51
161.716617
  0
ARC
  8
OBRYS
 10
712.769762
 20
237.030188
 40
12.000000
 50
341.716617
 51
63.283383
  0
ARC
  8
OBRYS
 10
738.502214
 20
299.153822
 40
12.000000
 50
251.716617
 51
333.283383
  0
ARC
  8
OBRYS
 10
800.625848
 20
273.421370
 40
12.000000
 50
161.716617
 51
243.283383
  0
ARC
  8
OBRYS
 10
665.197805
 20
255.225779
 40
62.500000
 50
342.313290
 51
17.686710
  0
ARC
  8
OBRYS
 10
756.697805
 20
346.725779
 40
62.500000
 50
252.313290
 51
287.686710
  0
ARC
  8
OBRYS
 10
848.197805
 20
255.225779
 40
62.500000
 50
162.313290
 51
197.686710
  0
ARC
  8
OBRYS
 10
756.697805
 20
163.725779
 40
62.500000
 50
72.313290
 51
107.686710
  0
ARC
  8
OBRYS
 10
774.893396
 20
211.297736
 40
12.000000
 50
71.716617
 51
153.283383
  0
ARC
  8
OBRYS
 10
756.697805
 20
156.225779
 40
70.000000
 50
62.337193
 51
71.716617
  0
ARC
  8
OBRYS
 10
826.701376
 20
185.222208
 40
70.000000
 50
153.283383
 51
162.662807
  0
ARC
  8
OBRYS
 10
738.502214
 20
211.297736
 40
12.000000
 50
26.716617
 51
108.283383
  0
ARC
  8
OBRYS
 10
686.694233
 20
185.222208
 40
70.000000
 50
17.337193
 51
26.716617
  0
ARC
  8
OBRYS
 10
725.127635
 20
216.453052
 40
2.000000
 50
117.662807
 51
230.846261
  0
ARC
  8
OBRYS
 10
751.513587
 20
205.495267
 40
2.000000
 50
264.048628
 51
24.026076
  0
ARC
  8
OBRYS
 10
756.697805
 20
255.225779
 40
52.000000
 50
230.846261
 51
264.048628
  0
ARC
  8
OBRYS
 10
788.267975
 20
216.453052
 40
2.000000
 50
309.153739
 51
62.337193
  0
ARC
  8
OBRYS
 10
756.697805
 20
255.225779
 40
52.000000
 50
275.951372
 51
309.153739
  0
ARC
  8
OBRYS
 10
761.882023
 20
205.495267
 40
2.000000
 50
155.973924
 51
275.951372
  0
LINE
  8
OBRYS
 10
716.697805
 20
340.247993
 11
723.664484
 21
336.225779
  0
LINE
  8
OBRYS
 10
796.697805
 20
340.247993
 11
789.731126
 21
336.225779
  0
LINE
  8
OBRYS
 10
723.664484
 20
336.225779
 11
789.731126
 21
336.225779
  0
LINE
  8
0
 62
     2
 10
723.664484
 20
336.225779
 11
723.664484
 21
300.445241
  0
LINE
  8
0
 62
     2
 10
789.731126
 20
336.225779
 11
789.731126
 21
300.445241
  0
LINE
  8
OBRYS
 10
707.666834
 20
258.064308
 11
707.666834
 21
252.431553
  0
LINE
  8
OBRYS
 10
759.536333
 20
304.256750
 11
753.903579
 21
304.256750
  0
LINE
  8
OBRYS
 10
805.728776
 20
252.387251
 11
805.728776
 21
258.020005
  0
LINE
  8
OBRYS
 10
753.859276
 20
206.194808
 11
759.492031
 21
206.194808
  0
LINE
  8
0
 62
     2
 10
817.697805
 20
290.214672
 11
800.421681
 21
290.214672
  0
LINE
  8
0
 62
     2
 10
817.697805
 20
285.884545
 11
803.559730
 21
285.884545
  0
LINE
  8
0
 62
     2
 10
817.697805
 20
270.873438
 11
810.467227
 21
270.873438
  0
LINE
  8
0
 62
     2
 10
817.697805
 20
324.567013
 11
795.735650
 21
324.567013
  0
LINE
  8
0
 62
     2
 10
817.697805
 20
320.236886
 11
795.935798
 21
320.236886
  0
LINE
  8
0
 62
     2
 10
817.697805
 20
339.578120
 11
795.964031
 21
339.578120
  0
POLYLINE
  8
0
 62
     2
 66
    1
  0
VERTEX
  8
0
 62
     2
 10
790.665771
 20
299.747498
  0
VERTEX
  8
0
 62
     2
 10
789.731201
 20
305.225769
  0
VERTEX
  8
0
 62
     2
 10
790.783203
 20
311.392029
  0
VERTEX
  8
0
 62
     2
 10
794.155151
 20
318.066406
  0
VERTEX
  8
0
 62
     2
 10
795.935913
 20
320.236877
  0
VERTEX
  8
0
 62
     2
 10
796.621094
 20
321.276428
  0
VERTEX
  8
0
 62
     2
 10
796.940918
 20
322.270569
  0
VERTEX
  8
0
 62
     2
 10
796.881348
 20
323.175781
  0
VERTEX
  8
0
 62
     2
 10
796.445068
 20
323.952576
  0
VERTEX
  8
0
 62
     2
 10
795.851807
 20
324.411682
  0
VERTEX
  8
0
 62
     2
 10
795.735718
 20
324.567017
  0
VERTEX
  8
0
 62
     2
 10
791.625366
 20
327.919281
  0
VERTEX
  8
0
 62
     2
 10
789.846436
 20
331.056610
  0
VERTEX
  8
0
 62
     2
 10
790.194580
 20
334.113129
  0
VERTEX
  8
0
 62
     2
 10
792.740479
 20
337.334076
  0
VERTEX
  8
0
 62
     2
 10
795.964111
 20
339.578094
  0
VERTEX
  8
0
 62
     2
 10
796.537598
 20
340.003204
  0
VERTEX
  8
0
 62
     2
 10
796.739624
 20
340.220551
  0
VERTEX
  8
0
 62
     2
 10
796.650513
 20
340.220551
  0
SEQEND
  8
0
  0
POLYLINE
  8
0
 62
     2
 66
    1
  0
VERTEX
  8
0
 62
     2
 10
722.729980
 20
299.747498
  0
VERTEX
  8
0
 62
     2
 10
723.664551
 20
305.225769
  0
VERTEX
  8
0
 62
     2
 10
722.612671
 20
311.392029
  0
VERTEX
  8
0
 62
     2
 10
719.240601
 20
318.066406
  0
VERTEX
  8
0
 62
     2
 10
717.459839
 20
320.236877
  0
VERTEX
  8
0
 62
     2
 10
716.774658
 20
321.276428
  0
VERTEX
  8
0
 62
     2
 10
716.454956
 20
322.270569
  0
VERTEX
  8
0
 62
     2
 10
716.514404
 20
323.175781
  0
VERTEX
  8
0
 62
     2
 10
716.950684
 20
323.952576
  0
VERTEX
  8
0
 62
     2
 10
717.543945
 20
324.411682
  0
VERTEX
  8
0
 62
     2
 10
717.660034
 20
324.567017
  0
VERTEX
  8
0
 62
     2
 10
721.770508
 20
327.919281
  0
VERTEX
  8
0
 62
     2
 10
723.549316
 20
331.056610
  0
VERTEX
  8
0
 62
     2
 10
723.201294
 20
334.113129
  0
VERTEX
  8
0
 62
     2
 10
720.655396
 20
337.334076
  0
VERTEX
  8
0
 62
     2
 10
717.431641
 20
339.578094
  0
VERTEX
  8
0
 62
     2
 10
716.858154
 20
340.003204
  0
VERTEX
  8
0
 62
     2
 10
716.656128
 20
340.220551
  0
VERTEX
  8
0
 62
     2
 10
716.745361
 20
340.220551
  0
SEQEND
  8
0
  0
LINE
  8
0
 62
     2
 10
691.697805
 20
290.214672
 11
712.973928
 21
290.214672
  0
LINE
  8
0
 62
     2
 10
691.697805
 20
285.884545
 11
709.835879
 21
285.884545
  0
LINE
  8
0
 62
     2
 10
691.697805
 20
270.873438
 11
702.928383
 21
270.873438
  0
LINE
  8
0
 62
     2
 10
691.697805
 20
339.578120
 11
717.431579
 21
339.578120
  0
LINE
  8
0
 62
     2
 10
691.697805
 20
324.567013
 11
717.659960
 21
324.567013
  0
LINE
  8
0
 62
     2
 10
691.697805
 20
320.236886
 11
717.459812
 21
320.236886
  0
LINE
  8
OBRYS
 10
817.697805
 20
340.247993
 11
796.697805
 21
340.247993
  0
LINE
  8
OBRYS
 10
691.697805
 20
340.247993
 11
716.697805
 21
340.247993
  0
LINE
  8
OBRYS
 10
691.697805
 20
270.203565
 11
702.737950
 21
270.203565
  0
LINE
  8
OBRYS
 10
691.697805
 20
270.203565
 11
691.697805
 21
340.247993
  0
LINE
  8
OBRYS
 10
817.697805
 20
270.203565
 11
810.657660
 21
270.203565
  0
LINE
  8
OBRYS
 10
817.697805
 20
270.203565
 11
817.697805
 21
340.247993
  0
ARC
  8
POMOC
 62
     2
  6
CONTINUOUS
 10
756.697805
 20
255.225779
 40
56.000000
 50
270.000000
 51
17.043847
  0
ARC
  8
POMOC
 62
     2
  6
CONTINUOUS
 10
756.697805
 20
255.225779
 40
56.000000
 50
162.956153
 51
270.000000
  0
ARC
  8
OBRYS
 10
756.697805
 20
255.225779
 40
50.000000
 50
86.560187
 51
93.347557
  0
ARC
  8
OBRYS
 10
756.697805
 20
255.225779
 40
50.000000
 50
356.560187
 51
3.347557
  0
ARC
  8
OBRYS
 10
756.697805
 20
255.225779
 40
50.000000
 50
266.560187
 51
273.347557
  0
ARC
  8
OBRYS
 10
756.697805
 20
255.225779
 40
50.000000
 50
176.560187
 51
183.347557
  0
ARC
  8
OBRYS
 10
756.697805
 20
255.225779
 40
50.000000
 50
311.652443
 51
318.347557
  0
LINE
  8
OSA
 10
756.697805
 20
249.225779
 11
756.697805
 21
196.225779
  0
LINE
  8
OSA
 10
762.697805
 20
255.225779
 11
815.697805
 21
255.225779
  0
LINE
  8
OSA
 10
756.697805
 20
252.225779
 11
756.697805
 21
258.225779
  0
LINE
  8
OSA
 10
753.697805
 20
255.225779
 11
759.697805
 21
255.225779
  0
LINE
  8
OSA
 10
756.697805
 20
305.225779
 11
814.697805
 21
305.225779
  0
LINE
  8
OSA
 10
756.697805
 20
305.225779
 11
692.940723
 21
305.225779
  0
CIRCLE
  8
OSA
 62
     2
  6
CONTINUOUS
 10
719.197805
 20
255.225779
 40
2.500000
  0
CIRCLE
  8
OSA
 62
     2
  6
CONTINUOUS
 10
756.697805
 20
217.725779
 40
2.500000
  0
CIRCLE
  8
OSA
 62
     2
  6
CONTINUOUS
 10
794.197805
 20
255.225779
 40
2.500000
  0
CIRCLE
  8
OSA
 62
     2
  6
CONTINUOUS
 10
756.697805
 20
292.725779
 40
2.500000
  0
ARC
  8
0
 10
756.697805
 20
217.725779
 40
3.000000
 50
213.435067
 51
134.888966
  0
ARC
  8
0
 10
794.197805
 20
255.225779
 40
3.000000
 50
303.435067
 51
224.888966
  0
ARC
  8
0
 10
756.697805
 20
292.725779
 40
3.000000
 50
33.435067
 51
314.888966
  0
CIRCLE
  8
OSA
 62
     2
  6
CONTINUOUS
 10
756.697805
 20
255.225779
 40
25.000000
  0
CIRCLE
  8
OSA
 62
     2
  6
CONTINUOUS
 10
756.697805
 20
255.225779
 40
56.000000
  0
CIRCLE
  8
OSA
 10
756.697805
 20
255.225779
 40
37.500000
  0
ARC
  8
0
 10
730.181301
 20
281.742283
 40
3.000000
 50
78.435067
 51
359.888966
  0
CIRCLE
  8
OSA
 62
     2
  6
CONTINUOUS
 10
730.181301
 20
281.742283
 40
2.500000
  0
ARC
  8
0
 10
730.181301
 20
228.709275
 40
3.000000
 50
168.435067
 51
89.888966
  0
CIRCLE
  8
OSA
 62
     2
  6
CONTINUOUS
 10
730.181301
 20
228.709275
 40
2.500000
  0
ARC
  8
0
 10
783.214309
 20
228.709275
 40
3.000000
 50
258.435067
 51
179.888966
  0
CIRCLE
  8
OSA
 62
     2
  6
CONTINUOUS
 10
783.214309
 20
228.709275
 40
2.500000
  0
ARC
  8
0
 10
783.214309
 20
281.742283
 40
3.000000
 50
348.435067
 51
269.888966
  0
CIRCLE
  8
OSA
 62
     2
  6
CONTINUOUS
 10
783.214309
 20
281.742283
 40
2.500000
  0
ARC
  8
OBRYS
 10
756.697805
 20
255.225779
 40
12.000000
 50
109.471221
 51
70.528779
  0
LINE
  8
OBRYS
 10
752.697805
 20
266.539488
 11
752.697805
 21
270.125779
  0
LINE
  8
OBRYS
 10
752.697805
 20
270.125779
 11
760.697805
 21
270.125779
  0
LINE
  8
OBRYS
 10
760.697805
 20
270.125779
 11
760.697805
 21
266.539488
  0
CIRCLE
  8
OBRYS
 10
756.697805
 20
255.225779
 40
17.500000
  0
LINE
  8
OBRYS
 10
817.697805
 20
332.025779
 11
817.697805
 21
340.253985
  0
LINE
  8
OBRYS
 10
817.697805
 20
278.425779
 11
817.697805
 21
270.197573
  0
LINE
  8
OSA
 10
750.697805
 20
255.225779
 11
740.425963
 21
255.225779
  0
ARC
  8
0
 10
719.197805
 20
255.225779
 40
3.000000
 50
33.435067
 51
314.888966
  0
LINE
  8
OSA
 10
756.697805
 20
266.823883
 11
756.697805
 21
347.815536
  0
LINE
  8
OSA
 10
733.038110
 20
255.225779
 11
694.755646
 21
255.225779
  0
LINE
  8
OSA
 10
326.355111
 20
237.811859
 11
318.304611
 21
234.477233
  0
LINE
  8
OSA
 10
350.982113
 20
213.184858
 11
347.647487
 21
205.134358
  0
LINE
  8
OSA
 10
385.809953
 20
213.184858
 11
389.144579
 21
205.134358
  0
LINE
  8
OSA
 10
410.436954
 20
237.811859
 11
418.487454
 21
234.477233
  0
LINE
  8
OSA
 10
410.436954
 20
272.639699
 11
418.487454
 21
275.974325
  0
LINE
  8
OSA
 10
385.809953
 20
297.266701
 11
389.144579
 21
305.317201
  0
LINE
  8
OSA
 10
350.982113
 20
297.266701
 11
347.647487
 21
305.317201
  0
ARC
  8
OBRYS
 10
298.392461
 20
325.229350
 40
70.000000
 50
333.283383
 51
343.321061
  0
ARC
  8
OBRYS
 10
438.399604
 20
325.229350
 40
70.000000
 50
196.678939
 51
206.716617
  0
ARC
  8
OBRYS
 10
368.396033
 20
354.225779
 40
70.000000
 50
288.283383
 51
298.321061
  0
ARC
  8
OBRYS
 10
467.396033
 20
255.225779
 40
70.000000
 50
151.678939
 51
161.716617
  0
ARC
  8
OBRYS
 10
438.399604
 20
325.229350
 40
70.000000
 50
243.283383
 51
253.321061
  0
ARC
  8
OBRYS
 10
438.399604
 20
185.222208
 40
70.000000
 50
106.678939
 51
116.716617
  0
ARC
  8
OBRYS
 10
467.396033
 20
255.225779
 40
70.000000
 50
198.283383
 51
208.321061
  0
ARC
  8
OBRYS
 10
368.396033
 20
156.225779
 40
70.000000
 50
61.678939
 51
71.716617
  0
ARC
  8
OBRYS
 10
438.399604
 20
185.222208
 40
70.000000
 50
153.283383
 51
163.321061
  0
ARC
  8
OBRYS
 10
298.392461
 20
185.222208
 40
70.000000
 50
16.678939
 51
26.716617
  0
ARC
  8
OBRYS
 10
368.396033
 20
156.225779
 40
70.000000
 50
108.283383
 51
118.321061
  0
ARC
  8
OBRYS
 10
269.396033
 20
255.225779
 40
70.000000
 50
331.678939
 51
341.716617
  0
ARC
  8
OBRYS
 10
298.392461
 20
185.222208
 40
70.000000
 50
63.283383
 51
73.321061
  0
ARC
  8
OBRYS
 10
298.392461
 20
325.229350
 40
70.000000
 50
286.678939
 51
296.716617
  0
ARC
  8
OBRYS
 10
269.396033
 20
255.225779
 40
70.000000
 50
18.283383
 51
28.321061
  0
ARC
  8
OBRYS
 10
368.396033
 20
354.225779
 40
70.000000
 50
241.678939
 51
251.716617
  0
CIRCLE
  8
OSA
 10
368.396033
 20
255.225779
 40
50.000000
  0
LINE
  8
OSA
 10
326.355111
 20
272.639699
 11
318.304611
 21
275.974325
  0
LINE
  8
OSA
 10
392.055727
 20
255.225779
 11
430.338191
 21
255.225779
  0
LINE
  8
OSA
 10
368.396033
 20
266.823883
 11
368.396033
 21
347.815536
  0
ARC
  8
0
 10
405.896033
 20
255.225779
 40
3.000000
 50
225.111034
 51
146.564933
  0
LINE
  8
OSA
 10
374.396033
 20
255.225779
 11
384.667875
 21
255.225779
  0
LINE
  8
OSA
 10
288.396033
 20
305.225779
 11
315.396033
 21
305.225779
  0
LINE
  8
OBRYS
 10
307.396033
 20
332.025779
 11
307.396033
 21
340.253985
  0
CIRCLE
  8
OBRYS
 10
368.396033
 20
255.225779
 40
17.500000
  0
LINE
  8
OBRYS
 10
372.396033
 20
266.539488
 11
372.396033
 21
270.125779
  0
LINE
  8
OBRYS
 10
372.396033
 20
270.125779
 11
364.396033
 21
270.125779
  0
LINE
  8
OBRYS
 10
364.396033
 20
270.125779
 11
364.396033
 21
266.539488
  0
ARC
  8
OBRYS
 10
368.396033
 20
255.225779
 40
12.000000
 50
109.471221
 51
70.528779
  0
CIRCLE
  8
OSA
 62
     2
  6
CONTINUOUS
 10
341.879528
 20
281.742283
 40
2.500000
  0
ARC
  8
0
 10
341.879528
 20
281.742283
 40
3.000000
 50
270.111034
 51
191.564933
  0
CIRCLE
  8
OSA
 62
     2
  6
CONTINUOUS
 10
341.879528
 20
228.709275
 40
2.500000
  0
ARC
  8
0
 10
341.879528
 20
228.709275
 40
3.000000
 50
0.111034
 51
281.564933
  0
CIRCLE
  8
OSA
 62
     2
  6
CONTINUOUS
 10
394.912537
 20
228.709275
 40
2.500000
  0
ARC
  8
0
 10
394.912537
 20
228.709275
 40
3.000000
 50
90.111034
 51
11.564933
  0
CIRCLE
  8
OSA
 62
     2
  6
CONTINUOUS
 10
394.912537
 20
281.742283
 40
2.500000
  0
ARC
  8
0
 10
394.912537
 20
281.742283
 40
3.000000
 50
180.111034
 51
101.564933
  0
CIRCLE
  8
OSA
 10
368.396033
 20
255.225779
 40
37.500000
  0
CIRCLE
  8
OSA
 62
     2
  6
CONTINUOUS
 10
368.396033
 20
255.225779
 40
56.000000
  0
CIRCLE
  8
OSA
 62
     2
  6
CONTINUOUS
 10
368.396033
 20
255.225779
 40
25.000000
  0
ARC
  8
0
 10
368.396033
 20
292.725779
 40
3.000000
 50
225.111034
 51
146.564933
  0
ARC
  8
0
 10
330.896033
 20
255.225779
 40
3.000000
 50
315.111034
 51
236.564933
  0
ARC
  8
0
 10
368.396033
 20
217.725779
 40
3.000000
 50
45.111034
 51
326.564933
  0
CIRCLE
  8
OSA
 62
     2
  6
CONTINUOUS
 10
368.396033
 20
292.725779
 40
2.500000
  0
CIRCLE
  8
OSA
 62
     2
  6
CONTINUOUS
 10
330.896033
 20
255.225779
 40
2.500000
  0
CIRCLE
  8
OSA
 62
     2
  6
CONTINUOUS
 10
368.396033
 20
217.725779
 40
2.500000
  0
CIRCLE
  8
OSA
 62
     2
  6
CONTINUOUS
 10
405.896033
 20
255.225779
 40
2.500000
  0
LINE
  8
OSA
 10
368.396033
 20
305.225779
 11
432.153115
 21
305.225779
  0
LINE
  8
OSA
 10
368.396033
 20
305.225779
 11
310.396033
 21
305.225779
  0
LINE
  8
OSA
 10
371.396033
 20
255.225779
 11
365.396033
 21
255.225779
  0
LINE
  8
OSA
 10
368.396033
 20
252.225779
 11
368.396033
 21
258.225779
  0
LINE
  8
OSA
 10
362.396033
 20
255.225779
 11
309.396033
 21
255.225779
  0
LINE
  8
OSA
 10
368.396033
 20
249.225779
 11
368.396033
 21
196.225779
  0
ARC
  8
OBRYS
 10
368.396033
 20
255.225779
 40
50.000000
 50
86.652443
 51
93.439813
  0
ARC
  8
POMOC
 62
     2
  6
CONTINUOUS
 10
368.396033
 20
255.225779
 40
56.000000
 50
270.000000
 51
17.043847
  0
ARC
  8
POMOC
 62
     2
  6
CONTINUOUS
 10
368.396033
 20
255.225779
 40
56.000000
 50
162.956153
 51
270.000000
  0
LINE
  8
OBRYS
 10
307.396033
 20
270.203565
 11
307.396033
 21
340.247993
  0
LINE
  8
OBRYS
 10
307.396033
 20
270.203565
 11
314.436178
 21
270.203565
  0
LINE
  8
OBRYS
 10
433.396033
 20
270.203565
 11
433.396033
 21
340.247993
  0
LINE
  8
OBRYS
 10
433.396033
 20
270.203565
 11
422.355887
 21
270.203565
  0
LINE
  8
OBRYS
 10
433.396033
 20
340.247993
 11
408.396033
 21
340.247993
  0
LINE
  8
OBRYS
 10
307.396033
 20
340.247993
 11
328.396033
 21
340.247993
  0
LINE
  8
0
 62
     2
 10
433.396033
 20
320.236886
 11
407.634026
 21
320.236886
  0
LINE
  8
0
 62
     2
 10
433.396033
 20
324.567013
 11
407.433878
 21
324.567013
  0
LINE
  8
0
 62
     2
 10
433.396033
 20
339.578120
 11
407.662259
 21
339.578120
  0
LINE
  8
0
 62
     2
 10
433.396033
 20
270.873438
 11
422.165455
 21
270.873438
  0
LINE
  8
0
 62
     2
 10
433.396033
 20
285.884545
 11
415.257958
 21
285.884545
  0
LINE
  8
0
 62
     2
 10
433.396033
 20
290.214672
 11
412.119909
 21
290.214672
  0
POLYLINE
  8
0
 62
     2
 66
    1
  0
VERTEX
  8
0
 62
     2
 10
402.363861
 20
299.747498
  0
VERTEX
  8
0
 62
     2
 10
401.429291
 20
305.225769
  0
VERTEX
  8
0
 62
     2
 10
402.481171
 20
311.392029
  0
VERTEX
  8
0
 62
     2
 10
405.853241
 20
318.066406
  0
VERTEX
  8
0
 62
     2
 10
407.634003
 20
320.236877
  0
VERTEX
  8
0
 62
     2
 10
408.319183
 20
321.276428
  0
VERTEX
  8
0
 62
     2
 10
408.638885
 20
322.270569
  0
VERTEX
  8
0
 62
     2
 10
408.579437
 20
323.175781
  0
VERTEX
  8
0
 62
     2
 10
408.143158
 20
323.952576
  0
VERTEX
  8
0
 62
     2
 10
407.549896
 20
324.411682
  0
VERTEX
  8
0
 62
     2
 10
407.433807
 20
324.567017
  0
VERTEX
  8
0
 62
     2
 10
403.323334
 20
327.919281
  0
VERTEX
  8
0
 62
     2
 10
401.544525
 20
331.056610
  0
VERTEX
  8
0
 62
     2
 10
401.892548
 20
334.113129
  0
VERTEX
  8
0
 62
     2
 10
404.438446
 20
337.334076
  0
VERTEX
  8
0
 62
     2
 10
407.662201
 20
339.578094
  0
VERTEX
  8
0
 62
     2
 10
408.235687
 20
340.003204
  0
VERTEX
  8
0
 62
     2
 10
408.437714
 20
340.220551
  0
VERTEX
  8
0
 62
     2
 10
408.348480
 20
340.220551
  0
SEQEND
  8
0
  0
POLYLINE
  8
0
 62
     2
 66
    1
  0
VERTEX
  8
0
 62
     2
 10
334.428070
 20
299.747498
  0
VERTEX
  8
0
 62
     2
 10
335.362640
 20
305.225769
  0
VERTEX
  8
0
 62
     2
 10
334.310638
 20
311.392029
  0
VERTEX
  8
0
 62
     2
 10
330.938690
 20
318.066406
  0
VERTEX
  8
0
 62
     2
 10
329.157928
 20
320.236877
  0
VERTEX
  8
0
 62
     2
 10
328.472748
 20
321.276428
  0
VERTEX
  8
0
 62
     2
 10
328.152924
 20
322.270569
  0
VERTEX
  8
0
 62
     2
 10
328.212494
 20
323.175781
  0
VERTEX
  8
0
 62
     2
 10
328.648773
 20
323.952576
  0
VERTEX
  8
0
 62
     2
 10
329.242035
 20
324.411682
  0
VERTEX
  8
0
 62
     2
 10
329.358124
 20
324.567017
  0
VERTEX
  8
0
 62
     2
 10
333.468475
 20
327.919281
  0
VERTEX
  8
0
 62
     2
 10
335.247406
 20
331.056610
  0
VERTEX
  8
0
 62
     2
 10
334.899261
 20
334.113129
  0
VERTEX
  8
0
 62
     2
 10
332.353363
 20
337.334076
  0
VERTEX
  8
0
 62
     2
 10
329.129730
 20
339.578094
  0
VERTEX
  8
0
 62
     2
 10
328.556244
 20
340.003204
  0
VERTEX
  8
0
 62
     2
 10
328.354218
 20
340.220551
  0
VERTEX
  8
0
 62
     2
 10
328.443329
 20
340.220551
  0
SEQEND
  8
0
  0
LINE
  8
0
 62
     2
 10
307.396033
 20
339.578120
 11
329.129806
 21
339.578120
  0
LINE
  8
0
 62
     2
 10
307.396033
 20
320.236886
 11
329.158040
 21
320.236886
  0
LINE
  8
0
 62
     2
 10
307.396033
 20
324.567013
 11
329.358188
 21
324.567013
  0
LINE
  8
0
 62
     2
 10
307.396033
 20
270.873438
 11
314.626610
 21
270.873438
  0
LINE
  8
0
 62
     2
 10
307.396033
 20
285.884545
 11
321.534107
 21
285.884545
  0
LINE
  8
0
 62
     2
 10
307.396033
 20
290.214672
 11
324.672156
 21
290.214672
  0
LINE
  8
0
 62
     2
 10
335.362712
 20
336.225779
 11
335.362712
 21
300.445241
  0
LINE
  8
0
 62
     2
 10
401.429354
 20
336.225779
 11
401.429354
 21
300.445241
  0
LINE
  8
OBRYS
 10
401.429354
 20
336.225779
 11
335.362712
 21
336.225779
  0
LINE
  8
OBRYS
 10
328.396033
 20
340.247993
 11
335.362712
 21
336.225779
  0
LINE
  8
OBRYS
 10
408.396033
 20
340.247993
 11
401.429354
 21
336.225779
  0
ARC
  8
OBRYS
 10
386.591624
 20
211.297736
 40
12.000000
 50
71.716617
 51
153.283383
  0
ARC
  8
OBRYS
 10
350.200442
 20
211.297736
 40
12.000000
 50
26.716617
 51
108.283383
  0
ARC
  8
OBRYS
 10
368.396033
 20
163.725779
 40
62.500000
 50
72.313290
 51
107.686710
  0
ARC
  8
OBRYS
 10
276.896033
 20
255.225779
 40
62.500000
 50
342.313290
 51
17.686710
  0
ARC
  8
OBRYS
 10
368.396033
 20
346.725779
 40
62.500000
 50
252.313290
 51
287.686710
  0
ARC
  8
OBRYS
 10
459.896033
 20
255.225779
 40
62.500000
 50
162.313290
 51
197.686710
  0
ARC
  8
OBRYS
 10
324.467990
 20
273.421370
 40
12.000000
 50
296.716617
 51
18.283383
  0
ARC
  8
OBRYS
 10
386.591624
 20
299.153822
 40
12.000000
 50
206.716617
 51
288.283383
  0
ARC
  8
OBRYS
 10
412.324076
 20
237.030188
 40
12.000000
 50
116.716617
 51
198.283383
  0
ARC
  8
OBRYS
 10
324.467990
 20
237.030188
 40
12.000000
 50
341.716617
 51
63.283383
  0
ARC
  8
OBRYS
 10
350.200442
 20
299.153822
 40
12.000000
 50
251.716617
 51
333.283383
  0
ARC
  8
OBRYS
 10
412.324076
 20
273.421370
 40
12.000000
 50
161.716617
 51
243.283383
  0
ARC
  8
OSA
 62
     2
  6
CONTINUOUS
 10
368.396033
 20
255.225779
 40
30.000000
 50
192.200655
 51
257.580550
  0
ARC
  8
OSA
 62
     2
  6
CONTINUOUS
 10
368.396033
 20
255.225779
 40
30.000000
 50
102.200655
 51
167.799345
  0
ARC
  8
OSA
 62
     2
  6
CONTINUOUS
 10
368.396033
 20
255.225779
 40
30.000000
 50
12.200655
 51
77.799345
  0
ARC
  8
OSA
 62
     2
  6
CONTINUOUS
 10
368.396033
 20
255.225779
 40
30.000000
 50
282.419450
 51
347.799345
  0
ARC
  8
OSA
 62
     2
  6
CONTINUOUS
 10
368.396033
 20
255.225779
 40
44.000000
 50
218.299700
 51
231.700300
  0
ARC
  8
OSA
 62
     2
  6
CONTINUOUS
 10
368.396033
 20
255.225779
 40
44.000000
 50
128.299700
 51
141.700300
  0
ARC
  8
OSA
 62
     2
  6
CONTINUOUS
 10
368.396033
 20
255.225779
 40
44.000000
 50
38.299700
 51
51.700300
  0
ARC
  8
OSA
 62
     2
  6
CONTINUOUS
 10
368.396033
 20
255.225779
 40
44.000000
 50
308.299700
 51
321.700300
  0
ARC
  8
OBRYS
 10
368.396033
 20
255.225779
 40
50.000000
 50
41.652443
 51
48.347557
  0
INSERT
  8
OBRYS
 66
     1
  2
Srouby_s_valcovou_hlavou__6
 62
     7
 10
387.530204
 20
301.419756
  0
ATTRIB
  8
OBRYS
 10
0.000000
 20
0.000000
 40
3.749998
  1
DIN 7984
  2
norma roz.
 70
     1
  0
ATTRIB
  8
OBRYS
 10
0.000000
 20
0.000000
 40
3.749998
  1
1
  2
roztec
 70
     1
  0
ATTRIB
  8
OBRYS
 10
0.000000
 20
0.000000
 40
3.749998
  1
*N
  2
puvod
 70
     1
  0
SEQEND
  8
OBRYS
  0
INSERT
  8
OBRYS
 66
     1
  2
Srouby_s_valcovou_hlavou__7
 62
     7
 10
414.590009
 20
274.359951
  0
ATTRIB
  8
OBRYS
 10
0.000000
 20
0.000000
 40
3.749998
  1
DIN 7984
  2
norma roz.
 70
     1
  0
ATTRIB
  8
OBRYS
 10
0.000000
 20
0.000000
 40
3.749998
  1
1
  2
roztec
 70
     1
  0
ATTRIB
  8
OBRYS
 10
0.000000
 20
0.000000
 40
3.749998
  1
*N
  2
puvod
 70
     1
  0
SEQEND
  8
OBRYS
  0
INSERT
  8
OBRYS
 66
     1
  2
Srouby_s_valcovou_hlavou__8
 62
     7
 10
414.590009
 20
236.091608
  0
ATTRIB
  8
OBRYS
 10
0.000000
 20
0.000000
 40
3.749998
  1
DIN 7984
  2
norma roz.
 70
     1
  0
ATTRIB
  8
OBRYS
 10
0.000000
 20
0.000000
 40
3.749998
  1
1
  2
roztec
 70
     1
  0
ATTRIB
  8
OBRYS
 10
0.000000
 20
0.000000
 40
3.749998
  1
*N
  2
puvod
 70
     1
  0
SEQEND
  8
OBRYS
  0
INSERT
  8
OBRYS
 66
     1
  2
Srouby_s_valcovou_hlavou__9
 62
     7
 10
387.530204
 20
209.031802
  0
ATTRIB
  8
OBRYS
 10
0.000000
 20
0.000000
 40
3.749998
  1
DIN 7984
  2
norma roz.
 70
     1
  0
ATTRIB
  8
OBRYS
 10
0.000000
 20
0.000000
 40
3.749998
  1
1
  2
roztec
 70
     1
  0
ATTRIB
  8
OBRYS
 10
0.000000
 20
0.000000
 40
3.749998
  1
*N
  2
puvod
 70
     1
  0
SEQEND
  8
OBRYS
  0
INSERT
  8
OBRYS
 66
     1
  2
Srouby_s_valcovou_hlavou__10
 62
     7
 10
349.261861
 20
209.031802
  0
ATTRIB
  8
OBRYS
 10
0.000000
 20
0.000000
 40
3.749998
  1
DIN 7984
  2
norma roz.
 70
     1
  0
ATTRIB
  8
OBRYS
 10
0.000000
 20
0.000000
 40
3.749998
  1
1
  2
roztec
 70
     1
  0
ATTRIB
  8
OBRYS
 10
0.000000
 20
0.000000
 40
3.749998
  1
*N
  2
puvod
 70
     1
  0
SEQEND
  8
OBRYS
  0
INSERT
  8
OBRYS
 66
     1
  2
Srouby_s_valcovou_hlavou__11
 62
     7
 10
322.202056
 20
236.091607
  0
ATTRIB
  8
OBRYS
 10
0.000000
 20
0.000000
 40
3.749998
  1
DIN 7984
  2
norma roz.
 70
     1
  0
ATTRIB
  8
OBRYS
 10
0.000000
 20
0.000000
 40
3.749998
  1
1
  2
roztec
 70
     1
  0
ATTRIB
  8
OBRYS
 10
0.000000
 20
0.000000
 40
3.749998
  1
*N
  2
puvod
 70
     1
  0
SEQEND
  8
OBRYS
  0
INSERT
  8
OBRYS
 66
     1
  2
Srouby_s_valcovou_hlavou__12
 62
     7
 10
322.202056
 20
274.359951
  0
ATTRIB
  8
OBRYS
 10
0.000000
 20
0.000000
 40
3.749998
  1
DIN 7984
  2
norma roz.
 70
     1
  0
ATTRIB
  8
OBRYS
 10
0.000000
 20
0.000000
 40
3.749998
  1
1
  2
roztec
 70
     1
  0
ATTRIB
  8
OBRYS
 10
0.000000
 20
0.000000
 40
3.749998
  1
*N
  2
puvod
 70
     1
  0
SEQEND
  8
OBRYS
  0
INSERT
  8
OBRYS
 66
     1
  2
Srouby_s_valcovou_hlavou__13
 62
     7
 10
349.261861
 20
301.419756
  0
ATTRIB
  8
OBRYS
 10
0.000000
 20
0.000000
 40
3.749998
  1
DIN 7984
  2
norma roz.
 70
     1
  0
ATTRIB
  8
OBRYS
 10
0.000000
 20
0.000000
 40
3.749998
  1
1
  2
roztec
 70
     1
  0
ATTRIB
  8
OBRYS
 10
0.000000
 20
0.000000
 40
3.749998
  1
*N
  2
puvod
 70
     1
  0
SEQEND
  8
OBRYS
  0
ENDSEC
  0
EOF

