  0
SECTION
  2
HEADER
  9
$ACADVER
  1
AC1009
  9
$INSBASE
 10
0.0
 20
0.0
 30
0.0
  9
$LIMMIN
 10
0.0
 20
0.0
  9
$LIMMAX
 10
430.0000
 20
307.0000
  9
$EXTMIN
 10
99999999999999998000000000000000000000.0000
 20
99999999999999998000000000000000000000.0000
  9
$EXTMAX
 10
99999999999999998000000000000000000000.0000
 20
99999999999999998000000000000000000000.0000
  9
$VIEWCTR
 10
320.8297
 20
392.7951
  9
$VIEWSIZE
 40
885.0238
  9
$DIMLFAC
 40
0.6667
  9
$MEASUREMENT
 70
     1
  9
$DWGCODEPAGE
 3
ANSI_1250
  9
$CLAYER
  8
OBRYS
  9
$CELTYPE
  6
BYLAYER
  9
$CECOLOR
 62
  256
  9
$ORTHOMODE
 70
     0
  9
$REGENMODE
 70
     1
  9
$FILLMODE
 70
     1
  9
$QTEXTMODE
 70
     0
  9
$MIRRTEXT
 70
     1
  9
$DRAGMODE
 70
     2
  9
$LTSCALE
 40
1.0
  9
$OSMODE
 70
    37
  9
$ATTMODE
 70
     1
  9
$TEXTSIZE
 40
2.5
  9
$TRACEWID
 40
1.0
  9
$TEXTSTYLE
  7
STANDARD
  9
$CLAYER
  8
0
  9
$CELTYPE
  6
BYLAYER
  9
$CECOLOR
 62
   256
  9
$DIMSCALE
 40
1.0
  9
$DIMASZ
 40
2.5
  9
$DIMEXO
 40
0.625
  9
$DIMDLI
 40
3.75
  9
$DIMRND
 40
0.0
  9
$DIMDLE
 40
0.0
  9
$DIMEXE
 40
1.25
  9
$DIMTP
 40
0.0
  9
$DIMTM
 40
0.0
  9
$DIMTXT
 40
2.5
  9
$DIMCEN
 40
2.5
  9
$DIMTSZ
 40
0.0
  9
$DIMTOL
 70
     0
  9
$DIMLIM
 70
     0
  9
$DIMTIH
 70
     0
  9
$DIMTOH
 70
     0
  9
$DIMSE1
 70
     0
  9
$DIMSE2
 70
     0
  9
$DIMTAD
 70
     1
  9
$DIMZIN
 70
     8
  9
$DIMBLK
  1

  9
$DIMASO
 70
     1
  9
$DIMSHO
 70
     1
  9
$DIMPOST
  1

  9
$DIMAPOST
  1

  9
$DIMALT
 70
     0
  9
$DIMALTD
 70
     3
  9
$DIMALTF
 40
0.03937007874016
  9
$DIMTOFL
 70
     1
  9
$DIMTVP
 40
0.0
  9
$DIMTIX
 70
     0
  9
$DIMSOXD
 70
     0
  9
$DIMSAH
 70
     0
  9
$DIMBLK1
  1

  9
$DIMBLK2
  1

  9
$DIMSTYLE
  2
ISO-25
  9
$DIMCLRD
 70
     0
  9
$DIMCLRE
 70
     0
  9
$DIMCLRT
 70
     0
  9
$DIMTFAC
 40
1.0
  9
$DIMGAP
 40
0.625
  9
$LUNITS
 70
     2
  9
$LUPREC
 70
     4
  9
$SKETCHINC
 40
1.0
  9
$FILLETRAD
 40
10.0
  9
$AUNITS
 70
     0
  9
$AUPREC
 70
     0
  9
$MENU
  1
.
  9
$ELEVATION
 40
0.0
  9
$PELEVATION
 40
0.0
  9
$THICKNESS
 40
0.0
  9
$LIMCHECK
 70
     0
  9
$BLIPMODE
 70
     0
  9
$CHAMFERA
 40
10.0
  9
$CHAMFERB
 40
10.0
  9
$SKPOLY
 70
     0
  9
$TDCREATE
 40
2451579.5163292708
  9
$TDUPDATE
 40
2451579.6904035881
  9
$TDINDWG
 40
0.0082924769
  9
$TDUSRTIMER
 40
0.0082825116
  9
$USRTIMER
 70
     1
  9
$ANGBASE
 50
0.0
  9
$ANGDIR
 70
     0
  9
$PDMODE
 70
     0
  9
$PDSIZE
 40
0.0
  9
$PLINEWID
 40
0.0
  9
$COORDS
 70
     1
  9
$SPLFRAME
 70
     0
  9
$SPLINETYPE
 70
     6
  9
$SPLINESEGS
 70
     8
  9
$ATTDIA
 70
     0
  9
$ATTREQ
 70
     1
  9
$SURFTAB1
 70
     6
  9
$SURFTAB2
 70
     6
  9
$SURFTYPE
 70
     6
  9
$SURFU
 70
     6
  9
$SURFV
 70
     6
  9
$UCSNAME
  2

  9
$UCSORG
 10
0.0
 20
0.0
 30
0.0
  9
$UCSXDIR
 10
1.0
 20
0.0
 30
0.0
  9
$UCSYDIR
 10
0.0
 20
1.0
 30
0.0
  9
$PUCSNAME
  2

  9
$PUCSORG
 10
0.0
 20
0.0
 30
0.0
  9
$PUCSXDIR
 10
1.0
 20
0.0
 30
0.0
  9
$PUCSYDIR
 10
0.0
 20
1.0
 30
0.0
  9
$USERI1
 70
     0
  9
$USERI2
 70
     0
  9
$USERI3
 70
     0
  9
$USERI4
 70
     0
  9
$USERI5
 70
     0
  9
$USERR1
 40
0.0
  9
$USERR2
 40
0.0
  9
$USERR3
 40
0.0
  9
$USERR4
 40
0.0
  9
$USERR5
 40
0.0
  9
$WORLDVIEW
 70
     1
  9
$SHADEDGE
 70
     3
  9
$SHADEDIF
 70
    70
  9
$TILEMODE
 70
     1
  9
$MAXACTVP
 70
    64
  9
$PLIMCHECK
 70
     0
  9
$PEXTMIN
 10
1.0000000000000000E+020
 20
1.0000000000000000E+020
 30
1.0000000000000000E+020
  9
$PEXTMAX
 10
-1.0000000000000000E+020
 20
-1.0000000000000000E+020
 30
-1.0000000000000000E+020
  9
$PLIMMIN
 10
0.0
 20
0.0
  9
$PLIMMAX
 10
420.0
 20
297.0
  9
$UNITMODE
 70
     0
  9
$VISRETAIN
 70
     1
  9
$PLINEGEN
 70
     0
  9
$PSLTSCALE
 70
     1
  0
ENDSEC
  0
SECTION
  2
TABLES
  0
TABLE
  2
VPORT
 70
     2
  0
VPORT
  2
*ACTIVE
 70
     0
 10
0.0
 20
0.0
 11
1.0
 21
1.0
 12
320.8297
 22
392.7951
 13
0.0
 23
0.0
 14
10.0
 24
10.0
 15
10.0
 25
10.0
 16
0.0
 26
0.0
 36
1.0
 17
0.0
 27
0.0
 37
0.0
 40
885.0238
 41
1.6916
 42
50.0
 43
0.0
 44
0.0
 50
0.0
 51
0.0
 71
     0
 72
   100
 73
     1
 74
     3
 75
     0
 76
     0
 77
     0
 78
     0
  0
ENDTAB
  0
TABLE
  2
LTYPE
 70
     7
  0
LTYPE
  2
CONTINUOUS
 70
     0
  3
Solid line
 72
    65
 73
     0
 40
0.0
  0
LTYPE
  2
HIDDEN2
 70
     0
  3
Hidden (.5x) _ _ _ _ _ _ _ _ _ _ _ _ _ _ _ _ _
 72
    65
 73
     2
 40
5.1
 49
3.5
 49
-1.6
  0
LTYPE
  2
DASHDOT
 70
     0
  3
Dash dot __ . __ . __ . __ . __ . __ . __ . __
 72
    65
 73
     4
 40
10.4
 49
6.2
 49
-2.1
 49
0.0
 49
-2.1
  0
LTYPE
  2
DOT
 70
     0
  3
Dot . . . . . . . . . . . . . . . . . . . . . .
 72
    65
 73
     2
 40
2.2
 49
1.1
 49
-1.1
  0
LTYPE
  2
DASHED
 70
     0
  3
Dashed __ __ __ __ __ __ __ __ __ __ __ __ __ _
 72
    65
 73
     2
 40
11.049999999999979
 49
8.699999999999999
 49
-2.3499999999999979
  0
LTYPE
  2
PHANTOM2
 70
     0
  3
Phantom (.5x) ___ _ _ ___ _ _ ___ _ _ ___ _ _
 72
    65
 73
     6
 40
18.3
 49
7.8
 49
-2.1
 49
2.1
 49
-2.1
 49
2.1
 49
-2.1
  0
LTYPE
  2
CENTER
 70
     0
  3
Center ____ _ ____ _ ____ _ ____ _ ____ _ ____
 72
    65
 73
     4
 40
14.1
 49
7.8
 49
-2.1
 49
2.1
 49
-2.1
  0
ENDTAB
  0
TABLE
  2
LAYER
 70
     7
  0
LAYER
  2
0
 70
    64
 62
     7
  6
CONTINUOUS
  0
LAYER
  2
OBRYS
 70
    64
 62
     2
  6
CONTINUOUS
  0
LAYER
  2
OSA
 70
    64
 62
     7
  6
DASHDOT
  0
LAYER
  2
KOTA
 70
    64
 62
     3
  6
CONTINUOUS
  0
LAYER
  2
SRAFY
 70
    64
 62
     7
  6
CONTINUOUS
  0
LAYER
  2
POMOC
 70
    64
 62
     1
  6
DOT
  0
LAYER
  2
NEVIDITELNA
 70
    64
 62
     4
  6
HIDDEN2
  0
ENDTAB
  0
TABLE
  2
STYLE
 70
     1
  0
STYLE
  2
STANDARD
 70
     0
 40
0.0
 41
1.0
 50
0.0
 71
     0
 42
2.5
  3
txt
  4

  0
ENDTAB
  0
TABLE
  2
VIEW
 70
     0
  0
ENDTAB
  0
TABLE
  2
UCS
 70
     0
  0
ENDTAB
  0
TABLE
  2
APPID
 70
     1
  0
APPID
  2
ACAD
 70
     0
  0
ENDTAB
  0
TABLE
  2
DIMSTYLE
 70
     1
  0
DIMSTYLE
  2
ISO-25
 70
     0
  3

  4

  5

  6

  7

 40
1.0
 41
2.5
 42
0.625
 43
3.75
 44
1.25
 45
0.0
 46
0.0
 47
0.0
 48
0.0
140
2.5
141
2.5
142
0.0
143
0.03937007874016
144
1.0
145
0.0
146
1.0
147
0.625
 71
     0
 72
     0
 73
     0
 74
     0
 75
     0
 76
     0
 77
     1
 78
     8
170
     0
171
     3
172
     1
173
     0
174
     0
175
     0
176
     0
177
     0
178
     0
  0
ENDTAB
  0
ENDSEC
  0
SECTION
  2
BLOCKS
  0
BLOCK
  8
0
  2
$MODEL_SPACE
 70
     0
 10
0.0
 20
0.0
 30
0.0
  3
$MODEL_SPACE
  1

  0
ENDBLK
  8
0
  0
BLOCK
 67
     1
  8
0
  2
$PAPER_SPACE
 70
     0
 10
0.0
 20
0.0
 30
0.0
  3
$PAPER_SPACE
  1

  0
ENDBLK
 67
     1
  8
0
  0
BLOCK
  8
OBRYS
  2
_0
 70
   64
 10
98.594986
 20
371.444966
  0
LINE
  8
OBRYS
 10
62.114224
 20
394.444977
 11
135.075748
 21
394.444977
  0
ARC
  8
OBRYS
 10
40.594986
 20
416.444977
 40
2.000000
 50
180.000000
 51
270.000000
  0
LINE
  8
OBRYS
 10
38.594986
 20
423.444977
 11
38.594986
 21
416.444977
  0
ARC
  8
OBRYS
 10
156.594986
 20
416.444977
 40
2.000000
 50
270.000000
 51
360.000000
  0
LINE
  8
OBRYS
 10
158.594986
 20
423.444977
 11
158.594986
 21
416.444977
  0
LINE
  8
OSA
 10
98.594986
 20
392.677528
 11
98.594986
 21
422.164608
  0
LINE
  8
OBRYS
 10
40.594986
 20
414.444977
 11
98.594986
 21
414.444977
  0
LINE
  8
OBRYS
 10
156.594986
 20
414.444977
 11
98.594986
 21
414.444977
  0
LINE
  8
OBRYS
 10
98.594986
 20
423.444977
 11
38.594986
 21
423.444977
  0
LINE
  8
OBRYS
 10
158.594986
 20
423.444977
 11
98.594986
 21
423.444977
  0
LINE
  8
OBRYS
 10
129.030610
 20
394.444977
 11
129.030610
 21
398.511520
  0
ARC
  8
OBRYS
 10
122.111490
 20
401.444977
 40
2.000000
 50
180.000000
 51
270.000000
  0
ARC
  8
OBRYS
 10
118.111490
 20
401.444977
 40
2.000000
 50
0.000000
 51
90.000000
  0
ARC
  8
OBRYS
 10
133.075748
 20
397.444977
 40
2.000000
 50
0.000000
 51
90.000000
  0
LINE
  8
OBRYS
 10
133.075748
 20
399.444977
 11
64.114224
 21
399.444977
  0
ARC
  8
OBRYS
 10
64.114224
 20
397.444977
 40
2.000000
 50
90.000000
 51
180.000000
  0
ARC
  8
OBRYS
 10
79.078482
 20
401.444977
 40
2.000000
 50
90.000000
 51
180.000000
  0
ARC
  8
OBRYS
 10
75.078482
 20
401.444977
 40
2.000000
 50
270.000000
 51
360.000000
  0
LINE
  8
OBRYS
 10
68.159362
 20
394.444977
 11
68.159362
 21
398.511520
  0
LINE
  8
OSA
 10
72.078482
 20
397.041413
 11
72.078482
 21
407.444977
  0
INSERT
  8
OBRYS
  2
Srouby_s_valcovou_hlavou___1
 62
     7
 10
72.078482
 20
399.444977
  0
INSERT
  8
OBRYS
  2
Srouby_s_valcovou_hlavou___2
 62
     7
 10
125.111490
 20
399.444977
  0
LINE
  8
OSA
 10
125.111490
 20
397.041413
 11
125.111490
 21
407.444977
  0
ARC
  8
OBRYS
 10
63.359195
 20
404.944977
 40
1.500000
 50
274.876572
 51
360.000000
  0
ARC
  8
OBRYS
 10
63.614224
 20
401.955836
 40
1.500000
 50
94.876572
 51
180.000000
  0
LINE
  8
OBRYS
 10
64.859195
 20
412.944977
 11
64.859195
 21
404.944977
  0
ARC
  8
OBRYS
 10
63.359195
 20
412.944977
 40
1.500000
 50
0.000000
 51
90.000000
  0
ARC
  8
OBRYS
 10
133.830776
 20
412.944977
 40
1.500000
 50
90.000000
 51
180.000000
  0
LINE
  8
OBRYS
 10
132.330776
 20
412.944977
 11
132.330776
 21
404.944977
  0
ARC
  8
OBRYS
 10
133.575748
 20
401.955836
 40
1.500000
 50
0.000000
 51
85.123428
  0
ARC
  8
OBRYS
 10
133.830776
 20
404.944977
 40
1.500000
 50
180.000000
 51
265.123428
  0
LINE
  8
OBRYS
 10
133.395579
 20
403.444977
 11
63.794393
 21
403.444977
  0
LINE
  8
OBRYS
 10
62.114224
 20
401.955854
 11
62.114224
 21
394.444977
  0
LINE
  8
OBRYS
 10
135.075748
 20
401.955852
 11
135.075748
 21
394.444977
  0
LINE
  8
OBRYS
 10
68.159362
 20
394.444977
 11
68.159362
 21
376.444976
  0
LINE
  8
OBRYS
 10
129.030610
 20
394.444977
 11
129.030610
 21
376.444976
  0
LINE
  8
OBRYS
 10
98.594986
 20
372.444977
 11
131.493519
 21
372.444977
  0
LINE
  8
OBRYS
 10
66.114224
 20
372.444977
 11
98.594986
 21
372.444977
  0
LINE
  8
OBRYS
 10
129.594612
 20
371.444966
 11
98.594986
 21
371.444966
  0
LINE
  8
OBRYS
 10
98.594986
 20
371.444966
 11
67.594986
 21
371.444966
  0
ARC
  8
OBRYS
 10
66.114224
 20
376.444977
 40
4.000000
 50
180.000000
 51
270.000000
  0
ARC
  8
OBRYS
 10
130.594612
 20
371.472322
 40
1.000000
 50
95.995066
 51
180.000000
  0
ARC
  8
OBRYS
 10
131.075748
 20
376.444977
 40
4.000000
 50
275.995066
 51
360.000000
  0
ARC
  8
OBRYS
 10
66.594986
 20
371.444977
 40
1.000000
 50
0.000000
 51
90.000000
  0
LINE
  8
OBRYS
 10
129.594612
 20
371.444966
 11
129.594612
 21
371.472322
  0
LINE
  8
OSA
 10
98.594986
 20
360.944980
 11
98.594986
 21
401.944973
  0
LINE
  8
OBRYS
 10
135.075748
 20
394.444977
 11
135.075748
 21
376.444977
  0
LINE
  8
OBRYS
 10
98.594986
 20
394.444977
 11
135.075748
 21
394.444977
  0
LINE
  8
OBRYS
 10
62.114224
 20
394.444977
 11
98.594986
 21
394.444977
  0
LINE
  8
OBRYS
 10
62.114224
 20
376.444977
 11
62.114224
 21
394.444977
  0
ENDBLK
  8
OBRYS
  0
BLOCK
  8
OBRYS
  2
Srouby_s_valcovou_hlavou___1
 70
   66
 10
72.078482
 20
399.444977
  0
LINE
  8
OBRYS
 10
68.328482
 20
402.944977
 11
75.828482
 21
402.944977
  0
LINE
  8
OBRYS
 10
67.828482
 20
402.444977
 11
67.828482
 21
399.444977
  0
LINE
  8
OBRYS
 10
67.828482
 20
399.444977
 11
76.328482
 21
399.444977
  0
LINE
  8
OBRYS
 10
76.328482
 20
399.444977
 11
76.328482
 21
402.444977
  0
ARC
  8
OBRYS
 10
68.328482
 20
402.444977
 40
0.500000
 50
90.000000
 51
180.000000
  0
ARC
  8
OBRYS
 10
75.828482
 20
402.444977
 40
0.500000
 50
0.000000
 51
90.000000
  0
LINE
  8
OBRYS
 62
     7
  6
DOT
 10
69.769066
 20
402.944977
 11
69.769066
 21
401.278310
  0
LINE
  8
OBRYS
 62
     7
  6
DOT
 10
70.923774
 20
402.944977
 11
70.923774
 21
401.278310
  0
LINE
  8
OBRYS
 62
     7
  6
DOT
 10
73.233189
 20
402.944977
 11
73.233189
 21
401.278310
  0
LINE
  8
OBRYS
 62
     7
  6
DOT
 10
74.387897
 20
402.944977
 11
74.387897
 21
401.278310
  0
ARC
  8
OBRYS
 62
     7
  6
DOT
 10
70.346420
 20
403.278316
 40
0.666673
 50
210.000310
 51
329.999690
  0
ARC
  8
OBRYS
 62
     7
  6
DOT
 10
72.078482
 20
404.778335
 40
2.166692
 50
237.795963
 51
302.204037
  0
ARC
  8
OBRYS
 62
     7
  6
DOT
 10
73.810543
 20
403.278316
 40
0.666673
 50
210.000310
 51
329.999690
  0
ARC
  8
OBRYS
 62
     7
  6
DOT
 10
70.346420
 20
401.611650
 40
0.666673
 50
210.000310
 51
329.999690
  0
ARC
  8
OBRYS
 62
     7
  6
DOT
 10
72.078482
 20
403.111668
 40
2.166692
 50
237.795963
 51
302.204037
  0
ARC
  8
OBRYS
 62
     7
  6
DOT
 10
73.810543
 20
401.611650
 40
0.666673
 50
210.000310
 51
329.999690
  0
LINE
  8
OBRYS
 62
     7
  6
DOT
 10
70.346420
 20
400.944977
 11
72.078482
 21
399.790269
  0
LINE
  8
OBRYS
 62
     7
  6
DOT
 10
72.078482
 20
399.790269
 11
73.810543
 21
400.944977
  0
ENDBLK
  8
OBRYS
  0
BLOCK
  8
OBRYS
  2
Srouby_s_valcovou_hlavou___2
 70
   66
 10
125.111490
 20
399.444977
  0
LINE
  8
OBRYS
 10
128.861490
 20
402.944977
 11
121.361490
 21
402.944977
  0
LINE
  8
OBRYS
 10
129.361490
 20
402.444977
 11
129.361490
 21
399.444977
  0
LINE
  8
OBRYS
 10
129.361490
 20
399.444977
 11
120.861490
 21
399.444977
  0
LINE
  8
OBRYS
 10
120.861490
 20
399.444977
 11
120.861490
 21
402.444977
  0
ARC
  8
OBRYS
 10
128.861490
 20
402.444977
 40
0.500000
 50
0.000000
 51
90.000000
  0
ARC
  8
OBRYS
 10
121.361490
 20
402.444977
 40
0.500000
 50
90.000000
 51
180.000000
  0
LINE
  8
OBRYS
 62
     7
  6
DOT
 10
127.420906
 20
402.944977
 11
127.420906
 21
401.278310
  0
LINE
  8
OBRYS
 62
     7
  6
DOT
 10
126.266198
 20
402.944977
 11
126.266198
 21
401.278310
  0
LINE
  8
OBRYS
 62
     7
  6
DOT
 10
123.956782
 20
402.944977
 11
123.956782
 21
401.278310
  0
LINE
  8
OBRYS
 62
     7
  6
DOT
 10
122.802075
 20
402.944977
 11
122.802075
 21
401.278310
  0
ARC
  8
OBRYS
 62
     7
  6
DOT
 10
126.843552
 20
403.278316
 40
0.666673
 50
210.000310
 51
329.999690
  0
ARC
  8
OBRYS
 62
     7
  6
DOT
 10
125.111490
 20
404.778335
 40
2.166692
 50
237.795963
 51
302.204037
  0
ARC
  8
OBRYS
 62
     7
  6
DOT
 10
123.379428
 20
403.278316
 40
0.666673
 50
210.000310
 51
329.999690
  0
ARC
  8
OBRYS
 62
     7
  6
DOT
 10
126.843552
 20
401.611650
 40
0.666673
 50
210.000310
 51
329.999690
  0
ARC
  8
OBRYS
 62
     7
  6
DOT
 10
125.111490
 20
403.111668
 40
2.166692
 50
237.795963
 51
302.204037
  0
ARC
  8
OBRYS
 62
     7
  6
DOT
 10
123.379428
 20
401.611650
 40
0.666673
 50
210.000310
 51
329.999690
  0
LINE
  8
OBRYS
 62
     7
  6
DOT
 10
126.843552
 20
400.944977
 11
125.111490
 21
399.790269
  0
LINE
  8
OBRYS
 62
     7
  6
DOT
 10
125.111490
 20
399.790269
 11
123.379428
 21
400.944977
  0
ENDBLK
  8
OBRYS
  0
BLOCK
  8
OBRYS
  2
_1
 70
   64
 10
330.891636
 20
371.444966
  0
LINE
  8
OBRYS
 10
314.040900
 20
394.444977
 11
314.040900
 21
376.444976
  0
LINE
  8
OBRYS
 10
360.787590
 20
394.444977
 11
360.787590
 21
376.444976
  0
LINE
  8
OBRYS
 10
348.299358
 20
394.444977
 11
348.299358
 21
376.444976
  0
LINE
  8
OBRYS
 10
330.891636
 20
372.444977
 11
366.809407
 21
372.444977
  0
LINE
  8
OBRYS
 10
265.891636
 20
372.444977
 11
330.891636
 21
372.444977
  0
LINE
  8
OBRYS
 10
365.913850
 20
371.444966
 11
330.891636
 21
371.444966
  0
LINE
  8
OBRYS
 10
330.891636
 20
371.444966
 11
295.869422
 21
371.444966
  0
LINE
  8
OBRYS
 10
277.411636
 20
394.444977
 11
261.891636
 21
394.444977
  0
ARC
  8
OBRYS
 10
265.891636
 20
376.444977
 40
4.000000
 50
180.000000
 51
270.000000
  0
ARC
  8
OBRYS
 10
366.913850
 20
371.472322
 40
1.000000
 50
95.995066
 51
180.000000
  0
ARC
  8
OBRYS
 10
366.391636
 20
376.444977
 40
4.000000
 50
275.995066
 51
360.000000
  0
ARC
  8
OBRYS
 10
294.869422
 20
371.444977
 40
1.000000
 50
0.000000
 51
90.000000
  0
LINE
  8
OBRYS
 10
365.913850
 20
371.444966
 11
365.913850
 21
371.472322
  0
LINE
  8
OSA
 10
330.891636
 20
360.944980
 11
330.891636
 21
401.944973
  0
LINE
  8
OBRYS
 10
370.391636
 20
394.444977
 11
370.391636
 21
376.444977
  0
LINE
  8
OBRYS
 10
330.891636
 20
394.444977
 11
370.391636
 21
394.444977
  0
LINE
  8
OBRYS
 10
277.411636
 20
394.444977
 11
330.891636
 21
394.444977
  0
LINE
  8
OBRYS
 10
261.891636
 20
376.444977
 11
261.891636
 21
394.444977
  0
LINE
  8
OBRYS
 10
277.411636
 20
394.444977
 11
261.891636
 21
394.444977
  0
LINE
  8
OBRYS
 10
277.411636
 20
394.444977
 11
294.891636
 21
394.444977
  0
LINE
  8
OSA
 10
266.891636
 20
392.603258
 11
266.891636
 21
426.664605
  0
LINE
  8
OSA
 10
330.891636
 20
392.773019
 11
330.891636
 21
422.164608
  0
LINE
  8
OBRYS
 10
302.891636
 20
419.944977
 11
286.891636
 21
419.944977
  0
LINE
  8
OBRYS
 10
285.724969
 20
420.944977
 11
285.724969
 21
423.444977
  0
ARC
  8
OBRYS
 10
286.724969
 20
420.944977
 40
1.000000
 50
180.000000
 51
270.000000
  0
LINE
  8
OBRYS
 10
284.891636
 20
421.944977
 11
284.891636
 21
423.444977
  0
ARC
  8
OBRYS
 10
286.891636
 20
421.944977
 40
2.000000
 50
180.000000
 51
270.000000
  0
ARC
  8
OBRYS
 10
302.891636
 20
421.944977
 40
2.000000
 50
270.000000
 51
360.000000
  0
LINE
  8
OBRYS
 10
304.891636
 20
421.944977
 11
304.891636
 21
423.444977
  0
ARC
  8
OBRYS
 10
303.058302
 20
420.944977
 40
1.000000
 50
270.000000
 51
360.000000
  0
LINE
  8
OBRYS
 10
304.058302
 20
420.944977
 11
304.058302
 21
423.444977
  0
LINE
  8
OSA
 10
357.408140
 20
390.444977
 11
357.408140
 21
407.444977
  0
LINE
  8
OBRYS
 10
305.833581
 20
403.444977
 11
366.391636
 21
403.444977
  0
LINE
  8
OBRYS
 10
352.891636
 20
414.444977
 11
294.891636
 21
414.444977
  0
LINE
  8
OBRYS
 10
236.891636
 20
414.444977
 11
294.891636
 21
414.444977
  0
ARC
  8
OBRYS
 10
366.391636
 20
399.444977
 40
4.000000
 50
0.000000
 51
90.000000
  0
ARC
  8
OBRYS
 10
323.891636
 20
405.444977
 40
2.000000
 50
180.000000
 51
270.000000
  0
LINE
  8
OSA
 10
244.891636
 20
407.664612
 11
244.891636
 21
430.664605
  0
LINE
  8
OBRYS
 10
370.391636
 20
399.444977
 11
370.391636
 21
394.444977
  0
LINE
  8
OBRYS
 10
294.891636
 20
394.444977
 11
370.391636
 21
394.444977
  0
LINE
  8
OSA
 10
294.891636
 20
392.677528
 11
294.891636
 21
422.164608
  0
LINE
  8
OBRYS
 10
354.408140
 20
399.444977
 11
368.391636
 21
399.444977
  0
ARC
  8
OBRYS
 10
368.391636
 20
397.444977
 40
2.000000
 50
0.000000
 51
90.000000
  0
LINE
  8
OBRYS
 10
354.891636
 20
423.444977
 11
354.891636
 21
416.444977
  0
ARC
  8
OBRYS
 10
352.891636
 20
416.444977
 40
2.000000
 50
270.000000
 51
360.000000
  0
LINE
  8
OBRYS
 10
234.891636
 20
423.444977
 11
234.891636
 21
416.444977
  0
ARC
  8
OBRYS
 10
236.891636
 20
416.444977
 40
2.000000
 50
180.000000
 51
270.000000
  0
ARC
  8
OBRYS
 10
259.891636
 20
412.444977
 40
2.000000
 50
0.000000
 51
90.000000
  0
ARC
  8
OBRYS
 10
323.891636
 20
412.444977
 40
2.000000
 50
90.000000
 51
180.000000
  0
LINE
  8
OBRYS
 10
321.891636
 20
405.444977
 11
321.891636
 21
412.444977
  0
LINE
  8
OBRYS
 10
261.891636
 20
412.444977
 11
261.891636
 21
394.444977
  0
LINE
  8
OBRYS
 10
304.058302
 20
422.444977
 11
285.724969
 21
422.444977
  0
LINE
  8
OBRYS
 10
354.891636
 20
423.444977
 11
304.058302
 21
423.444977
  0
LINE
  8
OBRYS
 10
285.724969
 20
423.444977
 11
234.891636
 21
423.444977
  0
INSERT
  8
OBRYS
  2
Srouby_s_valcovou_hlavou___4
 62
     7
 10
357.408140
 20
399.444977
  0
ARC
  8
OBRYS
 10
353.158140
 20
401.444977
 40
2.000000
 50
180.000000
 51
270.000000
  0
ARC
  8
OBRYS
 10
349.158140
 20
401.444977
 40
2.000000
 50
0.000000
 51
90.000000
  0
ENDBLK
  8
OBRYS
  0
BLOCK
  8
OBRYS
  2
Srouby_s_valcovou_hlavou___4
 70
   66
 10
357.408140
 20
399.444977
  0
LINE
  8
OBRYS
 10
353.658140
 20
402.944977
 11
361.158140
 21
402.944977
  0
LINE
  8
OBRYS
 10
353.158140
 20
402.444977
 11
353.158140
 21
399.444977
  0
LINE
  8
OBRYS
 10
353.158140
 20
399.444977
 11
361.658140
 21
399.444977
  0
LINE
  8
OBRYS
 10
361.658140
 20
399.444977
 11
361.658140
 21
402.444977
  0
ARC
  8
OBRYS
 10
353.658140
 20
402.444977
 40
0.500000
 50
90.000000
 51
180.000000
  0
ARC
  8
OBRYS
 10
361.158140
 20
402.444977
 40
0.500000
 50
0.000000
 51
90.000000
  0
LINE
  8
OBRYS
 62
     7
  6
DOT
 10
355.098725
 20
402.944977
 11
355.098725
 21
401.278310
  0
LINE
  8
OBRYS
 62
     7
  6
DOT
 10
356.253432
 20
402.944977
 11
356.253432
 21
401.278310
  0
LINE
  8
OBRYS
 62
     7
  6
DOT
 10
358.562848
 20
402.944977
 11
358.562848
 21
401.278310
  0
LINE
  8
OBRYS
 62
     7
  6
DOT
 10
359.717556
 20
402.944977
 11
359.717556
 21
401.278310
  0
ARC
  8
OBRYS
 62
     7
  6
DOT
 10
355.676078
 20
403.278316
 40
0.666673
 50
210.000310
 51
329.999690
  0
ARC
  8
OBRYS
 62
     7
  6
DOT
 10
357.408140
 20
404.778335
 40
2.166692
 50
237.795963
 51
302.204037
  0
ARC
  8
OBRYS
 62
     7
  6
DOT
 10
359.140202
 20
403.278316
 40
0.666673
 50
210.000310
 51
329.999690
  0
ARC
  8
OBRYS
 62
     7
  6
DOT
 10
355.676078
 20
401.611650
 40
0.666673
 50
210.000310
 51
329.999690
  0
ARC
  8
OBRYS
 62
     7
  6
DOT
 10
357.408140
 20
403.111668
 40
2.166692
 50
237.795963
 51
302.204037
  0
ARC
  8
OBRYS
 62
     7
  6
DOT
 10
359.140202
 20
401.611650
 40
0.666673
 50
210.000310
 51
329.999690
  0
LINE
  8
OBRYS
 62
     7
  6
DOT
 10
355.676078
 20
400.944977
 11
357.408140
 21
399.790269
  0
LINE
  8
OBRYS
 62
     7
  6
DOT
 10
357.408140
 20
399.790269
 11
359.140202
 21
400.944977
  0
ENDBLK
  8
OBRYS
  0
BLOCK
  8
OBRYS
  2
_2
 70
   64
 10
477.847370
 20
371.444966
  0
LINE
  8
OBRYS
 10
417.847370
 20
423.444977
 11
477.847370
 21
423.444977
  0
LINE
  8
OBRYS
 10
477.847370
 20
423.444977
 11
537.847370
 21
423.444977
  0
LINE
  8
OBRYS
 10
419.847370
 20
414.444977
 11
477.847370
 21
414.444977
  0
LINE
  8
OBRYS
 10
535.847370
 20
414.444977
 11
477.847370
 21
414.444977
  0
LINE
  8
OSA
 10
477.847370
 20
392.677528
 11
477.847370
 21
422.164608
  0
LINE
  8
OBRYS
 10
417.847370
 20
423.444977
 11
417.847370
 21
416.444977
  0
ARC
  8
OBRYS
 10
419.847370
 20
416.444977
 40
2.000000
 50
180.000000
 51
270.000000
  0
LINE
  8
OBRYS
 10
537.847370
 20
423.444977
 11
537.847370
 21
416.444977
  0
ARC
  8
OBRYS
 10
535.847370
 20
416.444977
 40
2.000000
 50
270.000000
 51
360.000000
  0
LINE
  8
OBRYS
 10
514.328132
 20
394.444977
 11
441.366608
 21
394.444977
  0
ARC
  8
OBRYS
 10
442.611580
 20
404.944977
 40
1.500000
 50
274.876572
 51
360.000000
  0
ARC
  8
OBRYS
 10
442.866608
 20
401.955836
 40
1.500000
 50
94.876572
 51
180.000000
  0
LINE
  8
OBRYS
 10
444.111580
 20
412.944977
 11
444.111580
 21
404.944977
  0
ARC
  8
OBRYS
 10
442.611580
 20
412.944977
 40
1.500000
 50
0.000000
 51
90.000000
  0
ARC
  8
OBRYS
 10
513.083161
 20
412.944977
 40
1.500000
 50
90.000000
 51
180.000000
  0
LINE
  8
OBRYS
 10
511.583161
 20
412.944977
 11
511.583161
 21
404.944977
  0
ARC
  8
OBRYS
 10
512.828132
 20
401.955836
 40
1.500000
 50
0.000000
 51
85.123428
  0
ARC
  8
OBRYS
 10
513.083161
 20
404.944977
 40
1.500000
 50
180.000000
 51
265.123428
  0
LINE
  8
OBRYS
 10
441.366608
 20
401.955822
 11
441.366608
 21
394.444977
  0
LINE
  8
OBRYS
 10
514.328132
 20
401.955822
 11
514.328132
 21
394.444977
  0
LINE
  8
OBRYS
 10
514.328132
 20
376.444977
 11
514.328132
 21
394.444977
  0
LINE
  8
OBRYS
 10
514.328132
 20
394.444977
 11
477.847370
 21
394.444977
  0
LINE
  8
OBRYS
 10
477.847370
 20
394.444977
 11
441.366608
 21
394.444977
  0
LINE
  8
OBRYS
 10
441.366608
 20
394.444977
 11
441.366608
 21
376.444977
  0
LINE
  8
OSA
 10
477.847370
 20
360.944980
 11
477.847370
 21
401.944973
  0
LINE
  8
OBRYS
 10
446.847744
 20
371.444966
 11
446.847744
 21
371.472322
  0
ARC
  8
OBRYS
 10
509.847370
 20
371.444977
 40
1.000000
 50
90.000000
 51
180.000000
  0
ARC
  8
OBRYS
 10
445.366608
 20
376.444977
 40
4.000000
 50
180.000000
 51
264.004934
  0
ARC
  8
OBRYS
 10
445.847744
 20
371.472322
 40
1.000000
 50
0.000000
 51
84.004934
  0
ARC
  8
OBRYS
 10
510.328132
 20
376.444977
 40
4.000000
 50
270.000000
 51
360.000000
  0
LINE
  8
OBRYS
 10
477.847370
 20
371.444966
 11
508.847370
 21
371.444966
  0
LINE
  8
OBRYS
 10
446.847744
 20
371.444966
 11
477.847370
 21
371.444966
  0
LINE
  8
OBRYS
 10
510.328132
 20
372.444977
 11
477.847370
 21
372.444977
  0
LINE
  8
OBRYS
 10
477.847370
 20
372.444977
 11
444.948837
 21
372.444977
  0
ENDBLK
  8
OBRYS
  0
BLOCK
  8
OSA
  2
_3
 70
   64
 10
330.891636
 20
116.294080
  0
CIRCLE
  8
OBRYS
 10
294.891636
 20
116.294080
 40
10.000000
  0
ARC
  8
OBRYS
 10
294.891636
 20
116.294080
 40
4.500000
 50
19.471221
 51
340.528779
  0
LINE
  8
OBRYS
 10
299.134276
 20
117.794080
 11
300.691636
 21
117.794080
  0
LINE
  8
OBRYS
 10
300.691636
 20
117.794080
 11
300.691636
 21
114.794080
  0
LINE
  8
OBRYS
 10
300.691636
 20
114.794080
 11
299.134276
 21
114.794080
  0
LINE
  8
OSA
 10
294.891636
 20
116.294080
 11
294.891636
 21
110.127413
  0
LINE
  8
OSA
 10
294.891636
 20
116.294080
 11
294.891636
 21
122.460746
  0
LINE
  8
OSA
 10
294.891636
 20
116.294080
 11
301.058302
 21
116.294080
  0
LINE
  8
OSA
 10
294.891636
 20
116.294080
 11
288.724969
 21
116.294080
  0
INSERT
  8
OSA
  2
Srouby_s_valcovou_hlavou___6
  6
CONTINUOUS
 10
266.891636
 20
116.294080
  0
INSERT
  8
OSA
  2
Srouby_s_valcovou_hlavou___7
  6
CONTINUOUS
 10
304.375132
 20
142.810584
  0
INSERT
  8
OSA
  2
Srouby_s_valcovou_hlavou___8
  6
CONTINUOUS
 10
304.375132
 20
89.777575
  0
LINE
  8
OSA
 10
304.375132
 20
142.810584
 11
304.375132
 21
136.201211
  0
LINE
  8
OSA
 10
304.375132
 20
142.810584
 11
304.375132
 21
149.419957
  0
LINE
  8
OSA
 10
304.375132
 20
142.810584
 11
310.984505
 21
142.810584
  0
LINE
  8
OSA
 10
304.375132
 20
142.810584
 11
297.765759
 21
142.810584
  0
LINE
  8
OSA
 10
304.375132
 20
89.777575
 11
304.375132
 21
83.168203
  0
LINE
  8
OSA
 10
304.375132
 20
89.777575
 11
304.375132
 21
96.386948
  0
LINE
  8
OSA
 10
304.375132
 20
89.777575
 11
310.984505
 21
89.777575
  0
LINE
  8
OSA
 10
304.375132
 20
89.777575
 11
297.765759
 21
89.777575
  0
LINE
  8
OSA
 10
357.408140
 20
142.810584
 11
357.408140
 21
136.201211
  0
LINE
  8
OSA
 10
357.408140
 20
142.810584
 11
357.408140
 21
149.419957
  0
LINE
  8
OSA
 10
357.408140
 20
142.810584
 11
364.017513
 21
142.810584
  0
LINE
  8
OSA
 10
357.408140
 20
142.810584
 11
350.798767
 21
142.810584
  0
LINE
  8
OSA
 10
357.408140
 20
89.777575
 11
350.798767
 21
89.777575
  0
LINE
  8
OSA
 10
357.408140
 20
89.777575
 11
364.017513
 21
89.777575
  0
LINE
  8
OSA
 10
357.408140
 20
89.777575
 11
357.408140
 21
96.386948
  0
LINE
  8
OSA
 10
357.408140
 20
89.777575
 11
357.408140
 21
83.168203
  0
INSERT
  8
OSA
  2
Srouby_s_valcovou_hlavou___9
  6
CONTINUOUS
 10
357.408140
 20
142.810584
  0
INSERT
  8
OSA
  2
Srouby_s_valcovou_hlavou___10
  6
CONTINUOUS
 10
357.408140
 20
89.777575
  0
LINE
  8
0
 62
     2
 10
342.527274
 20
152.774842
 11
345.891636
 21
152.774842
  0
LINE
  8
0
 62
     2
 10
342.527274
 20
79.813318
 11
345.891636
 21
79.813318
  0
ARC
  8
OBRYS
 10
294.891636
 20
116.294080
 40
55.000000
 50
0.000000
 51
180.000000
  0
ARC
  8
OBRYS
 10
256.099121
 20
141.015342
 40
2.000000
 50
327.491906
 51
55.000000
  0
LINE
  8
OBRYS
 10
257.246274
 20
142.653646
 11
251.507500
 21
146.671979
  0
ARC
  8
OBRYS
 10
250.360347
 20
145.033675
 40
2.000000
 50
55.000000
 51
147.162618
  0
ARC
  8
OBRYS
 10
294.891636
 20
116.294080
 40
44.000000
 50
0.000000
 51
180.000000
  0
ARC
  8
OBRYS
 10
266.152041
 20
160.825369
 40
2.000000
 50
122.837382
 51
215.000000
  0
LINE
  8
OBRYS
 10
268.532070
 20
153.939442
 11
264.513737
 21
159.678216
  0
ARC
  8
OBRYS
 10
270.170374
 20
155.086595
 40
2.000000
 50
215.000000
 51
302.508094
  0
LINE
  8
OBRYS
 10
284.891636
 20
175.454878
 11
285.724969
 21
170.524811
  0
LINE
  8
OBRYS
 10
304.891636
 20
175.454878
 11
304.058302
 21
170.524811
  0
ARC
  8
OBRYS
 10
319.612898
 20
155.086595
 40
2.000000
 50
237.491906
 51
325.000000
  0
LINE
  8
OBRYS
 10
321.251202
 20
153.939442
 11
325.269535
 21
159.678216
  0
ARC
  8
OBRYS
 10
323.631231
 20
160.825369
 40
2.000000
 50
325.000000
 51
57.162618
  0
ARC
  8
OBRYS
 10
339.422925
 20
145.033675
 40
2.000000
 50
32.837382
 51
125.000000
  0
LINE
  8
OBRYS
 10
332.536998
 20
142.653646
 11
338.275772
 21
146.671979
  0
ARC
  8
OBRYS
 10
333.684151
 20
141.015342
 40
2.000000
 50
125.000000
 51
212.508094
  0
ARC
  8
OBRYS
 10
333.684151
 20
91.572818
 40
2.000000
 50
147.491906
 51
235.000000
  0
LINE
  8
OBRYS
 10
332.536998
 20
89.934514
 11
338.275772
 21
85.916181
  0
ARC
  8
OBRYS
 10
339.422925
 20
87.554485
 40
2.000000
 50
235.000000
 51
327.162618
  0
ARC
  8
OBRYS
 10
323.631231
 20
71.762791
 40
2.000000
 50
302.837382
 51
35.000000
  0
LINE
  8
OBRYS
 10
321.251202
 20
78.648718
 11
325.269535
 21
72.909944
  0
ARC
  8
OBRYS
 10
319.612898
 20
77.501565
 40
2.000000
 50
35.000000
 51
122.508094
  0
LINE
  8
OBRYS
 10
304.891636
 20
57.133282
 11
304.058302
 21
62.063348
  0
LINE
  8
OBRYS
 10
284.891636
 20
57.133282
 11
285.724969
 21
62.063348
  0
ARC
  8
OBRYS
 10
270.170374
 20
77.501565
 40
2.000000
 50
57.491906
 51
145.000000
  0
LINE
  8
OBRYS
 10
268.532070
 20
78.648718
 11
264.513737
 21
72.909944
  0
ARC
  8
OBRYS
 10
266.152041
 20
71.762791
 40
2.000000
 50
145.000000
 51
237.162618
  0
ARC
  8
OBRYS
 10
294.891636
 20
116.294080
 40
44.000000
 50
180.000000
 51
360.000000
  0
ARC
  8
OBRYS
 10
250.360347
 20
87.554485
 40
2.000000
 50
212.837382
 51
305.000000
  0
LINE
  8
OBRYS
 10
257.246274
 20
89.934514
 11
251.507500
 21
85.916181
  0
ARC
  8
OBRYS
 10
256.099121
 20
91.572818
 40
2.000000
 50
305.000000
 51
32.508094
  0
ARC
  8
OBRYS
 10
294.891636
 20
116.294080
 40
55.000000
 50
180.000000
 51
360.000000
  0
CIRCLE
  8
OBRYS
 10
294.891636
 20
116.294080
 40
17.480000
  0
ARC
  8
OBRYS
 10
294.891636
 20
116.294080
 40
24.000000
 50
0.000000
 51
64.208906
  0
ARC
  8
OSA
 10
294.891636
 20
116.294080
 40
50.000000
 50
0.000000
 51
180.000000
  0
ARC
  8
OBRYS
 10
294.891636
 20
116.294080
 40
40.000000
 50
0.000000
 51
180.000000
  0
ARC
  8
OBRYS
 10
294.891636
 20
116.294080
 40
60.000000
 50
0.000000
 51
180.000000
  0
ARC
  8
OBRYS
 10
294.891636
 20
116.294080
 40
21.000000
 50
0.000000
 51
180.000000
  0
LINE
  8
OSA
 10
266.891636
 20
116.294080
 11
266.891636
 21
126.294093
  0
ARC
  8
OBRYS
 10
266.891636
 20
116.294096
 40
5.000000
 50
0.000000
 51
180.000000
  0
LINE
  8
OSA
 10
330.891636
 20
116.294080
 11
330.891636
 21
156.294076
  0
LINE
  8
OSA
 10
294.891636
 20
116.294080
 11
294.891636
 21
176.294080
  0
ARC
  8
OBRYS
 10
345.891636
 20
142.274842
 40
10.500000
 50
64.169919
 51
89.999994
  0
LINE
  8
0
 62
     2
 10
350.466525
 20
151.725788
 11
359.586659
 21
147.311035
  0
CIRCLE
  8
OBRYS
 10
304.375132
 20
142.810584
 40
5.000000
  0
ARC
  8
OBRYS
 10
357.408140
 20
142.810584
 40
5.000000
 50
179.999964
 51
270.000000
  0
ARC
  8
OBRYS
 10
350.408140
 20
149.532051
 40
2.000000
 50
0.000000
 51
64.169919
  0
LINE
  8
OBRYS
 10
352.408140
 20
142.810584
 11
352.408140
 21
149.532051
  0
CIRCLE
  8
OBRYS
 10
330.246975
 20
151.649419
 40
3.500000
  0
LINE
  8
OSA
 10
294.891636
 20
116.294080
 11
252.465229
 21
158.720487
  0
LINE
  8
OSA
 10
294.891636
 20
116.294080
 11
337.318043
 21
158.720487
  0
CIRCLE
  8
OBRYS
 10
259.536297
 20
151.649419
 40
3.500000
  0
ARC
  8
OBRYS
 10
304.375132
 20
142.810584
 40
5.000000
 50
266.832544
 51
315.000000
  0
ARC
  8
OBRYS
 10
294.891636
 20
116.294080
 40
24.000000
 50
76.432420
 51
173.365562
  0
ARC
  8
OBRYS
 10
294.891636
 20
116.294080
 40
24.000000
 50
186.634438
 51
283.567580
  0
ARC
  8
OBRYS
 10
304.375132
 20
89.777575
 40
5.000000
 50
45.000000
 51
93.167456
  0
CIRCLE
  8
OBRYS
 10
259.536297
 20
80.938741
 40
3.500000
  0
LINE
  8
OSA
 10
294.891636
 20
116.294080
 11
337.318043
 21
73.867673
  0
LINE
  8
OSA
 10
294.891636
 20
116.294080
 11
252.465229
 21
73.867673
  0
CIRCLE
  8
OBRYS
 10
330.246975
 20
80.938741
 40
3.500000
  0
LINE
  8
OBRYS
 10
352.408140
 20
89.777575
 11
352.408140
 21
83.056109
  0
ARC
  8
OBRYS
 10
350.408140
 20
83.056109
 40
2.000000
 50
295.830081
 51
360.000000
  0
ARC
  8
OBRYS
 10
357.408140
 20
89.777575
 40
5.000000
 50
90.000000
 51
180.000036
  0
CIRCLE
  8
OBRYS
 10
304.375132
 20
89.777575
 40
5.000000
  0
LINE
  8
0
 62
     2
 10
350.466525
 20
80.862371
 11
359.586659
 21
85.277125
  0
ARC
  8
OBRYS
 10
345.891636
 20
90.313318
 40
10.500000
 50
270.000006
 51
295.830081
  0
LINE
  8
OSA
 10
376.535683
 20
116.294080
 11
234.891636
 21
116.294080
  0
LINE
  8
OSA
 10
294.891636
 20
116.294080
 11
294.891636
 21
56.294080
  0
LINE
  8
OSA
 10
330.891636
 20
116.294080
 11
330.891636
 21
76.294083
  0
ARC
  8
OBRYS
 10
266.891636
 20
116.294063
 40
5.000000
 50
180.000000
 51
360.000000
  0
LINE
  8
OSA
 10
266.891636
 20
116.294080
 11
266.891636
 21
106.294067
  0
ARC
  8
OBRYS
 10
294.891636
 20
116.294080
 40
21.000000
 50
180.000000
 51
360.000000
  0
ARC
  8
OBRYS
 10
294.891636
 20
116.294080
 40
60.000000
 50
180.000000
 51
360.000000
  0
ARC
  8
OBRYS
 10
294.891636
 20
116.294080
 40
40.000000
 50
180.000000
 51
360.000000
  0
ARC
  8
OSA
 10
294.891636
 20
116.294080
 40
50.000000
 50
180.000000
 51
360.000000
  0
ARC
  8
OBRYS
 10
294.891636
 20
116.294080
 40
24.000000
 50
295.791094
 51
360.000000
  0
ARC
  8
OBRYS
 10
357.408140
 20
142.810584
 40
5.000000
 50
33.511664
 51
64.169919
  0
ARC
  8
OBRYS
 10
357.408140
 20
89.777575
 40
5.000000
 50
295.830081
 51
326.488335
  0
ARC
  8
OBRYS
 10
317.363727
 20
116.294080
 40
53.027909
 50
326.488379
 51
33.511629
  0
LINE
  8
OBRYS
 10
357.408140
 20
94.777575
 11
364.511935
 21
94.777575
  0
ARC
  8
OBRYS
 10
364.511935
 20
96.777575
 40
2.000000
 50
270.000000
 51
337.513406
  0
LINE
  8
OBRYS
 10
357.408140
 20
137.810584
 11
364.511935
 21
137.810584
  0
ARC
  8
OBRYS
 10
364.511935
 20
135.810584
 40
2.000000
 50
22.486594
 51
90.000000
  0
ENDBLK
  8
OSA
  0
BLOCK
  8
OSA
  2
Srouby_s_valcovou_hlavou___6
 70
   66
 10
266.891636
 20
116.294080
  0
LINE
  8
OSA
 62
     2
  6
CONTINUOUS
 10
265.736928
 20
118.294080
 11
268.046344
 21
118.294080
  0
LINE
  8
OSA
 62
     2
  6
CONTINUOUS
 10
268.046344
 20
118.294080
 11
269.201051
 21
116.294080
  0
LINE
  8
OSA
 62
     2
  6
CONTINUOUS
 10
269.201051
 20
116.294080
 11
268.046344
 21
114.294080
  0
LINE
  8
OSA
 62
     2
  6
CONTINUOUS
 10
268.046344
 20
114.294080
 11
265.736928
 21
114.294080
  0
LINE
  8
OSA
 62
     2
  6
CONTINUOUS
 10
265.736928
 20
114.294080
 11
264.582220
 21
116.294080
  0
LINE
  8
OSA
 62
     2
  6
CONTINUOUS
 10
264.582220
 20
116.294080
 11
265.736928
 21
118.294080
  0
CIRCLE
  8
OSA
 62
     2
  6
CONTINUOUS
 10
266.891636
 20
116.294080
 40
2.309415
  0
CIRCLE
  8
OSA
 62
     2
  6
CONTINUOUS
 10
266.891636
 20
116.294080
 40
4.250000
  0
ENDBLK
  8
OSA
  0
BLOCK
  8
OSA
  2
Srouby_s_valcovou_hlavou___7
 70
   66
 10
304.375132
 20
142.810584
  0
LINE
  8
OSA
 62
     2
  6
CONTINUOUS
 10
303.220424
 20
144.810584
 11
305.529839
 21
144.810584
  0
LINE
  8
OSA
 62
     2
  6
CONTINUOUS
 10
305.529839
 20
144.810584
 11
306.684547
 21
142.810584
  0
LINE
  8
OSA
 62
     2
  6
CONTINUOUS
 10
306.684547
 20
142.810584
 11
305.529839
 21
140.810584
  0
LINE
  8
OSA
 62
     2
  6
CONTINUOUS
 10
305.529839
 20
140.810584
 11
303.220424
 21
140.810584
  0
LINE
  8
OSA
 62
     2
  6
CONTINUOUS
 10
303.220424
 20
140.810584
 11
302.065716
 21
142.810584
  0
LINE
  8
OSA
 62
     2
  6
CONTINUOUS
 10
302.065716
 20
142.810584
 11
303.220424
 21
144.810584
  0
CIRCLE
  8
OSA
 62
     2
  6
CONTINUOUS
 10
304.375132
 20
142.810584
 40
2.309415
  0
CIRCLE
  8
OSA
 62
     2
  6
CONTINUOUS
 10
304.375132
 20
142.810584
 40
4.250000
  0
ENDBLK
  8
OSA
  0
BLOCK
  8
OSA
  2
Srouby_s_valcovou_hlavou___8
 70
   66
 10
304.375132
 20
89.777575
  0
LINE
  8
OSA
 62
     2
  6
CONTINUOUS
 10
303.220424
 20
91.777575
 11
305.529839
 21
91.777575
  0
LINE
  8
OSA
 62
     2
  6
CONTINUOUS
 10
305.529839
 20
91.777575
 11
306.684547
 21
89.777575
  0
LINE
  8
OSA
 62
     2
  6
CONTINUOUS
 10
306.684547
 20
89.777575
 11
305.529839
 21
87.777575
  0
LINE
  8
OSA
 62
     2
  6
CONTINUOUS
 10
305.529839
 20
87.777575
 11
303.220424
 21
87.777575
  0
LINE
  8
OSA
 62
     2
  6
CONTINUOUS
 10
303.220424
 20
87.777575
 11
302.065716
 21
89.777575
  0
LINE
  8
OSA
 62
     2
  6
CONTINUOUS
 10
302.065716
 20
89.777575
 11
303.220424
 21
91.777575
  0
CIRCLE
  8
OSA
 62
     2
  6
CONTINUOUS
 10
304.375132
 20
89.777575
 40
2.309415
  0
CIRCLE
  8
OSA
 62
     2
  6
CONTINUOUS
 10
304.375132
 20
89.777575
 40
4.250000
  0
ENDBLK
  8
OSA
  0
BLOCK
  8
OSA
  2
Srouby_s_valcovou_hlavou___9
 70
   66
 10
357.408140
 20
142.810584
  0
LINE
  8
OSA
 62
     2
  6
CONTINUOUS
 10
356.253432
 20
144.810584
 11
358.562848
 21
144.810584
  0
LINE
  8
OSA
 62
     2
  6
CONTINUOUS
 10
358.562848
 20
144.810584
 11
359.717556
 21
142.810584
  0
LINE
  8
OSA
 62
     2
  6
CONTINUOUS
 10
359.717556
 20
142.810584
 11
358.562848
 21
140.810584
  0
LINE
  8
OSA
 62
     2
  6
CONTINUOUS
 10
358.562848
 20
140.810584
 11
356.253432
 21
140.810584
  0
LINE
  8
OSA
 62
     2
  6
CONTINUOUS
 10
356.253432
 20
140.810584
 11
355.098725
 21
142.810584
  0
LINE
  8
OSA
 62
     2
  6
CONTINUOUS
 10
355.098725
 20
142.810584
 11
356.253432
 21
144.810584
  0
CIRCLE
  8
OSA
 62
     2
  6
CONTINUOUS
 10
357.408140
 20
142.810584
 40
2.309415
  0
CIRCLE
  8
OSA
 62
     2
  6
CONTINUOUS
 10
357.408140
 20
142.810584
 40
4.250000
  0
ENDBLK
  8
OSA
  0
BLOCK
  8
OSA
  2
Srouby_s_valcovou_hlavou___10
 70
   66
 10
357.408140
 20
89.777575
  0
LINE
  8
OSA
 62
     2
  6
CONTINUOUS
 10
356.253432
 20
91.777575
 11
358.562848
 21
91.777575
  0
LINE
  8
OSA
 62
     2
  6
CONTINUOUS
 10
358.562848
 20
91.777575
 11
359.717556
 21
89.777575
  0
LINE
  8
OSA
 62
     2
  6
CONTINUOUS
 10
359.717556
 20
89.777575
 11
358.562848
 21
87.777575
  0
LINE
  8
OSA
 62
     2
  6
CONTINUOUS
 10
358.562848
 20
87.777575
 11
356.253432
 21
87.777575
  0
LINE
  8
OSA
 62
     2
  6
CONTINUOUS
 10
356.253432
 20
87.777575
 11
355.098725
 21
89.777575
  0
LINE
  8
OSA
 62
     2
  6
CONTINUOUS
 10
355.098725
 20
89.777575
 11
356.253432
 21
91.777575
  0
CIRCLE
  8
OSA
 62
     2
  6
CONTINUOUS
 10
357.408140
 20
89.777575
 40
2.309415
  0
CIRCLE
  8
OSA
 62
     2
  6
CONTINUOUS
 10
357.408140
 20
89.777575
 40
4.250000
  0
ENDBLK
  8
OSA
  0
BLOCK
  8
OBRYS
  2
_4
 70
   64
 10
280.891636
 20
310.444966
  0
INSERT
  8
OBRYS
  2
Srouby_s_valcovou_hlavou___12
 62
     7
 10
280.891636
 20
272.944966
  0
INSERT
  8
OBRYS
  2
Srouby_s_valcovou_hlavou___13
 62
     7
 10
243.391636
 20
310.444966
  0
INSERT
  8
OBRYS
  2
Srouby_s_valcovou_hlavou___14
 62
     7
 10
280.891636
 20
347.944966
  0
INSERT
  8
OBRYS
  2
Srouby_s_valcovou_hlavou___15
 62
     7
 10
318.391636
 20
310.444966
  0
INSERT
  8
OBRYS
  2
Srouby_s_valcovou_hlavou___16
 62
     7
 10
261.757464
 20
356.638942
  0
INSERT
  8
OBRYS
  2
Srouby_s_valcovou_hlavou___17
 62
     7
 10
234.697659
 20
329.579137
  0
INSERT
  8
OBRYS
  2
Srouby_s_valcovou_hlavou___18
 62
     7
 10
234.697659
 20
291.310794
  0
INSERT
  8
OBRYS
  2
Srouby_s_valcovou_hlavou___19
 62
     7
 10
261.757464
 20
264.250989
  0
INSERT
  8
OBRYS
  2
Srouby_s_valcovou_hlavou___20
 62
     7
 10
300.025807
 20
264.250989
  0
INSERT
  8
OBRYS
  2
Srouby_s_valcovou_hlavou___21
 62
     7
 10
327.085613
 20
291.310794
  0
INSERT
  8
OBRYS
  2
Srouby_s_valcovou_hlavou___22
 62
     7
 10
327.085612
 20
329.579138
  0
INSERT
  8
OBRYS
  2
Srouby_s_valcovou_hlavou___23
 62
     7
 10
300.025807
 20
356.638942
  0
ARC
  8
OSA
 62
     2
  6
CONTINUOUS
 10
280.891636
 20
310.444966
 40
56.000000
 50
0.000000
 51
180.000000
  0
ARC
  8
OBRYS
 10
280.891636
 20
310.444966
 40
70.000000
 50
292.333848
 51
302.027150
  0
ARC
  8
OBRYS
 10
280.891636
 20
310.444966
 40
70.000000
 50
308.147347
 51
323.130102
  0
LINE
  8
NEVIDITELNA
 62
     2
  6
CONTINUOUS
 10
328.891636
 20
249.944966
 11
328.891636
 21
235.444966
  0
LINE
  8
NEVIDITELNA
 62
     2
  6
CONTINUOUS
 10
317.891636
 20
249.944966
 11
317.891636
 21
235.444966
  0
ARC
  8
NEVIDITELNA
 62
     2
  6
CONTINUOUS
 10
323.391636
 20
249.944966
 40
5.500000
 50
90.000000
 51
180.000000
  0
ARC
  8
NEVIDITELNA
 62
     2
  6
CONTINUOUS
 10
323.391636
 20
249.944966
 40
5.500000
 50
0.000000
 51
90.000000
  0
ARC
  8
OBRYS
 10
280.891636
 20
310.444966
 40
70.000000
 50
216.880260
 51
231.852653
  0
ARC
  8
OBRYS
 10
280.891636
 20
310.444966
 40
49.817170
 50
210.539968
 51
231.905346
  0
LINE
  8
OBRYS
 10
254.291449
 20
238.555328
 11
254.291449
 21
254.507359
  0
LINE
  8
NEVIDITELNA
 62
     2
  6
CONTINUOUS
 10
259.391636
 20
245.765335
 11
259.391636
 21
225.444966
  0
ARC
  8
OBRYS
 10
280.891636
 20
310.444966
 40
49.817170
 50
263.094654
 51
276.905346
  0
ARC
  8
NEVIDITELNA
 62
     2
  6
CONTINUOUS
 10
269.391636
 20
245.765335
 40
10.000000
 50
112.439556
 51
180.000000
  0
ARC
  8
OBRYS
 10
261.757464
 20
264.250989
 40
10.000000
 50
292.439556
 51
326.744709
  0
ARC
  8
OBRYS
 10
274.300997
 20
256.025432
 40
5.000000
 50
83.094654
 51
146.744709
  0
ARC
  8
OBRYS
 10
247.071500
 20
267.304259
 40
5.000000
 50
348.255291
 51
51.905346
  0
ARC
  8
OBRYS
 10
261.757464
 20
264.250989
 40
10.000000
 50
168.255291
 51
209.155497
  0
ARC
  8
OBRYS
 10
244.291449
 20
254.507359
 40
10.000000
 50
0.000000
 51
29.155497
  0
ARC
  8
OBRYS
 10
261.757464
 20
264.250989
 40
10.000000
 50
228.820618
 51
274.030357
  0
ARC
  8
OBRYS
 10
300.025807
 20
264.250989
 40
10.000000
 50
265.969643
 51
311.179382
  0
ARC
  8
OBRYS
 10
317.491822
 20
254.507359
 40
10.000000
 50
150.844503
 51
180.000000
  0
ARC
  8
OBRYS
 10
300.025807
 20
264.250989
 40
10.000000
 50
330.844503
 51
11.744709
  0
LINE
  8
OBRYS
 10
307.491822
 20
238.555328
 11
307.491822
 21
254.507359
  0
ARC
  8
OBRYS
 10
314.711772
 20
267.304259
 40
5.000000
 50
128.094654
 51
191.744709
  0
ARC
  8
OBRYS
 10
280.891636
 20
310.444966
 40
49.817170
 50
308.094654
 51
329.460032
  0
ARC
  8
OBRYS
 10
287.482275
 20
256.025432
 40
5.000000
 50
33.255291
 51
96.905346
  0
ARC
  8
OBRYS
 10
300.025807
 20
264.250989
 40
10.000000
 50
213.255291
 51
247.560444
  0
ARC
  8
NEVIDITELNA
 62
     2
  6
CONTINUOUS
 10
292.391636
 20
245.765335
 40
10.000000
 50
0.000000
 51
67.560444
  0
LINE
  8
NEVIDITELNA
 62
     2
  6
CONTINUOUS
 10
302.391636
 20
245.765335
 11
302.391636
 21
225.444966
  0
LINE
  8
OBRYS
 10
243.572097
 20
275.953854
 11
232.231582
 21
264.613339
  0
LINE
  8
OBRYS
 10
246.400524
 20
273.125427
 11
235.060009
 21
261.784912
  0
LINE
  8
OBRYS
 10
278.891636
 20
259.667168
 11
278.891636
 21
243.629258
  0
LINE
  8
OBRYS
 10
282.891636
 20
259.667168
 11
282.891636
 21
243.629258
  0
LINE
  8
OBRYS
 10
318.211175
 20
275.953854
 11
329.551690
 21
264.613339
  0
LINE
  8
OBRYS
 10
315.382748
 20
273.125427
 11
326.723263
 21
261.784912
  0
LINE
  8
OBRYS
 10
307.432636
 20
235.444966
 11
303.473635
 21
235.444966
  0
LINE
  8
OBRYS
 10
254.350636
 20
235.444966
 11
258.309636
 21
235.444966
  0
LINE
  8
OSA
 10
280.891636
 20
310.444966
 11
280.891636
 21
223.397897
  0
ARC
  8
NEVIDITELNA
 62
     2
  6
CONTINUOUS
 10
250.391636
 20
239.444966
 40
4.000000
 50
270.000000
 51
347.149408
  0
ARC
  8
OBRYS
 10
280.891636
 20
310.444966
 40
56.000000
 50
0.000000
 51
12.329602
  0
ARC
  8
OBRYS
 10
280.891636
 20
310.444966
 40
56.000000
 50
167.670403
 51
180.000000
  0
LINE
  8
OBRYS
 10
243.572097
 20
344.936078
 11
240.525070
 21
347.983105
  0
LINE
  8
OBRYS
 10
230.113838
 20
308.444966
 11
225.804691
 21
308.444966
  0
LINE
  8
OBRYS
 10
331.669434
 20
312.444966
 11
335.978581
 21
312.444966
  0
LINE
  8
OBRYS
 10
315.382748
 20
347.764505
 11
318.429775
 21
350.811532
  0
LINE
  8
OBRYS
 10
246.400524
 20
347.764505
 11
243.353497
 21
350.811532
  0
LINE
  8
OBRYS
 10
230.113838
 20
312.444966
 11
225.804691
 21
312.444966
  0
LINE
  8
OBRYS
 10
331.669434
 20
308.444966
 11
335.978581
 21
308.444966
  0
LINE
  8
OBRYS
 10
318.211175
 20
344.936078
 11
321.258202
 21
347.983105
  0
LINE
  8
OBRYS
 10
336.891636
 20
233.357721
 11
336.891636
 21
310.444966
  0
LINE
  8
OBRYS
 10
224.899233
 20
233.270807
 11
224.899233
 21
310.444966
  0
LINE
  8
OBRYS
 10
282.891636
 20
361.222764
 11
282.891636
 21
365.531911
  0
LINE
  8
OBRYS
 10
278.891636
 20
361.222764
 11
278.891636
 21
365.531911
  0
ARC
  8
OBRYS
 10
280.891636
 20
310.444966
 40
49.817170
 50
165.614426
 51
194.460032
  0
ARC
  8
OBRYS
 10
280.891636
 20
310.444966
 40
49.817170
 50
345.539968
 51
14.460032
  0
ARC
  8
OBRYS
 10
280.891636
 20
310.444966
 40
49.817170
 50
30.539968
 51
59.452154
  0
ARC
  8
OBRYS
 10
280.891636
 20
310.444966
 40
49.817170
 50
120.539968
 51
149.452154
  0
ARC
  8
OBRYS
 10
280.891636
 20
310.444966
 40
49.817170
 50
75.614426
 51
104.460032
  0
ARC
  8
OBRYS
 10
280.891636
 20
310.444966
 40
56.000000
 50
77.670398
 51
102.329602
  0
ARC
  8
OBRYS
 10
269.360737
 20
363.199476
 40
2.000000
 50
102.329602
 51
194.452154
  0
ARC
  8
OBRYS
 10
251.742140
 20
355.901614
 40
2.000000
 50
30.547846
 51
122.670398
  0
ARC
  8
OBRYS
 10
261.757464
 20
356.638942
 40
7.000000
 50
210.547866
 51
14.452132
  0
LINE
  8
OBRYS
 10
255.729028
 20
353.081141
 11
253.464550
 21
356.918130
  0
LINE
  8
OBRYS
 10
268.591676
 20
358.400270
 11
267.484756
 21
362.715948
  0
LINE
  8
OBRYS
 10
293.191596
 20
358.400270
 11
294.298515
 21
362.715948
  0
LINE
  8
OBRYS
 10
306.054244
 20
353.081141
 11
308.318721
 21
356.918130
  0
ARC
  8
OBRYS
 10
300.025807
 20
356.638942
 40
7.000000
 50
165.547868
 51
329.452134
  0
ARC
  8
OBRYS
 10
310.041131
 20
355.901614
 40
2.000000
 50
57.329602
 51
149.452154
  0
ARC
  8
OBRYS
 10
292.422534
 20
363.199476
 40
2.000000
 50
345.547846
 51
77.670398
  0
LINE
  8
OBRYS
 10
232.936331
 20
322.744926
 11
228.620654
 21
323.851845
  0
LINE
  8
OBRYS
 10
238.255461
 20
335.607574
 11
234.418472
 21
337.872051
  0
ARC
  8
OBRYS
 10
234.697659
 20
329.579137
 40
7.000000
 50
255.547868
 51
59.452134
  0
ARC
  8
OBRYS
 10
235.434987
 20
339.594461
 40
2.000000
 50
147.329602
 51
239.452154
  0
ARC
  8
OBRYS
 10
228.137125
 20
321.975864
 40
2.000000
 50
75.547846
 51
167.670398
  0
ARC
  8
OBRYS
 10
333.646146
 20
321.975864
 40
2.000000
 50
12.329602
 51
104.452154
  0
ARC
  8
OBRYS
 10
326.348284
 20
339.594461
 40
2.000000
 50
300.547846
 51
32.670398
  0
ARC
  8
OBRYS
 10
327.085612
 20
329.579137
 40
7.000000
 50
120.547866
 51
284.452132
  0
LINE
  8
OBRYS
 10
323.527811
 20
335.607574
 11
327.364800
 21
337.872051
  0
LINE
  8
OBRYS
 10
328.846940
 20
322.744926
 11
333.162618
 21
323.851845
  0
CIRCLE
  8
OBRYS
 10
327.085612
 20
291.310794
 40
7.000000
  0
CIRCLE
  8
OBRYS
 10
300.025807
 20
264.250989
 40
7.000000
  0
CIRCLE
  8
OBRYS
 10
261.757464
 20
264.250989
 40
7.000000
  0
CIRCLE
  8
OBRYS
 10
234.697659
 20
291.310794
 40
7.000000
  0
LINE
  8
OBRYS
 10
259.391636
 20
225.444966
 11
259.391636
 21
227.444966
  0
LINE
  8
NEVIDITELNA
 62
     2
  6
CONTINUOUS
 10
259.391636
 20
227.444966
 11
302.391636
 21
227.444966
  0
CIRCLE
  8
OSA
 10
280.891636
 20
310.444966
 40
37.500000
  0
LINE
  8
OSA
 10
238.391636
 20
255.244966
 11
238.391636
 21
225.444966
  0
ARC
  8
NEVIDITELNA
 62
     2
  6
CONTINUOUS
 10
238.391636
 20
249.944966
 40
5.500000
 50
90.000000
 51
180.000000
  0
ARC
  8
NEVIDITELNA
 62
     2
  6
CONTINUOUS
 10
238.391636
 20
249.944966
 40
5.500000
 50
0.000000
 51
90.000000
  0
LINE
  8
NEVIDITELNA
 62
     2
  6
CONTINUOUS
 10
243.891636
 20
249.944966
 11
243.891636
 21
235.444966
  0
LINE
  8
NEVIDITELNA
 62
     2
  6
CONTINUOUS
 10
232.891636
 20
249.944966
 11
232.891636
 21
235.444966
  0
ARC
  8
NEVIDITELNA
 62
     2
  6
CONTINUOUS
 10
311.391636
 20
239.444966
 40
4.000000
 50
180.000000
 51
270.000000
  0
LINE
  8
NEVIDITELNA
 62
     2
  6
CONTINUOUS
 10
302.391636
 20
231.444966
 11
259.391636
 21
231.444966
  0
LINE
  8
OSA
 10
323.391636
 20
255.244966
 11
323.391636
 21
225.444966
  0
LINE
  8
NEVIDITELNA
 62
     2
  6
CONTINUOUS
 10
224.891636
 20
225.444966
 11
259.391636
 21
225.444966
  0
LINE
  8
NEVIDITELNA
 62
     2
  6
CONTINUOUS
 10
226.891636
 20
235.444966
 11
250.391636
 21
235.444966
  0
ARC
  8
NEVIDITELNA
 62
     2
  6
CONTINUOUS
 10
226.891636
 20
233.444966
 40
2.000000
 50
90.000000
 51
180.000000
  0
LINE
  8
NEVIDITELNA
 62
     2
  6
CONTINUOUS
 10
224.891636
 20
233.357721
 11
224.891636
 21
225.444966
  0
LINE
  8
NEVIDITELNA
 62
     2
  6
CONTINUOUS
 10
336.891636
 20
233.357721
 11
336.891636
 21
225.444966
  0
ARC
  8
NEVIDITELNA
 62
     2
  6
CONTINUOUS
 10
334.891636
 20
233.444966
 40
2.000000
 50
0.000000
 51
90.000000
  0
LINE
  8
NEVIDITELNA
 62
     2
  6
CONTINUOUS
 10
334.891636
 20
235.444966
 11
311.391636
 21
235.444966
  0
LINE
  8
NEVIDITELNA
 62
     2
  6
CONTINUOUS
 10
336.891636
 20
225.444966
 11
302.391636
 21
225.444966
  0
LINE
  8
NEVIDITELNA
 10
327.891636
 20
235.444966
 11
327.891636
 21
225.444966
  0
LINE
  8
NEVIDITELNA
 10
318.891636
 20
235.444966
 11
318.891636
 21
225.444966
  0
LINE
  8
NEVIDITELNA
 10
233.891636
 20
235.444966
 11
233.891636
 21
225.444966
  0
LINE
  8
NEVIDITELNA
 10
242.891636
 20
235.444966
 11
242.891636
 21
225.444966
  0
ARC
  8
OBRYS
 10
280.891636
 20
347.944966
 40
5.500000
 50
0.000000
 51
180.000000
  0
ARC
  8
OBRYS
 10
318.391636
 20
310.444966
 40
5.500000
 50
270.000000
 51
90.000000
  0
ARC
  8
OBRYS
 10
243.391636
 20
310.444966
 40
5.500000
 50
90.000000
 51
270.000000
  0
LINE
  8
OBRYS
 10
275.406445
 20
348.348299
 11
275.406445
 21
341.557213
  0
ARC
  8
OBRYS
 10
273.406445
 20
341.557213
 40
2.000000
 50
283.527511
 51
360.000000
  0
LINE
  8
OBRYS
 10
286.376827
 20
348.348299
 11
286.376827
 21
341.557213
  0
ARC
  8
OBRYS
 10
288.376827
 20
341.557213
 40
2.000000
 50
180.000000
 51
256.472489
  0
LINE
  8
OBRYS
 10
242.988302
 20
315.930157
 11
249.779389
 21
315.930157
  0
ARC
  8
OSA
 62
     2
  6
CONTINUOUS
 10
280.891636
 20
310.444966
 40
30.000000
 50
103.527511
 51
166.472489
  0
ARC
  8
OBRYS
 10
249.779389
 20
317.930157
 40
2.000000
 50
270.000000
 51
346.472489
  0
LINE
  8
OBRYS
 10
242.988302
 20
304.959775
 11
249.779389
 21
304.959775
  0
ARC
  8
OBRYS
 10
249.779389
 20
302.959775
 40
2.000000
 50
13.527511
 51
90.000000
  0
LINE
  8
OBRYS
 10
275.406445
 20
272.541633
 11
275.406445
 21
279.332719
  0
ARC
  8
OBRYS
 10
273.406445
 20
279.332719
 40
2.000000
 50
0.000000
 51
76.472489
  0
LINE
  8
OBRYS
 10
286.376827
 20
272.541633
 11
286.376827
 21
279.332719
  0
ARC
  8
OBRYS
 10
288.376827
 20
279.332719
 40
2.000000
 50
103.527511
 51
180.000000
  0
LINE
  8
OBRYS
 10
318.794969
 20
304.959775
 11
312.003883
 21
304.959775
  0
ARC
  8
OSA
 62
     2
  6
CONTINUOUS
 10
280.891636
 20
310.444966
 40
30.000000
 50
283.527511
 51
346.472489
  0
ARC
  8
OBRYS
 10
312.003883
 20
302.959775
 40
2.000000
 50
90.000000
 51
166.472489
  0
LINE
  8
OBRYS
 10
318.794969
 20
315.930157
 11
312.003883
 21
315.930157
  0
ARC
  8
OSA
 62
     2
  6
CONTINUOUS
 10
280.891636
 20
310.444966
 40
30.000000
 50
13.527511
 51
76.472489
  0
ARC
  8
OBRYS
 10
312.003883
 20
317.930157
 40
2.000000
 50
193.527511
 51
270.000000
  0
ARC
  8
OBRYS
 10
280.891636
 20
310.444966
 40
31.000000
 50
259.623734
 51
280.376266
  0
ARC
  8
OBRYS
 10
280.891636
 20
310.444966
 40
31.000000
 50
169.623734
 51
190.376266
  0
ARC
  8
OBRYS
 10
280.891636
 20
310.444966
 40
31.000000
 50
79.623734
 51
100.376266
  0
ARC
  8
OBRYS
 10
280.891636
 20
310.444966
 40
31.000000
 50
349.623734
 51
10.376266
  0
ARC
  8
OSA
 62
     2
  6
CONTINUOUS
 10
280.891636
 20
310.444966
 40
30.000000
 50
193.527511
 51
256.472489
  0
ARC
  8
OBRYS
 10
280.891636
 20
272.944966
 40
5.500000
 50
180.000000
 51
360.000000
  0
ARC
  8
OBRYS
 10
280.891636
 20
310.444966
 40
70.000000
 50
252.112870
 51
287.887130
  0
ARC
  8
OBRYS
 10
280.891636
 20
310.444966
 40
70.000000
 50
237.972850
 51
247.666152
  0
LINE
  8
OSA
 10
280.891636
 20
304.444966
 11
280.891636
 21
251.444966
  0
LINE
  8
OSA
 10
274.891636
 20
310.444966
 11
221.891636
 21
310.444966
  0
LINE
  8
OSA
 10
286.891636
 20
310.444966
 11
339.891636
 21
310.444966
  0
LINE
  8
OSA
 10
280.891636
 20
316.444966
 11
280.891636
 21
374.385567
  0
CIRCLE
  8
OSA
 62
     2
  6
CONTINUOUS
 10
280.891636
 20
310.444966
 40
25.000000
  0
ARC
  8
OBRYS
 10
280.891636
 20
310.444966
 40
12.000000
 50
109.471221
 51
70.528779
  0
LINE
  8
OBRYS
 10
284.891636
 20
321.758674
 11
284.891636
 21
325.344966
  0
LINE
  8
OBRYS
 10
284.891636
 20
325.344966
 11
276.891636
 21
325.344966
  0
LINE
  8
OBRYS
 10
276.891636
 20
325.344966
 11
276.891636
 21
321.758674
  0
CIRCLE
  8
OBRYS
 10
280.891636
 20
310.444966
 40
17.500000
  0
ENDBLK
  8
OBRYS
  0
BLOCK
  8
OBRYS
  2
Srouby_s_valcovou_hlavou___12
 70
   66
 10
280.891636
 20
272.944966
  0
LINE
  8
OBRYS
 10
282.891636
 20
271.790258
 11
282.891636
 21
274.099674
  0
LINE
  8
OBRYS
 10
282.891636
 20
274.099674
 11
280.891636
 21
275.254381
  0
LINE
  8
OBRYS
 10
280.891636
 20
275.254381
 11
278.891636
 21
274.099674
  0
LINE
  8
OBRYS
 10
278.891636
 20
274.099674
 11
278.891636
 21
271.790258
  0
LINE
  8
OBRYS
 10
278.891636
 20
271.790258
 11
280.891636
 21
270.635550
  0
LINE
  8
OBRYS
 10
280.891636
 20
270.635550
 11
282.891636
 21
271.790258
  0
CIRCLE
  8
OBRYS
 10
280.891636
 20
272.944966
 40
2.309415
  0
CIRCLE
  8
OBRYS
 10
280.891636
 20
272.944966
 40
5.000000
  0
ENDBLK
  8
OBRYS
  0
BLOCK
  8
OBRYS
  2
Srouby_s_valcovou_hlavou___13
 70
   66
 10
243.391636
 20
310.444966
  0
LINE
  8
OBRYS
 10
245.391636
 20
309.290258
 11
245.391636
 21
311.599674
  0
LINE
  8
OBRYS
 10
245.391636
 20
311.599674
 11
243.391636
 21
312.754381
  0
LINE
  8
OBRYS
 10
243.391636
 20
312.754381
 11
241.391636
 21
311.599674
  0
LINE
  8
OBRYS
 10
241.391636
 20
311.599674
 11
241.391636
 21
309.290258
  0
LINE
  8
OBRYS
 10
241.391636
 20
309.290258
 11
243.391636
 21
308.135550
  0
LINE
  8
OBRYS
 10
243.391636
 20
308.135550
 11
245.391636
 21
309.290258
  0
CIRCLE
  8
OBRYS
 10
243.391636
 20
310.444966
 40
2.309415
  0
CIRCLE
  8
OBRYS
 10
243.391636
 20
310.444966
 40
5.000000
  0
ENDBLK
  8
OBRYS
  0
BLOCK
  8
OBRYS
  2
Srouby_s_valcovou_hlavou___14
 70
   66
 10
280.891636
 20
347.944966
  0
LINE
  8
OBRYS
 10
282.891636
 20
346.790258
 11
282.891636
 21
349.099674
  0
LINE
  8
OBRYS
 10
282.891636
 20
349.099674
 11
280.891636
 21
350.254381
  0
LINE
  8
OBRYS
 10
280.891636
 20
350.254381
 11
278.891636
 21
349.099674
  0
LINE
  8
OBRYS
 10
278.891636
 20
349.099674
 11
278.891636
 21
346.790258
  0
LINE
  8
OBRYS
 10
278.891636
 20
346.790258
 11
280.891636
 21
345.635550
  0
LINE
  8
OBRYS
 10
280.891636
 20
345.635550
 11
282.891636
 21
346.790258
  0
CIRCLE
  8
OBRYS
 10
280.891636
 20
347.944966
 40
2.309415
  0
CIRCLE
  8
OBRYS
 10
280.891636
 20
347.944966
 40
5.000000
  0
ENDBLK
  8
OBRYS
  0
BLOCK
  8
OBRYS
  2
Srouby_s_valcovou_hlavou___15
 70
   66
 10
318.391636
 20
310.444966
  0
LINE
  8
OBRYS
 10
320.391636
 20
309.290258
 11
320.391636
 21
311.599674
  0
LINE
  8
OBRYS
 10
320.391636
 20
311.599674
 11
318.391636
 21
312.754381
  0
LINE
  8
OBRYS
 10
318.391636
 20
312.754381
 11
316.391636
 21
311.599674
  0
LINE
  8
OBRYS
 10
316.391636
 20
311.599674
 11
316.391636
 21
309.290258
  0
LINE
  8
OBRYS
 10
316.391636
 20
309.290258
 11
318.391636
 21
308.135550
  0
LINE
  8
OBRYS
 10
318.391636
 20
308.135550
 11
320.391636
 21
309.290258
  0
CIRCLE
  8
OBRYS
 10
318.391636
 20
310.444966
 40
2.309415
  0
CIRCLE
  8
OBRYS
 10
318.391636
 20
310.444966
 40
5.000000
  0
ENDBLK
  8
OBRYS
  0
BLOCK
  8
OBRYS
  2
Srouby_s_valcovou_hlavou___16
 70
   66
 10
261.757464
 20
356.638942
  0
LINE
  8
OBRYS
 10
263.757464
 20
355.484235
 11
263.757464
 21
357.793650
  0
LINE
  8
OBRYS
 10
263.757464
 20
357.793650
 11
261.757464
 21
358.948358
  0
LINE
  8
OBRYS
 10
261.757464
 20
358.948358
 11
259.757464
 21
357.793650
  0
LINE
  8
OBRYS
 10
259.757464
 20
357.793650
 11
259.757464
 21
355.484235
  0
LINE
  8
OBRYS
 10
259.757464
 20
355.484235
 11
261.757464
 21
354.329527
  0
LINE
  8
OBRYS
 10
261.757464
 20
354.329527
 11
263.757464
 21
355.484235
  0
CIRCLE
  8
OBRYS
 10
261.757464
 20
356.638942
 40
2.309415
  0
CIRCLE
  8
OBRYS
 10
261.757464
 20
356.638942
 40
5.000000
  0
ENDBLK
  8
OBRYS
  0
BLOCK
  8
OBRYS
  2
Srouby_s_valcovou_hlavou___17
 70
   66
 10
234.697659
 20
329.579137
  0
LINE
  8
OBRYS
 10
236.697659
 20
328.424430
 11
236.697659
 21
330.733845
  0
LINE
  8
OBRYS
 10
236.697659
 20
330.733845
 11
234.697659
 21
331.888553
  0
LINE
  8
OBRYS
 10
234.697659
 20
331.888553
 11
232.697659
 21
330.733845
  0
LINE
  8
OBRYS
 10
232.697659
 20
330.733845
 11
232.697659
 21
328.424430
  0
LINE
  8
OBRYS
 10
232.697659
 20
328.424430
 11
234.697659
 21
327.269722
  0
LINE
  8
OBRYS
 10
234.697659
 20
327.269722
 11
236.697659
 21
328.424430
  0
CIRCLE
  8
OBRYS
 10
234.697659
 20
329.579137
 40
2.309415
  0
CIRCLE
  8
OBRYS
 10
234.697659
 20
329.579137
 40
5.000000
  0
ENDBLK
  8
OBRYS
  0
BLOCK
  8
OBRYS
  2
Srouby_s_valcovou_hlavou___18
 70
   66
 10
234.697659
 20
291.310794
  0
LINE
  8
OBRYS
 10
236.697659
 20
290.156086
 11
236.697659
 21
292.465502
  0
LINE
  8
OBRYS
 10
236.697659
 20
292.465502
 11
234.697659
 21
293.620210
  0
LINE
  8
OBRYS
 10
234.697659
 20
293.620210
 11
232.697659
 21
292.465502
  0
LINE
  8
OBRYS
 10
232.697659
 20
292.465502
 11
232.697659
 21
290.156086
  0
LINE
  8
OBRYS
 10
232.697659
 20
290.156086
 11
234.697659
 21
289.001379
  0
LINE
  8
OBRYS
 10
234.697659
 20
289.001379
 11
236.697659
 21
290.156086
  0
CIRCLE
  8
OBRYS
 10
234.697659
 20
291.310794
 40
2.309415
  0
CIRCLE
  8
OBRYS
 10
234.697659
 20
291.310794
 40
5.000000
  0
ENDBLK
  8
OBRYS
  0
BLOCK
  8
OBRYS
  2
Srouby_s_valcovou_hlavou___19
 70
   66
 10
261.757464
 20
264.250989
  0
LINE
  8
OBRYS
 10
263.757464
 20
263.096281
 11
263.757464
 21
265.405697
  0
LINE
  8
OBRYS
 10
263.757464
 20
265.405697
 11
261.757464
 21
266.560405
  0
LINE
  8
OBRYS
 10
261.757464
 20
266.560405
 11
259.757464
 21
265.405697
  0
LINE
  8
OBRYS
 10
259.757464
 20
265.405697
 11
259.757464
 21
263.096281
  0
LINE
  8
OBRYS
 10
259.757464
 20
263.096281
 11
261.757464
 21
261.941574
  0
LINE
  8
OBRYS
 10
261.757464
 20
261.941574
 11
263.757464
 21
263.096281
  0
CIRCLE
  8
OBRYS
 10
261.757464
 20
264.250989
 40
2.309415
  0
CIRCLE
  8
OBRYS
 10
261.757464
 20
264.250989
 40
5.000000
  0
ENDBLK
  8
OBRYS
  0
BLOCK
  8
OBRYS
  2
Srouby_s_valcovou_hlavou___20
 70
   66
 10
300.025807
 20
264.250989
  0
LINE
  8
OBRYS
 10
302.025807
 20
263.096281
 11
302.025807
 21
265.405697
  0
LINE
  8
OBRYS
 10
302.025807
 20
265.405697
 11
300.025807
 21
266.560405
  0
LINE
  8
OBRYS
 10
300.025807
 20
266.560405
 11
298.025807
 21
265.405697
  0
LINE
  8
OBRYS
 10
298.025807
 20
265.405697
 11
298.025807
 21
263.096281
  0
LINE
  8
OBRYS
 10
298.025807
 20
263.096281
 11
300.025807
 21
261.941574
  0
LINE
  8
OBRYS
 10
300.025807
 20
261.941574
 11
302.025807
 21
263.096281
  0
CIRCLE
  8
OBRYS
 10
300.025807
 20
264.250989
 40
2.309415
  0
CIRCLE
  8
OBRYS
 10
300.025807
 20
264.250989
 40
5.000000
  0
ENDBLK
  8
OBRYS
  0
BLOCK
  8
OBRYS
  2
Srouby_s_valcovou_hlavou___21
 70
   66
 10
327.085613
 20
291.310794
  0
LINE
  8
OBRYS
 10
329.085613
 20
290.156087
 11
329.085613
 21
292.465502
  0
LINE
  8
OBRYS
 10
329.085613
 20
292.465502
 11
327.085613
 21
293.620210
  0
LINE
  8
OBRYS
 10
327.085613
 20
293.620210
 11
325.085613
 21
292.465502
  0
LINE
  8
OBRYS
 10
325.085613
 20
292.465502
 11
325.085613
 21
290.156087
  0
LINE
  8
OBRYS
 10
325.085613
 20
290.156087
 11
327.085613
 21
289.001379
  0
LINE
  8
OBRYS
 10
327.085613
 20
289.001379
 11
329.085613
 21
290.156087
  0
CIRCLE
  8
OBRYS
 10
327.085613
 20
291.310794
 40
2.309415
  0
CIRCLE
  8
OBRYS
 10
327.085613
 20
291.310794
 40
5.000000
  0
ENDBLK
  8
OBRYS
  0
BLOCK
  8
OBRYS
  2
Srouby_s_valcovou_hlavou___22
 70
   66
 10
327.085612
 20
329.579138
  0
LINE
  8
OBRYS
 10
329.085612
 20
328.424430
 11
329.085612
 21
330.733846
  0
LINE
  8
OBRYS
 10
329.085612
 20
330.733846
 11
327.085612
 21
331.888553
  0
LINE
  8
OBRYS
 10
327.085612
 20
331.888553
 11
325.085612
 21
330.733846
  0
LINE
  8
OBRYS
 10
325.085612
 20
330.733846
 11
325.085612
 21
328.424430
  0
LINE
  8
OBRYS
 10
325.085612
 20
328.424430
 11
327.085612
 21
327.269722
  0
LINE
  8
OBRYS
 10
327.085612
 20
327.269722
 11
329.085612
 21
328.424430
  0
CIRCLE
  8
OBRYS
 10
327.085612
 20
329.579138
 40
2.309415
  0
CIRCLE
  8
OBRYS
 10
327.085612
 20
329.579138
 40
5.000000
  0
ENDBLK
  8
OBRYS
  0
BLOCK
  8
OBRYS
  2
Srouby_s_valcovou_hlavou___23
 70
   66
 10
300.025807
 20
356.638942
  0
LINE
  8
OBRYS
 10
302.025807
 20
355.484235
 11
302.025807
 21
357.793650
  0
LINE
  8
OBRYS
 10
302.025807
 20
357.793650
 11
300.025807
 21
358.948358
  0
LINE
  8
OBRYS
 10
300.025807
 20
358.948358
 11
298.025807
 21
357.793650
  0
LINE
  8
OBRYS
 10
298.025807
 20
357.793650
 11
298.025807
 21
355.484235
  0
LINE
  8
OBRYS
 10
298.025807
 20
355.484235
 11
300.025807
 21
354.329527
  0
LINE
  8
OBRYS
 10
300.025807
 20
354.329527
 11
302.025807
 21
355.484235
  0
CIRCLE
  8
OBRYS
 10
300.025807
 20
356.638942
 40
2.309415
  0
CIRCLE
  8
OBRYS
 10
300.025807
 20
356.638942
 40
5.000000
  0
ENDBLK
  8
OBRYS
  0
BLOCK
  8
OBRYS
  2
_5
 70
   64
 10
49.594986
 20
310.444966
  0
LINE
  8
OBRYS
 10
49.968342
 20
312.444966
 11
54.777713
 21
312.444966
  0
LINE
  8
OBRYS
 10
49.968342
 20
308.444966
 11
54.563329
 21
308.444966
  0
ARC
  8
OBRYS
 10
56.594986
 20
258.121538
 40
5.000000
 50
0.000000
 51
37.967408
  0
LINE
  8
OBRYS
 10
52.151070
 20
271.943430
 11
60.536790
 21
261.197604
  0
ARC
  8
OBRYS
 10
56.594986
 20
257.389743
 40
5.000000
 50
0.000000
 51
37.967408
  0
LINE
  8
OBRYS
 10
60.536790
 20
260.465808
 11
49.968342
 21
274.008676
  0
ARC
  8
OBRYS
 10
56.594986
 20
254.020962
 40
5.000000
 50
0.000000
 51
36.172355
  0
LINE
  8
OBRYS
 10
60.631212
 20
256.972044
 11
49.968342
 21
271.555766
  0
LINE
  8
OBRYS
 10
49.968342
 20
274.740472
 11
52.151070
 21
271.943430
  0
LINE
  8
OBRYS
 10
49.594986
 20
275.765348
 11
49.968342
 21
274.740472
  0
LINE
  8
OBRYS
 10
61.594986
 20
238.097436
 11
61.594986
 21
269.598008
  0
LINE
  8
OBRYS
 10
56.981410
 20
287.249006
 11
61.594986
 21
269.598008
  0
LINE
  8
OBRYS
 10
55.040790
 20
299.305873
 11
56.981410
 21
287.249006
  0
LINE
  8
OBRYS
 10
54.435402
 20
310.444966
 11
55.040790
 21
299.305873
  0
LINE
  8
OBRYS
 10
49.968342
 20
274.008676
 11
49.594986
 21
275.033553
  0
LINE
  8
OBRYS
 10
49.594986
 20
272.649638
 11
49.968342
 21
271.555766
  0
LINE
  8
OBRYS
 10
49.968342
 20
306.850506
 11
49.968342
 21
310.444966
  0
LINE
  8
OBRYS
 10
49.594986
 20
298.202764
 11
49.594986
 21
298.310794
  0
POLYLINE
  8
OBRYS
 66
    1
  0
VERTEX
  8
OBRYS
 10
51.525536
 20
284.310791
  0
VERTEX
  8
OBRYS
 10
50.822655
 20
284.445251
  0
VERTEX
  8
OBRYS
 10
50.076317
 20
284.843628
  0
VERTEX
  8
OBRYS
 10
49.968407
 20
284.935425
  0
VERTEX
  8
OBRYS
 10
49.663597
 20
285.490479
  0
VERTEX
  8
OBRYS
 10
49.595116
 20
285.661804
  0
VERTEX
  8
OBRYS
 10
49.595116
 20
286.361023
  0
VERTEX
  8
OBRYS
 10
49.595116
 20
287.421753
  0
VERTEX
  8
OBRYS
 10
49.595116
 20
288.631958
  0
VERTEX
  8
OBRYS
 10
49.595116
 20
289.945129
  0
VERTEX
  8
OBRYS
 10
49.595116
 20
291.310791
  0
VERTEX
  8
OBRYS
 10
49.595116
 20
292.676392
  0
VERTEX
  8
OBRYS
 10
49.595116
 20
293.989563
  0
VERTEX
  8
OBRYS
 10
49.595116
 20
295.199768
  0
VERTEX
  8
OBRYS
 10
49.595116
 20
296.260498
  0
VERTEX
  8
OBRYS
 10
49.595116
 20
297.131042
  0
VERTEX
  8
OBRYS
 10
49.595116
 20
297.777893
  0
VERTEX
  8
OBRYS
 10
49.595116
 20
298.176270
  0
VERTEX
  8
OBRYS
 10
49.595116
 20
298.310791
  0
SEQEND
  8
OBRYS
  0
LINE
  8
OBRYS
 10
52.158158
 20
295.199786
 11
52.151070
 21
295.211670
  0
ARC
  8
OBRYS
 10
39.970008
 20
289.159029
 40
13.607558
 50
3.222383
 51
26.622441
  0
POLYLINE
  8
OBRYS
 66
    1
  0
VERTEX
  8
OBRYS
 10
52.151146
 20
284.443787
  0
VERTEX
  8
OBRYS
 10
52.158226
 20
284.445251
  0
VERTEX
  8
OBRYS
 10
52.696182
 20
284.843628
  0
VERTEX
  8
OBRYS
 10
53.118912
 20
285.490479
  0
VERTEX
  8
OBRYS
 10
53.410172
 20
286.361023
  0
VERTEX
  8
OBRYS
 10
53.558609
 20
287.421753
  0
VERTEX
  8
OBRYS
 10
53.558609
 20
288.631958
  0
VERTEX
  8
OBRYS
 10
53.558609
 20
289.945129
  0
SEQEND
  8
OBRYS
  0
LINE
  8
OBRYS
 10
49.968342
 20
272.505069
 11
49.968342
 21
268.078375
  0
LINE
  8
OBRYS
 10
49.968342
 20
274.740472
 11
49.968342
 21
284.935427
  0
LINE
  8
OBRYS
 10
49.968342
 20
297.834474
 11
49.968342
 21
306.938248
  0
LINE
  8
OBRYS
 10
51.525516
 20
284.310794
 11
52.151070
 21
284.443790
  0
POLYLINE
  8
OBRYS
 66
    1
  0
VERTEX
  8
OBRYS
 10
52.151146
 20
295.211609
  0
VERTEX
  8
OBRYS
 10
51.525536
 20
296.260498
  0
VERTEX
  8
OBRYS
 10
50.822655
 20
297.131042
  0
VERTEX
  8
OBRYS
 10
50.076317
 20
297.777893
  0
VERTEX
  8
OBRYS
 10
49.968407
 20
297.834473
  0
VERTEX
  8
OBRYS
 10
49.663597
 20
298.176270
  0
VERTEX
  8
OBRYS
 10
49.595116
 20
298.202759
  0
SEQEND
  8
OBRYS
  0
LINE
  8
OBRYS
 10
59.594986
 20
323.000676
 11
59.594986
 21
310.326023
  0
LINE
  8
OBRYS
 10
49.594986
 20
342.444966
 11
49.594986
 21
353.444966
  0
LINE
  8
OBRYS
 10
49.968342
 20
344.250831
 11
49.594986
 21
343.299943
  0
POLYLINE
  8
OBRYS
 66
    1
  0
VERTEX
  8
OBRYS
 10
54.206680
 20
347.184235
  0
VERTEX
  8
OBRYS
 10
53.162491
 20
347.061127
  0
VERTEX
  8
OBRYS
 10
52.248802
 20
346.707306
  0
VERTEX
  8
OBRYS
 10
51.580101
 20
346.166901
  0
SEQEND
  8
OBRYS
  0
POLYLINE
  8
OBRYS
 66
    1
  0
VERTEX
  8
OBRYS
 10
53.276016
 20
346.723053
  0
VERTEX
  8
OBRYS
 10
53.453262
 20
346.866241
  0
VERTEX
  8
OBRYS
 10
54.062393
 20
347.102142
  0
VERTEX
  8
OBRYS
 10
54.758560
 20
347.184235
  0
SEQEND
  8
OBRYS
  0
POLYLINE
  8
OBRYS
 66
    1
  0
VERTEX
  8
OBRYS
 10
49.595116
 20
342.478851
  0
VERTEX
  8
OBRYS
 10
49.968407
 20
343.425568
  0
VERTEX
  8
OBRYS
 10
52.151146
 20
346.009186
  0
VERTEX
  8
OBRYS
 10
52.819839
 20
346.547211
  0
VERTEX
  8
OBRYS
 10
53.276016
 20
346.723053
  0
SEQEND
  8
OBRYS
  0
LINE
  8
OBRYS
 10
49.594986
 20
343.299943
 11
49.594986
 21
345.856379
  0
LINE
  8
OBRYS
 10
54.206642
 20
347.184271
 11
54.206642
 21
350.042946
  0
LINE
  8
OBRYS
 10
54.758447
 20
350.042946
 11
54.758447
 21
347.184271
  0
LINE
  8
OBRYS
 10
51.579999
 20
346.166983
 11
51.579999
 21
348.946502
  0
LINE
  8
OBRYS
 10
49.594986
 20
345.856379
 11
49.968342
 21
346.881255
  0
POLYLINE
  8
OBRYS
 66
    1
  0
VERTEX
  8
OBRYS
 10
51.580101
 20
348.946442
  0
VERTEX
  8
OBRYS
 10
52.248802
 20
349.528839
  0
VERTEX
  8
OBRYS
 10
53.162491
 20
349.910248
  0
VERTEX
  8
OBRYS
 10
54.206680
 20
350.042877
  0
SEQEND
  8
OBRYS
  0
LINE
  8
OBRYS
 10
49.968342
 20
344.250831
 11
49.968342
 21
346.881255
  0
POLYLINE
  8
OBRYS
 66
    1
  0
VERTEX
  8
OBRYS
 10
49.595116
 20
359.153839
  0
VERTEX
  8
OBRYS
 10
49.968407
 20
360.593292
  0
VERTEX
  8
OBRYS
 10
52.151146
 20
364.521881
  0
VERTEX
  8
OBRYS
 10
52.819839
 20
365.339874
  0
VERTEX
  8
OBRYS
 10
53.276016
 20
365.607330
  0
SEQEND
  8
OBRYS
  0
LINE
  8
OBRYS
 10
49.594986
 20
322.592382
 11
49.594986
 21
322.697314
  0
LINE
  8
OBRYS
 10
49.594986
 20
352.546172
 11
49.594986
 21
349.663670
  0
LINE
  8
OBRYS
 10
59.594986
 20
355.051863
 11
59.594986
 21
357.900518
  0
LINE
  8
OBRYS
 10
49.594986
 20
357.732715
 11
49.594986
 21
349.663670
  0
POLYLINE
  8
OBRYS
 66
    1
  0
VERTEX
  8
OBRYS
 10
53.835220
 20
357.900482
  0
VERTEX
  8
OBRYS
 10
54.757217
 20
357.873444
  0
VERTEX
  8
OBRYS
 10
54.777725
 20
357.869049
  0
VERTEX
  8
OBRYS
 10
59.595108
 20
357.869049
  0
VERTEX
  8
OBRYS
 10
59.595108
 20
357.873444
  0
VERTEX
  8
OBRYS
 10
59.595108
 20
357.900482
  0
SEQEND
  8
OBRYS
  0
POLYLINE
  8
OBRYS
 66
    1
  0
VERTEX
  8
OBRYS
 10
52.252708
 20
323.973175
  0
VERTEX
  8
OBRYS
 10
52.560928
 20
323.953461
  0
VERTEX
  8
OBRYS
 10
52.819839
 20
323.861664
  0
VERTEX
  8
OBRYS
 10
52.863541
 20
323.854218
  0
VERTEX
  8
OBRYS
 10
53.365250
 20
323.679413
  0
VERTEX
  8
OBRYS
 10
53.733536
 20
323.454926
  0
VERTEX
  8
OBRYS
 10
53.835220
 20
323.436066
  0
VERTEX
  8
OBRYS
 10
54.757217
 20
323.134003
  0
VERTEX
  8
OBRYS
 10
54.777725
 20
323.119537
  0
VERTEX
  8
OBRYS
 10
59.595108
 20
323.119537
  0
VERTEX
  8
OBRYS
 10
59.595108
 20
323.134003
  0
VERTEX
  8
OBRYS
 10
59.595108
 20
323.436066
  0
VERTEX
  8
OBRYS
 10
59.595108
 20
323.679413
  0
VERTEX
  8
OBRYS
 10
59.595108
 20
323.854218
  0
VERTEX
  8
OBRYS
 10
59.595108
 20
323.953461
  0
VERTEX
  8
OBRYS
 10
59.595108
 20
323.973175
  0
SEQEND
  8
OBRYS
  0
POLYLINE
  8
OBRYS
 66
    1
  0
VERTEX
  8
OBRYS
 10
55.595108
 20
323.973175
  0
VERTEX
  8
OBRYS
 10
55.595108
 20
324.231110
  0
VERTEX
  8
OBRYS
 10
55.595108
 20
325.184235
  0
VERTEX
  8
OBRYS
 10
55.595108
 20
326.296722
  0
VERTEX
  8
OBRYS
 10
55.595108
 20
327.528229
  0
VERTEX
  8
OBRYS
 10
55.595108
 20
328.834076
  0
VERTEX
  8
OBRYS
 10
55.595108
 20
330.166962
  0
VERTEX
  8
OBRYS
 10
55.595108
 20
331.478485
  0
VERTEX
  8
OBRYS
 10
55.595108
 20
332.721161
  0
VERTEX
  8
OBRYS
 10
55.595108
 20
333.849945
  0
VERTEX
  8
OBRYS
 10
55.595108
 20
334.823822
  0
VERTEX
  8
OBRYS
 10
55.595108
 20
335.192474
  0
VERTEX
  8
OBRYS
 10
55.734756
 20
335.607513
  0
VERTEX
  8
OBRYS
 10
55.823380
 20
335.832977
  0
VERTEX
  8
OBRYS
 10
56.473770
 20
336.325714
  0
VERTEX
  8
OBRYS
 10
57.447037
 20
336.654938
  0
VERTEX
  8
OBRYS
 10
58.595108
 20
336.770599
  0
VERTEX
  8
OBRYS
 10
59.595108
 20
336.770599
  0
VERTEX
  8
OBRYS
 10
59.595108
 20
337.871979
  0
VERTEX
  8
OBRYS
 10
59.595108
 20
338.109467
  0
VERTEX
  8
OBRYS
 10
59.595108
 20
338.406708
  0
VERTEX
  8
OBRYS
 10
59.595108
 20
338.751740
  0
VERTEX
  8
OBRYS
 10
59.595108
 20
339.130585
  0
VERTEX
  8
OBRYS
 10
59.595108
 20
339.528168
  0
VERTEX
  8
OBRYS
 10
59.595108
 20
339.928375
  0
VERTEX
  8
OBRYS
 10
59.595108
 20
339.944427
  0
VERTEX
  8
OBRYS
 10
54.777725
 20
339.944427
  0
VERTEX
  8
OBRYS
 10
54.757217
 20
339.928375
  0
VERTEX
  8
OBRYS
 10
53.835220
 20
339.528168
  0
VERTEX
  8
OBRYS
 10
53.733536
 20
339.497345
  0
VERTEX
  8
OBRYS
 10
53.365250
 20
339.130585
  0
VERTEX
  8
OBRYS
 10
52.863541
 20
338.751740
  0
VERTEX
  8
OBRYS
 10
52.819839
 20
338.725922
  0
VERTEX
  8
OBRYS
 10
52.560928
 20
338.406708
  0
VERTEX
  8
OBRYS
 10
52.252708
 20
338.109467
  0
VERTEX
  8
OBRYS
 10
52.151146
 20
338.035004
  0
VERTEX
  8
OBRYS
 10
52.000023
 20
337.871979
  0
VERTEX
  8
OBRYS
 10
49.968407
 20
336.008026
  0
VERTEX
  8
OBRYS
 10
49.764671
 20
335.607513
  0
VERTEX
  8
OBRYS
 10
49.595116
 20
335.218658
  0
SEQEND
  8
OBRYS
  0
LINE
  8
OBRYS
 10
55.594986
 20
323.973230
 11
55.594986
 21
335.192517
  0
POLYLINE
  8
OBRYS
 66
    1
  0
VERTEX
  8
OBRYS
 10
59.595108
 20
360.601776
  0
VERTEX
  8
OBRYS
 10
58.595108
 20
360.601776
  0
VERTEX
  8
OBRYS
 10
57.447037
 20
360.381561
  0
VERTEX
  8
OBRYS
 10
56.473770
 20
359.754242
  0
VERTEX
  8
OBRYS
 10
55.823380
 20
358.815521
  0
VERTEX
  8
OBRYS
 10
55.734756
 20
358.385895
  0
VERTEX
  8
OBRYS
 10
55.637466
 20
357.900482
  0
SEQEND
  8
OBRYS
  0
POLYLINE
  8
OBRYS
 66
    1
  0
VERTEX
  8
OBRYS
 10
55.595108
 20
335.192474
  0
VERTEX
  8
OBRYS
 10
55.734756
 20
335.607513
  0
VERTEX
  8
OBRYS
 10
55.823380
 20
335.832977
  0
VERTEX
  8
OBRYS
 10
56.473770
 20
336.325714
  0
VERTEX
  8
OBRYS
 10
57.447037
 20
336.654938
  0
VERTEX
  8
OBRYS
 10
58.595108
 20
336.770599
  0
VERTEX
  8
OBRYS
 10
59.595108
 20
336.770599
  0
SEQEND
  8
OBRYS
  0
LINE
  8
OBRYS
 10
59.594986
 20
355.051863
 11
59.594986
 21
336.770636
  0
LINE
  8
OBRYS
 10
54.777713
 20
310.444966
 11
54.777713
 21
323.119619
  0
LINE
  8
OBRYS
 10
54.777713
 20
339.944463
 11
54.777713
 21
357.869129
  0
LINE
  8
OBRYS
 10
54.777713
 20
364.838208
 11
54.777713
 21
366.444966
  0
LINE
  8
OBRYS
 10
59.594986
 20
357.869129
 11
59.594986
 21
339.944463
  0
LINE
  8
OBRYS
 10
52.151070
 20
362.972464
 11
52.151070
 21
364.521922
  0
LINE
  8
OBRYS
 10
49.968342
 20
310.444966
 11
49.968342
 21
322.997311
  0
LINE
  8
OBRYS
 10
49.968342
 20
336.008092
 11
49.968342
 21
343.425615
  0
LINE
  8
OBRYS
 10
49.968342
 20
346.149460
 11
49.968342
 21
353.759790
  0
LINE
  8
OBRYS
 10
49.968342
 20
359.149032
 11
49.968342
 21
360.593364
  0
POLYLINE
  8
OBRYS
 66
    1
  0
VERTEX
  8
OBRYS
 10
49.595116
 20
322.697235
  0
VERTEX
  8
OBRYS
 10
49.764671
 20
322.800568
  0
VERTEX
  8
OBRYS
 10
49.968407
 20
322.997223
  0
VERTEX
  8
OBRYS
 10
52.000023
 20
323.912506
  0
VERTEX
  8
OBRYS
 10
52.151146
 20
323.954132
  0
VERTEX
  8
OBRYS
 10
52.252708
 20
323.973175
  0
SEQEND
  8
OBRYS
  0
ARC
  8
OBRYS
 10
54.005221
 20
354.387157
 40
3.518602
 50
92.568501
 51
109.763959
  0
POLYLINE
  8
OBRYS
 66
    1
  0
VERTEX
  8
OBRYS
 10
49.595116
 20
352.546112
  0
VERTEX
  8
OBRYS
 10
49.764671
 20
353.081085
  0
VERTEX
  8
OBRYS
 10
49.968407
 20
353.759735
  0
VERTEX
  8
OBRYS
 10
52.000023
 20
356.918060
  0
VERTEX
  8
OBRYS
 10
52.151146
 20
357.139923
  0
VERTEX
  8
OBRYS
 10
52.252708
 20
357.241364
  0
VERTEX
  8
OBRYS
 10
52.560928
 20
357.510712
  0
VERTEX
  8
OBRYS
 10
52.819839
 20
357.700043
  0
SEQEND
  8
OBRYS
  0
LINE
  8
OBRYS
 10
49.594986
 20
335.218735
 11
49.594986
 21
342.478924
  0
LINE
  8
OBRYS
 10
49.594986
 20
345.124583
 11
49.594986
 21
352.546172
  0
LINE
  8
OBRYS
 10
49.594986
 20
357.732715
 11
49.594986
 21
359.153884
  0
LINE
  8
OBRYS
 10
49.594986
 20
348.240293
 11
49.594986
 21
347.295820
  0
LINE
  8
OBRYS
 10
49.594986
 20
343.299943
 11
49.594986
 21
342.478924
  0
LINE
  8
OBRYS
 10
51.579999
 20
346.166983
 11
49.968342
 21
344.250831
  0
LINE
  8
OBRYS
 10
54.758447
 20
347.184271
 11
54.206642
 21
347.184271
  0
LINE
  8
OBRYS
 10
54.206642
 20
350.042946
 11
54.758447
 21
350.042946
  0
LINE
  8
OBRYS
 10
49.968342
 20
346.881255
 11
51.579999
 21
348.946502
  0
LINE
  8
OBRYS
 10
55.594986
 20
323.973230
 11
59.594986
 21
323.973230
  0
LINE
  8
OBRYS
 10
59.594986
 20
357.900518
 11
55.637450
 21
357.900518
  0
LINE
  8
OBRYS
 10
59.594986
 20
357.900518
 11
53.835119
 21
357.900518
  0
LINE
  8
OBRYS
 10
51.999978
 20
362.700333
 11
59.594986
 21
362.700333
  0
LINE
  8
OBRYS
 10
49.764552
 20
358.385945
 11
55.734752
 21
358.385945
  0
LINE
  8
OBRYS
 10
59.594986
 20
323.973230
 11
52.252693
 21
323.973230
  0
LINE
  8
OBRYS
 10
51.999978
 20
337.872051
 11
59.594986
 21
337.872051
  0
LINE
  8
OBRYS
 10
49.764552
 20
335.607574
 11
55.734752
 21
335.607574
  0
ARC
  8
OBRYS
 10
59.594986
 20
289.345297
 40
6.000000
 50
0.000000
 51
90.000000
  0
LINE
  8
OBRYS
 10
59.594986
 20
310.444966
 11
59.594986
 21
295.345297
  0
LINE
  8
OBRYS
 10
50.181824
 20
257.024295
 11
55.043033
 21
257.024295
  0
ARC
  8
OBRYS
 10
56.594986
 20
244.485230
 40
5.000000
 50
0.000000
 51
27.224480
  0
LINE
  8
OBRYS
 10
61.041091
 20
246.772620
 11
50.148881
 21
267.944313
  0
ARC
  8
OBRYS
 10
54.594986
 20
270.231703
 40
5.000000
 50
180.000000
 51
207.224480
  0
ARC
  8
OBRYS
 10
59.594986
 20
238.097435
 40
2.000000
 50
271.999998
 51
360.000000
  0
LINE
  8
OBRYS
 62
     4
  6
HIDDEN2
 10
46.094986
 20
225.444966
 11
46.094986
 21
235.624786
  0
LINE
  8
OBRYS
 62
     4
  6
HIDDEN2
 10
55.094986
 20
225.444966
 11
55.094986
 21
235.939072
  0
ARC
  8
OBRYS
 10
52.594986
 20
360.524266
 40
3.000000
 50
151.109871
 51
180.000000
  0
LINE
  8
OBRYS
 10
58.245492
 20
366.444966
 11
58.165607
 21
366.444966
  0
LINE
  8
OBRYS
 62
     7
  6
DASHDOT
 10
50.594986
 20
225.444966
 11
50.594986
 21
235.781930
  0
LINE
  8
OBRYS
 10
49.594986
 20
340.444966
 11
49.594986
 21
310.444966
  0
LINE
  8
OBRYS
 10
49.594986
 20
280.444966
 11
49.594986
 21
310.444966
  0
LINE
  8
OBRYS
 10
49.968342
 20
361.973661
 11
51.579999
 21
364.894361
  0
ARC
  8
OBRYS
 10
54.206642
 20
363.444966
 40
3.000000
 50
90.000000
 51
151.109871
  0
LINE
  8
OBRYS
 10
65.594986
 20
225.444966
 11
65.594986
 21
289.345297
  0
LINE
  8
OBRYS
 10
41.594986
 20
225.444966
 11
65.594986
 21
225.444966
  0
LINE
  8
OBRYS
 10
41.594986
 20
225.444966
 11
41.594986
 21
235.444966
  0
LINE
  8
OBRYS
 10
49.399037
 20
253.841543
 11
41.594986
 21
235.444966
  0
LINE
  8
OBRYS
 10
49.594986
 20
254.704908
 11
49.594986
 21
280.444966
  0
ARC
  8
OBRYS
 10
47.594986
 20
254.704908
 40
2.000000
 50
334.425618
 51
360.000000
  0
LINE
  8
OBRYS
 10
49.594986
 20
254.704905
 11
49.594986
 21
260.365666
  0
LINE
  8
OBRYS
 10
49.594986
 20
360.524266
 11
49.594986
 21
340.444966
  0
LINE
  8
OBRYS
 62
     7
  6
DASHDOT
 10
47.286048
 20
310.444966
 11
64.114986
 21
310.444966
  0
LINE
  8
OBRYS
 10
41.594986
 20
235.432722
 11
59.664785
 21
236.098653
  0
LINE
  8
OBRYS
 10
54.206642
 20
366.444966
 11
59.594986
 21
366.444966
  0
LINE
  8
OBRYS
 10
55.637450
 20
357.900518
 11
55.734752
 21
358.385945
  0
LINE
  8
OBRYS
 10
55.734752
 20
358.385945
 11
55.823347
 21
358.815556
  0
LINE
  8
OBRYS
 10
55.823347
 20
358.815556
 11
56.473665
 21
359.754329
  0
LINE
  8
OBRYS
 10
56.473665
 20
359.754329
 11
57.446936
 21
360.381598
  0
LINE
  8
OBRYS
 10
57.446936
 20
360.381598
 11
58.594986
 21
360.601865
  0
LINE
  8
OBRYS
 10
58.594986
 20
360.601865
 11
59.594986
 21
360.601865
  0
LINE
  8
OBRYS
 10
59.594986
 20
360.601865
 11
59.594986
 21
362.700333
  0
LINE
  8
OBRYS
 10
59.594986
 20
362.700333
 11
59.594986
 21
363.096852
  0
LINE
  8
OBRYS
 10
59.594986
 20
363.096852
 11
59.594986
 21
363.497498
  0
LINE
  8
OBRYS
 10
59.594986
 20
363.497498
 11
59.594986
 21
363.886156
  0
LINE
  8
OBRYS
 10
59.594986
 20
363.886156
 11
59.594986
 21
366.444966
  0
LINE
  8
OBRYS
 10
59.594986
 20
364.247192
 11
59.594986
 21
364.566081
  0
LINE
  8
OBRYS
 10
59.594986
 20
364.566081
 11
59.594986
 21
364.829997
  0
LINE
  8
OBRYS
 10
59.594986
 20
364.829997
 11
59.594986
 21
364.838208
  0
LINE
  8
OBRYS
 10
59.594986
 20
364.838208
 11
54.777713
 21
364.838208
  0
LINE
  8
OBRYS
 10
54.777713
 20
364.838208
 11
54.757205
 21
364.829997
  0
LINE
  8
OBRYS
 10
54.757205
 20
364.829997
 11
53.835119
 21
364.566081
  0
LINE
  8
OBRYS
 10
53.835119
 20
364.566081
 11
53.733472
 21
364.541369
  0
LINE
  8
OBRYS
 10
53.733472
 20
364.541369
 11
53.365219
 21
364.247192
  0
LINE
  8
OBRYS
 10
53.365219
 20
364.247192
 11
52.863522
 21
363.886156
  0
LINE
  8
OBRYS
 10
52.863522
 20
363.886156
 11
52.819834
 21
363.857083
  0
LINE
  8
OBRYS
 10
52.819834
 20
363.857083
 11
52.560834
 21
363.497498
  0
LINE
  8
OBRYS
 10
52.560834
 20
363.497498
 11
52.252693
 21
363.096852
  0
LINE
  8
OBRYS
 10
52.252693
 20
363.096852
 11
52.151070
 21
362.972464
  0
LINE
  8
OBRYS
 10
52.151070
 20
362.972464
 11
51.999978
 21
362.700333
  0
LINE
  8
OBRYS
 10
51.999978
 20
362.700333
 11
49.968342
 21
359.149032
  0
LINE
  8
OBRYS
 10
49.968342
 20
359.149032
 11
49.764552
 21
358.385945
  0
LINE
  8
OBRYS
 10
49.764552
 20
358.385945
 11
49.594986
 21
357.732715
  0
ENDBLK
  8
OBRYS
  0
BLOCK
  8
OBRYS
  2
_6
 70
   64
 10
147.594986
 20
310.444966
  0
LINE
  8
OBRYS
 10
147.221629
 20
312.444966
 11
142.412258
 21
312.444966
  0
LINE
  8
OBRYS
 10
147.221629
 20
308.444966
 11
142.626642
 21
308.444966
  0
ARC
  8
OBRYS
 10
140.594986
 20
258.121538
 40
5.000000
 50
142.032592
 51
180.000000
  0
LINE
  8
OBRYS
 10
145.038902
 20
271.943430
 11
136.653182
 21
261.197604
  0
ARC
  8
OBRYS
 10
140.594986
 20
257.389743
 40
5.000000
 50
142.032592
 51
180.000000
  0
LINE
  8
OBRYS
 10
136.653182
 20
260.465808
 11
147.221629
 21
274.008676
  0
ARC
  8
OBRYS
 10
140.594986
 20
254.020962
 40
5.000000
 50
143.827645
 51
180.000000
  0
LINE
  8
OBRYS
 10
136.558760
 20
256.972044
 11
147.221629
 21
271.555766
  0
LINE
  8
OBRYS
 10
147.221629
 20
274.740472
 11
145.038902
 21
271.943430
  0
LINE
  8
OBRYS
 10
147.594986
 20
275.765348
 11
147.221629
 21
274.740472
  0
LINE
  8
OBRYS
 10
135.594986
 20
238.097436
 11
135.594986
 21
269.598008
  0
LINE
  8
OBRYS
 10
140.208562
 20
287.249006
 11
135.594986
 21
269.598008
  0
LINE
  8
OBRYS
 10
142.149182
 20
299.305873
 11
140.208562
 21
287.249006
  0
LINE
  8
OBRYS
 10
142.754570
 20
310.444966
 11
142.149182
 21
299.305873
  0
LINE
  8
OBRYS
 10
147.221629
 20
274.008676
 11
147.594986
 21
275.033553
  0
LINE
  8
OBRYS
 10
147.594986
 20
272.649638
 11
147.221629
 21
271.555766
  0
LINE
  8
OBRYS
 10
147.221629
 20
306.850506
 11
147.221629
 21
310.444966
  0
LINE
  8
OBRYS
 10
147.594986
 20
298.202764
 11
147.594986
 21
298.310794
  0
POLYLINE
  8
OBRYS
 66
    1
  0
VERTEX
  8
OBRYS
 10
145.664429
 20
284.310791
  0
VERTEX
  8
OBRYS
 10
146.367310
 20
284.445251
  0
VERTEX
  8
OBRYS
 10
147.113647
 20
284.843628
  0
VERTEX
  8
OBRYS
 10
147.221558
 20
284.935425
  0
VERTEX
  8
OBRYS
 10
147.526367
 20
285.490479
  0
VERTEX
  8
OBRYS
 10
147.594849
 20
285.661804
  0
VERTEX
  8
OBRYS
 10
147.594849
 20
286.361023
  0
VERTEX
  8
OBRYS
 10
147.594849
 20
287.421753
  0
VERTEX
  8
OBRYS
 10
147.594849
 20
288.631958
  0
VERTEX
  8
OBRYS
 10
147.594849
 20
289.945129
  0
VERTEX
  8
OBRYS
 10
147.594849
 20
291.310791
  0
VERTEX
  8
OBRYS
 10
147.594849
 20
292.676392
  0
VERTEX
  8
OBRYS
 10
147.594849
 20
293.989563
  0
VERTEX
  8
OBRYS
 10
147.594849
 20
295.199768
  0
VERTEX
  8
OBRYS
 10
147.594849
 20
296.260498
  0
VERTEX
  8
OBRYS
 10
147.594849
 20
297.131042
  0
VERTEX
  8
OBRYS
 10
147.594849
 20
297.777893
  0
VERTEX
  8
OBRYS
 10
147.594849
 20
298.176270
  0
VERTEX
  8
OBRYS
 10
147.594849
 20
298.310791
  0
SEQEND
  8
OBRYS
  0
LINE
  8
OBRYS
 10
145.031814
 20
295.199786
 11
145.038902
 21
295.211670
  0
ARC
  8
OBRYS
 10
157.219963
 20
289.159029
 40
13.607558
 50
153.377559
 51
176.777617
  0
POLYLINE
  8
OBRYS
 66
    1
  0
VERTEX
  8
OBRYS
 10
145.038818
 20
284.443787
  0
VERTEX
  8
OBRYS
 10
145.031738
 20
284.445251
  0
VERTEX
  8
OBRYS
 10
144.493774
 20
284.843628
  0
VERTEX
  8
OBRYS
 10
144.071045
 20
285.490479
  0
VERTEX
  8
OBRYS
 10
143.779785
 20
286.361023
  0
VERTEX
  8
OBRYS
 10
143.631348
 20
287.421753
  0
VERTEX
  8
OBRYS
 10
143.631348
 20
288.631958
  0
VERTEX
  8
OBRYS
 10
143.631348
 20
289.945129
  0
SEQEND
  8
OBRYS
  0
LINE
  8
OBRYS
 10
147.221629
 20
272.505069
 11
147.221629
 21
268.078375
  0
LINE
  8
OBRYS
 10
147.221629
 20
274.740472
 11
147.221629
 21
284.935427
  0
LINE
  8
OBRYS
 10
147.221629
 20
297.834474
 11
147.221629
 21
306.938248
  0
LINE
  8
OBRYS
 10
145.664456
 20
284.310794
 11
145.038902
 21
284.443790
  0
POLYLINE
  8
OBRYS
 66
    1
  0
VERTEX
  8
OBRYS
 10
145.038818
 20
295.211609
  0
VERTEX
  8
OBRYS
 10
145.664429
 20
296.260498
  0
VERTEX
  8
OBRYS
 10
146.367310
 20
297.131042
  0
VERTEX
  8
OBRYS
 10
147.113647
 20
297.777893
  0
VERTEX
  8
OBRYS
 10
147.221558
 20
297.834473
  0
VERTEX
  8
OBRYS
 10
147.526367
 20
298.176270
  0
VERTEX
  8
OBRYS
 10
147.594849
 20
298.202759
  0
SEQEND
  8
OBRYS
  0
LINE
  8
OBRYS
 10
137.594986
 20
323.000676
 11
137.594986
 21
310.326023
  0
LINE
  8
OBRYS
 10
147.594986
 20
342.444966
 11
147.594986
 21
353.444966
  0
LINE
  8
OBRYS
 10
147.221629
 20
344.250831
 11
147.594986
 21
343.299943
  0
POLYLINE
  8
OBRYS
 66
    1
  0
VERTEX
  8
OBRYS
 10
142.983276
 20
347.184235
  0
VERTEX
  8
OBRYS
 10
144.027466
 20
347.061127
  0
VERTEX
  8
OBRYS
 10
144.941162
 20
346.707306
  0
VERTEX
  8
OBRYS
 10
145.609863
 20
346.166901
  0
SEQEND
  8
OBRYS
  0
POLYLINE
  8
OBRYS
 66
    1
  0
VERTEX
  8
OBRYS
 10
143.913940
 20
346.723053
  0
VERTEX
  8
OBRYS
 10
143.736694
 20
346.866241
  0
VERTEX
  8
OBRYS
 10
143.127563
 20
347.102142
  0
VERTEX
  8
OBRYS
 10
142.431396
 20
347.184235
  0
SEQEND
  8
OBRYS
  0
POLYLINE
  8
OBRYS
 66
    1
  0
VERTEX
  8
OBRYS
 10
147.594849
 20
342.478851
  0
VERTEX
  8
OBRYS
 10
147.221558
 20
343.425568
  0
VERTEX
  8
OBRYS
 10
145.038818
 20
346.009186
  0
VERTEX
  8
OBRYS
 10
144.370117
 20
346.547211
  0
VERTEX
  8
OBRYS
 10
143.913940
 20
346.723053
  0
SEQEND
  8
OBRYS
  0
LINE
  8
OBRYS
 10
147.594986
 20
343.299943
 11
147.594986
 21
345.856379
  0
LINE
  8
OBRYS
 10
142.983329
 20
347.184271
 11
142.983329
 21
350.042946
  0
LINE
  8
OBRYS
 10
142.431524
 20
350.042946
 11
142.431524
 21
347.184271
  0
LINE
  8
OBRYS
 10
145.609973
 20
346.166983
 11
145.609973
 21
348.946502
  0
LINE
  8
OBRYS
 10
147.594986
 20
345.856379
 11
147.221629
 21
346.881255
  0
POLYLINE
  8
OBRYS
 66
    1
  0
VERTEX
  8
OBRYS
 10
145.609863
 20
348.946442
  0
VERTEX
  8
OBRYS
 10
144.941162
 20
349.528839
  0
VERTEX
  8
OBRYS
 10
144.027466
 20
349.910248
  0
VERTEX
  8
OBRYS
 10
142.983276
 20
350.042877
  0
SEQEND
  8
OBRYS
  0
LINE
  8
OBRYS
 10
147.221629
 20
344.250831
 11
147.221629
 21
346.881255
  0
POLYLINE
  8
OBRYS
 66
    1
  0
VERTEX
  8
OBRYS
 10
147.594849
 20
359.153839
  0
VERTEX
  8
OBRYS
 10
147.221558
 20
360.593292
  0
VERTEX
  8
OBRYS
 10
145.038818
 20
364.521881
  0
VERTEX
  8
OBRYS
 10
144.370117
 20
365.339874
  0
VERTEX
  8
OBRYS
 10
143.913940
 20
365.607330
  0
SEQEND
  8
OBRYS
  0
LINE
  8
OBRYS
 10
147.594986
 20
322.592382
 11
147.594986
 21
322.697314
  0
LINE
  8
OBRYS
 10
147.594986
 20
352.546172
 11
147.594986
 21
349.663670
  0
LINE
  8
OBRYS
 10
137.594986
 20
355.051863
 11
137.594986
 21
357.900518
  0
LINE
  8
OBRYS
 10
147.594986
 20
357.732715
 11
147.594986
 21
349.663670
  0
POLYLINE
  8
OBRYS
 66
    1
  0
VERTEX
  8
OBRYS
 10
143.354736
 20
357.900482
  0
VERTEX
  8
OBRYS
 10
142.432739
 20
357.873444
  0
VERTEX
  8
OBRYS
 10
142.412231
 20
357.869049
  0
VERTEX
  8
OBRYS
 10
137.594849
 20
357.869049
  0
VERTEX
  8
OBRYS
 10
137.594849
 20
357.873444
  0
VERTEX
  8
OBRYS
 10
137.594849
 20
357.900482
  0
SEQEND
  8
OBRYS
  0
POLYLINE
  8
OBRYS
 66
    1
  0
VERTEX
  8
OBRYS
 10
144.937256
 20
323.973175
  0
VERTEX
  8
OBRYS
 10
144.629028
 20
323.953461
  0
VERTEX
  8
OBRYS
 10
144.370117
 20
323.861664
  0
VERTEX
  8
OBRYS
 10
144.326416
 20
323.854218
  0
VERTEX
  8
OBRYS
 10
143.824707
 20
323.679413
  0
VERTEX
  8
OBRYS
 10
143.456421
 20
323.454926
  0
VERTEX
  8
OBRYS
 10
143.354736
 20
323.436066
  0
VERTEX
  8
OBRYS
 10
142.432739
 20
323.134003
  0
VERTEX
  8
OBRYS
 10
142.412231
 20
323.119537
  0
VERTEX
  8
OBRYS
 10
137.594849
 20
323.119537
  0
VERTEX
  8
OBRYS
 10
137.594849
 20
323.134003
  0
VERTEX
  8
OBRYS
 10
137.594849
 20
323.436066
  0
VERTEX
  8
OBRYS
 10
137.594849
 20
323.679413
  0
VERTEX
  8
OBRYS
 10
137.594849
 20
323.854218
  0
VERTEX
  8
OBRYS
 10
137.594849
 20
323.953461
  0
VERTEX
  8
OBRYS
 10
137.594849
 20
323.973175
  0
SEQEND
  8
OBRYS
  0
POLYLINE
  8
OBRYS
 66
    1
  0
VERTEX
  8
OBRYS
 10
141.594849
 20
323.973175
  0
VERTEX
  8
OBRYS
 10
141.594849
 20
324.231110
  0
VERTEX
  8
OBRYS
 10
141.594849
 20
325.184235
  0
VERTEX
  8
OBRYS
 10
141.594849
 20
326.296722
  0
VERTEX
  8
OBRYS
 10
141.594849
 20
327.528229
  0
VERTEX
  8
OBRYS
 10
141.594849
 20
328.834076
  0
VERTEX
  8
OBRYS
 10
141.594849
 20
330.166962
  0
VERTEX
  8
OBRYS
 10
141.594849
 20
331.478485
  0
VERTEX
  8
OBRYS
 10
141.594849
 20
332.721161
  0
VERTEX
  8
OBRYS
 10
141.594849
 20
333.849945
  0
VERTEX
  8
OBRYS
 10
141.594849
 20
334.823822
  0
VERTEX
  8
OBRYS
 10
141.594849
 20
335.192474
  0
VERTEX
  8
OBRYS
 10
141.455200
 20
335.607513
  0
VERTEX
  8
OBRYS
 10
141.366577
 20
335.832977
  0
VERTEX
  8
OBRYS
 10
140.716187
 20
336.325714
  0
VERTEX
  8
OBRYS
 10
139.742920
 20
336.654938
  0
VERTEX
  8
OBRYS
 10
138.594849
 20
336.770599
  0
VERTEX
  8
OBRYS
 10
137.594849
 20
336.770599
  0
VERTEX
  8
OBRYS
 10
137.594849
 20
337.871979
  0
VERTEX
  8
OBRYS
 10
137.594849
 20
338.109467
  0
VERTEX
  8
OBRYS
 10
137.594849
 20
338.406708
  0
VERTEX
  8
OBRYS
 10
137.594849
 20
338.751740
  0
VERTEX
  8
OBRYS
 10
137.594849
 20
339.130585
  0
VERTEX
  8
OBRYS
 10
137.594849
 20
339.528168
  0
VERTEX
  8
OBRYS
 10
137.594849
 20
339.928375
  0
VERTEX
  8
OBRYS
 10
137.594849
 20
339.944427
  0
VERTEX
  8
OBRYS
 10
142.412231
 20
339.944427
  0
VERTEX
  8
OBRYS
 10
142.432739
 20
339.928375
  0
VERTEX
  8
OBRYS
 10
143.354736
 20
339.528168
  0
VERTEX
  8
OBRYS
 10
143.456421
 20
339.497345
  0
VERTEX
  8
OBRYS
 10
143.824707
 20
339.130585
  0
VERTEX
  8
OBRYS
 10
144.326416
 20
338.751740
  0
VERTEX
  8
OBRYS
 10
144.370117
 20
338.725922
  0
VERTEX
  8
OBRYS
 10
144.629028
 20
338.406708
  0
VERTEX
  8
OBRYS
 10
144.937256
 20
338.109467
  0
VERTEX
  8
OBRYS
 10
145.038818
 20
338.035004
  0
VERTEX
  8
OBRYS
 10
145.189941
 20
337.871979
  0
VERTEX
  8
OBRYS
 10
147.221558
 20
336.008026
  0
VERTEX
  8
OBRYS
 10
147.425293
 20
335.607513
  0
VERTEX
  8
OBRYS
 10
147.594849
 20
335.218658
  0
SEQEND
  8
OBRYS
  0
LINE
  8
OBRYS
 10
141.594986
 20
323.973230
 11
141.594986
 21
335.192517
  0
POLYLINE
  8
OBRYS
 66
    1
  0
VERTEX
  8
OBRYS
 10
137.594849
 20
360.601776
  0
VERTEX
  8
OBRYS
 10
138.594849
 20
360.601776
  0
VERTEX
  8
OBRYS
 10
139.742920
 20
360.381561
  0
VERTEX
  8
OBRYS
 10
140.716187
 20
359.754242
  0
VERTEX
  8
OBRYS
 10
141.366577
 20
358.815521
  0
VERTEX
  8
OBRYS
 10
141.455200
 20
358.385895
  0
VERTEX
  8
OBRYS
 10
141.552490
 20
357.900482
  0
SEQEND
  8
OBRYS
  0
POLYLINE
  8
OBRYS
 66
    1
  0
VERTEX
  8
OBRYS
 10
141.594849
 20
335.192474
  0
VERTEX
  8
OBRYS
 10
141.455200
 20
335.607513
  0
VERTEX
  8
OBRYS
 10
141.366577
 20
335.832977
  0
VERTEX
  8
OBRYS
 10
140.716187
 20
336.325714
  0
VERTEX
  8
OBRYS
 10
139.742920
 20
336.654938
  0
VERTEX
  8
OBRYS
 10
138.594849
 20
336.770599
  0
VERTEX
  8
OBRYS
 10
137.594849
 20
336.770599
  0
SEQEND
  8
OBRYS
  0
LINE
  8
OBRYS
 10
137.594986
 20
355.051863
 11
137.594986
 21
336.770636
  0
LINE
  8
OBRYS
 10
142.412258
 20
310.444966
 11
142.412258
 21
323.119619
  0
LINE
  8
OBRYS
 10
142.412258
 20
339.944463
 11
142.412258
 21
357.869129
  0
LINE
  8
OBRYS
 10
142.412258
 20
364.838208
 11
142.412258
 21
366.444966
  0
LINE
  8
OBRYS
 10
137.594986
 20
357.869129
 11
137.594986
 21
339.944463
  0
LINE
  8
OBRYS
 10
145.038902
 20
362.972464
 11
145.038902
 21
364.521922
  0
LINE
  8
OBRYS
 10
147.221629
 20
310.444966
 11
147.221629
 21
322.997311
  0
LINE
  8
OBRYS
 10
147.221629
 20
336.008092
 11
147.221629
 21
343.425615
  0
LINE
  8
OBRYS
 10
147.221629
 20
346.149460
 11
147.221629
 21
353.759790
  0
LINE
  8
OBRYS
 10
147.221629
 20
359.149032
 11
147.221629
 21
360.593364
  0
POLYLINE
  8
OBRYS
 66
    1
  0
VERTEX
  8
OBRYS
 10
147.594849
 20
322.697235
  0
VERTEX
  8
OBRYS
 10
147.425293
 20
322.800568
  0
VERTEX
  8
OBRYS
 10
147.221558
 20
322.997223
  0
VERTEX
  8
OBRYS
 10
145.189941
 20
323.912506
  0
VERTEX
  8
OBRYS
 10
145.038818
 20
323.954132
  0
VERTEX
  8
OBRYS
 10
144.937256
 20
323.973175
  0
SEQEND
  8
OBRYS
  0
ARC
  8
OBRYS
 10
143.184751
 20
354.387157
 40
3.518602
 50
70.236041
 51
87.431499
  0
POLYLINE
  8
OBRYS
 66
    1
  0
VERTEX
  8
OBRYS
 10
147.594849
 20
352.546112
  0
VERTEX
  8
OBRYS
 10
147.425293
 20
353.081085
  0
VERTEX
  8
OBRYS
 10
147.221558
 20
353.759735
  0
VERTEX
  8
OBRYS
 10
145.189941
 20
356.918060
  0
VERTEX
  8
OBRYS
 10
145.038818
 20
357.139923
  0
VERTEX
  8
OBRYS
 10
144.937256
 20
357.241364
  0
VERTEX
  8
OBRYS
 10
144.629028
 20
357.510712
  0
VERTEX
  8
OBRYS
 10
144.370117
 20
357.700043
  0
SEQEND
  8
OBRYS
  0
LINE
  8
OBRYS
 10
147.594986
 20
335.218735
 11
147.594986
 21
342.478924
  0
LINE
  8
OBRYS
 10
147.594986
 20
345.124583
 11
147.594986
 21
352.546172
  0
LINE
  8
OBRYS
 10
147.594986
 20
357.732715
 11
147.594986
 21
359.153884
  0
LINE
  8
OBRYS
 10
147.594986
 20
348.240293
 11
147.594986
 21
347.295820
  0
LINE
  8
OBRYS
 10
147.594986
 20
343.299943
 11
147.594986
 21
342.478924
  0
LINE
  8
OBRYS
 10
145.609973
 20
346.166983
 11
147.221629
 21
344.250831
  0
LINE
  8
OBRYS
 10
142.431524
 20
347.184271
 11
142.983329
 21
347.184271
  0
LINE
  8
OBRYS
 10
142.983329
 20
350.042946
 11
142.431524
 21
350.042946
  0
LINE
  8
OBRYS
 10
147.221629
 20
346.881255
 11
145.609973
 21
348.946502
  0
LINE
  8
OBRYS
 10
141.594986
 20
323.973230
 11
137.594986
 21
323.973230
  0
LINE
  8
OBRYS
 10
137.594986
 20
357.900518
 11
141.552522
 21
357.900518
  0
LINE
  8
OBRYS
 10
137.594986
 20
357.900518
 11
143.354853
 21
357.900518
  0
LINE
  8
OBRYS
 10
145.189994
 20
362.700333
 11
137.594986
 21
362.700333
  0
LINE
  8
OBRYS
 10
147.425420
 20
358.385945
 11
141.455220
 21
358.385945
  0
LINE
  8
OBRYS
 10
137.594986
 20
323.973230
 11
144.937279
 21
323.973230
  0
LINE
  8
OBRYS
 10
145.189994
 20
337.872051
 11
137.594986
 21
337.872051
  0
LINE
  8
OBRYS
 10
147.425420
 20
335.607574
 11
141.455220
 21
335.607574
  0
ARC
  8
OBRYS
 10
137.594986
 20
289.345297
 40
6.000000
 50
90.000000
 51
180.000000
  0
LINE
  8
OBRYS
 10
137.594986
 20
310.444966
 11
137.594986
 21
295.345297
  0
LINE
  8
OBRYS
 10
147.008147
 20
257.024295
 11
142.146938
 21
257.024295
  0
ARC
  8
OBRYS
 10
140.594986
 20
244.485230
 40
5.000000
 50
152.775520
 51
180.000000
  0
LINE
  8
OBRYS
 10
136.148881
 20
246.772620
 11
147.041091
 21
267.944313
  0
ARC
  8
OBRYS
 10
142.594986
 20
270.231703
 40
5.000000
 50
332.775520
 51
360.000000
  0
ARC
  8
OBRYS
 10
137.594986
 20
238.097435
 40
2.000000
 50
180.000000
 51
268.000002
  0
LINE
  8
OBRYS
 62
     4
  6
HIDDEN2
 10
151.094986
 20
225.444966
 11
151.094986
 21
235.624786
  0
LINE
  8
OBRYS
 62
     4
  6
HIDDEN2
 10
142.094986
 20
225.444966
 11
142.094986
 21
235.939072
  0
ARC
  8
OBRYS
 10
144.594986
 20
360.524266
 40
3.000000
 50
0.000000
 51
28.890129
  0
LINE
  8
OBRYS
 10
138.944480
 20
366.444966
 11
139.024364
 21
366.444966
  0
LINE
  8
OBRYS
 62
     7
  6
DASHDOT
 10
146.594986
 20
225.444966
 11
146.594986
 21
235.781930
  0
LINE
  8
OBRYS
 10
147.594986
 20
340.444966
 11
147.594986
 21
310.444966
  0
LINE
  8
OBRYS
 10
147.594986
 20
280.444966
 11
147.594986
 21
310.444966
  0
LINE
  8
OBRYS
 10
147.221629
 20
361.973661
 11
145.609973
 21
364.894361
  0
ARC
  8
OBRYS
 10
142.983329
 20
363.444966
 40
3.000000
 50
28.890129
 51
90.000000
  0
LINE
  8
OBRYS
 10
131.594986
 20
225.444966
 11
131.594986
 21
289.345297
  0
LINE
  8
OBRYS
 10
155.594986
 20
225.444966
 11
131.594986
 21
225.444966
  0
LINE
  8
OBRYS
 10
155.594986
 20
225.444966
 11
155.594986
 21
235.444966
  0
LINE
  8
OBRYS
 10
147.790935
 20
253.841543
 11
155.594986
 21
235.444966
  0
LINE
  8
OBRYS
 10
147.594986
 20
254.704908
 11
147.594986
 21
280.444966
  0
ARC
  8
OBRYS
 10
149.594986
 20
254.704908
 40
2.000000
 50
180.000000
 51
205.574382
  0
LINE
  8
OBRYS
 10
147.594986
 20
254.704905
 11
147.594986
 21
260.365666
  0
LINE
  8
OBRYS
 10
147.594986
 20
360.524266
 11
147.594986
 21
340.444966
  0
LINE
  8
OBRYS
 62
     7
  6
DASHDOT
 10
149.903924
 20
310.444966
 11
133.074986
 21
310.444966
  0
LINE
  8
OBRYS
 10
155.594986
 20
235.432722
 11
137.525187
 21
236.098653
  0
LINE
  8
OBRYS
 10
142.983329
 20
366.444966
 11
137.594986
 21
366.444966
  0
LINE
  8
OBRYS
 10
141.552522
 20
357.900518
 11
141.455220
 21
358.385945
  0
LINE
  8
OBRYS
 10
141.455220
 20
358.385945
 11
141.366624
 21
358.815556
  0
LINE
  8
OBRYS
 10
141.366624
 20
358.815556
 11
140.716306
 21
359.754329
  0
LINE
  8
OBRYS
 10
140.716306
 20
359.754329
 11
139.743036
 21
360.381598
  0
LINE
  8
OBRYS
 10
139.743036
 20
360.381598
 11
138.594986
 21
360.601865
  0
LINE
  8
OBRYS
 10
138.594986
 20
360.601865
 11
137.594986
 21
360.601865
  0
LINE
  8
OBRYS
 10
137.594986
 20
360.601865
 11
137.594986
 21
362.700333
  0
LINE
  8
OBRYS
 10
137.594986
 20
362.700333
 11
137.594986
 21
363.096852
  0
LINE
  8
OBRYS
 10
137.594986
 20
363.096852
 11
137.594986
 21
363.497498
  0
LINE
  8
OBRYS
 10
137.594986
 20
363.497498
 11
137.594986
 21
363.886156
  0
LINE
  8
OBRYS
 10
137.594986
 20
363.886156
 11
137.594986
 21
366.444966
  0
LINE
  8
OBRYS
 10
137.594986
 20
364.247192
 11
137.594986
 21
364.566081
  0
LINE
  8
OBRYS
 10
137.594986
 20
364.566081
 11
137.594986
 21
364.829997
  0
LINE
  8
OBRYS
 10
137.594986
 20
364.829997
 11
137.594986
 21
364.838208
  0
LINE
  8
OBRYS
 10
137.594986
 20
364.838208
 11
142.412258
 21
364.838208
  0
LINE
  8
OBRYS
 10
142.412258
 20
364.838208
 11
142.432767
 21
364.829997
  0
LINE
  8
OBRYS
 10
142.432767
 20
364.829997
 11
143.354853
 21
364.566081
  0
LINE
  8
OBRYS
 10
143.354853
 20
364.566081
 11
143.456500
 21
364.541369
  0
LINE
  8
OBRYS
 10
143.456500
 20
364.541369
 11
143.824753
 21
364.247192
  0
LINE
  8
OBRYS
 10
143.824753
 20
364.247192
 11
144.326450
 21
363.886156
  0
LINE
  8
OBRYS
 10
144.326450
 20
363.886156
 11
144.370137
 21
363.857083
  0
LINE
  8
OBRYS
 10
144.370137
 20
363.857083
 11
144.629137
 21
363.497498
  0
LINE
  8
OBRYS
 10
144.629137
 20
363.497498
 11
144.937279
 21
363.096852
  0
LINE
  8
OBRYS
 10
144.937279
 20
363.096852
 11
145.038902
 21
362.972464
  0
LINE
  8
OBRYS
 10
145.038902
 20
362.972464
 11
145.189994
 21
362.700333
  0
LINE
  8
OBRYS
 10
145.189994
 20
362.700333
 11
147.221629
 21
359.149032
  0
LINE
  8
OBRYS
 10
147.221629
 20
359.149032
 11
147.425420
 21
358.385945
  0
LINE
  8
OBRYS
 10
147.425420
 20
358.385945
 11
147.594986
 21
357.732715
  0
ENDBLK
  8
OBRYS
  0
BLOCK
  8
OBRYS
  2
_7
 70
   64
 10
526.847370
 20
310.444966
  0
LINE
  8
OBRYS
 10
526.474014
 20
312.444966
 11
521.664643
 21
312.444966
  0
LINE
  8
OBRYS
 10
526.474014
 20
308.444966
 11
521.879027
 21
308.444966
  0
ARC
  8
OBRYS
 10
519.847370
 20
258.121538
 40
5.000000
 50
142.032592
 51
180.000000
  0
LINE
  8
OBRYS
 10
524.291286
 20
271.943430
 11
515.905566
 21
261.197604
  0
ARC
  8
OBRYS
 10
519.847370
 20
257.389743
 40
5.000000
 50
142.032592
 51
180.000000
  0
LINE
  8
OBRYS
 10
515.905566
 20
260.465808
 11
526.474014
 21
274.008676
  0
ARC
  8
OBRYS
 10
519.847370
 20
254.020962
 40
5.000000
 50
143.827645
 51
180.000000
  0
LINE
  8
OBRYS
 10
515.811144
 20
256.972044
 11
526.474014
 21
271.555766
  0
LINE
  8
OBRYS
 10
526.474014
 20
274.740472
 11
524.291286
 21
271.943430
  0
LINE
  8
OBRYS
 10
526.847370
 20
275.765348
 11
526.474014
 21
274.740472
  0
LINE
  8
OBRYS
 10
514.847370
 20
238.097436
 11
514.847370
 21
269.598008
  0
LINE
  8
OBRYS
 10
519.460946
 20
287.249006
 11
514.847370
 21
269.598008
  0
LINE
  8
OBRYS
 10
521.401566
 20
299.305873
 11
519.460946
 21
287.249006
  0
LINE
  8
OBRYS
 10
522.006954
 20
310.444966
 11
521.401566
 21
299.305873
  0
LINE
  8
OBRYS
 10
526.474014
 20
274.008676
 11
526.847370
 21
275.033553
  0
LINE
  8
OBRYS
 10
526.847370
 20
272.649638
 11
526.474014
 21
271.555766
  0
LINE
  8
OBRYS
 10
526.474014
 20
306.850506
 11
526.474014
 21
310.444966
  0
LINE
  8
OBRYS
 10
526.847370
 20
298.202764
 11
526.847370
 21
298.310794
  0
POLYLINE
  8
OBRYS
 66
    1
  0
VERTEX
  8
OBRYS
 10
524.916809
 20
284.310791
  0
VERTEX
  8
OBRYS
 10
525.619690
 20
284.445251
  0
VERTEX
  8
OBRYS
 10
526.366028
 20
284.843628
  0
VERTEX
  8
OBRYS
 10
526.473938
 20
284.935425
  0
VERTEX
  8
OBRYS
 10
526.778748
 20
285.490479
  0
VERTEX
  8
OBRYS
 10
526.847229
 20
285.661804
  0
VERTEX
  8
OBRYS
 10
526.847229
 20
286.361023
  0
VERTEX
  8
OBRYS
 10
526.847229
 20
287.421753
  0
VERTEX
  8
OBRYS
 10
526.847229
 20
288.631958
  0
VERTEX
  8
OBRYS
 10
526.847229
 20
289.945129
  0
VERTEX
  8
OBRYS
 10
526.847229
 20
291.310791
  0
VERTEX
  8
OBRYS
 10
526.847229
 20
292.676392
  0
VERTEX
  8
OBRYS
 10
526.847229
 20
293.989563
  0
VERTEX
  8
OBRYS
 10
526.847229
 20
295.199768
  0
VERTEX
  8
OBRYS
 10
526.847229
 20
296.260498
  0
VERTEX
  8
OBRYS
 10
526.847229
 20
297.131042
  0
VERTEX
  8
OBRYS
 10
526.847229
 20
297.777893
  0
VERTEX
  8
OBRYS
 10
526.847229
 20
298.176270
  0
VERTEX
  8
OBRYS
 10
526.847229
 20
298.310791
  0
SEQEND
  8
OBRYS
  0
LINE
  8
OBRYS
 10
524.284198
 20
295.199786
 11
524.291286
 21
295.211670
  0
ARC
  8
OBRYS
 10
536.472348
 20
289.159029
 40
13.607558
 50
153.377559
 51
176.777617
  0
POLYLINE
  8
OBRYS
 66
    1
  0
VERTEX
  8
OBRYS
 10
524.291199
 20
284.443787
  0
VERTEX
  8
OBRYS
 10
524.284119
 20
284.445251
  0
VERTEX
  8
OBRYS
 10
523.746155
 20
284.843628
  0
VERTEX
  8
OBRYS
 10
523.323425
 20
285.490479
  0
VERTEX
  8
OBRYS
 10
523.032166
 20
286.361023
  0
VERTEX
  8
OBRYS
 10
522.883728
 20
287.421753
  0
VERTEX
  8
OBRYS
 10
522.883728
 20
288.631958
  0
VERTEX
  8
OBRYS
 10
522.883728
 20
289.945129
  0
SEQEND
  8
OBRYS
  0
LINE
  8
OBRYS
 10
526.474014
 20
272.505069
 11
526.474014
 21
268.078375
  0
LINE
  8
OBRYS
 10
526.474014
 20
274.740472
 11
526.474014
 21
284.935427
  0
LINE
  8
OBRYS
 10
526.474014
 20
297.834474
 11
526.474014
 21
306.938248
  0
LINE
  8
OBRYS
 10
524.916840
 20
284.310794
 11
524.291286
 21
284.443790
  0
POLYLINE
  8
OBRYS
 66
    1
  0
VERTEX
  8
OBRYS
 10
524.291199
 20
295.211609
  0
VERTEX
  8
OBRYS
 10
524.916809
 20
296.260498
  0
VERTEX
  8
OBRYS
 10
525.619690
 20
297.131042
  0
VERTEX
  8
OBRYS
 10
526.366028
 20
297.777893
  0
VERTEX
  8
OBRYS
 10
526.473938
 20
297.834473
  0
VERTEX
  8
OBRYS
 10
526.778748
 20
298.176270
  0
VERTEX
  8
OBRYS
 10
526.847229
 20
298.202759
  0
SEQEND
  8
OBRYS
  0
LINE
  8
OBRYS
 10
516.847370
 20
323.000676
 11
516.847370
 21
310.326023
  0
LINE
  8
OBRYS
 10
526.847370
 20
342.444966
 11
526.847370
 21
353.444966
  0
LINE
  8
OBRYS
 10
526.474014
 20
344.250831
 11
526.847370
 21
343.299943
  0
POLYLINE
  8
OBRYS
 66
    1
  0
VERTEX
  8
OBRYS
 10
522.235657
 20
347.184235
  0
VERTEX
  8
OBRYS
 10
523.279846
 20
347.061127
  0
VERTEX
  8
OBRYS
 10
524.193542
 20
346.707306
  0
VERTEX
  8
OBRYS
 10
524.862244
 20
346.166901
  0
SEQEND
  8
OBRYS
  0
POLYLINE
  8
OBRYS
 66
    1
  0
VERTEX
  8
OBRYS
 10
523.166321
 20
346.723053
  0
VERTEX
  8
OBRYS
 10
522.989075
 20
346.866241
  0
VERTEX
  8
OBRYS
 10
522.379944
 20
347.102142
  0
VERTEX
  8
OBRYS
 10
521.683777
 20
347.184235
  0
SEQEND
  8
OBRYS
  0
POLYLINE
  8
OBRYS
 66
    1
  0
VERTEX
  8
OBRYS
 10
526.847229
 20
342.478851
  0
VERTEX
  8
OBRYS
 10
526.473938
 20
343.425568
  0
VERTEX
  8
OBRYS
 10
524.291199
 20
346.009186
  0
VERTEX
  8
OBRYS
 10
523.622498
 20
346.547211
  0
VERTEX
  8
OBRYS
 10
523.166321
 20
346.723053
  0
SEQEND
  8
OBRYS
  0
LINE
  8
OBRYS
 10
526.847370
 20
343.299943
 11
526.847370
 21
345.856379
  0
LINE
  8
OBRYS
 10
522.235714
 20
347.184271
 11
522.235714
 21
350.042946
  0
LINE
  8
OBRYS
 10
521.683909
 20
350.042946
 11
521.683909
 21
347.184271
  0
LINE
  8
OBRYS
 10
524.862357
 20
346.166983
 11
524.862357
 21
348.946502
  0
LINE
  8
OBRYS
 10
526.847370
 20
345.856379
 11
526.474014
 21
346.881255
  0
POLYLINE
  8
OBRYS
 66
    1
  0
VERTEX
  8
OBRYS
 10
524.862244
 20
348.946442
  0
VERTEX
  8
OBRYS
 10
524.193542
 20
349.528839
  0
VERTEX
  8
OBRYS
 10
523.279846
 20
349.910248
  0
VERTEX
  8
OBRYS
 10
522.235657
 20
350.042877
  0
SEQEND
  8
OBRYS
  0
LINE
  8
OBRYS
 10
526.474014
 20
344.250831
 11
526.474014
 21
346.881255
  0
POLYLINE
  8
OBRYS
 66
    1
  0
VERTEX
  8
OBRYS
 10
526.847229
 20
359.153839
  0
VERTEX
  8
OBRYS
 10
526.473938
 20
360.593292
  0
VERTEX
  8
OBRYS
 10
524.291199
 20
364.521881
  0
VERTEX
  8
OBRYS
 10
523.622498
 20
365.339874
  0
VERTEX
  8
OBRYS
 10
523.166321
 20
365.607330
  0
SEQEND
  8
OBRYS
  0
LINE
  8
OBRYS
 10
526.847370
 20
322.592382
 11
526.847370
 21
322.697314
  0
LINE
  8
OBRYS
 10
526.847370
 20
352.546172
 11
526.847370
 21
349.663670
  0
LINE
  8
OBRYS
 10
516.847370
 20
355.051863
 11
516.847370
 21
357.900518
  0
LINE
  8
OBRYS
 10
526.847370
 20
357.732715
 11
526.847370
 21
349.663670
  0
POLYLINE
  8
OBRYS
 66
    1
  0
VERTEX
  8
OBRYS
 10
522.607117
 20
357.900482
  0
VERTEX
  8
OBRYS
 10
521.685120
 20
357.873444
  0
VERTEX
  8
OBRYS
 10
521.664612
 20
357.869049
  0
VERTEX
  8
OBRYS
 10
516.847229
 20
357.869049
  0
VERTEX
  8
OBRYS
 10
516.847229
 20
357.873444
  0
VERTEX
  8
OBRYS
 10
516.847229
 20
357.900482
  0
SEQEND
  8
OBRYS
  0
POLYLINE
  8
OBRYS
 66
    1
  0
VERTEX
  8
OBRYS
 10
524.189636
 20
323.973175
  0
VERTEX
  8
OBRYS
 10
523.881409
 20
323.953461
  0
VERTEX
  8
OBRYS
 10
523.622498
 20
323.861664
  0
VERTEX
  8
OBRYS
 10
523.578796
 20
323.854218
  0
VERTEX
  8
OBRYS
 10
523.077087
 20
323.679413
  0
VERTEX
  8
OBRYS
 10
522.708801
 20
323.454926
  0
VERTEX
  8
OBRYS
 10
522.607117
 20
323.436066
  0
VERTEX
  8
OBRYS
 10
521.685120
 20
323.134003
  0
VERTEX
  8
OBRYS
 10
521.664612
 20
323.119537
  0
VERTEX
  8
OBRYS
 10
516.847229
 20
323.119537
  0
VERTEX
  8
OBRYS
 10
516.847229
 20
323.134003
  0
VERTEX
  8
OBRYS
 10
516.847229
 20
323.436066
  0
VERTEX
  8
OBRYS
 10
516.847229
 20
323.679413
  0
VERTEX
  8
OBRYS
 10
516.847229
 20
323.854218
  0
VERTEX
  8
OBRYS
 10
516.847229
 20
323.953461
  0
VERTEX
  8
OBRYS
 10
516.847229
 20
323.973175
  0
SEQEND
  8
OBRYS
  0
POLYLINE
  8
OBRYS
 66
    1
  0
VERTEX
  8
OBRYS
 10
520.847229
 20
323.973175
  0
VERTEX
  8
OBRYS
 10
520.847229
 20
324.231110
  0
VERTEX
  8
OBRYS
 10
520.847229
 20
325.184235
  0
VERTEX
  8
OBRYS
 10
520.847229
 20
326.296722
  0
VERTEX
  8
OBRYS
 10
520.847229
 20
327.528229
  0
VERTEX
  8
OBRYS
 10
520.847229
 20
328.834076
  0
VERTEX
  8
OBRYS
 10
520.847229
 20
330.166962
  0
VERTEX
  8
OBRYS
 10
520.847229
 20
331.478485
  0
VERTEX
  8
OBRYS
 10
520.847229
 20
332.721161
  0
VERTEX
  8
OBRYS
 10
520.847229
 20
333.849945
  0
VERTEX
  8
OBRYS
 10
520.847229
 20
334.823822
  0
VERTEX
  8
OBRYS
 10
520.847229
 20
335.192474
  0
VERTEX
  8
OBRYS
 10
520.707581
 20
335.607513
  0
VERTEX
  8
OBRYS
 10
520.618958
 20
335.832977
  0
VERTEX
  8
OBRYS
 10
519.968567
 20
336.325714
  0
VERTEX
  8
OBRYS
 10
518.995300
 20
336.654938
  0
VERTEX
  8
OBRYS
 10
517.847229
 20
336.770599
  0
VERTEX
  8
OBRYS
 10
516.847229
 20
336.770599
  0
VERTEX
  8
OBRYS
 10
516.847229
 20
337.871979
  0
VERTEX
  8
OBRYS
 10
516.847229
 20
338.109467
  0
VERTEX
  8
OBRYS
 10
516.847229
 20
338.406708
  0
VERTEX
  8
OBRYS
 10
516.847229
 20
338.751740
  0
VERTEX
  8
OBRYS
 10
516.847229
 20
339.130585
  0
VERTEX
  8
OBRYS
 10
516.847229
 20
339.528168
  0
VERTEX
  8
OBRYS
 10
516.847229
 20
339.928375
  0
VERTEX
  8
OBRYS
 10
516.847229
 20
339.944427
  0
VERTEX
  8
OBRYS
 10
521.664612
 20
339.944427
  0
VERTEX
  8
OBRYS
 10
521.685120
 20
339.928375
  0
VERTEX
  8
OBRYS
 10
522.607117
 20
339.528168
  0
VERTEX
  8
OBRYS
 10
522.708801
 20
339.497345
  0
VERTEX
  8
OBRYS
 10
523.077087
 20
339.130585
  0
VERTEX
  8
OBRYS
 10
523.578796
 20
338.751740
  0
VERTEX
  8
OBRYS
 10
523.622498
 20
338.725922
  0
VERTEX
  8
OBRYS
 10
523.881409
 20
338.406708
  0
VERTEX
  8
OBRYS
 10
524.189636
 20
338.109467
  0
VERTEX
  8
OBRYS
 10
524.291199
 20
338.035004
  0
VERTEX
  8
OBRYS
 10
524.442322
 20
337.871979
  0
VERTEX
  8
OBRYS
 10
526.473938
 20
336.008026
  0
VERTEX
  8
OBRYS
 10
526.677673
 20
335.607513
  0
VERTEX
  8
OBRYS
 10
526.847229
 20
335.218658
  0
SEQEND
  8
OBRYS
  0
LINE
  8
OBRYS
 10
520.847370
 20
323.973230
 11
520.847370
 21
335.192517
  0
POLYLINE
  8
OBRYS
 66
    1
  0
VERTEX
  8
OBRYS
 10
516.847229
 20
360.601776
  0
VERTEX
  8
OBRYS
 10
517.847229
 20
360.601776
  0
VERTEX
  8
OBRYS
 10
518.995300
 20
360.381561
  0
VERTEX
  8
OBRYS
 10
519.968567
 20
359.754242
  0
VERTEX
  8
OBRYS
 10
520.618958
 20
358.815521
  0
VERTEX
  8
OBRYS
 10
520.707581
 20
358.385895
  0
VERTEX
  8
OBRYS
 10
520.804871
 20
357.900482
  0
SEQEND
  8
OBRYS
  0
POLYLINE
  8
OBRYS
 66
    1
  0
VERTEX
  8
OBRYS
 10
520.847229
 20
335.192474
  0
VERTEX
  8
OBRYS
 10
520.707581
 20
335.607513
  0
VERTEX
  8
OBRYS
 10
520.618958
 20
335.832977
  0
VERTEX
  8
OBRYS
 10
519.968567
 20
336.325714
  0
VERTEX
  8
OBRYS
 10
518.995300
 20
336.654938
  0
VERTEX
  8
OBRYS
 10
517.847229
 20
336.770599
  0
VERTEX
  8
OBRYS
 10
516.847229
 20
336.770599
  0
SEQEND
  8
OBRYS
  0
LINE
  8
OBRYS
 10
516.847370
 20
355.051863
 11
516.847370
 21
336.770636
  0
LINE
  8
OBRYS
 10
521.664643
 20
310.444966
 11
521.664643
 21
323.119619
  0
LINE
  8
OBRYS
 10
521.664643
 20
339.944463
 11
521.664643
 21
357.869129
  0
LINE
  8
OBRYS
 10
521.664643
 20
364.838208
 11
521.664643
 21
366.444966
  0
LINE
  8
OBRYS
 10
516.847370
 20
357.869129
 11
516.847370
 21
339.944463
  0
LINE
  8
OBRYS
 10
524.291286
 20
362.972464
 11
524.291286
 21
364.521922
  0
LINE
  8
OBRYS
 10
526.474014
 20
310.444966
 11
526.474014
 21
322.997311
  0
LINE
  8
OBRYS
 10
526.474014
 20
336.008092
 11
526.474014
 21
343.425615
  0
LINE
  8
OBRYS
 10
526.474014
 20
346.149460
 11
526.474014
 21
353.759790
  0
LINE
  8
OBRYS
 10
526.474014
 20
359.149032
 11
526.474014
 21
360.593364
  0
POLYLINE
  8
OBRYS
 66
    1
  0
VERTEX
  8
OBRYS
 10
526.847229
 20
322.697235
  0
VERTEX
  8
OBRYS
 10
526.677673
 20
322.800568
  0
VERTEX
  8
OBRYS
 10
526.473938
 20
322.997223
  0
VERTEX
  8
OBRYS
 10
524.442322
 20
323.912506
  0
VERTEX
  8
OBRYS
 10
524.291199
 20
323.954132
  0
VERTEX
  8
OBRYS
 10
524.189636
 20
323.973175
  0
SEQEND
  8
OBRYS
  0
ARC
  8
OBRYS
 10
522.437135
 20
354.387157
 40
3.518602
 50
70.236041
 51
87.431499
  0
POLYLINE
  8
OBRYS
 66
    1
  0
VERTEX
  8
OBRYS
 10
526.847229
 20
352.546112
  0
VERTEX
  8
OBRYS
 10
526.677673
 20
353.081085
  0
VERTEX
  8
OBRYS
 10
526.473938
 20
353.759735
  0
VERTEX
  8
OBRYS
 10
524.442322
 20
356.918060
  0
VERTEX
  8
OBRYS
 10
524.291199
 20
357.139923
  0
VERTEX
  8
OBRYS
 10
524.189636
 20
357.241364
  0
VERTEX
  8
OBRYS
 10
523.881409
 20
357.510712
  0
VERTEX
  8
OBRYS
 10
523.622498
 20
357.700043
  0
SEQEND
  8
OBRYS
  0
LINE
  8
OBRYS
 10
526.847370
 20
335.218735
 11
526.847370
 21
342.478924
  0
LINE
  8
OBRYS
 10
526.847370
 20
345.124583
 11
526.847370
 21
352.546172
  0
LINE
  8
OBRYS
 10
526.847370
 20
357.732715
 11
526.847370
 21
359.153884
  0
LINE
  8
OBRYS
 10
526.847370
 20
348.240293
 11
526.847370
 21
347.295820
  0
LINE
  8
OBRYS
 10
526.847370
 20
343.299943
 11
526.847370
 21
342.478924
  0
LINE
  8
OBRYS
 10
524.862357
 20
346.166983
 11
526.474014
 21
344.250831
  0
LINE
  8
OBRYS
 10
521.683909
 20
347.184271
 11
522.235714
 21
347.184271
  0
LINE
  8
OBRYS
 10
522.235714
 20
350.042946
 11
521.683909
 21
350.042946
  0
LINE
  8
OBRYS
 10
526.474014
 20
346.881255
 11
524.862357
 21
348.946502
  0
LINE
  8
OBRYS
 10
520.847370
 20
323.973230
 11
516.847370
 21
323.973230
  0
LINE
  8
OBRYS
 10
516.847370
 20
357.900518
 11
520.804906
 21
357.900518
  0
LINE
  8
OBRYS
 10
516.847370
 20
357.900518
 11
522.607237
 21
357.900518
  0
LINE
  8
OBRYS
 10
524.442378
 20
362.700333
 11
516.847370
 21
362.700333
  0
LINE
  8
OBRYS
 10
526.677804
 20
358.385945
 11
520.707604
 21
358.385945
  0
LINE
  8
OBRYS
 10
516.847370
 20
323.973230
 11
524.189663
 21
323.973230
  0
LINE
  8
OBRYS
 10
524.442378
 20
337.872051
 11
516.847370
 21
337.872051
  0
LINE
  8
OBRYS
 10
526.677804
 20
335.607574
 11
520.707604
 21
335.607574
  0
ARC
  8
OBRYS
 10
516.847370
 20
289.345297
 40
6.000000
 50
90.000000
 51
180.000000
  0
LINE
  8
OBRYS
 10
516.847370
 20
310.444966
 11
516.847370
 21
295.345297
  0
LINE
  8
OBRYS
 10
526.260532
 20
257.024295
 11
521.399323
 21
257.024295
  0
ARC
  8
OBRYS
 10
519.847370
 20
244.485230
 40
5.000000
 50
152.775520
 51
180.000000
  0
LINE
  8
OBRYS
 10
515.401265
 20
246.772620
 11
526.293475
 21
267.944313
  0
ARC
  8
OBRYS
 10
521.847370
 20
270.231703
 40
5.000000
 50
332.775520
 51
360.000000
  0
ARC
  8
OBRYS
 10
516.847370
 20
238.097435
 40
2.000000
 50
180.000000
 51
268.000002
  0
LINE
  8
OBRYS
 62
     4
  6
HIDDEN2
 10
530.347370
 20
225.444966
 11
530.347370
 21
235.624786
  0
LINE
  8
OBRYS
 62
     4
  6
HIDDEN2
 10
521.347370
 20
225.444966
 11
521.347370
 21
235.939072
  0
ARC
  8
OBRYS
 10
523.847370
 20
360.524266
 40
3.000000
 50
0.000000
 51
28.890129
  0
LINE
  8
OBRYS
 10
518.196864
 20
366.444966
 11
518.276749
 21
366.444966
  0
LINE
  8
OBRYS
 62
     7
  6
DASHDOT
 10
525.847370
 20
225.444966
 11
525.847370
 21
235.781930
  0
LINE
  8
OBRYS
 10
526.847370
 20
340.444966
 11
526.847370
 21
310.444966
  0
LINE
  8
OBRYS
 10
526.847370
 20
280.444966
 11
526.847370
 21
310.444966
  0
LINE
  8
OBRYS
 10
526.474014
 20
361.973661
 11
524.862357
 21
364.894361
  0
ARC
  8
OBRYS
 10
522.235714
 20
363.444966
 40
3.000000
 50
28.890129
 51
90.000000
  0
LINE
  8
OBRYS
 10
510.847370
 20
225.444966
 11
510.847370
 21
289.345297
  0
LINE
  8
OBRYS
 10
534.847370
 20
225.444966
 11
510.847370
 21
225.444966
  0
LINE
  8
OBRYS
 10
534.847370
 20
225.444966
 11
534.847370
 21
235.444966
  0
LINE
  8
OBRYS
 10
527.043319
 20
253.841543
 11
534.847370
 21
235.444966
  0
LINE
  8
OBRYS
 10
526.847370
 20
254.704908
 11
526.847370
 21
280.444966
  0
ARC
  8
OBRYS
 10
528.847370
 20
254.704908
 40
2.000000
 50
180.000000
 51
205.574382
  0
LINE
  8
OBRYS
 10
526.847370
 20
254.704905
 11
526.847370
 21
260.365666
  0
LINE
  8
OBRYS
 10
526.847370
 20
360.524266
 11
526.847370
 21
340.444966
  0
LINE
  8
OBRYS
 62
     7
  6
DASHDOT
 10
529.156308
 20
310.444966
 11
512.327370
 21
310.444966
  0
LINE
  8
OBRYS
 10
534.847370
 20
235.432722
 11
516.777571
 21
236.098653
  0
LINE
  8
OBRYS
 10
522.235714
 20
366.444966
 11
516.847370
 21
366.444966
  0
LINE
  8
OBRYS
 10
520.804906
 20
357.900518
 11
520.707604
 21
358.385945
  0
LINE
  8
OBRYS
 10
520.707604
 20
358.385945
 11
520.619009
 21
358.815556
  0
LINE
  8
OBRYS
 10
520.619009
 20
358.815556
 11
519.968691
 21
359.754329
  0
LINE
  8
OBRYS
 10
519.968691
 20
359.754329
 11
518.995421
 21
360.381598
  0
LINE
  8
OBRYS
 10
518.995421
 20
360.381598
 11
517.847370
 21
360.601865
  0
LINE
  8
OBRYS
 10
517.847370
 20
360.601865
 11
516.847370
 21
360.601865
  0
LINE
  8
OBRYS
 10
516.847370
 20
360.601865
 11
516.847370
 21
362.700333
  0
LINE
  8
OBRYS
 10
516.847370
 20
362.700333
 11
516.847370
 21
363.096852
  0
LINE
  8
OBRYS
 10
516.847370
 20
363.096852
 11
516.847370
 21
363.497498
  0
LINE
  8
OBRYS
 10
516.847370
 20
363.497498
 11
516.847370
 21
363.886156
  0
LINE
  8
OBRYS
 10
516.847370
 20
363.886156
 11
516.847370
 21
366.444966
  0
LINE
  8
OBRYS
 10
516.847370
 20
364.247192
 11
516.847370
 21
364.566081
  0
LINE
  8
OBRYS
 10
516.847370
 20
364.566081
 11
516.847370
 21
364.829997
  0
LINE
  8
OBRYS
 10
516.847370
 20
364.829997
 11
516.847370
 21
364.838208
  0
LINE
  8
OBRYS
 10
516.847370
 20
364.838208
 11
521.664643
 21
364.838208
  0
LINE
  8
OBRYS
 10
521.664643
 20
364.838208
 11
521.685151
 21
364.829997
  0
LINE
  8
OBRYS
 10
521.685151
 20
364.829997
 11
522.607237
 21
364.566081
  0
LINE
  8
OBRYS
 10
522.607237
 20
364.566081
 11
522.708884
 21
364.541369
  0
LINE
  8
OBRYS
 10
522.708884
 20
364.541369
 11
523.077137
 21
364.247192
  0
LINE
  8
OBRYS
 10
523.077137
 20
364.247192
 11
523.578835
 21
363.886156
  0
LINE
  8
OBRYS
 10
523.578835
 20
363.886156
 11
523.622522
 21
363.857083
  0
LINE
  8
OBRYS
 10
523.622522
 20
363.857083
 11
523.881522
 21
363.497498
  0
LINE
  8
OBRYS
 10
523.881522
 20
363.497498
 11
524.189663
 21
363.096852
  0
LINE
  8
OBRYS
 10
524.189663
 20
363.096852
 11
524.291286
 21
362.972464
  0
LINE
  8
OBRYS
 10
524.291286
 20
362.972464
 11
524.442378
 21
362.700333
  0
LINE
  8
OBRYS
 10
524.442378
 20
362.700333
 11
526.474014
 21
359.149032
  0
LINE
  8
OBRYS
 10
526.474014
 20
359.149032
 11
526.677804
 21
358.385945
  0
LINE
  8
OBRYS
 10
526.677804
 20
358.385945
 11
526.847370
 21
357.732715
  0
ENDBLK
  8
OBRYS
  0
BLOCK
  8
OSA
  2
Sroub_M10x16_8
 70
   66
 10
477.847370
 20
310.444966
  0
LINE
  8
OSA
 62
     2
  6
CONTINUOUS
 10
480.156786
 20
314.444966
 11
475.537955
 21
314.444966
  0
LINE
  8
OSA
 62
     2
  6
CONTINUOUS
 10
475.537955
 20
314.444966
 11
473.228539
 21
310.444966
  0
LINE
  8
OSA
 62
     2
  6
CONTINUOUS
 10
473.228539
 20
310.444966
 11
475.537955
 21
306.444966
  0
LINE
  8
OSA
 62
     2
  6
CONTINUOUS
 10
475.537955
 20
306.444966
 11
480.156786
 21
306.444966
  0
LINE
  8
OSA
 62
     2
  6
CONTINUOUS
 10
480.156786
 20
306.444966
 11
482.466201
 21
310.444966
  0
LINE
  8
OSA
 62
     2
  6
CONTINUOUS
 10
482.466201
 20
310.444966
 11
480.156786
 21
314.444966
  0
CIRCLE
  8
OSA
 62
     2
  6
CONTINUOUS
 10
477.847370
 20
310.444966
 40
4.618831
  0
CIRCLE
  8
OSA
 62
     2
  6
CONTINUOUS
 10
477.847370
 20
310.444966
 40
8.000000
  0
ENDBLK
  8
OSA
  0
BLOCK
  8
OBRYS
  2
_9
 70
   64
 10
428.847370
 20
310.444966
  0
LINE
  8
OBRYS
 10
429.220727
 20
312.444966
 11
434.030098
 21
312.444966
  0
LINE
  8
OBRYS
 10
429.220727
 20
308.444966
 11
433.815714
 21
308.444966
  0
ARC
  8
OBRYS
 10
435.847370
 20
258.121538
 40
5.000000
 50
0.000000
 51
37.967408
  0
LINE
  8
OBRYS
 10
431.403454
 20
271.943430
 11
439.789174
 21
261.197604
  0
ARC
  8
OBRYS
 10
435.847370
 20
257.389743
 40
5.000000
 50
0.000000
 51
37.967408
  0
LINE
  8
OBRYS
 10
439.789174
 20
260.465808
 11
429.220727
 21
274.008676
  0
ARC
  8
OBRYS
 10
435.847370
 20
254.020962
 40
5.000000
 50
0.000000
 51
36.172355
  0
LINE
  8
OBRYS
 10
439.883596
 20
256.972044
 11
429.220727
 21
271.555766
  0
LINE
  8
OBRYS
 10
429.220727
 20
274.740472
 11
431.403454
 21
271.943430
  0
LINE
  8
OBRYS
 10
428.847370
 20
275.765348
 11
429.220727
 21
274.740472
  0
LINE
  8
OBRYS
 10
440.847370
 20
238.097436
 11
440.847370
 21
269.598008
  0
LINE
  8
OBRYS
 10
436.233794
 20
287.249006
 11
440.847370
 21
269.598008
  0
LINE
  8
OBRYS
 10
434.293174
 20
299.305873
 11
436.233794
 21
287.249006
  0
LINE
  8
OBRYS
 10
433.687786
 20
310.444966
 11
434.293174
 21
299.305873
  0
LINE
  8
OBRYS
 10
429.220727
 20
274.008676
 11
428.847370
 21
275.033553
  0
LINE
  8
OBRYS
 10
428.847370
 20
272.649638
 11
429.220727
 21
271.555766
  0
LINE
  8
OBRYS
 10
429.220727
 20
306.850506
 11
429.220727
 21
310.444966
  0
LINE
  8
OBRYS
 10
428.847370
 20
298.202764
 11
428.847370
 21
298.310794
  0
POLYLINE
  8
OBRYS
 66
    1
  0
VERTEX
  8
OBRYS
 10
430.777924
 20
284.310791
  0
VERTEX
  8
OBRYS
 10
430.075043
 20
284.445251
  0
VERTEX
  8
OBRYS
 10
429.328705
 20
284.843628
  0
VERTEX
  8
OBRYS
 10
429.220795
 20
284.935425
  0
VERTEX
  8
OBRYS
 10
428.915985
 20
285.490479
  0
VERTEX
  8
OBRYS
 10
428.847504
 20
285.661804
  0
VERTEX
  8
OBRYS
 10
428.847504
 20
286.361023
  0
VERTEX
  8
OBRYS
 10
428.847504
 20
287.421753
  0
VERTEX
  8
OBRYS
 10
428.847504
 20
288.631958
  0
VERTEX
  8
OBRYS
 10
428.847504
 20
289.945129
  0
VERTEX
  8
OBRYS
 10
428.847504
 20
291.310791
  0
VERTEX
  8
OBRYS
 10
428.847504
 20
292.676392
  0
VERTEX
  8
OBRYS
 10
428.847504
 20
293.989563
  0
VERTEX
  8
OBRYS
 10
428.847504
 20
295.199768
  0
VERTEX
  8
OBRYS
 10
428.847504
 20
296.260498
  0
VERTEX
  8
OBRYS
 10
428.847504
 20
297.131042
  0
VERTEX
  8
OBRYS
 10
428.847504
 20
297.777893
  0
VERTEX
  8
OBRYS
 10
428.847504
 20
298.176270
  0
VERTEX
  8
OBRYS
 10
428.847504
 20
298.310791
  0
SEQEND
  8
OBRYS
  0
LINE
  8
OBRYS
 10
431.410543
 20
295.199786
 11
431.403454
 21
295.211670
  0
ARC
  8
OBRYS
 10
419.222393
 20
289.159029
 40
13.607558
 50
3.222383
 51
26.622441
  0
POLYLINE
  8
OBRYS
 66
    1
  0
VERTEX
  8
OBRYS
 10
431.403534
 20
284.443787
  0
VERTEX
  8
OBRYS
 10
431.410614
 20
284.445251
  0
VERTEX
  8
OBRYS
 10
431.948578
 20
284.843628
  0
VERTEX
  8
OBRYS
 10
432.371307
 20
285.490479
  0
VERTEX
  8
OBRYS
 10
432.662567
 20
286.361023
  0
VERTEX
  8
OBRYS
 10
432.811005
 20
287.421753
  0
VERTEX
  8
OBRYS
 10
432.811005
 20
288.631958
  0
VERTEX
  8
OBRYS
 10
432.811005
 20
289.945129
  0
SEQEND
  8
OBRYS
  0
LINE
  8
OBRYS
 10
429.220727
 20
272.505069
 11
429.220727
 21
268.078375
  0
LINE
  8
OBRYS
 10
429.220727
 20
274.740472
 11
429.220727
 21
284.935427
  0
LINE
  8
OBRYS
 10
429.220727
 20
297.834474
 11
429.220727
 21
306.938248
  0
LINE
  8
OBRYS
 10
430.777900
 20
284.310794
 11
431.403454
 21
284.443790
  0
POLYLINE
  8
OBRYS
 66
    1
  0
VERTEX
  8
OBRYS
 10
431.403534
 20
295.211609
  0
VERTEX
  8
OBRYS
 10
430.777924
 20
296.260498
  0
VERTEX
  8
OBRYS
 10
430.075043
 20
297.131042
  0
VERTEX
  8
OBRYS
 10
429.328705
 20
297.777893
  0
VERTEX
  8
OBRYS
 10
429.220795
 20
297.834473
  0
VERTEX
  8
OBRYS
 10
428.915985
 20
298.176270
  0
VERTEX
  8
OBRYS
 10
428.847504
 20
298.202759
  0
SEQEND
  8
OBRYS
  0
LINE
  8
OBRYS
 10
438.847370
 20
323.000676
 11
438.847370
 21
310.326023
  0
LINE
  8
OBRYS
 10
428.847370
 20
342.444966
 11
428.847370
 21
353.444966
  0
LINE
  8
OBRYS
 10
429.220727
 20
344.250831
 11
428.847370
 21
343.299943
  0
POLYLINE
  8
OBRYS
 66
    1
  0
VERTEX
  8
OBRYS
 10
433.459076
 20
347.184235
  0
VERTEX
  8
OBRYS
 10
432.414886
 20
347.061127
  0
VERTEX
  8
OBRYS
 10
431.501190
 20
346.707306
  0
VERTEX
  8
OBRYS
 10
430.832489
 20
346.166901
  0
SEQEND
  8
OBRYS
  0
POLYLINE
  8
OBRYS
 66
    1
  0
VERTEX
  8
OBRYS
 10
432.528412
 20
346.723053
  0
VERTEX
  8
OBRYS
 10
432.705658
 20
346.866241
  0
VERTEX
  8
OBRYS
 10
433.314789
 20
347.102142
  0
VERTEX
  8
OBRYS
 10
434.010956
 20
347.184235
  0
SEQEND
  8
OBRYS
  0
POLYLINE
  8
OBRYS
 66
    1
  0
VERTEX
  8
OBRYS
 10
428.847504
 20
342.478851
  0
VERTEX
  8
OBRYS
 10
429.220795
 20
343.425568
  0
VERTEX
  8
OBRYS
 10
431.403534
 20
346.009186
  0
VERTEX
  8
OBRYS
 10
432.072235
 20
346.547211
  0
VERTEX
  8
OBRYS
 10
432.528412
 20
346.723053
  0
SEQEND
  8
OBRYS
  0
LINE
  8
OBRYS
 10
428.847370
 20
343.299943
 11
428.847370
 21
345.856379
  0
LINE
  8
OBRYS
 10
433.459027
 20
347.184271
 11
433.459027
 21
350.042946
  0
LINE
  8
OBRYS
 10
434.010832
 20
350.042946
 11
434.010832
 21
347.184271
  0
LINE
  8
OBRYS
 10
430.832383
 20
346.166983
 11
430.832383
 21
348.946502
  0
LINE
  8
OBRYS
 10
428.847370
 20
345.856379
 11
429.220727
 21
346.881255
  0
POLYLINE
  8
OBRYS
 66
    1
  0
VERTEX
  8
OBRYS
 10
430.832489
 20
348.946442
  0
VERTEX
  8
OBRYS
 10
431.501190
 20
349.528839
  0
VERTEX
  8
OBRYS
 10
432.414886
 20
349.910248
  0
VERTEX
  8
OBRYS
 10
433.459076
 20
350.042877
  0
SEQEND
  8
OBRYS
  0
LINE
  8
OBRYS
 10
429.220727
 20
344.250831
 11
429.220727
 21
346.881255
  0
POLYLINE
  8
OBRYS
 66
    1
  0
VERTEX
  8
OBRYS
 10
428.847504
 20
359.153839
  0
VERTEX
  8
OBRYS
 10
429.220795
 20
360.593292
  0
VERTEX
  8
OBRYS
 10
431.403534
 20
364.521881
  0
VERTEX
  8
OBRYS
 10
432.072235
 20
365.339874
  0
VERTEX
  8
OBRYS
 10
432.528412
 20
365.607330
  0
SEQEND
  8
OBRYS
  0
LINE
  8
OBRYS
 10
428.847370
 20
322.592382
 11
428.847370
 21
322.697314
  0
LINE
  8
OBRYS
 10
428.847370
 20
352.546172
 11
428.847370
 21
349.663670
  0
LINE
  8
OBRYS
 10
438.847370
 20
355.051863
 11
438.847370
 21
357.900518
  0
LINE
  8
OBRYS
 10
428.847370
 20
357.732715
 11
428.847370
 21
349.663670
  0
POLYLINE
  8
OBRYS
 66
    1
  0
VERTEX
  8
OBRYS
 10
433.087616
 20
357.900482
  0
VERTEX
  8
OBRYS
 10
434.009613
 20
357.873444
  0
VERTEX
  8
OBRYS
 10
434.030121
 20
357.869049
  0
VERTEX
  8
OBRYS
 10
438.847534
 20
357.869049
  0
VERTEX
  8
OBRYS
 10
438.847534
 20
357.873444
  0
VERTEX
  8
OBRYS
 10
438.847534
 20
357.900482
  0
SEQEND
  8
OBRYS
  0
POLYLINE
  8
OBRYS
 66
    1
  0
VERTEX
  8
OBRYS
 10
431.505096
 20
323.973175
  0
VERTEX
  8
OBRYS
 10
431.813324
 20
323.953461
  0
VERTEX
  8
OBRYS
 10
432.072235
 20
323.861664
  0
VERTEX
  8
OBRYS
 10
432.115936
 20
323.854218
  0
VERTEX
  8
OBRYS
 10
432.617645
 20
323.679413
  0
VERTEX
  8
OBRYS
 10
432.985931
 20
323.454926
  0
VERTEX
  8
OBRYS
 10
433.087616
 20
323.436066
  0
VERTEX
  8
OBRYS
 10
434.009613
 20
323.134003
  0
VERTEX
  8
OBRYS
 10
434.030121
 20
323.119537
  0
VERTEX
  8
OBRYS
 10
438.847534
 20
323.119537
  0
VERTEX
  8
OBRYS
 10
438.847534
 20
323.134003
  0
VERTEX
  8
OBRYS
 10
438.847534
 20
323.436066
  0
VERTEX
  8
OBRYS
 10
438.847534
 20
323.679413
  0
VERTEX
  8
OBRYS
 10
438.847534
 20
323.854218
  0
VERTEX
  8
OBRYS
 10
438.847534
 20
323.953461
  0
VERTEX
  8
OBRYS
 10
438.847534
 20
323.973175
  0
SEQEND
  8
OBRYS
  0
POLYLINE
  8
OBRYS
 66
    1
  0
VERTEX
  8
OBRYS
 10
434.847504
 20
323.973175
  0
VERTEX
  8
OBRYS
 10
434.847504
 20
324.231110
  0
VERTEX
  8
OBRYS
 10
434.847504
 20
325.184235
  0
VERTEX
  8
OBRYS
 10
434.847504
 20
326.296722
  0
VERTEX
  8
OBRYS
 10
434.847504
 20
327.528229
  0
VERTEX
  8
OBRYS
 10
434.847504
 20
328.834076
  0
VERTEX
  8
OBRYS
 10
434.847504
 20
330.166962
  0
VERTEX
  8
OBRYS
 10
434.847504
 20
331.478485
  0
VERTEX
  8
OBRYS
 10
434.847504
 20
332.721161
  0
VERTEX
  8
OBRYS
 10
434.847504
 20
333.849945
  0
VERTEX
  8
OBRYS
 10
434.847504
 20
334.823822
  0
VERTEX
  8
OBRYS
 10
434.847504
 20
335.192474
  0
VERTEX
  8
OBRYS
 10
434.987152
 20
335.607513
  0
VERTEX
  8
OBRYS
 10
435.075775
 20
335.832977
  0
VERTEX
  8
OBRYS
 10
435.726166
 20
336.325714
  0
VERTEX
  8
OBRYS
 10
436.699463
 20
336.654938
  0
VERTEX
  8
OBRYS
 10
437.847534
 20
336.770599
  0
VERTEX
  8
OBRYS
 10
438.847534
 20
336.770599
  0
VERTEX
  8
OBRYS
 10
438.847534
 20
337.871979
  0
VERTEX
  8
OBRYS
 10
438.847534
 20
338.109467
  0
VERTEX
  8
OBRYS
 10
438.847534
 20
338.406708
  0
VERTEX
  8
OBRYS
 10
438.847534
 20
338.751740
  0
VERTEX
  8
OBRYS
 10
438.847534
 20
339.130585
  0
VERTEX
  8
OBRYS
 10
438.847534
 20
339.528168
  0
VERTEX
  8
OBRYS
 10
438.847534
 20
339.928375
  0
VERTEX
  8
OBRYS
 10
438.847534
 20
339.944427
  0
VERTEX
  8
OBRYS
 10
434.030121
 20
339.944427
  0
VERTEX
  8
OBRYS
 10
434.009613
 20
339.928375
  0
VERTEX
  8
OBRYS
 10
433.087616
 20
339.528168
  0
VERTEX
  8
OBRYS
 10
432.985931
 20
339.497345
  0
VERTEX
  8
OBRYS
 10
432.617645
 20
339.130585
  0
VERTEX
  8
OBRYS
 10
432.115936
 20
338.751740
  0
VERTEX
  8
OBRYS
 10
432.072235
 20
338.725922
  0
VERTEX
  8
OBRYS
 10
431.813324
 20
338.406708
  0
VERTEX
  8
OBRYS
 10
431.505096
 20
338.109467
  0
VERTEX
  8
OBRYS
 10
431.403534
 20
338.035004
  0
VERTEX
  8
OBRYS
 10
431.252411
 20
337.871979
  0
VERTEX
  8
OBRYS
 10
429.220795
 20
336.008026
  0
VERTEX
  8
OBRYS
 10
429.017059
 20
335.607513
  0
VERTEX
  8
OBRYS
 10
428.847504
 20
335.218658
  0
SEQEND
  8
OBRYS
  0
LINE
  8
OBRYS
 10
434.847370
 20
323.973230
 11
434.847370
 21
335.192517
  0
POLYLINE
  8
OBRYS
 66
    1
  0
VERTEX
  8
OBRYS
 10
438.847534
 20
360.601776
  0
VERTEX
  8
OBRYS
 10
437.847534
 20
360.601776
  0
VERTEX
  8
OBRYS
 10
436.699463
 20
360.381561
  0
VERTEX
  8
OBRYS
 10
435.726166
 20
359.754242
  0
VERTEX
  8
OBRYS
 10
435.075775
 20
358.815521
  0
VERTEX
  8
OBRYS
 10
434.987152
 20
358.385895
  0
VERTEX
  8
OBRYS
 10
434.889862
 20
357.900482
  0
SEQEND
  8
OBRYS
  0
POLYLINE
  8
OBRYS
 66
    1
  0
VERTEX
  8
OBRYS
 10
434.847504
 20
335.192474
  0
VERTEX
  8
OBRYS
 10
434.987152
 20
335.607513
  0
VERTEX
  8
OBRYS
 10
435.075775
 20
335.832977
  0
VERTEX
  8
OBRYS
 10
435.726166
 20
336.325714
  0
VERTEX
  8
OBRYS
 10
436.699463
 20
336.654938
  0
VERTEX
  8
OBRYS
 10
437.847534
 20
336.770599
  0
VERTEX
  8
OBRYS
 10
438.847534
 20
336.770599
  0
SEQEND
  8
OBRYS
  0
LINE
  8
OBRYS
 10
438.847370
 20
355.051863
 11
438.847370
 21
336.770636
  0
LINE
  8
OBRYS
 10
434.030098
 20
310.444966
 11
434.030098
 21
323.119619
  0
LINE
  8
OBRYS
 10
434.030098
 20
339.944463
 11
434.030098
 21
357.869129
  0
LINE
  8
OBRYS
 10
434.030098
 20
364.838208
 11
434.030098
 21
366.444966
  0
LINE
  8
OBRYS
 10
438.847370
 20
357.869129
 11
438.847370
 21
339.944463
  0
LINE
  8
OBRYS
 10
431.403454
 20
362.972464
 11
431.403454
 21
364.521922
  0
LINE
  8
OBRYS
 10
429.220727
 20
310.444966
 11
429.220727
 21
322.997311
  0
LINE
  8
OBRYS
 10
429.220727
 20
336.008092
 11
429.220727
 21
343.425615
  0
LINE
  8
OBRYS
 10
429.220727
 20
346.149460
 11
429.220727
 21
353.759790
  0
LINE
  8
OBRYS
 10
429.220727
 20
359.149032
 11
429.220727
 21
360.593364
  0
POLYLINE
  8
OBRYS
 66
    1
  0
VERTEX
  8
OBRYS
 10
428.847504
 20
322.697235
  0
VERTEX
  8
OBRYS
 10
429.017059
 20
322.800568
  0
VERTEX
  8
OBRYS
 10
429.220795
 20
322.997223
  0
VERTEX
  8
OBRYS
 10
431.252411
 20
323.912506
  0
VERTEX
  8
OBRYS
 10
431.403534
 20
323.954132
  0
VERTEX
  8
OBRYS
 10
431.505096
 20
323.973175
  0
SEQEND
  8
OBRYS
  0
ARC
  8
OBRYS
 10
433.257605
 20
354.387157
 40
3.518602
 50
92.568501
 51
109.763959
  0
POLYLINE
  8
OBRYS
 66
    1
  0
VERTEX
  8
OBRYS
 10
428.847504
 20
352.546112
  0
VERTEX
  8
OBRYS
 10
429.017059
 20
353.081085
  0
VERTEX
  8
OBRYS
 10
429.220795
 20
353.759735
  0
VERTEX
  8
OBRYS
 10
431.252411
 20
356.918060
  0
VERTEX
  8
OBRYS
 10
431.403534
 20
357.139923
  0
VERTEX
  8
OBRYS
 10
431.505096
 20
357.241364
  0
VERTEX
  8
OBRYS
 10
431.813324
 20
357.510712
  0
VERTEX
  8
OBRYS
 10
432.072235
 20
357.700043
  0
SEQEND
  8
OBRYS
  0
LINE
  8
OBRYS
 10
428.847370
 20
335.218735
 11
428.847370
 21
342.478924
  0
LINE
  8
OBRYS
 10
428.847370
 20
345.124583
 11
428.847370
 21
352.546172
  0
LINE
  8
OBRYS
 10
428.847370
 20
357.732715
 11
428.847370
 21
359.153884
  0
LINE
  8
OBRYS
 10
428.847370
 20
348.240293
 11
428.847370
 21
347.295820
  0
LINE
  8
OBRYS
 10
428.847370
 20
343.299943
 11
428.847370
 21
342.478924
  0
LINE
  8
OBRYS
 10
430.832383
 20
346.166983
 11
429.220727
 21
344.250831
  0
LINE
  8
OBRYS
 10
434.010832
 20
347.184271
 11
433.459027
 21
347.184271
  0
LINE
  8
OBRYS
 10
433.459027
 20
350.042946
 11
434.010832
 21
350.042946
  0
LINE
  8
OBRYS
 10
429.220727
 20
346.881255
 11
430.832383
 21
348.946502
  0
LINE
  8
OBRYS
 10
434.847370
 20
323.973230
 11
438.847370
 21
323.973230
  0
LINE
  8
OBRYS
 10
438.847370
 20
357.900518
 11
434.889834
 21
357.900518
  0
LINE
  8
OBRYS
 10
438.847370
 20
357.900518
 11
433.087503
 21
357.900518
  0
LINE
  8
OBRYS
 10
431.252362
 20
362.700333
 11
438.847370
 21
362.700333
  0
LINE
  8
OBRYS
 10
429.016936
 20
358.385945
 11
434.987136
 21
358.385945
  0
LINE
  8
OBRYS
 10
438.847370
 20
323.973230
 11
431.505077
 21
323.973230
  0
LINE
  8
OBRYS
 10
431.252362
 20
337.872051
 11
438.847370
 21
337.872051
  0
LINE
  8
OBRYS
 10
429.016936
 20
335.607574
 11
434.987136
 21
335.607574
  0
ARC
  8
OBRYS
 10
438.847370
 20
289.345297
 40
6.000000
 50
0.000000
 51
90.000000
  0
LINE
  8
OBRYS
 10
438.847370
 20
310.444966
 11
438.847370
 21
295.345297
  0
LINE
  8
OBRYS
 10
429.434209
 20
257.024295
 11
434.295418
 21
257.024295
  0
ARC
  8
OBRYS
 10
435.847370
 20
244.485230
 40
5.000000
 50
0.000000
 51
27.224480
  0
LINE
  8
OBRYS
 10
440.293475
 20
246.772620
 11
429.401265
 21
267.944313
  0
ARC
  8
OBRYS
 10
433.847370
 20
270.231703
 40
5.000000
 50
180.000000
 51
207.224480
  0
ARC
  8
OBRYS
 10
438.847370
 20
238.097435
 40
2.000000
 50
271.999998
 51
360.000000
  0
LINE
  8
OBRYS
 62
     4
  6
HIDDEN2
 10
425.347370
 20
225.444966
 11
425.347370
 21
235.624786
  0
LINE
  8
OBRYS
 62
     4
  6
HIDDEN2
 10
434.347370
 20
225.444966
 11
434.347370
 21
235.939072
  0
ARC
  8
OBRYS
 10
431.847370
 20
360.524266
 40
3.000000
 50
151.109871
 51
180.000000
  0
LINE
  8
OBRYS
 10
437.497876
 20
366.444966
 11
437.417992
 21
366.444966
  0
LINE
  8
OBRYS
 62
     7
  6
DASHDOT
 10
429.847370
 20
225.444966
 11
429.847370
 21
235.781930
  0
LINE
  8
OBRYS
 10
428.847370
 20
340.444966
 11
428.847370
 21
310.444966
  0
LINE
  8
OBRYS
 10
428.847370
 20
280.444966
 11
428.847370
 21
310.444966
  0
LINE
  8
OBRYS
 10
429.220727
 20
361.973661
 11
430.832383
 21
364.894361
  0
ARC
  8
OBRYS
 10
433.459027
 20
363.444966
 40
3.000000
 50
90.000000
 51
151.109871
  0
LINE
  8
OBRYS
 10
444.847370
 20
225.444966
 11
444.847370
 21
289.345297
  0
LINE
  8
OBRYS
 10
420.847370
 20
225.444966
 11
444.847370
 21
225.444966
  0
LINE
  8
OBRYS
 10
420.847370
 20
225.444966
 11
420.847370
 21
235.444966
  0
LINE
  8
OBRYS
 10
428.651421
 20
253.841543
 11
420.847370
 21
235.444966
  0
LINE
  8
OBRYS
 10
428.847370
 20
254.704908
 11
428.847370
 21
280.444966
  0
ARC
  8
OBRYS
 10
426.847370
 20
254.704908
 40
2.000000
 50
334.425618
 51
360.000000
  0
LINE
  8
OBRYS
 10
428.847370
 20
254.704905
 11
428.847370
 21
260.365666
  0
LINE
  8
OBRYS
 10
428.847370
 20
360.524266
 11
428.847370
 21
340.444966
  0
LINE
  8
OBRYS
 62
     7
  6
DASHDOT
 10
426.538432
 20
310.444966
 11
443.367370
 21
310.444966
  0
LINE
  8
OBRYS
 10
420.847370
 20
235.432722
 11
438.917169
 21
236.098653
  0
LINE
  8
OBRYS
 10
433.459027
 20
366.444966
 11
438.847370
 21
366.444966
  0
LINE
  8
OBRYS
 10
434.889834
 20
357.900518
 11
434.987136
 21
358.385945
  0
LINE
  8
OBRYS
 10
434.987136
 20
358.385945
 11
435.075732
 21
358.815556
  0
LINE
  8
OBRYS
 10
435.075732
 20
358.815556
 11
435.726050
 21
359.754329
  0
LINE
  8
OBRYS
 10
435.726050
 20
359.754329
 11
436.699320
 21
360.381598
  0
LINE
  8
OBRYS
 10
436.699320
 20
360.381598
 11
437.847370
 21
360.601865
  0
LINE
  8
OBRYS
 10
437.847370
 20
360.601865
 11
438.847370
 21
360.601865
  0
LINE
  8
OBRYS
 10
438.847370
 20
360.601865
 11
438.847370
 21
362.700333
  0
LINE
  8
OBRYS
 10
438.847370
 20
362.700333
 11
438.847370
 21
363.096852
  0
LINE
  8
OBRYS
 10
438.847370
 20
363.096852
 11
438.847370
 21
363.497498
  0
LINE
  8
OBRYS
 10
438.847370
 20
363.497498
 11
438.847370
 21
363.886156
  0
LINE
  8
OBRYS
 10
438.847370
 20
363.886156
 11
438.847370
 21
366.444966
  0
LINE
  8
OBRYS
 10
438.847370
 20
364.247192
 11
438.847370
 21
364.566081
  0
LINE
  8
OBRYS
 10
438.847370
 20
364.566081
 11
438.847370
 21
364.829997
  0
LINE
  8
OBRYS
 10
438.847370
 20
364.829997
 11
438.847370
 21
364.838208
  0
LINE
  8
OBRYS
 10
438.847370
 20
364.838208
 11
434.030098
 21
364.838208
  0
LINE
  8
OBRYS
 10
434.030098
 20
364.838208
 11
434.009589
 21
364.829997
  0
LINE
  8
OBRYS
 10
434.009589
 20
364.829997
 11
433.087503
 21
364.566081
  0
LINE
  8
OBRYS
 10
433.087503
 20
364.566081
 11
432.985856
 21
364.541369
  0
LINE
  8
OBRYS
 10
432.985856
 20
364.541369
 11
432.617603
 21
364.247192
  0
LINE
  8
OBRYS
 10
432.617603
 20
364.247192
 11
432.115906
 21
363.886156
  0
LINE
  8
OBRYS
 10
432.115906
 20
363.886156
 11
432.072219
 21
363.857083
  0
LINE
  8
OBRYS
 10
432.072219
 20
363.857083
 11
431.813219
 21
363.497498
  0
LINE
  8
OBRYS
 10
431.813219
 20
363.497498
 11
431.505077
 21
363.096852
  0
LINE
  8
OBRYS
 10
431.505077
 20
363.096852
 11
431.403454
 21
362.972464
  0
LINE
  8
OBRYS
 10
431.403454
 20
362.972464
 11
431.252362
 21
362.700333
  0
LINE
  8
OBRYS
 10
431.252362
 20
362.700333
 11
429.220727
 21
359.149032
  0
LINE
  8
OBRYS
 10
429.220727
 20
359.149032
 11
429.016936
 21
358.385945
  0
LINE
  8
OBRYS
 10
429.016936
 20
358.385945
 11
428.847370
 21
357.732715
  0
ENDBLK
  8
OBRYS
  0
BLOCK
  8
OBRYS
  2
_10
 70
   64
 10
674.803105
 20
310.444966
  0
INSERT
  8
OBRYS
  2
Srouby_s_valcovou_hlavou___25
 62
     7
 10
280.891636
 20
272.944966
  0
INSERT
  8
OBRYS
  2
Srouby_s_valcovou_hlavou___26
 62
     7
 10
243.391636
 20
310.444966
  0
INSERT
  8
OBRYS
  2
Srouby_s_valcovou_hlavou___27
 62
     7
 10
280.891636
 20
347.944966
  0
INSERT
  8
OBRYS
  2
Srouby_s_valcovou_hlavou___28
 62
     7
 10
318.391636
 20
310.444966
  0
INSERT
  8
OBRYS
  2
Srouby_s_valcovou_hlavou___29
 62
     7
 10
261.757464
 20
356.638942
  0
INSERT
  8
OBRYS
  2
Srouby_s_valcovou_hlavou___30
 62
     7
 10
234.697659
 20
329.579137
  0
INSERT
  8
OBRYS
  2
Srouby_s_valcovou_hlavou___31
 62
     7
 10
234.697659
 20
291.310794
  0
INSERT
  8
OBRYS
  2
Srouby_s_valcovou_hlavou___32
 62
     7
 10
261.757464
 20
264.250989
  0
INSERT
  8
OBRYS
  2
Srouby_s_valcovou_hlavou___33
 62
     7
 10
300.025807
 20
264.250989
  0
INSERT
  8
OBRYS
  2
Srouby_s_valcovou_hlavou___34
 62
     7
 10
327.085613
 20
291.310794
  0
INSERT
  8
OBRYS
  2
Srouby_s_valcovou_hlavou___35
 62
     7
 10
327.085612
 20
329.579138
  0
INSERT
  8
OBRYS
  2
Srouby_s_valcovou_hlavou___36
 62
     7
 10
300.025807
 20
356.638942
  0
ARC
  8
OSA
 62
     2
  6
CONTINUOUS
 10
674.803105
 20
310.444966
 40
56.000000
 50
0.000000
 51
180.000000
  0
ARC
  8
OBRYS
 10
674.803105
 20
310.444966
 40
70.000000
 50
237.972850
 51
247.666152
  0
ARC
  8
OBRYS
 10
674.803105
 20
310.444966
 40
70.000000
 50
216.869898
 51
231.852653
  0
LINE
  8
NEVIDITELNA
 62
     2
  6
CONTINUOUS
 10
626.803105
 20
249.944966
 11
626.803105
 21
235.444966
  0
LINE
  8
NEVIDITELNA
 62
     2
  6
CONTINUOUS
 10
637.803105
 20
249.944966
 11
637.803105
 21
235.444966
  0
ARC
  8
NEVIDITELNA
 62
     2
  6
CONTINUOUS
 10
632.303105
 20
249.944966
 40
5.500000
 50
0.000000
 51
90.000000
  0
ARC
  8
NEVIDITELNA
 62
     2
  6
CONTINUOUS
 10
632.303105
 20
249.944966
 40
5.500000
 50
90.000000
 51
180.000000
  0
ARC
  8
OBRYS
 10
674.803105
 20
310.444966
 40
70.000000
 50
308.147347
 51
323.119740
  0
ARC
  8
OBRYS
 10
674.803105
 20
310.444966
 40
49.817170
 50
308.094654
 51
329.460032
  0
LINE
  8
OBRYS
 10
701.403291
 20
238.555328
 11
701.403291
 21
254.507359
  0
LINE
  8
NEVIDITELNA
 62
     2
  6
CONTINUOUS
 10
696.303105
 20
245.765335
 11
696.303105
 21
225.444966
  0
ARC
  8
OBRYS
 10
674.803105
 20
310.444966
 40
49.817170
 50
263.094654
 51
276.905346
  0
ARC
  8
NEVIDITELNA
 62
     2
  6
CONTINUOUS
 10
686.303105
 20
245.765335
 40
10.000000
 50
0.000000
 51
67.560444
  0
ARC
  8
OBRYS
 10
693.937276
 20
264.250989
 40
10.000000
 50
213.255291
 51
247.560444
  0
ARC
  8
OBRYS
 10
681.393743
 20
256.025432
 40
5.000000
 50
33.255291
 51
96.905346
  0
ARC
  8
OBRYS
 10
708.623240
 20
267.304259
 40
5.000000
 50
128.094654
 51
191.744709
  0
ARC
  8
OBRYS
 10
693.937276
 20
264.250989
 40
10.000000
 50
330.844503
 51
11.744709
  0
ARC
  8
OBRYS
 10
711.403291
 20
254.507359
 40
10.000000
 50
150.844503
 51
180.000000
  0
ARC
  8
OBRYS
 10
693.937276
 20
264.250989
 40
10.000000
 50
265.969643
 51
311.179382
  0
ARC
  8
OBRYS
 10
655.668933
 20
264.250989
 40
10.000000
 50
228.820618
 51
274.030357
  0
ARC
  8
OBRYS
 10
638.202918
 20
254.507359
 40
10.000000
 50
0.000000
 51
29.155497
  0
ARC
  8
OBRYS
 10
655.668933
 20
264.250989
 40
10.000000
 50
168.255291
 51
209.155497
  0
LINE
  8
OBRYS
 10
648.202918
 20
238.555328
 11
648.202918
 21
254.507359
  0
ARC
  8
OBRYS
 10
640.982969
 20
267.304259
 40
5.000000
 50
348.255291
 51
51.905346
  0
ARC
  8
OBRYS
 10
674.803105
 20
310.444966
 40
49.817170
 50
210.539968
 51
231.905346
  0
ARC
  8
OBRYS
 10
668.212466
 20
256.025432
 40
5.000000
 50
83.094654
 51
146.744709
  0
ARC
  8
OBRYS
 10
655.668933
 20
264.250989
 40
10.000000
 50
292.439556
 51
326.744709
  0
ARC
  8
NEVIDITELNA
 62
     2
  6
CONTINUOUS
 10
663.303105
 20
245.765335
 40
10.000000
 50
112.439556
 51
180.000000
  0
LINE
  8
NEVIDITELNA
 62
     2
  6
CONTINUOUS
 10
653.303105
 20
245.765335
 11
653.303105
 21
225.444966
  0
LINE
  8
OBRYS
 10
712.122644
 20
275.953854
 11
723.463159
 21
264.613339
  0
LINE
  8
OBRYS
 10
709.294216
 20
273.125427
 11
720.634731
 21
261.784912
  0
LINE
  8
OBRYS
 10
676.803105
 20
259.667168
 11
676.803105
 21
243.629258
  0
LINE
  8
OBRYS
 10
672.803105
 20
259.667168
 11
672.803105
 21
243.629258
  0
LINE
  8
OBRYS
 10
637.483566
 20
275.953854
 11
626.143051
 21
264.613339
  0
LINE
  8
OBRYS
 10
640.311993
 20
273.125427
 11
628.971478
 21
261.784912
  0
LINE
  8
OBRYS
 10
648.262105
 20
235.444966
 11
652.221105
 21
235.444966
  0
LINE
  8
OBRYS
 10
701.344104
 20
235.444966
 11
697.385104
 21
235.444966
  0
LINE
  8
OSA
 10
674.803105
 20
310.444966
 11
674.803105
 21
223.397897
  0
ARC
  8
NEVIDITELNA
 62
     2
  6
CONTINUOUS
 10
705.303105
 20
239.444966
 40
4.000000
 50
192.850592
 51
270.000000
  0
ARC
  8
OBRYS
 10
674.803105
 20
310.444966
 40
56.000000
 50
167.670398
 51
180.000000
  0
ARC
  8
OBRYS
 10
674.803105
 20
310.444966
 40
56.000000
 50
0.000000
 51
12.329597
  0
LINE
  8
OBRYS
 10
712.122644
 20
344.936078
 11
715.169671
 21
347.983105
  0
LINE
  8
OBRYS
 10
725.580903
 20
308.444966
 11
729.890050
 21
308.444966
  0
LINE
  8
OBRYS
 10
624.025307
 20
312.444966
 11
619.716159
 21
312.444966
  0
LINE
  8
OBRYS
 10
640.311993
 20
347.764505
 11
637.264966
 21
350.811532
  0
LINE
  8
OBRYS
 10
709.294216
 20
347.764505
 11
712.341244
 21
350.811532
  0
LINE
  8
OBRYS
 10
725.580903
 20
312.444966
 11
729.890050
 21
312.444966
  0
LINE
  8
OBRYS
 10
624.025307
 20
308.444966
 11
619.716159
 21
308.444966
  0
LINE
  8
OBRYS
 10
637.483566
 20
344.936078
 11
634.436539
 21
347.983105
  0
LINE
  8
OBRYS
 10
618.803105
 20
233.357721
 11
618.803105
 21
310.444966
  0
LINE
  8
OBRYS
 10
730.795507
 20
233.270807
 11
730.795507
 21
310.444966
  0
LINE
  8
OBRYS
 10
672.803105
 20
361.222764
 11
672.803105
 21
365.531911
  0
LINE
  8
OBRYS
 10
676.803105
 20
361.222764
 11
676.803105
 21
365.531911
  0
ARC
  8
OBRYS
 10
674.803105
 20
310.444966
 40
49.817170
 50
345.539968
 51
14.385574
  0
ARC
  8
OBRYS
 10
674.803105
 20
310.444966
 40
49.817170
 50
165.539968
 51
194.460032
  0
ARC
  8
OBRYS
 10
674.803105
 20
310.444966
 40
49.817170
 50
120.547846
 51
149.460032
  0
ARC
  8
OBRYS
 10
674.803105
 20
310.444966
 40
49.817170
 50
30.547846
 51
59.460032
  0
ARC
  8
OBRYS
 10
674.803105
 20
310.444966
 40
49.817170
 50
75.539968
 51
104.385574
  0
ARC
  8
OBRYS
 10
674.803105
 20
310.444966
 40
56.000000
 50
77.670398
 51
102.329602
  0
ARC
  8
OBRYS
 10
686.334003
 20
363.199476
 40
2.000000
 50
345.547846
 51
77.670398
  0
ARC
  8
OBRYS
 10
703.952600
 20
355.901614
 40
2.000000
 50
57.329602
 51
149.452154
  0
ARC
  8
OBRYS
 10
693.937276
 20
356.638942
 40
7.000000
 50
165.547868
 51
329.452134
  0
LINE
  8
OBRYS
 10
699.965713
 20
353.081141
 11
702.230190
 21
356.918130
  0
LINE
  8
OBRYS
 10
687.103064
 20
358.400270
 11
688.209984
 21
362.715948
  0
LINE
  8
OBRYS
 10
662.503145
 20
358.400270
 11
661.396225
 21
362.715948
  0
LINE
  8
OBRYS
 10
649.640497
 20
353.081141
 11
647.376019
 21
356.918130
  0
ARC
  8
OBRYS
 10
655.668933
 20
356.638942
 40
7.000000
 50
210.547866
 51
14.452132
  0
ARC
  8
OBRYS
 10
645.653609
 20
355.901614
 40
2.000000
 50
30.547846
 51
122.670398
  0
ARC
  8
OBRYS
 10
663.272206
 20
363.199476
 40
2.000000
 50
102.329602
 51
194.452154
  0
LINE
  8
OBRYS
 10
722.758409
 20
322.744926
 11
727.074087
 21
323.851845
  0
LINE
  8
OBRYS
 10
717.439279
 20
335.607574
 11
721.276269
 21
337.872051
  0
ARC
  8
OBRYS
 10
720.997081
 20
329.579137
 40
7.000000
 50
120.547866
 51
284.452132
  0
ARC
  8
OBRYS
 10
720.259753
 20
339.594461
 40
2.000000
 50
300.547846
 51
32.670398
  0
ARC
  8
OBRYS
 10
727.557615
 20
321.975864
 40
2.000000
 50
12.329602
 51
104.452154
  0
ARC
  8
OBRYS
 10
622.048594
 20
321.975864
 40
2.000000
 50
75.547846
 51
167.670398
  0
ARC
  8
OBRYS
 10
629.346456
 20
339.594461
 40
2.000000
 50
147.329602
 51
239.452154
  0
ARC
  8
OBRYS
 10
628.609128
 20
329.579137
 40
7.000000
 50
255.547868
 51
59.452134
  0
LINE
  8
OBRYS
 10
632.166930
 20
335.607574
 11
628.329941
 21
337.872051
  0
LINE
  8
OBRYS
 10
626.847800
 20
322.744926
 11
622.532122
 21
323.851845
  0
CIRCLE
  8
OBRYS
 10
628.609128
 20
291.310794
 40
7.000000
  0
CIRCLE
  8
OBRYS
 10
655.668933
 20
264.250989
 40
7.000000
  0
CIRCLE
  8
OBRYS
 10
693.937276
 20
264.250989
 40
7.000000
  0
CIRCLE
  8
OBRYS
 10
720.997081
 20
291.310794
 40
7.000000
  0
LINE
  8
OBRYS
 10
696.303105
 20
225.444966
 11
696.303105
 21
227.444966
  0
LINE
  8
NEVIDITELNA
 62
     2
  6
CONTINUOUS
 10
696.303105
 20
227.444966
 11
653.303105
 21
227.444966
  0
CIRCLE
  8
OSA
 10
674.803105
 20
310.444966
 40
37.500000
  0
LINE
  8
OSA
 10
717.303105
 20
255.244966
 11
717.303105
 21
225.444966
  0
ARC
  8
NEVIDITELNA
 62
     2
  6
CONTINUOUS
 10
717.303105
 20
249.944966
 40
5.500000
 50
0.000000
 51
90.000000
  0
ARC
  8
NEVIDITELNA
 62
     2
  6
CONTINUOUS
 10
717.303105
 20
249.944966
 40
5.500000
 50
90.000000
 51
180.000000
  0
LINE
  8
NEVIDITELNA
 62
     2
  6
CONTINUOUS
 10
711.803105
 20
249.944966
 11
711.803105
 21
235.444966
  0
LINE
  8
NEVIDITELNA
 62
     2
  6
CONTINUOUS
 10
722.803105
 20
249.944966
 11
722.803105
 21
235.444966
  0
ARC
  8
NEVIDITELNA
 62
     2
  6
CONTINUOUS
 10
644.303105
 20
239.444966
 40
4.000000
 50
270.000000
 51
360.000000
  0
LINE
  8
NEVIDITELNA
 62
     2
  6
CONTINUOUS
 10
653.303105
 20
231.444966
 11
696.303105
 21
231.444966
  0
LINE
  8
OSA
 10
632.303105
 20
255.244966
 11
632.303105
 21
225.444966
  0
LINE
  8
NEVIDITELNA
 62
     2
  6
CONTINUOUS
 10
730.803105
 20
225.444966
 11
696.303105
 21
225.444966
  0
LINE
  8
NEVIDITELNA
 62
     2
  6
CONTINUOUS
 10
728.803105
 20
235.444966
 11
705.303105
 21
235.444966
  0
ARC
  8
NEVIDITELNA
 62
     2
  6
CONTINUOUS
 10
728.803105
 20
233.444966
 40
2.000000
 50
0.000000
 51
90.000000
  0
LINE
  8
NEVIDITELNA
 62
     2
  6
CONTINUOUS
 10
730.803105
 20
233.357721
 11
730.803105
 21
225.444966
  0
LINE
  8
NEVIDITELNA
 62
     2
  6
CONTINUOUS
 10
618.803105
 20
233.357721
 11
618.803105
 21
225.444966
  0
ARC
  8
NEVIDITELNA
 62
     2
  6
CONTINUOUS
 10
620.803105
 20
233.444966
 40
2.000000
 50
90.000000
 51
180.000000
  0
LINE
  8
NEVIDITELNA
 62
     2
  6
CONTINUOUS
 10
620.803105
 20
235.444966
 11
644.303105
 21
235.444966
  0
LINE
  8
NEVIDITELNA
 62
     2
  6
CONTINUOUS
 10
618.803105
 20
225.444966
 11
653.303105
 21
225.444966
  0
LINE
  8
NEVIDITELNA
 10
627.803105
 20
235.444966
 11
627.803105
 21
225.444966
  0
LINE
  8
NEVIDITELNA
 10
636.803105
 20
235.444966
 11
636.803105
 21
225.444966
  0
LINE
  8
NEVIDITELNA
 10
721.803105
 20
235.444966
 11
721.803105
 21
225.444966
  0
LINE
  8
NEVIDITELNA
 10
712.803105
 20
235.444966
 11
712.803105
 21
225.444966
  0
ARC
  8
OBRYS
 10
674.803105
 20
347.944966
 40
5.500000
 50
0.000000
 51
180.000000
  0
ARC
  8
OBRYS
 10
637.303105
 20
310.444966
 40
5.500000
 50
90.000000
 51
270.000000
  0
ARC
  8
OBRYS
 10
712.303105
 20
310.444966
 40
5.500000
 50
270.000000
 51
90.000000
  0
LINE
  8
OBRYS
 10
680.288296
 20
348.348299
 11
680.288296
 21
341.557213
  0
ARC
  8
OBRYS
 10
682.288296
 20
341.557213
 40
2.000000
 50
180.000000
 51
256.472489
  0
LINE
  8
OBRYS
 10
669.317913
 20
348.348299
 11
669.317913
 21
341.557213
  0
ARC
  8
OBRYS
 10
667.317913
 20
341.557213
 40
2.000000
 50
283.527511
 51
360.000000
  0
LINE
  8
OBRYS
 10
712.706438
 20
315.930157
 11
705.915352
 21
315.930157
  0
ARC
  8
OSA
 62
     2
  6
CONTINUOUS
 10
674.803105
 20
310.444966
 40
30.000000
 50
13.527511
 51
76.472489
  0
ARC
  8
OBRYS
 10
705.915352
 20
317.930157
 40
2.000000
 50
193.527511
 51
270.000000
  0
LINE
  8
OBRYS
 10
712.706438
 20
304.959775
 11
705.915352
 21
304.959775
  0
ARC
  8
OBRYS
 10
705.915352
 20
302.959775
 40
2.000000
 50
90.000000
 51
166.472489
  0
LINE
  8
OBRYS
 10
680.288296
 20
272.541633
 11
680.288296
 21
279.332719
  0
ARC
  8
OBRYS
 10
682.288296
 20
279.332719
 40
2.000000
 50
103.527511
 51
180.000000
  0
LINE
  8
OBRYS
 10
669.317913
 20
272.541633
 11
669.317913
 21
279.332719
  0
ARC
  8
OBRYS
 10
667.317913
 20
279.332719
 40
2.000000
 50
0.000000
 51
76.472489
  0
LINE
  8
OBRYS
 10
636.899771
 20
304.959775
 11
643.690858
 21
304.959775
  0
ARC
  8
OSA
 62
     2
  6
CONTINUOUS
 10
674.803105
 20
310.444966
 40
30.000000
 50
193.527511
 51
256.472489
  0
ARC
  8
OBRYS
 10
643.690858
 20
302.959775
 40
2.000000
 50
13.527511
 51
90.000000
  0
LINE
  8
OBRYS
 10
636.899771
 20
315.930157
 11
643.690858
 21
315.930157
  0
ARC
  8
OSA
 62
     2
  6
CONTINUOUS
 10
674.803105
 20
310.444966
 40
30.000000
 50
103.527511
 51
166.472489
  0
ARC
  8
OBRYS
 10
643.690858
 20
317.930157
 40
2.000000
 50
270.000000
 51
346.472489
  0
ARC
  8
OBRYS
 10
674.803105
 20
310.444966
 40
31.000000
 50
259.623734
 51
280.376266
  0
ARC
  8
OBRYS
 10
674.803105
 20
310.444966
 40
31.000000
 50
349.623734
 51
10.376266
  0
ARC
  8
OBRYS
 10
674.803105
 20
310.444966
 40
31.000000
 50
79.623734
 51
100.376266
  0
ARC
  8
OBRYS
 10
674.803105
 20
310.444966
 40
31.000000
 50
169.623734
 51
190.376266
  0
ARC
  8
OSA
 62
     2
  6
CONTINUOUS
 10
674.803105
 20
310.444966
 40
30.000000
 50
283.527511
 51
346.472489
  0
ARC
  8
OBRYS
 10
674.803105
 20
272.944966
 40
5.500000
 50
180.000000
 51
360.000000
  0
ARC
  8
OBRYS
 10
674.803105
 20
310.444966
 40
70.000000
 50
252.112870
 51
287.887130
  0
ARC
  8
OBRYS
 10
674.803105
 20
310.444966
 40
70.000000
 50
292.333848
 51
302.027150
  0
LINE
  8
OSA
 10
674.803105
 20
304.444966
 11
674.803105
 21
251.444966
  0
LINE
  8
OSA
 10
680.803105
 20
310.444966
 11
733.803105
 21
310.444966
  0
LINE
  8
OSA
 10
668.803105
 20
310.444966
 11
615.803105
 21
310.444966
  0
LINE
  8
OSA
 10
674.803105
 20
316.444966
 11
674.803105
 21
374.385567
  0
CIRCLE
  8
OSA
 62
     2
  6
CONTINUOUS
 10
674.803105
 20
310.444966
 40
25.000000
  0
ARC
  8
OBRYS
 10
674.803105
 20
310.444966
 40
12.000000
 50
109.471221
 51
70.528779
  0
LINE
  8
OBRYS
 10
670.803105
 20
321.758674
 11
670.803105
 21
325.344966
  0
LINE
  8
OBRYS
 10
670.803105
 20
325.344966
 11
678.803105
 21
325.344966
  0
LINE
  8
OBRYS
 10
678.803105
 20
325.344966
 11
678.803105
 21
321.758674
  0
CIRCLE
  8
OBRYS
 10
674.803105
 20
310.444966
 40
17.500000
  0
ENDBLK
  8
OBRYS
  0
BLOCK
  8
OBRYS
  2
Srouby_s_valcovou_hlavou___25
 70
   66
 10
280.891636
 20
272.944966
  0
LINE
  8
OBRYS
 10
672.803105
 20
271.790258
 11
672.803105
 21
274.099674
  0
LINE
  8
OBRYS
 10
672.803105
 20
274.099674
 11
674.803105
 21
275.254381
  0
LINE
  8
OBRYS
 10
674.803105
 20
275.254381
 11
676.803105
 21
274.099674
  0
LINE
  8
OBRYS
 10
676.803105
 20
274.099674
 11
676.803105
 21
271.790258
  0
LINE
  8
OBRYS
 10
676.803105
 20
271.790258
 11
674.803105
 21
270.635550
  0
LINE
  8
OBRYS
 10
674.803105
 20
270.635550
 11
672.803105
 21
271.790258
  0
CIRCLE
  8
OBRYS
 10
674.803105
 20
272.944966
 40
2.309415
  0
CIRCLE
  8
OBRYS
 10
674.803105
 20
272.944966
 40
5.000000
  0
ENDBLK
  8
OBRYS
  0
BLOCK
  8
OBRYS
  2
Srouby_s_valcovou_hlavou___26
 70
   66
 10
243.391636
 20
310.444966
  0
LINE
  8
OBRYS
 10
710.303105
 20
309.290258
 11
710.303105
 21
311.599674
  0
LINE
  8
OBRYS
 10
710.303105
 20
311.599674
 11
712.303105
 21
312.754381
  0
LINE
  8
OBRYS
 10
712.303105
 20
312.754381
 11
714.303105
 21
311.599674
  0
LINE
  8
OBRYS
 10
714.303105
 20
311.599674
 11
714.303105
 21
309.290258
  0
LINE
  8
OBRYS
 10
714.303105
 20
309.290258
 11
712.303105
 21
308.135550
  0
LINE
  8
OBRYS
 10
712.303105
 20
308.135550
 11
710.303105
 21
309.290258
  0
CIRCLE
  8
OBRYS
 10
712.303105
 20
310.444966
 40
2.309415
  0
CIRCLE
  8
OBRYS
 10
712.303105
 20
310.444966
 40
5.000000
  0
ENDBLK
  8
OBRYS
  0
BLOCK
  8
OBRYS
  2
Srouby_s_valcovou_hlavou___27
 70
   66
 10
280.891636
 20
347.944966
  0
LINE
  8
OBRYS
 10
672.803105
 20
346.790258
 11
672.803105
 21
349.099674
  0
LINE
  8
OBRYS
 10
672.803105
 20
349.099674
 11
674.803105
 21
350.254381
  0
LINE
  8
OBRYS
 10
674.803105
 20
350.254381
 11
676.803105
 21
349.099674
  0
LINE
  8
OBRYS
 10
676.803105
 20
349.099674
 11
676.803105
 21
346.790258
  0
LINE
  8
OBRYS
 10
676.803105
 20
346.790258
 11
674.803105
 21
345.635550
  0
LINE
  8
OBRYS
 10
674.803105
 20
345.635550
 11
672.803105
 21
346.790258
  0
CIRCLE
  8
OBRYS
 10
674.803105
 20
347.944966
 40
2.309415
  0
CIRCLE
  8
OBRYS
 10
674.803105
 20
347.944966
 40
5.000000
  0
ENDBLK
  8
OBRYS
  0
BLOCK
  8
OBRYS
  2
Srouby_s_valcovou_hlavou___28
 70
   66
 10
318.391636
 20
310.444966
  0
LINE
  8
OBRYS
 10
635.303105
 20
309.290258
 11
635.303105
 21
311.599674
  0
LINE
  8
OBRYS
 10
635.303105
 20
311.599674
 11
637.303105
 21
312.754381
  0
LINE
  8
OBRYS
 10
637.303105
 20
312.754381
 11
639.303105
 21
311.599674
  0
LINE
  8
OBRYS
 10
639.303105
 20
311.599674
 11
639.303105
 21
309.290258
  0
LINE
  8
OBRYS
 10
639.303105
 20
309.290258
 11
637.303105
 21
308.135550
  0
LINE
  8
OBRYS
 10
637.303105
 20
308.135550
 11
635.303105
 21
309.290258
  0
CIRCLE
  8
OBRYS
 10
637.303105
 20
310.444966
 40
2.309415
  0
CIRCLE
  8
OBRYS
 10
637.303105
 20
310.444966
 40
5.000000
  0
ENDBLK
  8
OBRYS
  0
BLOCK
  8
OBRYS
  2
Srouby_s_valcovou_hlavou___29
 70
   66
 10
261.757464
 20
356.638942
  0
LINE
  8
OBRYS
 10
691.937276
 20
355.484235
 11
691.937276
 21
357.793650
  0
LINE
  8
OBRYS
 10
691.937276
 20
357.793650
 11
693.937276
 21
358.948358
  0
LINE
  8
OBRYS
 10
693.937276
 20
358.948358
 11
695.937276
 21
357.793650
  0
LINE
  8
OBRYS
 10
695.937276
 20
357.793650
 11
695.937276
 21
355.484235
  0
LINE
  8
OBRYS
 10
695.937276
 20
355.484235
 11
693.937276
 21
354.329527
  0
LINE
  8
OBRYS
 10
693.937276
 20
354.329527
 11
691.937276
 21
355.484235
  0
CIRCLE
  8
OBRYS
 10
693.937276
 20
356.638942
 40
2.309415
  0
CIRCLE
  8
OBRYS
 10
693.937276
 20
356.638942
 40
5.000000
  0
ENDBLK
  8
OBRYS
  0
BLOCK
  8
OBRYS
  2
Srouby_s_valcovou_hlavou___30
 70
   66
 10
234.697659
 20
329.579137
  0
LINE
  8
OBRYS
 10
718.997081
 20
328.424430
 11
718.997081
 21
330.733845
  0
LINE
  8
OBRYS
 10
718.997081
 20
330.733845
 11
720.997081
 21
331.888553
  0
LINE
  8
OBRYS
 10
720.997081
 20
331.888553
 11
722.997081
 21
330.733845
  0
LINE
  8
OBRYS
 10
722.997081
 20
330.733845
 11
722.997081
 21
328.424430
  0
LINE
  8
OBRYS
 10
722.997081
 20
328.424430
 11
720.997081
 21
327.269722
  0
LINE
  8
OBRYS
 10
720.997081
 20
327.269722
 11
718.997081
 21
328.424430
  0
CIRCLE
  8
OBRYS
 10
720.997081
 20
329.579137
 40
2.309415
  0
CIRCLE
  8
OBRYS
 10
720.997081
 20
329.579137
 40
5.000000
  0
ENDBLK
  8
OBRYS
  0
BLOCK
  8
OBRYS
  2
Srouby_s_valcovou_hlavou___31
 70
   66
 10
234.697659
 20
291.310794
  0
LINE
  8
OBRYS
 10
718.997081
 20
290.156086
 11
718.997081
 21
292.465502
  0
LINE
  8
OBRYS
 10
718.997081
 20
292.465502
 11
720.997081
 21
293.620210
  0
LINE
  8
OBRYS
 10
720.997081
 20
293.620210
 11
722.997081
 21
292.465502
  0
LINE
  8
OBRYS
 10
722.997081
 20
292.465502
 11
722.997081
 21
290.156086
  0
LINE
  8
OBRYS
 10
722.997081
 20
290.156086
 11
720.997081
 21
289.001379
  0
LINE
  8
OBRYS
 10
720.997081
 20
289.001379
 11
718.997081
 21
290.156086
  0
CIRCLE
  8
OBRYS
 10
720.997081
 20
291.310794
 40
2.309415
  0
CIRCLE
  8
OBRYS
 10
720.997081
 20
291.310794
 40
5.000000
  0
ENDBLK
  8
OBRYS
  0
BLOCK
  8
OBRYS
  2
Srouby_s_valcovou_hlavou___32
 70
   66
 10
261.757464
 20
264.250989
  0
LINE
  8
OBRYS
 10
691.937276
 20
263.096281
 11
691.937276
 21
265.405697
  0
LINE
  8
OBRYS
 10
691.937276
 20
265.405697
 11
693.937276
 21
266.560405
  0
LINE
  8
OBRYS
 10
693.937276
 20
266.560405
 11
695.937276
 21
265.405697
  0
LINE
  8
OBRYS
 10
695.937276
 20
265.405697
 11
695.937276
 21
263.096281
  0
LINE
  8
OBRYS
 10
695.937276
 20
263.096281
 11
693.937276
 21
261.941574
  0
LINE
  8
OBRYS
 10
693.937276
 20
261.941574
 11
691.937276
 21
263.096281
  0
CIRCLE
  8
OBRYS
 10
693.937276
 20
264.250989
 40
2.309415
  0
CIRCLE
  8
OBRYS
 10
693.937276
 20
264.250989
 40
5.000000
  0
ENDBLK
  8
OBRYS
  0
BLOCK
  8
OBRYS
  2
Srouby_s_valcovou_hlavou___33
 70
   66
 10
300.025807
 20
264.250989
  0
LINE
  8
OBRYS
 10
653.668933
 20
263.096281
 11
653.668933
 21
265.405697
  0
LINE
  8
OBRYS
 10
653.668933
 20
265.405697
 11
655.668933
 21
266.560405
  0
LINE
  8
OBRYS
 10
655.668933
 20
266.560405
 11
657.668933
 21
265.405697
  0
LINE
  8
OBRYS
 10
657.668933
 20
265.405697
 11
657.668933
 21
263.096281
  0
LINE
  8
OBRYS
 10
657.668933
 20
263.096281
 11
655.668933
 21
261.941574
  0
LINE
  8
OBRYS
 10
655.668933
 20
261.941574
 11
653.668933
 21
263.096281
  0
CIRCLE
  8
OBRYS
 10
655.668933
 20
264.250989
 40
2.309415
  0
CIRCLE
  8
OBRYS
 10
655.668933
 20
264.250989
 40
5.000000
  0
ENDBLK
  8
OBRYS
  0
BLOCK
  8
OBRYS
  2
Srouby_s_valcovou_hlavou___34
 70
   66
 10
327.085613
 20
291.310794
  0
LINE
  8
OBRYS
 10
626.609128
 20
290.156087
 11
626.609128
 21
292.465502
  0
LINE
  8
OBRYS
 10
626.609128
 20
292.465502
 11
628.609128
 21
293.620210
  0
LINE
  8
OBRYS
 10
628.609128
 20
293.620210
 11
630.609128
 21
292.465502
  0
LINE
  8
OBRYS
 10
630.609128
 20
292.465502
 11
630.609128
 21
290.156087
  0
LINE
  8
OBRYS
 10
630.609128
 20
290.156087
 11
628.609128
 21
289.001379
  0
LINE
  8
OBRYS
 10
628.609128
 20
289.001379
 11
626.609128
 21
290.156087
  0
CIRCLE
  8
OBRYS
 10
628.609128
 20
291.310794
 40
2.309415
  0
CIRCLE
  8
OBRYS
 10
628.609128
 20
291.310794
 40
5.000000
  0
ENDBLK
  8
OBRYS
  0
BLOCK
  8
OBRYS
  2
Srouby_s_valcovou_hlavou___35
 70
   66
 10
327.085612
 20
329.579138
  0
LINE
  8
OBRYS
 10
626.609128
 20
328.424430
 11
626.609128
 21
330.733846
  0
LINE
  8
OBRYS
 10
626.609128
 20
330.733846
 11
628.609128
 21
331.888553
  0
LINE
  8
OBRYS
 10
628.609128
 20
331.888553
 11
630.609128
 21
330.733846
  0
LINE
  8
OBRYS
 10
630.609128
 20
330.733846
 11
630.609128
 21
328.424430
  0
LINE
  8
OBRYS
 10
630.609128
 20
328.424430
 11
628.609128
 21
327.269722
  0
LINE
  8
OBRYS
 10
628.609128
 20
327.269722
 11
626.609128
 21
328.424430
  0
CIRCLE
  8
OBRYS
 10
628.609128
 20
329.579138
 40
2.309415
  0
CIRCLE
  8
OBRYS
 10
628.609128
 20
329.579138
 40
5.000000
  0
ENDBLK
  8
OBRYS
  0
BLOCK
  8
OBRYS
  2
Srouby_s_valcovou_hlavou___36
 70
   66
 10
300.025807
 20
356.638942
  0
LINE
  8
OBRYS
 10
653.668933
 20
355.484235
 11
653.668933
 21
357.793650
  0
LINE
  8
OBRYS
 10
653.668933
 20
357.793650
 11
655.668933
 21
358.948358
  0
LINE
  8
OBRYS
 10
655.668933
 20
358.948358
 11
657.668933
 21
357.793650
  0
LINE
  8
OBRYS
 10
657.668933
 20
357.793650
 11
657.668933
 21
355.484235
  0
LINE
  8
OBRYS
 10
657.668933
 20
355.484235
 11
655.668933
 21
354.329527
  0
LINE
  8
OBRYS
 10
655.668933
 20
354.329527
 11
653.668933
 21
355.484235
  0
CIRCLE
  8
OBRYS
 10
655.668933
 20
356.638942
 40
2.309415
  0
CIRCLE
  8
OBRYS
 10
655.668933
 20
356.638942
 40
5.000000
  0
ENDBLK
  8
OBRYS
  0
BLOCK
  8
OBRYS
  2
_11
 70
   64
 10
624.803105
 20
371.444966
  0
LINE
  8
OBRYS
 10
641.653841
 20
394.444977
 11
641.653841
 21
376.444976
  0
LINE
  8
OBRYS
 10
594.907150
 20
394.444977
 11
594.907150
 21
376.444976
  0
LINE
  8
OBRYS
 10
607.395383
 20
394.444977
 11
607.395383
 21
376.444976
  0
LINE
  8
OBRYS
 10
624.803105
 20
372.444977
 11
588.885334
 21
372.444977
  0
LINE
  8
OBRYS
 10
689.803105
 20
372.444977
 11
624.803105
 21
372.444977
  0
LINE
  8
OBRYS
 10
589.780891
 20
371.444966
 11
624.803105
 21
371.444966
  0
LINE
  8
OBRYS
 10
624.803105
 20
371.444966
 11
659.825319
 21
371.444966
  0
LINE
  8
OBRYS
 10
678.283105
 20
394.444977
 11
693.803105
 21
394.444977
  0
ARC
  8
OBRYS
 10
689.803105
 20
376.444977
 40
4.000000
 50
270.000000
 51
360.000000
  0
ARC
  8
OBRYS
 10
588.780891
 20
371.472322
 40
1.000000
 50
0.000000
 51
84.004934
  0
ARC
  8
OBRYS
 10
589.303105
 20
376.444977
 40
4.000000
 50
180.000000
 51
264.004934
  0
ARC
  8
OBRYS
 10
660.825319
 20
371.444977
 40
1.000000
 50
90.000000
 51
180.000000
  0
LINE
  8
OBRYS
 10
589.780891
 20
371.444966
 11
589.780891
 21
371.472322
  0
LINE
  8
OSA
 10
624.803105
 20
360.944980
 11
624.803105
 21
401.944973
  0
LINE
  8
OBRYS
 10
585.303105
 20
394.444977
 11
585.303105
 21
376.444977
  0
LINE
  8
OBRYS
 10
624.803105
 20
394.444977
 11
585.303105
 21
394.444977
  0
LINE
  8
OBRYS
 10
678.283105
 20
394.444977
 11
624.803105
 21
394.444977
  0
LINE
  8
OBRYS
 10
693.803105
 20
376.444977
 11
693.803105
 21
394.444977
  0
LINE
  8
OBRYS
 10
678.283105
 20
394.444977
 11
693.803105
 21
394.444977
  0
LINE
  8
OBRYS
 10
678.283105
 20
394.444977
 11
660.803105
 21
394.444977
  0
LINE
  8
OSA
 10
688.803105
 20
392.603258
 11
688.803105
 21
426.664605
  0
LINE
  8
OSA
 10
624.803105
 20
392.773019
 11
624.803105
 21
422.164608
  0
LINE
  8
OBRYS
 10
652.803105
 20
419.944977
 11
668.803105
 21
419.944977
  0
LINE
  8
OBRYS
 10
669.969771
 20
420.944977
 11
669.969771
 21
423.444977
  0
ARC
  8
OBRYS
 10
668.969771
 20
420.944977
 40
1.000000
 50
270.000000
 51
360.000000
  0
LINE
  8
OBRYS
 10
670.803105
 20
421.944977
 11
670.803105
 21
423.444977
  0
ARC
  8
OBRYS
 10
668.803105
 20
421.944977
 40
2.000000
 50
270.000000
 51
360.000000
  0
ARC
  8
OBRYS
 10
652.803105
 20
421.944977
 40
2.000000
 50
180.000000
 51
270.000000
  0
LINE
  8
OBRYS
 10
650.803105
 20
421.944977
 11
650.803105
 21
423.444977
  0
ARC
  8
OBRYS
 10
652.636438
 20
420.944977
 40
1.000000
 50
180.000000
 51
270.000000
  0
LINE
  8
OBRYS
 10
651.636438
 20
420.944977
 11
651.636438
 21
423.444977
  0
LINE
  8
OSA
 10
598.286600
 20
390.444977
 11
598.286600
 21
407.444977
  0
LINE
  8
OBRYS
 10
649.861159
 20
403.444977
 11
589.303105
 21
403.444977
  0
LINE
  8
OBRYS
 10
602.803105
 20
414.444977
 11
660.803105
 21
414.444977
  0
LINE
  8
OBRYS
 10
718.803105
 20
414.444977
 11
660.803105
 21
414.444977
  0
ARC
  8
OBRYS
 10
589.303105
 20
399.444977
 40
4.000000
 50
90.000000
 51
180.000000
  0
ARC
  8
OBRYS
 10
631.803105
 20
405.444977
 40
2.000000
 50
270.000000
 51
360.000000
  0
LINE
  8
OSA
 10
710.803105
 20
407.664612
 11
710.803105
 21
430.664605
  0
LINE
  8
OBRYS
 10
585.303105
 20
399.444977
 11
585.303105
 21
394.444977
  0
LINE
  8
OBRYS
 10
660.803105
 20
394.444977
 11
585.303105
 21
394.444977
  0
LINE
  8
OSA
 10
660.803105
 20
392.677528
 11
660.803105
 21
422.164608
  0
LINE
  8
OBRYS
 10
601.286600
 20
399.444977
 11
587.303105
 21
399.444977
  0
ARC
  8
OBRYS
 10
587.303105
 20
397.444977
 40
2.000000
 50
90.000000
 51
180.000000
  0
LINE
  8
OBRYS
 10
600.803105
 20
423.444977
 11
600.803105
 21
416.444977
  0
ARC
  8
OBRYS
 10
602.803105
 20
416.444977
 40
2.000000
 50
180.000000
 51
270.000000
  0
LINE
  8
OBRYS
 10
720.803105
 20
423.444977
 11
720.803105
 21
416.444977
  0
ARC
  8
OBRYS
 10
718.803105
 20
416.444977
 40
2.000000
 50
270.000000
 51
360.000000
  0
ARC
  8
OBRYS
 10
695.803105
 20
412.444977
 40
2.000000
 50
90.000000
 51
180.000000
  0
ARC
  8
OBRYS
 10
631.803105
 20
412.444977
 40
2.000000
 50
0.000000
 51
90.000000
  0
LINE
  8
OBRYS
 10
633.803105
 20
405.444977
 11
633.803105
 21
412.444977
  0
LINE
  8
OBRYS
 10
693.803105
 20
412.444977
 11
693.803105
 21
394.444977
  0
LINE
  8
OBRYS
 10
651.636438
 20
422.444977
 11
669.969771
 21
422.444977
  0
LINE
  8
OBRYS
 10
600.803105
 20
423.444977
 11
651.636438
 21
423.444977
  0
LINE
  8
OBRYS
 10
669.969771
 20
423.444977
 11
720.803105
 21
423.444977
  0
INSERT
  8
OBRYS
  2
Srouby_s_valcovou_hlavou___38
 62
     7
 10
357.408140
 20
399.444977
  0
ARC
  8
OBRYS
 10
602.536600
 20
401.444977
 40
2.000000
 50
270.000000
 51
360.000000
  0
ARC
  8
OBRYS
 10
606.536600
 20
401.444977
 40
2.000000
 50
90.000000
 51
180.000000
  0
ENDBLK
  8
OBRYS
  0
BLOCK
  8
OBRYS
  2
Srouby_s_valcovou_hlavou___38
 70
   66
 10
357.408140
 20
399.444977
  0
LINE
  8
OBRYS
 10
602.036600
 20
402.944977
 11
594.536600
 21
402.944977
  0
LINE
  8
OBRYS
 10
602.536600
 20
402.444977
 11
602.536600
 21
399.444977
  0
LINE
  8
OBRYS
 10
602.536600
 20
399.444977
 11
594.036600
 21
399.444977
  0
LINE
  8
OBRYS
 10
594.036600
 20
399.444977
 11
594.036600
 21
402.444977
  0
ARC
  8
OBRYS
 10
602.036600
 20
402.444977
 40
0.500000
 50
0.000000
 51
90.000000
  0
ARC
  8
OBRYS
 10
594.536600
 20
402.444977
 40
0.500000
 50
90.000000
 51
180.000000
  0
LINE
  8
OBRYS
 62
     7
  6
DOT
 10
600.596016
 20
402.944977
 11
600.596016
 21
401.278310
  0
LINE
  8
OBRYS
 62
     7
  6
DOT
 10
599.441308
 20
402.944977
 11
599.441308
 21
401.278310
  0
LINE
  8
OBRYS
 62
     7
  6
DOT
 10
597.131893
 20
402.944977
 11
597.131893
 21
401.278310
  0
LINE
  8
OBRYS
 62
     7
  6
DOT
 10
595.977185
 20
402.944977
 11
595.977185
 21
401.278310
  0
ARC
  8
OBRYS
 62
     7
  6
DOT
 10
600.018662
 20
403.278316
 40
0.666673
 50
210.000310
 51
329.999690
  0
ARC
  8
OBRYS
 62
     7
  6
DOT
 10
598.286600
 20
404.778335
 40
2.166692
 50
237.795963
 51
302.204037
  0
ARC
  8
OBRYS
 62
     7
  6
DOT
 10
596.554539
 20
403.278316
 40
0.666673
 50
210.000310
 51
329.999690
  0
ARC
  8
OBRYS
 62
     7
  6
DOT
 10
600.018662
 20
401.611650
 40
0.666673
 50
210.000310
 51
329.999690
  0
ARC
  8
OBRYS
 62
     7
  6
DOT
 10
598.286600
 20
403.111668
 40
2.166692
 50
237.795963
 51
302.204037
  0
ARC
  8
OBRYS
 62
     7
  6
DOT
 10
596.554539
 20
401.611650
 40
0.666673
 50
210.000310
 51
329.999690
  0
LINE
  8
OBRYS
 62
     7
  6
DOT
 10
600.018662
 20
400.944977
 11
598.286600
 21
399.790269
  0
LINE
  8
OBRYS
 62
     7
  6
DOT
 10
598.286600
 20
399.790269
 11
596.554539
 21
400.944977
  0
ENDBLK
  8
OBRYS
  0
BLOCK
  8
OBRYS
  2
_12
 70
   64
 10
280.891636
 20
555.683634
  0
LINE
  8
OBRYS
 10
224.891636
 20
608.683634
 11
224.891636
 21
588.683634
  0
ARC
  8
OBRYS
 10
228.891636
 20
608.683634
 40
4.000000
 50
90.000000
 51
180.000000
  0
LINE
  8
OBRYS
 10
259.391636
 20
608.683634
 11
259.391636
 21
588.683634
  0
LINE
  8
OBRYS
 10
228.891636
 20
612.683634
 11
255.391636
 21
612.683634
  0
ARC
  8
OBRYS
 10
255.391636
 20
608.683634
 40
4.000000
 50
0.000000
 51
90.000000
  0
CIRCLE
  8
OBRYS
 10
238.391636
 20
603.683634
 40
4.650000
  0
LINE
  8
OSA
 10
238.391636
 20
603.683634
 11
248.041636
 21
603.683634
  0
LINE
  8
OSA
 10
238.391636
 20
603.683634
 11
228.741636
 21
603.683634
  0
LINE
  8
OSA
 10
238.391636
 20
603.683634
 11
238.391636
 21
613.333634
  0
LINE
  8
OSA
 10
238.391636
 20
603.683634
 11
238.391636
 21
594.033634
  0
LINE
  8
OSA
 10
280.891636
 20
599.183634
 11
280.891636
 21
583.683634
  0
LINE
  8
OBRYS
 10
224.891636
 20
588.683634
 11
280.891636
 21
588.683634
  0
LINE
  8
OBRYS
 10
259.391636
 20
594.183634
 11
280.891636
 21
594.183634
  0
LINE
  8
OBRYS
 10
302.391636
 20
594.183634
 11
280.891636
 21
594.183634
  0
LINE
  8
OBRYS
 10
336.891636
 20
588.683634
 11
280.891636
 21
588.683634
  0
LINE
  8
OSA
 10
323.391636
 20
603.683634
 11
323.391636
 21
594.033634
  0
LINE
  8
OSA
 10
323.391636
 20
603.683634
 11
323.391636
 21
613.333634
  0
LINE
  8
OSA
 10
323.391636
 20
603.683634
 11
333.041636
 21
603.683634
  0
LINE
  8
OSA
 10
323.391636
 20
603.683634
 11
313.741636
 21
603.683634
  0
CIRCLE
  8
OBRYS
 10
323.391636
 20
603.683634
 40
4.650000
  0
ARC
  8
OBRYS
 10
306.391636
 20
608.683634
 40
4.000000
 50
90.000000
 51
180.000000
  0
LINE
  8
OBRYS
 10
332.891636
 20
612.683634
 11
306.391636
 21
612.683634
  0
LINE
  8
OBRYS
 10
302.391636
 20
608.683634
 11
302.391636
 21
588.683634
  0
ARC
  8
OBRYS
 10
332.891636
 20
608.683634
 40
4.000000
 50
0.000000
 51
90.000000
  0
LINE
  8
OBRYS
 10
336.891636
 20
608.683634
 11
336.891636
 21
588.683634
  0
LINE
  8
OBRYS
 10
302.391636
 20
603.529421
 11
259.391636
 21
603.529421
  0
ENDBLK
  8
OBRYS
  0
BLOCK
  8
OBRYS
  2
_13
 70
   64
 10
280.891636
 20
555.683634
  0
LINE
  8
OBRYS
 10
224.891636
 20
502.683634
 11
224.891636
 21
522.683634
  0
ARC
  8
OBRYS
 10
228.891636
 20
502.683634
 40
4.000000
 50
180.000000
 51
270.000000
  0
LINE
  8
OBRYS
 10
259.391636
 20
502.683634
 11
259.391636
 21
522.683634
  0
LINE
  8
OBRYS
 10
228.891636
 20
498.683634
 11
255.391636
 21
498.683634
  0
ARC
  8
OBRYS
 10
255.391636
 20
502.683634
 40
4.000000
 50
270.000000
 51
360.000000
  0
CIRCLE
  8
OBRYS
 10
238.391636
 20
507.683634
 40
4.650000
  0
LINE
  8
OSA
 10
238.391636
 20
507.683634
 11
248.041636
 21
507.683634
  0
LINE
  8
OSA
 10
238.391636
 20
507.683634
 11
228.741636
 21
507.683634
  0
LINE
  8
OSA
 10
238.391636
 20
507.683634
 11
238.391636
 21
498.033634
  0
LINE
  8
OSA
 10
238.391636
 20
507.683634
 11
238.391636
 21
517.333634
  0
LINE
  8
OSA
 10
280.891636
 20
512.183634
 11
280.891636
 21
527.683634
  0
LINE
  8
OBRYS
 10
224.891636
 20
522.683634
 11
280.891636
 21
522.683634
  0
LINE
  8
OBRYS
 10
259.391636
 20
517.183634
 11
280.891636
 21
517.183634
  0
LINE
  8
OBRYS
 10
302.391636
 20
517.183634
 11
280.891636
 21
517.183634
  0
LINE
  8
OBRYS
 10
336.891636
 20
522.683634
 11
280.891636
 21
522.683634
  0
LINE
  8
OSA
 10
323.391636
 20
507.683634
 11
323.391636
 21
517.333634
  0
LINE
  8
OSA
 10
323.391636
 20
507.683634
 11
323.391636
 21
498.033634
  0
LINE
  8
OSA
 10
323.391636
 20
507.683634
 11
333.041636
 21
507.683634
  0
LINE
  8
OSA
 10
323.391636
 20
507.683634
 11
313.741636
 21
507.683634
  0
CIRCLE
  8
OBRYS
 10
323.391636
 20
507.683634
 40
4.650000
  0
ARC
  8
OBRYS
 10
306.391636
 20
502.683634
 40
4.000000
 50
180.000000
 51
270.000000
  0
LINE
  8
OBRYS
 10
332.891636
 20
498.683634
 11
306.391636
 21
498.683634
  0
LINE
  8
OBRYS
 10
302.391636
 20
502.683634
 11
302.391636
 21
522.683634
  0
ARC
  8
OBRYS
 10
332.891636
 20
502.683634
 40
4.000000
 50
270.000000
 51
360.000000
  0
LINE
  8
OBRYS
 10
336.891636
 20
502.683634
 11
336.891636
 21
522.683634
  0
LINE
  8
OBRYS
 10
302.391636
 20
507.837847
 11
259.391636
 21
507.837847
  0
ENDBLK
  8
OBRYS
  0
BLOCK
  8
OBRYS
  2
_14
 70
   64
 10
280.891636
 20
116.294080
  0
LINE
  8
OBRYS
 62
     7
  6
DASHDOT
 10
238.391636
 20
164.294080
 11
226.391639
 21
164.294080
  0
LINE
  8
OBRYS
 62
     7
  6
DASHDOT
 10
238.391636
 20
164.294080
 11
250.391632
 21
164.294080
  0
LINE
  8
OBRYS
 10
224.891636
 20
169.294080
 11
224.891636
 21
155.294080
  0
ARC
  8
OBRYS
 10
228.891636
 20
169.294080
 40
4.000000
 50
90.000000
 51
180.000000
  0
LINE
  8
OBRYS
 62
     7
  6
DASHDOT
 10
238.391636
 20
164.294080
 11
238.391636
 21
176.294076
  0
ARC
  8
OBRYS
 10
238.391636
 20
164.294080
 40
4.500000
 50
12.839588
 51
167.160412
  0
ARC
  8
OBRYS
 62
     4
  6
HIDDEN2
 10
238.391636
 20
164.294080
 40
4.500000
 50
167.160412
 51
12.839588
  0
LINE
  8
OBRYS
 10
228.891636
 20
173.294080
 11
257.391636
 21
173.294080
  0
LINE
  8
OBRYS
 10
259.391636
 20
171.294080
 11
259.391636
 21
165.294080
  0
ARC
  8
OBRYS
 10
257.391636
 20
171.294080
 40
2.000000
 50
0.000000
 51
90.000000
  0
LINE
  8
OBRYS
 10
254.291449
 20
171.294080
 11
254.291449
 21
165.294080
  0
LINE
  8
OBRYS
 62
     7
  6
DASHDOT
 10
323.391636
 20
164.294080
 11
323.391636
 21
176.294076
  0
ARC
  8
OBRYS
 10
332.891636
 20
169.294080
 40
4.000000
 50
0.000000
 51
90.000000
  0
ARC
  8
OBRYS
 10
333.891636
 20
160.682423
 40
3.000000
 50
0.000000
 51
61.109871
  0
LINE
  8
OBRYS
 10
332.420331
 20
164.920723
 11
335.341030
 21
163.309067
  0
LINE
  8
OBRYS
 10
336.891636
 20
156.643574
 11
336.891636
 21
156.723458
  0
ARC
  8
OBRYS
 10
330.970936
 20
162.294080
 40
3.000000
 50
61.109871
 51
90.000000
  0
LINE
  8
OBRYS
 10
329.595702
 20
164.920723
 11
331.040034
 21
164.920723
  0
LINE
  8
OBRYS
 10
333.419134
 20
162.737996
 11
334.968592
 21
162.737996
  0
POLYLINE
  8
OBRYS
 66
    1
  0
VERTEX
  8
OBRYS
 10
329.600525
 20
165.293930
  0
VERTEX
  8
OBRYS
 10
331.039978
 20
164.920639
  0
VERTEX
  8
OBRYS
 10
334.968567
 20
162.737900
  0
VERTEX
  8
OBRYS
 10
335.786560
 20
162.069199
  0
VERTEX
  8
OBRYS
 10
336.054016
 20
161.613022
  0
SEQEND
  8
OBRYS
  0
LINE
  8
OBRYS
 10
248.891636
 20
165.294080
 11
237.891636
 21
165.294080
  0
LINE
  8
OBRYS
 10
247.085770
 20
164.920723
 11
248.036659
 21
165.294080
  0
POLYLINE
  8
OBRYS
 66
    1
  0
VERTEX
  8
OBRYS
 10
244.152359
 20
160.682358
  0
VERTEX
  8
OBRYS
 10
244.275467
 20
161.726547
  0
VERTEX
  8
OBRYS
 10
244.629288
 20
162.640244
  0
VERTEX
  8
OBRYS
 10
245.169693
 20
163.308945
  0
SEQEND
  8
OBRYS
  0
POLYLINE
  8
OBRYS
 66
    1
  0
VERTEX
  8
OBRYS
 10
244.613541
 20
161.613022
  0
VERTEX
  8
OBRYS
 10
244.470352
 20
161.435776
  0
VERTEX
  8
OBRYS
 10
244.234451
 20
160.826645
  0
VERTEX
  8
OBRYS
 10
244.152359
 20
160.130478
  0
SEQEND
  8
OBRYS
  0
POLYLINE
  8
OBRYS
 66
    1
  0
VERTEX
  8
OBRYS
 10
248.857742
 20
165.293930
  0
VERTEX
  8
OBRYS
 10
247.911026
 20
164.920639
  0
VERTEX
  8
OBRYS
 10
245.327408
 20
162.737900
  0
VERTEX
  8
OBRYS
 10
244.789383
 20
162.069199
  0
VERTEX
  8
OBRYS
 10
244.613541
 20
161.613022
  0
SEQEND
  8
OBRYS
  0
LINE
  8
OBRYS
 10
248.036659
 20
165.294080
 11
245.480223
 21
165.294080
  0
LINE
  8
OBRYS
 10
244.152330
 20
160.682423
 11
241.293656
 21
160.682423
  0
LINE
  8
OBRYS
 10
241.293656
 20
160.130618
 11
244.152330
 21
160.130618
  0
LINE
  8
OBRYS
 10
245.169619
 20
163.309067
 11
242.390100
 21
163.309067
  0
LINE
  8
OBRYS
 10
245.480223
 20
165.294080
 11
244.455346
 21
164.920723
  0
POLYLINE
  8
OBRYS
 66
    1
  0
VERTEX
  8
OBRYS
 10
242.390152
 20
163.308945
  0
VERTEX
  8
OBRYS
 10
241.807755
 20
162.640244
  0
VERTEX
  8
OBRYS
 10
241.426346
 20
161.726547
  0
VERTEX
  8
OBRYS
 10
241.293716
 20
160.682358
  0
SEQEND
  8
OBRYS
  0
LINE
  8
OBRYS
 10
247.085770
 20
164.920723
 11
244.455346
 21
164.920723
  0
POLYLINE
  8
OBRYS
 66
    1
  0
VERTEX
  8
OBRYS
 10
232.182755
 20
165.293930
  0
VERTEX
  8
OBRYS
 10
230.743301
 20
164.920639
  0
VERTEX
  8
OBRYS
 10
226.814713
 20
162.737900
  0
VERTEX
  8
OBRYS
 10
225.996719
 20
162.069199
  0
VERTEX
  8
OBRYS
 10
225.729263
 20
161.613022
  0
SEQEND
  8
OBRYS
  0
LINE
  8
OBRYS
 10
268.744219
 20
165.294080
 11
268.639287
 21
165.294080
  0
LINE
  8
OBRYS
 10
238.790429
 20
165.294080
 11
241.672931
 21
165.294080
  0
LINE
  8
OBRYS
 10
236.284739
 20
155.294080
 11
233.436084
 21
155.294080
  0
LINE
  8
OBRYS
 10
233.603887
 20
165.294080
 11
241.672931
 21
165.294080
  0
POLYLINE
  8
OBRYS
 66
    1
  0
VERTEX
  8
OBRYS
 10
233.436111
 20
161.053818
  0
VERTEX
  8
OBRYS
 10
233.463150
 20
160.131821
  0
VERTEX
  8
OBRYS
 10
233.467545
 20
160.111313
  0
VERTEX
  8
OBRYS
 10
233.467545
 20
155.293930
  0
VERTEX
  8
OBRYS
 10
233.463150
 20
155.293930
  0
VERTEX
  8
OBRYS
 10
233.436111
 20
155.293930
  0
SEQEND
  8
OBRYS
  0
POLYLINE
  8
OBRYS
 66
    1
  0
VERTEX
  8
OBRYS
 10
230.734818
 20
155.293930
  0
VERTEX
  8
OBRYS
 10
230.734818
 20
156.293930
  0
VERTEX
  8
OBRYS
 10
230.955032
 20
157.442001
  0
VERTEX
  8
OBRYS
 10
231.582352
 20
158.415268
  0
VERTEX
  8
OBRYS
 10
232.521072
 20
159.065659
  0
VERTEX
  8
OBRYS
 10
232.950699
 20
159.154282
  0
VERTEX
  8
OBRYS
 10
233.436111
 20
159.251572
  0
SEQEND
  8
OBRYS
  0
LINE
  8
OBRYS
 10
251.392139
 20
160.111352
 11
233.467473
 21
160.111352
  0
LINE
  8
OBRYS
 10
226.498394
 20
160.111352
 11
224.891636
 21
160.111352
  0
LINE
  8
OBRYS
 10
228.364138
 20
162.737996
 11
226.814679
 21
162.737996
  0
LINE
  8
OBRYS
 10
255.328509
 20
164.920723
 11
247.910987
 21
164.920723
  0
LINE
  8
OBRYS
 10
245.187142
 20
164.920723
 11
237.576812
 21
164.920723
  0
LINE
  8
OBRYS
 10
232.187570
 20
164.920723
 11
230.743237
 21
164.920723
  0
ARC
  8
OBRYS
 10
236.949445
 20
160.883845
 40
3.518602
 50
160.236041
 51
177.431499
  0
POLYLINE
  8
OBRYS
 66
    1
  0
VERTEX
  8
OBRYS
 10
238.790482
 20
165.293930
  0
VERTEX
  8
OBRYS
 10
238.255508
 20
165.124374
  0
VERTEX
  8
OBRYS
 10
237.576859
 20
164.920639
  0
VERTEX
  8
OBRYS
 10
234.418533
 20
162.889023
  0
VERTEX
  8
OBRYS
 10
234.196671
 20
162.737900
  0
VERTEX
  8
OBRYS
 10
234.095230
 20
162.636337
  0
VERTEX
  8
OBRYS
 10
233.825882
 20
162.328110
  0
VERTEX
  8
OBRYS
 10
233.636551
 20
162.069199
  0
SEQEND
  8
OBRYS
  0
LINE
  8
OBRYS
 10
256.117866
 20
165.294080
 11
248.857677
 21
165.294080
  0
LINE
  8
OBRYS
 10
246.212018
 20
165.294080
 11
238.790429
 21
165.294080
  0
LINE
  8
OBRYS
 10
233.603887
 20
165.294080
 11
232.182718
 21
165.294080
  0
LINE
  8
OBRYS
 10
243.096308
 20
165.294080
 11
244.040782
 21
165.294080
  0
LINE
  8
OBRYS
 10
248.036659
 20
165.294080
 11
248.857677
 21
165.294080
  0
LINE
  8
OBRYS
 10
245.169619
 20
163.309067
 11
247.085770
 21
164.920723
  0
LINE
  8
OBRYS
 10
244.152330
 20
160.130618
 11
244.152330
 21
160.682423
  0
LINE
  8
OBRYS
 10
241.293656
 20
160.682423
 11
241.293656
 21
160.130618
  0
LINE
  8
OBRYS
 10
244.455346
 20
164.920723
 11
242.390100
 21
163.309067
  0
LINE
  8
OBRYS
 10
233.436084
 20
155.294080
 11
233.436084
 21
159.251616
  0
LINE
  8
OBRYS
 10
233.436084
 20
155.294080
 11
233.436084
 21
161.053947
  0
LINE
  8
OBRYS
 10
228.636268
 20
162.889088
 11
228.636268
 21
155.294080
  0
LINE
  8
OBRYS
 10
232.950657
 20
165.124514
 11
232.950657
 21
159.154314
  0
ARC
  8
OBRYS
 10
230.812336
 20
162.294080
 40
3.000000
 50
90.000000
 51
118.890129
  0
LINE
  8
OBRYS
 10
224.891636
 20
156.643574
 11
224.891636
 21
156.723458
  0
LINE
  8
OBRYS
 10
229.362941
 20
164.920723
 11
226.442241
 21
163.309067
  0
ARC
  8
OBRYS
 10
227.891636
 20
160.682423
 40
3.000000
 50
118.890129
 51
180.000000
  0
LINE
  8
OBRYS
 10
230.812336
 20
165.294080
 11
250.891636
 21
165.294080
  0
LINE
  8
OBRYS
 10
224.891636
 20
160.682423
 11
224.891636
 21
155.294080
  0
LINE
  8
OBRYS
 10
233.436084
 20
159.251616
 11
232.950657
 21
159.154314
  0
LINE
  8
OBRYS
 10
232.950657
 20
159.154314
 11
232.521046
 21
159.065718
  0
LINE
  8
OBRYS
 10
232.521046
 20
159.065718
 11
231.582272
 21
158.415400
  0
LINE
  8
OBRYS
 10
231.582272
 20
158.415400
 11
230.955004
 21
157.442130
  0
LINE
  8
OBRYS
 10
230.955004
 20
157.442130
 11
230.734737
 21
156.294080
  0
LINE
  8
OBRYS
 10
230.734737
 20
156.294080
 11
230.734737
 21
155.294080
  0
LINE
  8
OBRYS
 10
230.734737
 20
155.294080
 11
228.636268
 21
155.294080
  0
LINE
  8
OBRYS
 10
228.636268
 20
155.294080
 11
228.239750
 21
155.294080
  0
LINE
  8
OBRYS
 10
228.239750
 20
155.294080
 11
227.839104
 21
155.294080
  0
LINE
  8
OBRYS
 10
227.839104
 20
155.294080
 11
227.450446
 21
155.294080
  0
LINE
  8
OBRYS
 10
227.450446
 20
155.294080
 11
224.891636
 21
155.294080
  0
LINE
  8
OBRYS
 10
227.089410
 20
155.294080
 11
226.770520
 21
155.294080
  0
LINE
  8
OBRYS
 10
226.770520
 20
155.294080
 11
226.506604
 21
155.294080
  0
LINE
  8
OBRYS
 10
226.506604
 20
155.294080
 11
226.498394
 21
155.294080
  0
LINE
  8
OBRYS
 10
226.498394
 20
155.294080
 11
226.498394
 21
160.111352
  0
LINE
  8
OBRYS
 10
226.498394
 20
160.111352
 11
226.506604
 21
160.131861
  0
LINE
  8
OBRYS
 10
226.506604
 20
160.131861
 11
226.770520
 21
161.053947
  0
LINE
  8
OBRYS
 10
226.770520
 20
161.053947
 11
226.795232
 21
161.155594
  0
LINE
  8
OBRYS
 10
226.795232
 20
161.155594
 11
227.089410
 21
161.523847
  0
LINE
  8
OBRYS
 10
227.089410
 20
161.523847
 11
227.450446
 21
162.025544
  0
LINE
  8
OBRYS
 10
227.450446
 20
162.025544
 11
227.479519
 21
162.069231
  0
LINE
  8
OBRYS
 10
227.479519
 20
162.069231
 11
227.839104
 21
162.328231
  0
LINE
  8
OBRYS
 10
227.839104
 20
162.328231
 11
228.239750
 21
162.636373
  0
LINE
  8
OBRYS
 10
228.239750
 20
162.636373
 11
228.364138
 21
162.737996
  0
LINE
  8
OBRYS
 10
228.364138
 20
162.737996
 11
228.636268
 21
162.889088
  0
LINE
  8
OBRYS
 10
228.636268
 20
162.889088
 11
232.187570
 21
164.920723
  0
LINE
  8
OBRYS
 10
232.187570
 20
164.920723
 11
232.950657
 21
165.124514
  0
LINE
  8
OBRYS
 10
232.950657
 20
165.124514
 11
233.603887
 21
165.294080
  0
LINE
  8
OBRYS
 10
250.891636
 20
165.294080
 11
260.265056
 21
165.294080
  0
LINE
  8
OBRYS
 10
255.729028
 20
165.124514
 11
255.729028
 21
161.750544
  0
LINE
  8
OBRYS
 10
253.464550
 20
162.889088
 11
253.464550
 21
159.696805
  0
LINE
  8
OBRYS
 10
233.467473
 20
155.294080
 11
249.295583
 21
155.294080
  0
POLYLINE
  8
OBRYS
 66
    1
  0
VERTEX
  8
OBRYS
 10
251.392166
 20
157.619568
  0
VERTEX
  8
OBRYS
 10
251.392166
 20
160.111313
  0
VERTEX
  8
OBRYS
 10
251.408218
 20
160.131821
  0
VERTEX
  8
OBRYS
 10
251.808426
 20
161.053818
  0
VERTEX
  8
OBRYS
 10
251.839249
 20
161.155502
  0
VERTEX
  8
OBRYS
 10
252.206009
 20
161.523788
  0
VERTEX
  8
OBRYS
 10
252.584854
 20
162.025497
  0
VERTEX
  8
OBRYS
 10
252.610672
 20
162.069199
  0
VERTEX
  8
OBRYS
 10
252.929886
 20
162.328110
  0
VERTEX
  8
OBRYS
 10
253.227127
 20
162.636337
  0
VERTEX
  8
OBRYS
 10
253.301590
 20
162.737900
  0
VERTEX
  8
OBRYS
 10
253.464615
 20
162.889023
  0
VERTEX
  8
OBRYS
 10
255.328568
 20
164.920639
  0
VERTEX
  8
OBRYS
 10
255.729080
 20
165.124374
  0
VERTEX
  8
OBRYS
 10
256.117920
 20
165.293930
  0
SEQEND
  8
OBRYS
  0
LINE
  8
OBRYS
 10
236.284739
 20
155.294080
 11
249.295583
 21
155.294080
  0
LINE
  8
OBRYS
 10
332.891636
 20
173.294080
 11
313.626630
 21
173.294080
  0
ARC
  8
OBRYS
 10
323.391636
 20
164.294080
 40
4.500000
 50
36.602415
 51
81.998140
  0
LINE
  8
OBRYS
 10
330.970936
 20
165.294080
 11
329.518215
 21
165.294080
  0
LINE
  8
OBRYS
 62
     7
  6
DASHDOT
 10
330.891636
 20
164.294080
 11
335.391632
 21
164.294080
  0
LINE
  8
OBRYS
 10
329.518215
 20
165.294080
 11
329.600554
 21
165.294080
  0
LINE
  8
OBRYS
 10
335.069485
 20
160.855728
 11
335.012751
 21
161.053947
  0
LINE
  8
OBRYS
 10
335.012751
 20
161.053947
 11
334.988039
 21
161.155594
  0
LINE
  8
OBRYS
 10
334.988039
 20
161.155594
 11
334.693861
 21
161.523847
  0
LINE
  8
OBRYS
 10
334.693861
 20
161.523847
 11
334.332826
 21
162.025544
  0
LINE
  8
OBRYS
 10
334.332826
 20
162.025544
 11
334.303753
 21
162.069231
  0
LINE
  8
OBRYS
 10
334.303753
 20
162.069231
 11
333.944168
 21
162.328231
  0
LINE
  8
OBRYS
 10
333.944168
 20
162.328231
 11
333.543522
 21
162.636373
  0
LINE
  8
OBRYS
 10
333.543522
 20
162.636373
 11
333.419134
 21
162.737996
  0
LINE
  8
OBRYS
 10
333.419134
 20
162.737996
 11
333.147003
 21
162.889088
  0
LINE
  8
OBRYS
 10
333.147003
 20
162.889088
 11
331.502101
 21
163.830107
  0
LINE
  8
OBRYS
 10
333.147003
 20
162.889088
 11
333.147003
 21
162.516659
  0
LINE
  8
OBRYS
 10
335.880008
 20
160.111352
 11
336.891636
 21
160.111352
  0
LINE
  8
OBRYS
 10
336.891636
 20
169.294080
 11
336.891636
 21
159.142650
  0
ENDBLK
  8
OBRYS
  0
BLOCK
  8
OBRYS
  2
_15
 70
   64
 10
280.891636
 20
116.294080
  0
LINE
  8
OBRYS
 62
     7
  6
DASHDOT
 10
238.391636
 20
68.294080
 11
226.391639
 21
68.294080
  0
LINE
  8
OBRYS
 62
     7
  6
DASHDOT
 10
238.391636
 20
68.294080
 11
250.391632
 21
68.294080
  0
LINE
  8
OBRYS
 10
224.891636
 20
63.294080
 11
224.891636
 21
77.294080
  0
ARC
  8
OBRYS
 10
228.891636
 20
63.294080
 40
4.000000
 50
180.000000
 51
270.000000
  0
LINE
  8
OBRYS
 62
     7
  6
DASHDOT
 10
238.391636
 20
68.294080
 11
238.391636
 21
56.294083
  0
ARC
  8
OBRYS
 10
238.391636
 20
68.294080
 40
4.500000
 50
192.839588
 51
347.160412
  0
ARC
  8
OBRYS
 62
     4
  6
HIDDEN2
 10
238.391636
 20
68.294080
 40
4.500000
 50
347.160412
 51
192.839588
  0
LINE
  8
OBRYS
 10
228.891636
 20
59.294080
 11
257.391636
 21
59.294080
  0
LINE
  8
OBRYS
 10
259.391636
 20
61.294080
 11
259.391636
 21
67.294080
  0
ARC
  8
OBRYS
 10
257.391636
 20
61.294080
 40
2.000000
 50
270.000000
 51
360.000000
  0
LINE
  8
OBRYS
 10
254.291449
 20
61.294080
 11
254.291449
 21
67.294080
  0
LINE
  8
OBRYS
 62
     7
  6
DASHDOT
 10
323.391636
 20
68.294080
 11
323.391636
 21
56.294083
  0
ARC
  8
OBRYS
 10
332.891636
 20
63.294080
 40
4.000000
 50
270.000000
 51
360.000000
  0
ARC
  8
OBRYS
 10
333.891636
 20
71.905736
 40
3.000000
 50
298.890129
 51
360.000000
  0
LINE
  8
OBRYS
 10
332.420331
 20
67.667436
 11
335.341030
 21
69.279093
  0
LINE
  8
OBRYS
 10
336.891636
 20
75.944586
 11
336.891636
 21
75.864701
  0
ARC
  8
OBRYS
 10
330.970936
 20
70.294080
 40
3.000000
 50
270.000000
 51
298.890129
  0
LINE
  8
OBRYS
 10
329.595702
 20
67.667436
 11
331.040034
 21
67.667436
  0
LINE
  8
OBRYS
 10
333.419134
 20
69.850164
 11
334.968592
 21
69.850164
  0
POLYLINE
  8
OBRYS
 66
    1
  0
VERTEX
  8
OBRYS
 10
329.600525
 20
67.294235
  0
VERTEX
  8
OBRYS
 10
331.039978
 20
67.667526
  0
VERTEX
  8
OBRYS
 10
334.968567
 20
69.850266
  0
VERTEX
  8
OBRYS
 10
335.786560
 20
70.518967
  0
VERTEX
  8
OBRYS
 10
336.054016
 20
70.975143
  0
SEQEND
  8
OBRYS
  0
LINE
  8
OBRYS
 10
248.891636
 20
67.294080
 11
237.891636
 21
67.294080
  0
LINE
  8
OBRYS
 10
247.085770
 20
67.667436
 11
248.036659
 21
67.294080
  0
POLYLINE
  8
OBRYS
 66
    1
  0
VERTEX
  8
OBRYS
 10
244.152359
 20
71.905807
  0
VERTEX
  8
OBRYS
 10
244.275467
 20
70.861618
  0
VERTEX
  8
OBRYS
 10
244.629288
 20
69.947922
  0
VERTEX
  8
OBRYS
 10
245.169693
 20
69.279221
  0
SEQEND
  8
OBRYS
  0
POLYLINE
  8
OBRYS
 66
    1
  0
VERTEX
  8
OBRYS
 10
244.613541
 20
70.975143
  0
VERTEX
  8
OBRYS
 10
244.470352
 20
71.152390
  0
VERTEX
  8
OBRYS
 10
244.234451
 20
71.761520
  0
VERTEX
  8
OBRYS
 10
244.152359
 20
72.457687
  0
SEQEND
  8
OBRYS
  0
POLYLINE
  8
OBRYS
 66
    1
  0
VERTEX
  8
OBRYS
 10
248.857742
 20
67.294235
  0
VERTEX
  8
OBRYS
 10
247.911026
 20
67.667526
  0
VERTEX
  8
OBRYS
 10
245.327408
 20
69.850266
  0
VERTEX
  8
OBRYS
 10
244.789383
 20
70.518967
  0
VERTEX
  8
OBRYS
 10
244.613541
 20
70.975143
  0
SEQEND
  8
OBRYS
  0
LINE
  8
OBRYS
 10
248.036659
 20
67.294080
 11
245.480223
 21
67.294080
  0
LINE
  8
OBRYS
 10
244.152330
 20
71.905736
 11
241.293656
 21
71.905736
  0
LINE
  8
OBRYS
 10
241.293656
 20
72.457541
 11
244.152330
 21
72.457541
  0
LINE
  8
OBRYS
 10
245.169619
 20
69.279093
 11
242.390100
 21
69.279093
  0
LINE
  8
OBRYS
 10
245.480223
 20
67.294080
 11
244.455346
 21
67.667436
  0
POLYLINE
  8
OBRYS
 66
    1
  0
VERTEX
  8
OBRYS
 10
242.390152
 20
69.279221
  0
VERTEX
  8
OBRYS
 10
241.807755
 20
69.947922
  0
VERTEX
  8
OBRYS
 10
241.426346
 20
70.861618
  0
VERTEX
  8
OBRYS
 10
241.293716
 20
71.905807
  0
SEQEND
  8
OBRYS
  0
LINE
  8
OBRYS
 10
247.085770
 20
67.667436
 11
244.455346
 21
67.667436
  0
POLYLINE
  8
OBRYS
 66
    1
  0
VERTEX
  8
OBRYS
 10
232.182755
 20
67.294235
  0
VERTEX
  8
OBRYS
 10
230.743301
 20
67.667526
  0
VERTEX
  8
OBRYS
 10
226.814713
 20
69.850266
  0
VERTEX
  8
OBRYS
 10
225.996719
 20
70.518967
  0
VERTEX
  8
OBRYS
 10
225.729263
 20
70.975143
  0
SEQEND
  8
OBRYS
  0
LINE
  8
OBRYS
 10
268.744219
 20
67.294080
 11
268.639287
 21
67.294080
  0
LINE
  8
OBRYS
 10
238.790429
 20
67.294080
 11
241.672931
 21
67.294080
  0
LINE
  8
OBRYS
 10
236.284739
 20
77.294080
 11
233.436084
 21
77.294080
  0
LINE
  8
OBRYS
 10
233.603887
 20
67.294080
 11
241.672931
 21
67.294080
  0
POLYLINE
  8
OBRYS
 66
    1
  0
VERTEX
  8
OBRYS
 10
233.436111
 20
71.534348
  0
VERTEX
  8
OBRYS
 10
233.463150
 20
72.456345
  0
VERTEX
  8
OBRYS
 10
233.467545
 20
72.476852
  0
VERTEX
  8
OBRYS
 10
233.467545
 20
77.294235
  0
VERTEX
  8
OBRYS
 10
233.463150
 20
77.294235
  0
VERTEX
  8
OBRYS
 10
233.436111
 20
77.294235
  0
SEQEND
  8
OBRYS
  0
POLYLINE
  8
OBRYS
 66
    1
  0
VERTEX
  8
OBRYS
 10
230.734818
 20
77.294235
  0
VERTEX
  8
OBRYS
 10
230.734818
 20
76.294235
  0
VERTEX
  8
OBRYS
 10
230.955032
 20
75.146164
  0
VERTEX
  8
OBRYS
 10
231.582352
 20
74.172897
  0
VERTEX
  8
OBRYS
 10
232.521072
 20
73.522507
  0
VERTEX
  8
OBRYS
 10
232.950699
 20
73.433884
  0
VERTEX
  8
OBRYS
 10
233.436111
 20
73.336594
  0
SEQEND
  8
OBRYS
  0
LINE
  8
OBRYS
 10
251.392139
 20
72.476807
 11
233.467473
 21
72.476807
  0
LINE
  8
OBRYS
 10
226.498394
 20
72.476807
 11
224.891636
 21
72.476807
  0
LINE
  8
OBRYS
 10
228.364138
 20
69.850164
 11
226.814679
 21
69.850164
  0
LINE
  8
OBRYS
 10
255.328509
 20
67.667436
 11
247.910987
 21
67.667436
  0
LINE
  8
OBRYS
 10
245.187142
 20
67.667436
 11
237.576812
 21
67.667436
  0
LINE
  8
OBRYS
 10
232.187570
 20
67.667436
 11
230.743237
 21
67.667436
  0
ARC
  8
OBRYS
 10
236.949445
 20
71.704315
 40
3.518602
 50
182.568501
 51
199.763959
  0
POLYLINE
  8
OBRYS
 66
    1
  0
VERTEX
  8
OBRYS
 10
238.790482
 20
67.294235
  0
VERTEX
  8
OBRYS
 10
238.255508
 20
67.463791
  0
VERTEX
  8
OBRYS
 10
237.576859
 20
67.667526
  0
VERTEX
  8
OBRYS
 10
234.418533
 20
69.699142
  0
VERTEX
  8
OBRYS
 10
234.196671
 20
69.850266
  0
VERTEX
  8
OBRYS
 10
234.095230
 20
69.951828
  0
VERTEX
  8
OBRYS
 10
233.825882
 20
70.260056
  0
VERTEX
  8
OBRYS
 10
233.636551
 20
70.518967
  0
SEQEND
  8
OBRYS
  0
LINE
  8
OBRYS
 10
256.117866
 20
67.294080
 11
248.857677
 21
67.294080
  0
LINE
  8
OBRYS
 10
246.212018
 20
67.294080
 11
238.790429
 21
67.294080
  0
LINE
  8
OBRYS
 10
233.603887
 20
67.294080
 11
232.182718
 21
67.294080
  0
LINE
  8
OBRYS
 10
243.096308
 20
67.294080
 11
244.040782
 21
67.294080
  0
LINE
  8
OBRYS
 10
248.036659
 20
67.294080
 11
248.857677
 21
67.294080
  0
LINE
  8
OBRYS
 10
245.169619
 20
69.279093
 11
247.085770
 21
67.667436
  0
LINE
  8
OBRYS
 10
244.152330
 20
72.457541
 11
244.152330
 21
71.905736
  0
LINE
  8
OBRYS
 10
241.293656
 20
71.905736
 11
241.293656
 21
72.457541
  0
LINE
  8
OBRYS
 10
244.455346
 20
67.667436
 11
242.390100
 21
69.279093
  0
LINE
  8
OBRYS
 10
233.436084
 20
77.294080
 11
233.436084
 21
73.336544
  0
LINE
  8
OBRYS
 10
233.436084
 20
77.294080
 11
233.436084
 21
71.534213
  0
LINE
  8
OBRYS
 10
228.636268
 20
69.699072
 11
228.636268
 21
77.294080
  0
LINE
  8
OBRYS
 10
232.950657
 20
67.463646
 11
232.950657
 21
73.433846
  0
ARC
  8
OBRYS
 10
230.812336
 20
70.294080
 40
3.000000
 50
241.109871
 51
270.000000
  0
LINE
  8
OBRYS
 10
224.891636
 20
75.944586
 11
224.891636
 21
75.864701
  0
LINE
  8
OBRYS
 10
229.362941
 20
67.667436
 11
226.442241
 21
69.279093
  0
ARC
  8
OBRYS
 10
227.891636
 20
71.905736
 40
3.000000
 50
180.000000
 51
241.109871
  0
LINE
  8
OBRYS
 10
230.812336
 20
67.294080
 11
250.891636
 21
67.294080
  0
LINE
  8
OBRYS
 10
224.891636
 20
71.905736
 11
224.891636
 21
77.294080
  0
LINE
  8
OBRYS
 10
233.436084
 20
73.336544
 11
232.950657
 21
73.433846
  0
LINE
  8
OBRYS
 10
232.950657
 20
73.433846
 11
232.521046
 21
73.522441
  0
LINE
  8
OBRYS
 10
232.521046
 20
73.522441
 11
231.582272
 21
74.172759
  0
LINE
  8
OBRYS
 10
231.582272
 20
74.172759
 11
230.955004
 21
75.146029
  0
LINE
  8
OBRYS
 10
230.955004
 20
75.146029
 11
230.734737
 21
76.294080
  0
LINE
  8
OBRYS
 10
230.734737
 20
76.294080
 11
230.734737
 21
77.294080
  0
LINE
  8
OBRYS
 10
230.734737
 20
77.294080
 11
228.636268
 21
77.294080
  0
LINE
  8
OBRYS
 10
228.636268
 20
77.294080
 11
228.239750
 21
77.294080
  0
LINE
  8
OBRYS
 10
228.239750
 20
77.294080
 11
227.839104
 21
77.294080
  0
LINE
  8
OBRYS
 10
227.839104
 20
77.294080
 11
227.450446
 21
77.294080
  0
LINE
  8
OBRYS
 10
227.450446
 20
77.294080
 11
224.891636
 21
77.294080
  0
LINE
  8
OBRYS
 10
227.089410
 20
77.294080
 11
226.770520
 21
77.294080
  0
LINE
  8
OBRYS
 10
226.770520
 20
77.294080
 11
226.506604
 21
77.294080
  0
LINE
  8
OBRYS
 10
226.506604
 20
77.294080
 11
226.498394
 21
77.294080
  0
LINE
  8
OBRYS
 10
226.498394
 20
77.294080
 11
226.498394
 21
72.476807
  0
LINE
  8
OBRYS
 10
226.498394
 20
72.476807
 11
226.506604
 21
72.456299
  0
LINE
  8
OBRYS
 10
226.506604
 20
72.456299
 11
226.770520
 21
71.534213
  0
LINE
  8
OBRYS
 10
226.770520
 20
71.534213
 11
226.795232
 21
71.432566
  0
LINE
  8
OBRYS
 10
226.795232
 20
71.432566
 11
227.089410
 21
71.064313
  0
LINE
  8
OBRYS
 10
227.089410
 20
71.064313
 11
227.450446
 21
70.562616
  0
LINE
  8
OBRYS
 10
227.450446
 20
70.562616
 11
227.479519
 21
70.518928
  0
LINE
  8
OBRYS
 10
227.479519
 20
70.518928
 11
227.839104
 21
70.259928
  0
LINE
  8
OBRYS
 10
227.839104
 20
70.259928
 11
228.239750
 21
69.951787
  0
LINE
  8
OBRYS
 10
228.239750
 20
69.951787
 11
228.364138
 21
69.850164
  0
LINE
  8
OBRYS
 10
228.364138
 20
69.850164
 11
228.636268
 21
69.699072
  0
LINE
  8
OBRYS
 10
228.636268
 20
69.699072
 11
232.187570
 21
67.667436
  0
LINE
  8
OBRYS
 10
232.187570
 20
67.667436
 11
232.950657
 21
67.463646
  0
LINE
  8
OBRYS
 10
232.950657
 20
67.463646
 11
233.603887
 21
67.294080
  0
LINE
  8
OBRYS
 10
250.891636
 20
67.294080
 11
260.265056
 21
67.294080
  0
LINE
  8
OBRYS
 10
255.729028
 20
67.463646
 11
255.729028
 21
70.837616
  0
LINE
  8
OBRYS
 10
253.464550
 20
69.699072
 11
253.464550
 21
72.891354
  0
LINE
  8
OBRYS
 10
233.467473
 20
77.294080
 11
249.295583
 21
77.294080
  0
POLYLINE
  8
OBRYS
 66
    1
  0
VERTEX
  8
OBRYS
 10
251.392166
 20
74.968597
  0
VERTEX
  8
OBRYS
 10
251.392166
 20
72.476852
  0
VERTEX
  8
OBRYS
 10
251.408218
 20
72.456345
  0
VERTEX
  8
OBRYS
 10
251.808426
 20
71.534348
  0
VERTEX
  8
OBRYS
 10
251.839249
 20
71.432663
  0
VERTEX
  8
OBRYS
 10
252.206009
 20
71.064377
  0
VERTEX
  8
OBRYS
 10
252.584854
 20
70.562668
  0
VERTEX
  8
OBRYS
 10
252.610672
 20
70.518967
  0
VERTEX
  8
OBRYS
 10
252.929886
 20
70.260056
  0
VERTEX
  8
OBRYS
 10
253.227127
 20
69.951828
  0
VERTEX
  8
OBRYS
 10
253.301590
 20
69.850266
  0
VERTEX
  8
OBRYS
 10
253.464615
 20
69.699142
  0
VERTEX
  8
OBRYS
 10
255.328568
 20
67.667526
  0
VERTEX
  8
OBRYS
 10
255.729080
 20
67.463791
  0
VERTEX
  8
OBRYS
 10
256.117920
 20
67.294235
  0
SEQEND
  8
OBRYS
  0
LINE
  8
OBRYS
 10
236.284739
 20
77.294080
 11
249.295583
 21
77.294080
  0
LINE
  8
OBRYS
 10
332.891636
 20
59.294080
 11
313.626630
 21
59.294080
  0
ARC
  8
OBRYS
 10
323.391636
 20
68.294080
 40
4.500000
 50
278.001860
 51
323.397585
  0
LINE
  8
OBRYS
 10
330.970936
 20
67.294080
 11
329.518215
 21
67.294080
  0
LINE
  8
OBRYS
 62
     7
  6
DASHDOT
 10
330.891636
 20
68.294080
 11
335.391632
 21
68.294080
  0
LINE
  8
OBRYS
 10
329.518215
 20
67.294080
 11
329.600554
 21
67.294080
  0
LINE
  8
OBRYS
 10
335.069485
 20
71.732432
 11
335.012751
 21
71.534213
  0
LINE
  8
OBRYS
 10
335.012751
 20
71.534213
 11
334.988039
 21
71.432566
  0
LINE
  8
OBRYS
 10
334.988039
 20
71.432566
 11
334.693861
 21
71.064313
  0
LINE
  8
OBRYS
 10
334.693861
 20
71.064313
 11
334.332826
 21
70.562616
  0
LINE
  8
OBRYS
 10
334.332826
 20
70.562616
 11
334.303753
 21
70.518928
  0
LINE
  8
OBRYS
 10
334.303753
 20
70.518928
 11
333.944168
 21
70.259928
  0
LINE
  8
OBRYS
 10
333.944168
 20
70.259928
 11
333.543522
 21
69.951787
  0
LINE
  8
OBRYS
 10
333.543522
 20
69.951787
 11
333.419134
 21
69.850164
  0
LINE
  8
OBRYS
 10
333.419134
 20
69.850164
 11
333.147003
 21
69.699072
  0
LINE
  8
OBRYS
 10
333.147003
 20
69.699072
 11
331.502101
 21
68.758053
  0
LINE
  8
OBRYS
 10
333.147003
 20
69.699072
 11
333.147003
 21
70.071500
  0
LINE
  8
OBRYS
 10
335.880008
 20
72.476807
 11
336.891636
 21
72.476807
  0
LINE
  8
OBRYS
 10
336.891636
 20
63.294080
 11
336.891636
 21
73.445509
  0
ENDBLK
  8
OBRYS
  0
ENDSEC
  0
SECTION
  2
ENTITIES
  0
LINE
  8
POMOC
 62
     2
  6
CONTINUOUS
 10
336.891636
 20
587.683634
 11
280.891636
 21
587.683634
  0
LINE
  8
NEVIDITELNA
 10
232.891636
 20
563.683634
 11
232.891636
 21
541.683634
  0
ARC
  8
0
 62
     2
 10
227.891636
 20
541.683634
 40
5.000000
 50
0.000000
 51
90.000000
  0
LINE
  8
POMOC
 62
     2
  6
CONTINUOUS
 10
227.891636
 20
564.683634
 11
227.891636
 21
555.683634
  0
LINE
  8
POMOC
 62
     2
  6
CONTINUOUS
 10
227.891636
 20
546.683634
 11
227.891636
 21
555.683634
  0
ARC
  8
0
 62
     2
 10
230.891636
 20
529.683634
 40
2.000000
 50
270.000000
 51
360.000000
  0
ARC
  8
OBRYS
 10
226.891636
 20
525.683634
 40
2.000000
 50
90.000000
 51
180.000000
  0
LINE
  8
OSA
 10
280.891636
 20
503.774836
 11
280.891636
 21
555.683634
  0
LINE
  8
OSA
 10
330.891636
 20
588.683634
 11
330.891636
 21
555.683634
  0
LINE
  8
OSA
 10
280.891636
 20
589.133908
 11
280.891636
 21
555.683634
  0
LINE
  8
POMOC
 62
     2
  6
CONTINUOUS
 10
224.891636
 20
587.683634
 11
280.891636
 21
587.683634
  0
ARC
  8
OBRYS
 10
318.767280
 20
576.683634
 40
10.000000
 50
90.000000
 51
150.000000
  0
LINE
  8
OBRYS
 10
343.015991
 20
586.683634
 11
318.767280
 21
586.683634
  0
LINE
  8
OBRYS
 10
310.107026
 20
581.683634
 11
297.982670
 21
560.683634
  0
ARC
  8
OBRYS
 10
306.642925
 20
555.683634
 40
10.000000
 50
150.000000
 51
210.000000
  0
LINE
  8
OBRYS
 10
297.982670
 20
550.683634
 11
310.107026
 21
529.683634
  0
ARC
  8
OBRYS
 10
318.767280
 20
534.683634
 40
10.000000
 50
210.000000
 51
270.000000
  0
LINE
  8
OBRYS
 10
318.767280
 20
524.683634
 11
343.015991
 21
524.683634
  0
ARC
  8
OBRYS
 10
343.015991
 20
534.683634
 40
10.000000
 50
270.000000
 51
330.000000
  0
LINE
  8
OBRYS
 10
351.676245
 20
529.683634
 11
363.800601
 21
550.683634
  0
ARC
  8
OBRYS
 10
343.015991
 20
576.683634
 40
10.000000
 50
30.000000
 51
90.000000
  0
LINE
  8
OBRYS
 10
363.800601
 20
560.683634
 11
351.676245
 21
581.683634
  0
ARC
  8
OBRYS
 10
355.140347
 20
555.683634
 40
10.000000
 50
330.000000
 51
30.000000
  0
CIRCLE
  8
OBRYS
 10
330.891636
 20
555.683634
 40
26.000000
  0
LINE
  8
OBRYS
 10
294.025805
 20
570.683634
 11
294.025805
 21
584.318023
  0
ARC
  8
OBRYS
 10
338.892360
 20
587.699074
 40
2.000000
 50
181.982723
 51
210.512083
  0
ARC
  8
OSA
 62
     2
  6
CONTINUOUS
 10
338.892315
 20
523.668182
 40
2.000000
 50
149.487542
 51
178.000000
  0
LINE
  8
OBRYS
 10
226.891636
 20
527.683634
 11
311.261727
 21
527.683634
  0
ARC
  8
OBRYS
 10
225.891636
 20
585.318023
 40
1.000000
 50
180.000000
 51
270.000000
  0
LINE
  8
OBRYS
 10
306.025805
 20
574.614752
 11
306.025805
 21
584.318023
  0
LINE
  8
OBRYS
 10
225.891636
 20
584.318023
 11
312.308479
 21
584.318023
  0
ARC
  8
OBRYS
 10
300.025805
 20
570.683634
 40
6.000000
 50
180.000000
 51
248.848608
  0
ARC
  8
OBRYS
 10
297.139137
 20
563.222592
 40
2.000000
 50
330.000000
 51
68.848608
  0
LINE
  8
OBRYS
 10
267.757466
 20
570.683634
 11
267.757466
 21
584.318023
  0
LINE
  8
OBRYS
 10
255.757466
 20
570.683634
 11
255.757466
 21
584.318023
  0
ARC
  8
OBRYS
 10
261.757466
 20
570.683634
 40
6.000000
 50
270.000000
 51
360.000000
  0
ARC
  8
OBRYS
 10
261.757466
 20
570.683634
 40
6.000000
 50
180.000000
 51
270.000000
  0
LINE
  8
OBRYS
 10
238.958569
 20
569.683634
 11
238.958569
 21
584.318023
  0
ARC
  8
OBRYS
 10
233.958569
 20
569.683634
 40
5.000000
 50
270.000000
 51
360.000000
  0
LINE
  8
OBRYS
 10
228.697659
 20
569.683634
 11
228.697659
 21
584.318023
  0
LINE
  8
OBRYS
 10
233.958569
 20
564.683634
 11
233.697659
 21
564.683634
  0
ARC
  8
OBRYS
 10
233.697659
 20
569.683634
 40
5.000000
 50
180.000000
 51
270.000000
  0
LINE
  8
OBRYS
 10
224.891636
 20
587.683634
 11
224.891636
 21
585.318023
  0
LINE
  8
0
 62
     2
 10
232.891636
 20
564.749029
 11
232.891636
 21
529.683634
  0
ARC
  8
0
 62
     2
 10
227.891636
 20
569.683634
 40
5.000000
 50
270.000000
 51
305.492919
  0
ARC
  8
OBRYS
 10
225.891636
 20
561.683634
 40
1.000000
 50
90.000000
 51
180.000000
  0
LINE
  8
OBRYS
 10
224.891636
 20
561.683634
 11
224.891636
 21
549.683634
  0
ARC
  8
OBRYS
 10
225.891636
 20
549.683634
 40
1.000000
 50
180.000000
 51
270.000000
  0
LINE
  8
OBRYS
 10
227.891636
 20
562.683634
 11
225.891636
 21
562.683634
  0
LINE
  8
OBRYS
 10
227.891636
 20
548.683634
 11
225.891636
 21
548.683634
  0
LINE
  8
OBRYS
 10
227.891636
 20
562.683634
 11
227.891636
 21
548.683634
  0
LINE
  8
OSA
 10
237.220538
 20
555.683634
 11
223.446288
 21
555.683634
  0
LINE
  8
OSA
 10
330.891636
 20
522.683634
 11
330.891636
 21
555.683634
  0
LINE
  8
OSA
 10
330.891636
 20
555.683634
 11
225.673917
 21
555.683634
  0
LINE
  8
OBRYS
 10
224.891636
 20
588.683634
 11
224.891636
 21
585.505391
  0
LINE
  8
OBRYS
 10
224.891636
 20
522.683634
 11
224.891636
 21
525.861876
  0
LINE
  8
OSA
 10
370.614000
 20
555.683634
 11
330.891636
 21
555.683634
  0
LINE
  8
OSA
 10
330.891636
 20
390.444966
 11
330.891636
 21
363.444966
  0
LINE
  8
OSA
 10
370.614000
 20
116.294080
 11
330.891636
 21
116.294080
  0
LINE
  8
OBRYS
 10
224.891636
 20
149.294080
 11
224.891636
 21
146.115837
  0
LINE
  8
OBRYS
 10
224.891636
 20
83.294080
 11
224.891636
 21
86.472322
  0
LINE
  8
OSA
 10
330.891636
 20
116.294080
 11
225.673917
 21
116.294080
  0
LINE
  8
OSA
 10
330.891636
 20
149.294080
 11
330.891636
 21
116.294080
  0
LINE
  8
OSA
 10
237.220538
 20
116.294080
 11
223.446288
 21
116.294080
  0
LINE
  8
OBRYS
 10
227.891636
 20
109.294080
 11
227.891636
 21
123.294080
  0
LINE
  8
OBRYS
 10
227.891636
 20
123.294080
 11
225.891636
 21
123.294080
  0
LINE
  8
OBRYS
 10
227.891636
 20
109.294080
 11
225.891636
 21
109.294080
  0
ARC
  8
OBRYS
 10
225.891636
 20
122.294080
 40
1.000000
 50
90.000000
 51
180.000000
  0
LINE
  8
OBRYS
 10
224.891636
 20
110.294080
 11
224.891636
 21
122.294080
  0
ARC
  8
OBRYS
 10
225.891636
 20
110.294080
 40
1.000000
 50
180.000000
 51
270.000000
  0
ARC
  8
0
 62
     2
 10
227.891636
 20
102.294080
 40
5.000000
 50
54.507081
 51
90.000000
  0
LINE
  8
0
 62
     2
 10
232.891636
 20
107.228685
 11
232.891636
 21
142.294080
  0
LINE
  8
OBRYS
 10
224.891636
 20
84.294080
 11
224.891636
 21
86.659691
  0
ARC
  8
OBRYS
 10
233.697659
 20
102.294080
 40
5.000000
 50
90.000000
 51
180.000000
  0
LINE
  8
OBRYS
 10
233.958569
 20
107.294080
 11
233.697659
 21
107.294080
  0
LINE
  8
OBRYS
 10
228.697659
 20
102.294080
 11
228.697659
 21
87.659691
  0
ARC
  8
OBRYS
 10
225.891636
 20
86.659691
 40
1.000000
 50
90.000000
 51
180.000000
  0
LINE
  8
OSA
 10
330.891636
 20
83.294080
 11
330.891636
 21
116.294080
  0
LINE
  8
OSA
 10
280.891636
 20
168.202878
 11
280.891636
 21
116.294080
  0
ARC
  8
OBRYS
 10
226.891636
 20
146.294080
 40
2.000000
 50
180.000000
 51
270.000000
  0
ARC
  8
0
 62
     2
 10
230.891636
 20
142.294080
 40
2.000000
 50
0.000000
 51
90.000000
  0
LINE
  8
POMOC
 62
     2
  6
CONTINUOUS
 10
227.891636
 20
125.294080
 11
227.891636
 21
116.294080
  0
LINE
  8
POMOC
 62
     2
  6
CONTINUOUS
 10
227.891636
 20
107.294080
 11
227.891636
 21
116.294080
  0
ARC
  8
0
 62
     2
 10
227.891636
 20
130.294080
 40
5.000000
 50
270.000000
 51
360.000000
  0
LINE
  8
NEVIDITELNA
 10
232.891636
 20
108.294080
 11
232.891636
 21
130.294080
  0
INSERT
  8
OBRYS
  2
_0
 62
     7
 10
98.594986
 20
371.444966
  0
INSERT
  8
OBRYS
  2
_1
 62
     7
 10
330.891636
 20
371.444966
  0
INSERT
  8
OBRYS
  2
_2
 62
     7
 10
477.847370
 20
371.444966
  0
INSERT
  8
OSA
  2
_3
  6
CONTINUOUS
 10
330.891636
 20
116.294080
  0
LINE
  8
OBRYS
 10
226.891636
 20
144.294080
 11
241.825639
 21
144.294080
  0
LINE
  8
POMOC
 62
     2
  6
CONTINUOUS
 10
224.891636
 20
84.294080
 11
244.137326
 21
84.294080
  0
LINE
  8
OBRYS
 10
225.891636
 20
87.659691
 11
242.165250
 21
87.659691
  0
LINE
  8
OBRYS
 10
238.958569
 20
94.580213
 11
238.958569
 21
87.659691
  0
ARC
  8
OBRYS
 10
233.958569
 20
102.294080
 40
5.000000
 50
70.665974
 51
90.000000
  0
LINE
  8
OSA
 10
280.891636
 20
64.385282
 11
280.891636
 21
116.294080
  0
LINE
  8
0
 62
     2
 10
350.466525
 20
520.251925
 11
359.586659
 21
524.666679
  0
ARC
  8
OBRYS
 10
357.408140
 20
529.167129
 40
5.000000
 50
295.830081
 51
326.488335
  0
LINE
  8
OSA
 10
330.891636
 20
595.683630
 11
330.891636
 21
515.683637
  0
LINE
  8
0
 62
     2
 10
350.466525
 20
591.115342
 11
359.586659
 21
586.700589
  0
ARC
  8
OBRYS
 10
345.891636
 20
581.664396
 40
10.500000
 50
64.169919
 51
89.999994
  0
ARC
  8
OBRYS
 10
345.891636
 20
529.702872
 40
10.500000
 50
270.000006
 51
295.830081
  0
LINE
  8
OSA
 10
377.180771
 20
555.683634
 11
234.891636
 21
555.683634
  0
LINE
  8
OSA
 10
294.891636
 20
615.683634
 11
294.891636
 21
495.683634
  0
ARC
  8
OBRYS
 10
317.363727
 20
555.683634
 40
53.027909
 50
326.488379
 51
33.511629
  0
ARC
  8
OBRYS
 10
357.408140
 20
582.200138
 40
5.000000
 50
33.511664
 51
64.169919
  0
LINE
  8
0
 62
     2
 10
336.735164
 20
592.164396
 11
345.891636
 21
592.164396
  0
LINE
  8
0
 62
     2
 10
336.733181
 20
519.202872
 11
345.891636
 21
519.202872
  0
ARC
  8
OBRYS
 10
294.891636
 20
555.683634
 40
60.000000
 50
37.445947
 51
45.572996
  0
ARC
  8
OBRYS
 10
294.891636
 20
555.683634
 40
60.000000
 50
314.427004
 51
322.554053
  0
INSERT
  8
OBRYS
  2
_4
 62
     7
 10
280.891636
 20
310.444966
  0
LINE
  8
OSA
 10
280.891636
 20
307.444966
 11
280.891636
 21
313.444966
  0
LINE
  8
OSA
 10
283.891636
 20
310.444966
 11
277.891636
 21
310.444966
  0
LINE
  8
OBRYS
 10
304.091636
 20
371.444966
 11
295.863430
 21
371.444966
  0
LINE
  8
OBRYS
 10
357.691636
 20
371.444966
 11
365.919842
 21
371.444966
  0
LINE
  8
OSA
 10
330.891636
 20
310.444966
 11
330.891636
 21
246.687884
  0
LINE
  8
OSA
 10
330.891636
 20
310.444966
 11
330.891636
 21
368.444966
  0
LINE
  8
OBRYS
 10
295.869422
 20
371.444966
 11
365.913850
 21
371.444966
  0
LINE
  8
OBRYS
 10
295.869422
 20
371.444966
 11
295.869422
 21
364.404821
  0
LINE
  8
OBRYS
 10
365.913850
 20
245.444966
 11
365.913850
 21
270.444966
  0
LINE
  8
OBRYS
 10
365.913850
 20
371.444966
 11
365.913850
 21
350.444966
  0
LINE
  8
0
 62
     2
 10
345.902743
 20
245.444966
 11
345.902743
 21
271.206973
  0
LINE
  8
0
 62
     2
 10
350.232870
 20
245.444966
 11
350.232870
 21
271.407121
  0
LINE
  8
0
 62
     2
 10
365.243977
 20
245.444966
 11
365.243977
 21
271.178740
  0
POLYLINE
  8
0
 62
     2
 66
    1
  0
VERTEX
  8
0
 62
     2
 10
325.413422
 20
344.412933
  0
VERTEX
  8
0
 62
     2
 10
330.891693
 20
343.478363
  0
VERTEX
  8
0
 62
     2
 10
337.057953
 20
344.530243
  0
VERTEX
  8
0
 62
     2
 10
343.732330
 20
347.902313
  0
VERTEX
  8
0
 62
     2
 10
345.902802
 20
349.682953
  0
VERTEX
  8
0
 62
     2
 10
346.942352
 20
350.368134
  0
VERTEX
  8
0
 62
     2
 10
347.936493
 20
350.687958
  0
VERTEX
  8
0
 62
     2
 10
348.841705
 20
350.628510
  0
VERTEX
  8
0
 62
     2
 10
349.618500
 20
350.192230
  0
VERTEX
  8
0
 62
     2
 10
350.077606
 20
349.598969
  0
VERTEX
  8
0
 62
     2
 10
350.232941
 20
349.482880
  0
VERTEX
  8
0
 62
     2
 10
353.585236
 20
345.372406
  0
VERTEX
  8
0
 62
     2
 10
356.722565
 20
343.593597
  0
VERTEX
  8
0
 62
     2
 10
359.779083
 20
343.941620
  0
VERTEX
  8
0
 62
     2
 10
363.000031
 20
346.487518
  0
VERTEX
  8
0
 62
     2
 10
365.244049
 20
349.711273
  0
VERTEX
  8
0
 62
     2
 10
365.669159
 20
350.284760
  0
VERTEX
  8
0
 62
     2
 10
365.886505
 20
350.486786
  0
VERTEX
  8
0
 62
     2
 10
365.886505
 20
350.397552
  0
SEQEND
  8
0
  0
LINE
  8
0
 62
     2
 10
365.243977
 20
371.444966
 11
365.243977
 21
349.711192
  0
LINE
  8
0
 62
     2
 10
345.902743
 20
371.444966
 11
345.902743
 21
349.682959
  0
LINE
  8
0
 62
     2
 10
350.232870
 20
371.444966
 11
350.232870
 21
349.482811
  0
LINE
  8
0
 62
     2
 10
296.539295
 20
371.444966
 11
296.539295
 21
364.214388
  0
LINE
  8
0
 62
     2
 10
311.550402
 20
371.444966
 11
311.550402
 21
357.306891
  0
LINE
  8
0
 62
     2
 10
315.880529
 20
371.444966
 11
315.880529
 21
354.168842
  0
LINE
  8
0
 62
     2
 10
361.891636
 20
343.478287
 11
326.111097
 21
343.478287
  0
LINE
  8
OBRYS
 10
361.891636
 20
277.411645
 11
361.891636
 21
343.478287
  0
LINE
  8
OBRYS
 10
365.913850
 20
350.444966
 11
361.891636
 21
343.478287
  0
LINE
  8
OBRYS
 10
365.913850
 20
270.444966
 11
361.891636
 21
277.411645
  0
LINE
  8
0
 62
     2
 10
361.891636
 20
277.411645
 11
336.884039
 21
277.411645
  0
POLYLINE
  8
0
 62
     2
 66
    1
  0
VERTEX
  8
0
 62
     2
 10
336.884064
 20
276.389374
  0
VERTEX
  8
0
 62
     2
 10
337.057953
 20
276.359711
  0
VERTEX
  8
0
 62
     2
 10
343.732330
 20
272.987762
  0
VERTEX
  8
0
 62
     2
 10
345.902802
 20
271.207001
  0
VERTEX
  8
0
 62
     2
 10
346.942352
 20
270.521820
  0
VERTEX
  8
0
 62
     2
 10
347.936493
 20
270.201996
  0
VERTEX
  8
0
 62
     2
 10
348.841705
 20
270.261566
  0
VERTEX
  8
0
 62
     2
 10
349.618500
 20
270.697845
  0
VERTEX
  8
0
 62
     2
 10
350.077606
 20
271.290985
  0
VERTEX
  8
0
 62
     2
 10
350.232941
 20
271.407196
  0
VERTEX
  8
0
 62
     2
 10
353.585236
 20
275.517548
  0
VERTEX
  8
0
 62
     2
 10
356.722565
 20
277.296478
  0
VERTEX
  8
0
 62
     2
 10
359.779083
 20
276.948334
  0
VERTEX
  8
0
 62
     2
 10
363.000031
 20
274.402435
  0
VERTEX
  8
0
 62
     2
 10
365.244049
 20
271.178802
  0
VERTEX
  8
0
 62
     2
 10
365.669159
 20
270.605316
  0
VERTEX
  8
0
 62
     2
 10
365.886505
 20
270.403290
  0
VERTEX
  8
0
 62
     2
 10
365.886505
 20
270.492401
  0
SEQEND
  8
0
  0
LINE
  8
OBRYS
 10
336.884039
 20
245.444966
 11
365.913850
 21
245.444966
  0
LINE
  8
OBRYS
 10
137.094986
 20
310.444966
 11
137.094986
 21
295.324427
  0
LINE
  8
OBRYS
 10
131.594986
 20
254.444966
 11
129.594986
 21
254.444966
  0
LINE
  8
OBRYS
 10
60.094986
 20
364.286603
 11
60.094986
 21
295.324427
  0
ARC
  8
OSA
 62
     2
  6
CONTINUOUS
 10
62.094986
 20
364.286603
 40
2.000000
 50
92.000000
 51
180.000000
  0
LINE
  8
OSA
 62
     2
  6
CONTINUOUS
 10
66.649333
 20
366.446864
 11
62.025187
 21
366.285385
  0
INSERT
  8
OBRYS
  2
_5
 62
     7
 10
49.594986
 20
310.444966
  0
LINE
  8
OBRYS
 10
67.594986
 20
371.444966
 11
67.594986
 21
343.061181
  0
LINE
  8
OBRYS
 10
96.094986
 20
371.444966
 11
67.594986
 21
371.444966
  0
LINE
  8
OSA
 10
98.594986
 20
360.444966
 11
98.594986
 21
245.444966
  0
LINE
  8
OBRYS
 10
66.594986
 20
254.444966
 11
67.594986
 21
254.444966
  0
LINE
  8
OBRYS
 10
67.594986
 20
245.444966
 11
67.594986
 21
281.828751
  0
LINE
  8
OBRYS
 10
70.094986
 20
371.444966
 11
70.094986
 21
342.861033
  0
LINE
  8
OBRYS
 10
96.094986
 20
245.444966
 11
70.094986
 21
245.444966
  0
LINE
  8
OBRYS
 10
70.094986
 20
245.444966
 11
70.094986
 21
282.028899
  0
LINE
  8
OBRYS
 10
96.094986
 20
371.444966
 11
96.094986
 21
343.089414
  0
LINE
  8
OBRYS
 10
96.094986
 20
245.444966
 11
96.094986
 21
281.800518
  0
LINE
  8
OBRYS
 10
127.094986
 20
371.444966
 11
101.094986
 21
371.444966
  0
LINE
  8
OBRYS
 10
101.094986
 20
371.444966
 11
101.094986
 21
343.089414
  0
LINE
  8
OBRYS
 10
127.094986
 20
245.444966
 11
101.094986
 21
245.444966
  0
LINE
  8
OBRYS
 10
101.094986
 20
245.444966
 11
101.094986
 21
281.800518
  0
LINE
  8
OBRYS
 10
127.094986
 20
371.444966
 11
127.094986
 21
342.861033
  0
LINE
  8
OBRYS
 10
127.094986
 20
245.444966
 11
127.094986
 21
282.028899
  0
LINE
  8
OBRYS
 10
129.594986
 20
343.061181
 11
129.594986
 21
371.444966
  0
LINE
  8
OBRYS
 10
129.594986
 20
281.828751
 11
129.594986
 21
245.444966
  0
LINE
  8
OBRYS
 10
67.594986
 20
269.064406
 11
67.594986
 21
288.010953
  0
LINE
  8
OBRYS
 10
67.594986
 20
336.878979
 11
67.594986
 21
355.825525
  0
LINE
  8
OBRYS
 10
129.594986
 20
288.010953
 11
129.594986
 21
269.064406
  0
LINE
  8
OBRYS
 10
129.594986
 20
355.825525
 11
129.594986
 21
336.878979
  0
LINE
  8
OBRYS
 10
70.094986
 20
245.444966
 11
67.594986
 21
245.444966
  0
LINE
  8
OBRYS
 10
101.094986
 20
245.444966
 11
96.094986
 21
245.444966
  0
LINE
  8
OBRYS
 10
129.594986
 20
371.444966
 11
127.094986
 21
371.444966
  0
LINE
  8
OBRYS
 10
129.594986
 20
245.444966
 11
127.094986
 21
245.444966
  0
POLYLINE
  8
OBRYS
 66
    1
  0
VERTEX
  8
OBRYS
 10
129.595001
 20
288.010956
  0
VERTEX
  8
OBRYS
 10
129.595001
 20
286.981506
  0
VERTEX
  8
OBRYS
 10
129.595001
 20
283.609497
  0
VERTEX
  8
OBRYS
 10
129.595001
 20
281.828766
  0
VERTEX
  8
OBRYS
 10
129.485748
 20
281.143585
  0
VERTEX
  8
OBRYS
 10
129.162689
 20
280.823761
  0
VERTEX
  8
OBRYS
 10
128.640045
 20
280.883301
  0
VERTEX
  8
OBRYS
 10
127.940643
 20
281.319550
  0
VERTEX
  8
OBRYS
 10
127.308746
 20
281.912811
  0
VERTEX
  8
OBRYS
 10
127.095001
 20
282.028900
  0
VERTEX
  8
OBRYS
 10
121.288544
 20
286.139343
  0
VERTEX
  8
OBRYS
 10
115.854584
 20
287.918213
  0
VERTEX
  8
OBRYS
 10
110.560516
 20
287.570129
  0
VERTEX
  8
OBRYS
 10
104.981720
 20
285.024231
  0
VERTEX
  8
OBRYS
 10
101.095001
 20
281.800537
  0
VERTEX
  8
OBRYS
 10
100.140045
 20
281.227051
  0
VERTEX
  8
OBRYS
 10
99.117645
 20
281.025024
  0
VERTEX
  8
OBRYS
 10
98.595001
 20
281.114197
  0
VERTEX
  8
OBRYS
 10
98.072357
 20
281.025024
  0
VERTEX
  8
OBRYS
 10
97.049896
 20
281.227051
  0
VERTEX
  8
OBRYS
 10
96.095001
 20
281.800537
  0
VERTEX
  8
OBRYS
 10
92.208221
 20
285.024231
  0
VERTEX
  8
OBRYS
 10
86.629425
 20
287.570129
  0
VERTEX
  8
OBRYS
 10
81.335358
 20
287.918213
  0
VERTEX
  8
OBRYS
 10
75.901398
 20
286.139343
  0
VERTEX
  8
OBRYS
 10
70.095001
 20
282.028900
  0
VERTEX
  8
OBRYS
 10
69.881195
 20
281.912811
  0
VERTEX
  8
OBRYS
 10
69.249359
 20
281.319550
  0
VERTEX
  8
OBRYS
 10
68.549896
 20
280.883301
  0
VERTEX
  8
OBRYS
 10
68.027252
 20
280.823761
  0
VERTEX
  8
OBRYS
 10
67.704254
 20
281.143585
  0
VERTEX
  8
OBRYS
 10
67.595001
 20
281.828766
  0
VERTEX
  8
OBRYS
 10
67.595001
 20
283.609497
  0
VERTEX
  8
OBRYS
 10
67.595001
 20
286.981506
  0
VERTEX
  8
OBRYS
 10
67.595001
 20
288.010956
  0
SEQEND
  8
OBRYS
  0
LINE
  8
OBRYS
 10
129.580829
 20
288.033423
 11
67.609142
 21
288.033423
  0
POLYLINE
  8
OBRYS
 66
    1
  0
VERTEX
  8
OBRYS
 10
129.595001
 20
336.878998
  0
VERTEX
  8
OBRYS
 10
129.580841
 20
336.856476
  0
VERTEX
  8
OBRYS
 10
129.423859
 20
333.875214
  0
VERTEX
  8
OBRYS
 10
129.110016
 20
323.370026
  0
VERTEX
  8
OBRYS
 10
129.004059
 20
312.444977
  0
VERTEX
  8
OBRYS
 10
129.110016
 20
301.519867
  0
VERTEX
  8
OBRYS
 10
129.423859
 20
291.014709
  0
VERTEX
  8
OBRYS
 10
129.580841
 20
288.033447
  0
VERTEX
  8
OBRYS
 10
129.595001
 20
288.010956
  0
SEQEND
  8
OBRYS
  0
POLYLINE
  8
OBRYS
 66
    1
  0
VERTEX
  8
OBRYS
 10
67.595001
 20
288.010956
  0
VERTEX
  8
OBRYS
 10
67.609161
 20
288.033447
  0
VERTEX
  8
OBRYS
 10
67.766083
 20
291.014709
  0
VERTEX
  8
OBRYS
 10
68.079926
 20
301.519867
  0
VERTEX
  8
OBRYS
 10
68.185944
 20
312.444977
  0
VERTEX
  8
OBRYS
 10
68.079926
 20
323.370026
  0
VERTEX
  8
OBRYS
 10
67.766083
 20
333.875214
  0
VERTEX
  8
OBRYS
 10
67.609161
 20
336.856476
  0
VERTEX
  8
OBRYS
 10
67.595001
 20
336.878998
  0
SEQEND
  8
OBRYS
  0
POLYLINE
  8
OBRYS
 66
    1
  0
VERTEX
  8
OBRYS
 10
67.595001
 20
336.878998
  0
VERTEX
  8
OBRYS
 10
67.595001
 20
337.908417
  0
VERTEX
  8
OBRYS
 10
67.595001
 20
341.280426
  0
VERTEX
  8
OBRYS
 10
67.595001
 20
343.061188
  0
VERTEX
  8
OBRYS
 10
67.704254
 20
343.746368
  0
VERTEX
  8
OBRYS
 10
68.027252
 20
344.066193
  0
VERTEX
  8
OBRYS
 10
68.549896
 20
344.006622
  0
VERTEX
  8
OBRYS
 10
69.249359
 20
343.570404
  0
VERTEX
  8
OBRYS
 10
69.881195
 20
342.977142
  0
VERTEX
  8
OBRYS
 10
70.095001
 20
342.860992
  0
VERTEX
  8
OBRYS
 10
75.901398
 20
338.750580
  0
VERTEX
  8
OBRYS
 10
81.335358
 20
336.971710
  0
VERTEX
  8
OBRYS
 10
86.629425
 20
337.319794
  0
VERTEX
  8
OBRYS
 10
92.208221
 20
339.865692
  0
VERTEX
  8
OBRYS
 10
96.095001
 20
343.089386
  0
VERTEX
  8
OBRYS
 10
97.049896
 20
343.662872
  0
VERTEX
  8
OBRYS
 10
98.072357
 20
343.864899
  0
VERTEX
  8
OBRYS
 10
98.595001
 20
343.775726
  0
VERTEX
  8
OBRYS
 10
99.117645
 20
343.864899
  0
VERTEX
  8
OBRYS
 10
100.140045
 20
343.662872
  0
VERTEX
  8
OBRYS
 10
101.095001
 20
343.089386
  0
VERTEX
  8
OBRYS
 10
104.981720
 20
339.865692
  0
VERTEX
  8
OBRYS
 10
110.560516
 20
337.319794
  0
VERTEX
  8
OBRYS
 10
115.854584
 20
336.971710
  0
VERTEX
  8
OBRYS
 10
121.288544
 20
338.750580
  0
VERTEX
  8
OBRYS
 10
127.095001
 20
342.860992
  0
VERTEX
  8
OBRYS
 10
127.308746
 20
342.977142
  0
VERTEX
  8
OBRYS
 10
127.940643
 20
343.570404
  0
VERTEX
  8
OBRYS
 10
128.640045
 20
344.006622
  0
VERTEX
  8
OBRYS
 10
129.162689
 20
344.066193
  0
VERTEX
  8
OBRYS
 10
129.485748
 20
343.746368
  0
VERTEX
  8
OBRYS
 10
129.595001
 20
343.061188
  0
VERTEX
  8
OBRYS
 10
129.595001
 20
341.280426
  0
VERTEX
  8
OBRYS
 10
129.595001
 20
337.908417
  0
VERTEX
  8
OBRYS
 10
129.595001
 20
336.878998
  0
SEQEND
  8
OBRYS
  0
LINE
  8
OBRYS
 10
129.580829
 20
336.856509
 11
67.609142
 21
336.856509
  0
LINE
  8
OBRYS
 10
71.794986
 20
245.444966
 11
125.394986
 21
245.444966
  0
LINE
  8
OBRYS
 10
125.394986
 20
371.444966
 11
71.794986
 21
371.444966
  0
LINE
  8
OBRYS
 10
74.765618
 20
371.444966
 11
70.674396
 21
371.444966
  0
LINE
  8
OBRYS
 10
74.765618
 20
371.444966
 11
70.674396
 21
371.444966
  0
LINE
  8
OBRYS
 10
122.424354
 20
371.444966
 11
126.515575
 21
371.444966
  0
LINE
  8
OBRYS
 10
122.424354
 20
371.444966
 11
126.515575
 21
371.444966
  0
LINE
  8
OSA
 62
     2
  6
CONTINUOUS
 10
130.540638
 20
366.446864
 11
135.164785
 21
366.285385
  0
LINE
  8
OBRYS
 10
66.648742
 20
366.446888
 11
66.594986
 21
366.445027
  0
LINE
  8
POMOC
 62
     2
  6
CONTINUOUS
 10
66.594986
 20
366.444966
 11
66.594986
 21
310.444966
  0
LINE
  8
OSA
 10
150.503784
 20
310.444966
 11
98.594986
 21
310.444966
  0
ARC
  8
OSA
 62
     2
  6
CONTINUOUS
 10
135.094986
 20
364.286603
 40
2.000000
 50
0.000000
 51
88.000000
  0
LINE
  8
OSA
 10
65.144712
 20
310.444966
 11
98.594986
 21
310.444966
  0
LINE
  8
POMOC
 62
     2
  6
CONTINUOUS
 10
66.594986
 20
254.444966
 11
66.594986
 21
310.444966
  0
ARC
  8
OBRYS
 10
66.579546
 20
368.445690
 40
2.000000
 50
271.982723
 51
300.512083
  0
ARC
  8
OSA
 62
     2
  6
CONTINUOUS
 10
130.610437
 20
368.445645
 40
2.000000
 50
239.487542
 51
268.000000
  0
LINE
  8
OBRYS
 10
137.094986
 20
364.286603
 11
137.094986
 21
310.444966
  0
INSERT
  8
OBRYS
  2
_6
 62
     7
 10
147.594986
 20
310.444966
  0
LINE
  8
OBRYS
 10
510.847370
 20
254.444966
 11
507.481759
 21
254.444966
  0
LINE
  8
OBRYS
 10
516.347370
 20
310.444966
 11
516.347370
 21
295.324427
  0
LINE
  8
OBRYS
 10
516.347370
 20
364.286603
 11
516.347370
 21
310.444966
  0
ARC
  8
OSA
 62
     2
  6
CONTINUOUS
 10
514.347370
 20
364.286603
 40
2.000000
 50
0.000000
 51
88.000000
  0
LINE
  8
OSA
 62
     2
  6
CONTINUOUS
 10
509.793023
 20
366.446864
 11
514.417169
 21
366.285385
  0
INSERT
  8
OBRYS
  2
_7
 62
     7
 10
526.847370
 20
310.444966
  0
LINE
  8
OBRYS
 10
509.847370
 20
366.444966
 11
507.481759
 21
366.444966
  0
LINE
  8
POMOC
 62
     2
  6
CONTINUOUS
 10
509.847370
 20
366.444966
 11
509.847370
 21
310.444966
  0
LINE
  8
OSA
 10
477.847370
 20
388.791113
 11
477.847370
 21
242.412129
  0
LINE
  8
NEVIDITELNA
 10
485.847370
 20
262.444966
 11
463.847370
 21
262.444966
  0
ARC
  8
0
 62
     2
 10
451.847370
 20
260.444966
 40
2.000000
 50
90.000000
 51
180.000000
  0
ARC
  8
OBRYS
 10
447.847370
 20
256.444966
 40
2.000000
 50
270.000000
 51
360.000000
  0
LINE
  8
OSA
 10
425.938572
 20
310.444966
 11
477.847370
 21
310.444966
  0
LINE
  8
POMOC
 62
     2
  6
CONTINUOUS
 10
509.847370
 20
254.444966
 11
509.847370
 21
310.444966
  0
ARC
  8
OBRYS
 10
507.481759
 20
255.444966
 40
1.000000
 50
180.000000
 51
270.000000
  0
LINE
  8
OBRYS
 10
492.847370
 20
297.310796
 11
506.481759
 21
297.310796
  0
LINE
  8
OBRYS
 10
492.847370
 20
285.310796
 11
506.481759
 21
285.310796
  0
ARC
  8
OBRYS
 10
492.847370
 20
291.310796
 40
6.000000
 50
90.000000
 51
180.000000
  0
ARC
  8
OBRYS
 10
492.847370
 20
291.310796
 40
6.000000
 50
180.000000
 51
270.000000
  0
LINE
  8
OBRYS
 10
491.847370
 20
268.511899
 11
506.481759
 21
268.511899
  0
ARC
  8
OBRYS
 10
491.847370
 20
263.511899
 40
5.000000
 50
90.000000
 51
180.000000
  0
LINE
  8
OBRYS
 10
491.847370
 20
258.250989
 11
506.481759
 21
258.250989
  0
LINE
  8
OBRYS
 10
486.847370
 20
263.511899
 11
486.847370
 21
263.250989
  0
ARC
  8
OBRYS
 10
491.847370
 20
263.250989
 40
5.000000
 50
180.000000
 51
270.000000
  0
LINE
  8
0
 62
     2
 10
486.912765
 20
262.444966
 11
451.847370
 21
262.444966
  0
LINE
  8
OBRYS
 10
444.847370
 20
254.444966
 11
448.025613
 21
254.444966
  0
ARC
  8
OBRYS
 10
492.847370
 20
329.579135
 40
6.000000
 50
90.000000
 51
180.000000
  0
ARC
  8
OBRYS
 10
492.847370
 20
329.579135
 40
6.000000
 50
180.000000
 51
270.000000
  0
LINE
  8
OBRYS
 10
492.847370
 20
335.579135
 11
506.481759
 21
335.579135
  0
LINE
  8
OBRYS
 10
492.847370
 20
323.579135
 11
506.481759
 21
323.579135
  0
ARC
  8
OBRYS
 10
491.847370
 20
357.638942
 40
5.000000
 50
90.000000
 51
180.000000
  0
LINE
  8
OBRYS
 10
491.847370
 20
362.638942
 11
506.481759
 21
362.638942
  0
ARC
  8
OBRYS
 10
491.847370
 20
357.378033
 40
5.000000
 50
180.000000
 51
270.000000
  0
LINE
  8
OBRYS
 10
491.847370
 20
352.378033
 11
506.481759
 21
352.378033
  0
CIRCLE
  8
OBRYS
 10
477.847370
 20
310.444966
 40
9.000000
  0
INSERT
  8
OSA
 66
     1
  2
Sroub_M10x16_8
  6
CONTINUOUS
 10
477.847370
 20
310.444966
  0
ATTRIB
  8
OSA
  6
CONTINUOUS
 10
-75.650162
 20
55.219185
 40
2.500000
  1
DIN 912
  2
norma roz.
 70
     1
  0
ATTRIB
  8
OSA
  6
CONTINUOUS
 10
-75.650162
 20
55.219185
 40
2.500000
  1
1.5
  2
roztec
 70
     1
  0
ATTRIB
  8
OSA
  6
CONTINUOUS
 10
-75.650162
 20
55.219185
 40
2.500000
  1
*N
  2
puvod
 70
     1
  0
SEQEND
  8
OSA
  0
ARC
  8
OBRYS
 10
507.481759
 20
365.444966
 40
1.000000
 50
90.000000
 51
180.000000
  0
LINE
  8
OBRYS
 10
506.481759
 20
255.444966
 11
506.481759
 21
365.444966
  0
LINE
  8
0
 62
     2
 10
486.912765
 20
358.444966
 11
451.847370
 21
358.444966
  0
ARC
  8
0
 62
     2
 10
451.847370
 20
360.444966
 40
2.000000
 50
180.000000
 51
270.000000
  0
ARC
  8
OBRYS
 10
447.847370
 20
364.444966
 40
2.000000
 50
0.000000
 51
90.000000
  0
LINE
  8
OBRYS
 10
449.847370
 20
256.444966
 11
449.847370
 21
364.444966
  0
LINE
  8
OBRYS
 10
508.847370
 20
254.444966
 11
508.847370
 21
245.444966
  0
LINE
  8
OBRYS
 10
508.847370
 20
371.444966
 11
508.847370
 21
366.444966
  0
LINE
  8
OBRYS
 10
482.847372
 20
369.831478
 11
482.847372
 21
359.714464
  0
LINE
  8
OBRYS
 10
472.847369
 20
369.831478
 11
472.847369
 21
359.714464
  0
LINE
  8
OBRYS
 10
508.847370
 20
371.444966
 11
446.847370
 21
371.444966
  0
LINE
  8
OBRYS
 10
472.847369
 20
247.396991
 11
472.847369
 21
261.175468
  0
LINE
  8
OBRYS
 10
482.847372
 20
247.396991
 11
482.847372
 21
261.175468
  0
LINE
  8
OBRYS
 10
446.847370
 20
245.444966
 11
446.847370
 21
254.469329
  0
LINE
  8
OBRYS
 10
508.847370
 20
245.444966
 11
446.847370
 21
245.444966
  0
LINE
  8
OBRYS
 10
446.847370
 20
371.444966
 11
446.847370
 21
366.420602
  0
LINE
  8
OSA
 10
529.056299
 20
310.444966
 11
477.847370
 21
310.444966
  0
LINE
  8
OBRYS
 10
447.847370
 20
366.444966
 11
444.847370
 21
366.371875
  0
LINE
  8
OBRYS
 10
444.847370
 20
254.444966
 11
446.847370
 21
254.444966
  0
INSERT
  8
OBRYS
  2
_9
 62
     7
 10
428.847370
 20
310.444966
  0
LINE
  8
OSA
 62
     2
  6
CONTINUOUS
 10
445.901718
 20
366.446864
 11
441.277571
 21
366.285385
  0
ARC
  8
OSA
 62
     2
  6
CONTINUOUS
 10
441.347370
 20
364.286603
 40
2.000000
 50
92.000000
 51
180.000000
  0
LINE
  8
OBRYS
 10
439.347370
 20
364.286603
 11
439.347370
 21
310.444966
  0
LINE
  8
OBRYS
 10
439.347370
 20
310.444966
 11
439.347370
 21
295.324427
  0
ARC
  8
OBRYS
 10
477.847370
 20
161.005211
 40
5.500000
 50
111.323686
 51
68.676314
  0
LINE
  8
OBRYS
 10
475.847370
 20
166.128686
 11
475.847370
 21
168.105211
  0
LINE
  8
OBRYS
 10
475.847370
 20
168.105211
 11
479.847370
 21
168.105211
  0
LINE
  8
OBRYS
 10
479.847370
 20
168.105211
 11
479.847370
 21
166.128686
  0
CIRCLE
  8
OBRYS
 10
477.847370
 20
161.005211
 40
10.000000
  0
LINE
  8
OSA
 10
477.847370
 20
161.005211
 11
477.847370
 21
147.880213
  0
LINE
  8
OSA
 10
477.847370
 20
161.005211
 11
477.847370
 21
174.130208
  0
LINE
  8
OSA
 10
477.847370
 20
161.005211
 11
464.722373
 21
161.005211
  0
LINE
  8
OSA
 10
477.847370
 20
161.005211
 11
490.972368
 21
161.005211
  0
LINE
  8
OSA
 10
477.847370
 20
187.255205
 11
490.972368
 21
187.255205
  0
LINE
  8
OSA
 10
477.847370
 20
187.255205
 11
464.722373
 21
187.255205
  0
LINE
  8
OSA
 10
477.847370
 20
187.255205
 11
477.847370
 21
200.380203
  0
LINE
  8
OSA
 10
477.847370
 20
187.255205
 11
477.847370
 21
174.130208
  0
LINE
  8
OBRYS
 10
476.347370
 20
191.497846
 11
476.347370
 21
193.055205
  0
LINE
  8
OBRYS
 10
476.347370
 20
193.055205
 11
479.347370
 21
193.055205
  0
LINE
  8
OBRYS
 10
479.347370
 20
193.055205
 11
479.347370
 21
191.497846
  0
ARC
  8
OBRYS
 10
477.847370
 20
187.255205
 40
4.500000
 50
109.471221
 51
70.528779
  0
CIRCLE
  8
OBRYS
 10
477.847370
 20
187.255205
 40
10.000000
  0
LINE
  8
OBRYS
 10
618.810702
 20
245.444966
 11
589.780891
 21
245.444966
  0
POLYLINE
  8
0
 62
     2
 66
    1
  0
VERTEX
  8
0
 62
     2
 10
618.810669
 20
276.389374
  0
VERTEX
  8
0
 62
     2
 10
618.636780
 20
276.359711
  0
VERTEX
  8
0
 62
     2
 10
611.962402
 20
272.987762
  0
VERTEX
  8
0
 62
     2
 10
609.791931
 20
271.207001
  0
VERTEX
  8
0
 62
     2
 10
608.752380
 20
270.521820
  0
VERTEX
  8
0
 62
     2
 10
607.758240
 20
270.201996
  0
VERTEX
  8
0
 62
     2
 10
606.853027
 20
270.261566
  0
VERTEX
  8
0
 62
     2
 10
606.076233
 20
270.697845
  0
VERTEX
  8
0
 62
     2
 10
605.617126
 20
271.290985
  0
VERTEX
  8
0
 62
     2
 10
605.461792
 20
271.407196
  0
VERTEX
  8
0
 62
     2
 10
602.109497
 20
275.517548
  0
VERTEX
  8
0
 62
     2
 10
598.972168
 20
277.296478
  0
VERTEX
  8
0
 62
     2
 10
595.915649
 20
276.948334
  0
VERTEX
  8
0
 62
     2
 10
592.694702
 20
274.402435
  0
VERTEX
  8
0
 62
     2
 10
590.450684
 20
271.178802
  0
VERTEX
  8
0
 62
     2
 10
590.025574
 20
270.605316
  0
VERTEX
  8
0
 62
     2
 10
589.808228
 20
270.403290
  0
VERTEX
  8
0
 62
     2
 10
589.808228
 20
270.492401
  0
SEQEND
  8
0
  0
LINE
  8
0
 62
     2
 10
593.803105
 20
277.411645
 11
618.810702
 21
277.411645
  0
LINE
  8
OBRYS
 10
589.780891
 20
270.444966
 11
593.803105
 21
277.411645
  0
LINE
  8
OBRYS
 10
589.780891
 20
350.444966
 11
593.803105
 21
343.478287
  0
LINE
  8
OBRYS
 10
593.803105
 20
277.411645
 11
593.803105
 21
343.478287
  0
LINE
  8
0
 62
     2
 10
593.803105
 20
343.478287
 11
629.583643
 21
343.478287
  0
LINE
  8
0
 62
     2
 10
639.814212
 20
371.444966
 11
639.814212
 21
354.168842
  0
LINE
  8
0
 62
     2
 10
644.144339
 20
371.444966
 11
644.144339
 21
357.306891
  0
LINE
  8
0
 62
     2
 10
659.155446
 20
371.444966
 11
659.155446
 21
364.214388
  0
LINE
  8
0
 62
     2
 10
605.461871
 20
371.444966
 11
605.461871
 21
349.482811
  0
LINE
  8
0
 62
     2
 10
609.791998
 20
371.444966
 11
609.791998
 21
349.682959
  0
LINE
  8
0
 62
     2
 10
590.450764
 20
371.444966
 11
590.450764
 21
349.711192
  0
POLYLINE
  8
0
 62
     2
 66
    1
  0
VERTEX
  8
0
 62
     2
 10
630.281311
 20
344.412933
  0
VERTEX
  8
0
 62
     2
 10
624.803040
 20
343.478363
  0
VERTEX
  8
0
 62
     2
 10
618.636780
 20
344.530243
  0
VERTEX
  8
0
 62
     2
 10
611.962402
 20
347.902313
  0
VERTEX
  8
0
 62
     2
 10
609.791931
 20
349.682953
  0
VERTEX
  8
0
 62
     2
 10
608.752380
 20
350.368134
  0
VERTEX
  8
0
 62
     2
 10
607.758240
 20
350.687958
  0
VERTEX
  8
0
 62
     2
 10
606.853027
 20
350.628510
  0
VERTEX
  8
0
 62
     2
 10
606.076233
 20
350.192230
  0
VERTEX
  8
0
 62
     2
 10
605.617126
 20
349.598969
  0
VERTEX
  8
0
 62
     2
 10
605.461792
 20
349.482880
  0
VERTEX
  8
0
 62
     2
 10
602.109497
 20
345.372406
  0
VERTEX
  8
0
 62
     2
 10
598.972168
 20
343.593597
  0
VERTEX
  8
0
 62
     2
 10
595.915649
 20
343.941620
  0
VERTEX
  8
0
 62
     2
 10
592.694702
 20
346.487518
  0
VERTEX
  8
0
 62
     2
 10
590.450684
 20
349.711273
  0
VERTEX
  8
0
 62
     2
 10
590.025574
 20
350.284760
  0
VERTEX
  8
0
 62
     2
 10
589.808228
 20
350.486786
  0
VERTEX
  8
0
 62
     2
 10
589.808228
 20
350.397552
  0
SEQEND
  8
0
  0
LINE
  8
0
 62
     2
 10
590.450764
 20
245.444966
 11
590.450764
 21
271.178740
  0
LINE
  8
0
 62
     2
 10
605.461871
 20
245.444966
 11
605.461871
 21
271.407121
  0
LINE
  8
0
 62
     2
 10
609.791998
 20
245.444966
 11
609.791998
 21
271.206973
  0
LINE
  8
OBRYS
 10
589.780891
 20
371.444966
 11
589.780891
 21
350.444966
  0
LINE
  8
OBRYS
 10
589.780891
 20
245.444966
 11
589.780891
 21
270.444966
  0
LINE
  8
OBRYS
 10
659.825319
 20
371.444966
 11
659.825319
 21
364.404821
  0
LINE
  8
OBRYS
 10
659.825319
 20
371.444966
 11
589.780891
 21
371.444966
  0
LINE
  8
OSA
 10
624.803105
 20
310.444966
 11
624.803105
 21
368.444966
  0
LINE
  8
OSA
 10
624.803105
 20
310.444966
 11
624.803105
 21
246.687884
  0
LINE
  8
OBRYS
 10
598.003105
 20
371.444966
 11
589.774899
 21
371.444966
  0
LINE
  8
OBRYS
 10
651.603105
 20
371.444966
 11
659.831311
 21
371.444966
  0
LINE
  8
OSA
 10
671.803105
 20
310.444966
 11
677.803105
 21
310.444966
  0
LINE
  8
OSA
 10
674.803105
 20
307.444966
 11
674.803105
 21
313.444966
  0
INSERT
  8
OBRYS
  2
_10
 62
     7
 10
674.803105
 20
310.444966
  0
INSERT
  8
OBRYS
  2
_11
 62
     7
 10
624.803105
 20
371.444966
  0
LINE
  8
OSA
 10
624.803105
 20
390.444966
 11
624.803105
 21
363.444966
  0
INSERT
  8
OBRYS
  2
_12
 62
     7
 10
280.891636
 20
555.683634
  0
LINE
  8
POMOC
 62
     2
  6
CONTINUOUS
 10
224.891636
 20
587.683634
 11
280.891636
 21
587.683634
  0
LINE
  8
POMOC
 62
     2
  6
CONTINUOUS
 10
336.891636
 20
587.683634
 11
280.891636
 21
587.683634
  0
INSERT
  8
OBRYS
  2
_13
 62
     7
 10
280.891636
 20
555.683634
  0
LINE
  8
OBRYS
 10
336.893558
 20
587.629878
 11
336.891697
 21
587.683634
  0
ARC
  8
OBRYS
 10
294.891636
 20
555.683634
 40
60.000000
 50
71.805128
 51
126.275369
  0
ARC
  8
OBRYS
 10
294.891636
 20
555.683634
 40
60.000000
 50
234.752242
 51
288.194872
  0
ARC
  8
OBRYS
 10
226.891636
 20
152.794080
 40
2.000000
 50
90.000000
 51
180.000000
  0
LINE
  8
OBRYS
 10
224.891636
 20
152.794080
 11
224.891636
 21
147.294080
  0
LINE
  8
OBRYS
 10
224.891636
 20
79.794080
 11
224.891636
 21
85.294080
  0
ARC
  8
OBRYS
 10
226.891636
 20
79.794080
 40
2.000000
 50
180.000000
 51
270.000000
  0
LINE
  8
OBRYS
 10
248.872618
 20
77.794080
 11
226.891636
 21
77.794080
  0
LINE
  8
OBRYS
 10
248.872618
 20
154.794080
 11
226.891636
 21
154.794080
  0
INSERT
  8
OBRYS
  2
_14
 62
     7
 10
280.891636
 20
116.294080
  0
INSERT
  8
OBRYS
  2
_15
 62
     7
 10
280.891636
 20
116.294080
  0
TEXT
  8
NEVIDITELNA
 62
     2
  6
CONTINUOUS
 10
145.078247
 20
659.385193
 40
15.000000
  1
MRP 50A - FT + 2x adaptér
 50
0.00
 51
0.00
 41
0.80
  0
TEXT
  8
NEVIDITELNA
 62
     2
  6
CONTINUOUS
 10
143.889542
 20
699.768616
 40
15.000000
  1
MRP 50A - V
 50
0.00
 51
0.00
 41
0.80
  0
ENDSEC
  0
EOF

