  0
SECTION
  2
HEADER
  9
$ACADVER
  1
AC1009
  9
$INSBASE
 10
0.0
 20
0.0
 30
0.0
  9
$LIMMIN
 10
0.0
 20
0.0
  9
$LIMMAX
 10
430.0000
 20
307.0000
  9
$EXTMIN
 10
99999999999999998000000000000000000000.0000
 20
99999999999999998000000000000000000000.0000
  9
$EXTMAX
 10
99999999999999998000000000000000000000.0000
 20
99999999999999998000000000000000000000.0000
  9
$VIEWCTR
 10
483.5105
 20
202.7205
  9
$VIEWSIZE
 40
885.9532
  9
$DIMLFAC
 40
0.5000
  9
$MEASUREMENT
 70
     1
  9
$DWGCODEPAGE
 3
ANSI_1250
  9
$CLAYER
  8
OSA
  9
$CELTYPE
  6
BYLAYER
  9
$CECOLOR
 62
  256
  9
$ORTHOMODE
 70
     0
  9
$REGENMODE
 70
     1
  9
$FILLMODE
 70
     1
  9
$QTEXTMODE
 70
     0
  9
$MIRRTEXT
 70
     1
  9
$DRAGMODE
 70
     2
  9
$LTSCALE
 40
1.0
  9
$OSMODE
 70
    37
  9
$ATTMODE
 70
     1
  9
$TEXTSIZE
 40
2.5
  9
$TRACEWID
 40
1.0
  9
$TEXTSTYLE
  7
STANDARD
  9
$CLAYER
  8
0
  9
$CELTYPE
  6
BYLAYER
  9
$CECOLOR
 62
   256
  9
$DIMSCALE
 40
1.0
  9
$DIMASZ
 40
2.5
  9
$DIMEXO
 40
0.625
  9
$DIMDLI
 40
3.75
  9
$DIMRND
 40
0.0
  9
$DIMDLE
 40
0.0
  9
$DIMEXE
 40
1.25
  9
$DIMTP
 40
0.0
  9
$DIMTM
 40
0.0
  9
$DIMTXT
 40
2.5
  9
$DIMCEN
 40
2.5
  9
$DIMTSZ
 40
0.0
  9
$DIMTOL
 70
     0
  9
$DIMLIM
 70
     0
  9
$DIMTIH
 70
     0
  9
$DIMTOH
 70
     0
  9
$DIMSE1
 70
     0
  9
$DIMSE2
 70
     0
  9
$DIMTAD
 70
     1
  9
$DIMZIN
 70
     8
  9
$DIMBLK
  1

  9
$DIMASO
 70
     1
  9
$DIMSHO
 70
     1
  9
$DIMPOST
  1

  9
$DIMAPOST
  1

  9
$DIMALT
 70
     0
  9
$DIMALTD
 70
     3
  9
$DIMALTF
 40
0.03937007874016
  9
$DIMTOFL
 70
     1
  9
$DIMTVP
 40
0.0
  9
$DIMTIX
 70
     0
  9
$DIMSOXD
 70
     0
  9
$DIMSAH
 70
     0
  9
$DIMBLK1
  1

  9
$DIMBLK2
  1

  9
$DIMSTYLE
  2
ISO-25
  9
$DIMCLRD
 70
     0
  9
$DIMCLRE
 70
     0
  9
$DIMCLRT
 70
     0
  9
$DIMTFAC
 40
1.0
  9
$DIMGAP
 40
0.625
  9
$LUNITS
 70
     2
  9
$LUPREC
 70
     4
  9
$SKETCHINC
 40
1.0
  9
$FILLETRAD
 40
10.0
  9
$AUNITS
 70
     0
  9
$AUPREC
 70
     0
  9
$MENU
  1
.
  9
$ELEVATION
 40
0.0
  9
$PELEVATION
 40
0.0
  9
$THICKNESS
 40
0.0
  9
$LIMCHECK
 70
     0
  9
$BLIPMODE
 70
     0
  9
$CHAMFERA
 40
10.0
  9
$CHAMFERB
 40
10.0
  9
$SKPOLY
 70
     0
  9
$TDCREATE
 40
2451579.5163292708
  9
$TDUPDATE
 40
2451579.6904035881
  9
$TDINDWG
 40
0.0082924769
  9
$TDUSRTIMER
 40
0.0082825116
  9
$USRTIMER
 70
     1
  9
$ANGBASE
 50
0.0
  9
$ANGDIR
 70
     0
  9
$PDMODE
 70
     0
  9
$PDSIZE
 40
0.0
  9
$PLINEWID
 40
0.0
  9
$COORDS
 70
     1
  9
$SPLFRAME
 70
     0
  9
$SPLINETYPE
 70
     6
  9
$SPLINESEGS
 70
     8
  9
$ATTDIA
 70
     0
  9
$ATTREQ
 70
     1
  9
$SURFTAB1
 70
     6
  9
$SURFTAB2
 70
     6
  9
$SURFTYPE
 70
     6
  9
$SURFU
 70
     6
  9
$SURFV
 70
     6
  9
$UCSNAME
  2

  9
$UCSORG
 10
0.0
 20
0.0
 30
0.0
  9
$UCSXDIR
 10
1.0
 20
0.0
 30
0.0
  9
$UCSYDIR
 10
0.0
 20
1.0
 30
0.0
  9
$PUCSNAME
  2

  9
$PUCSORG
 10
0.0
 20
0.0
 30
0.0
  9
$PUCSXDIR
 10
1.0
 20
0.0
 30
0.0
  9
$PUCSYDIR
 10
0.0
 20
1.0
 30
0.0
  9
$USERI1
 70
     0
  9
$USERI2
 70
     0
  9
$USERI3
 70
     0
  9
$USERI4
 70
     0
  9
$USERI5
 70
     0
  9
$USERR1
 40
0.0
  9
$USERR2
 40
0.0
  9
$USERR3
 40
0.0
  9
$USERR4
 40
0.0
  9
$USERR5
 40
0.0
  9
$WORLDVIEW
 70
     1
  9
$SHADEDGE
 70
     3
  9
$SHADEDIF
 70
    70
  9
$TILEMODE
 70
     1
  9
$MAXACTVP
 70
    64
  9
$PLIMCHECK
 70
     0
  9
$PEXTMIN
 10
1.0000000000000000E+020
 20
1.0000000000000000E+020
 30
1.0000000000000000E+020
  9
$PEXTMAX
 10
-1.0000000000000000E+020
 20
-1.0000000000000000E+020
 30
-1.0000000000000000E+020
  9
$PLIMMIN
 10
0.0
 20
0.0
  9
$PLIMMAX
 10
420.0
 20
297.0
  9
$UNITMODE
 70
     0
  9
$VISRETAIN
 70
     1
  9
$PLINEGEN
 70
     0
  9
$PSLTSCALE
 70
     1
  0
ENDSEC
  0
SECTION
  2
TABLES
  0
TABLE
  2
VPORT
 70
     2
  0
VPORT
  2
*ACTIVE
 70
     0
 10
0.0
 20
0.0
 11
1.0
 21
1.0
 12
483.5105
 22
202.7205
 13
0.0
 23
0.0
 14
10.0
 24
10.0
 15
10.0
 25
10.0
 16
0.0
 26
0.0
 36
1.0
 17
0.0
 27
0.0
 37
0.0
 40
885.9532
 41
1.6916
 42
50.0
 43
0.0
 44
0.0
 50
0.0
 51
0.0
 71
     0
 72
   100
 73
     1
 74
     3
 75
     0
 76
     0
 77
     0
 78
     0
  0
ENDTAB
  0
TABLE
  2
LTYPE
 70
     7
  0
LTYPE
  2
CONTINUOUS
 70
     0
  3
Solid line
 72
    65
 73
     0
 40
0.0
  0
LTYPE
  2
HIDDEN2
 70
     0
  3
Hidden (.5x) _ _ _ _ _ _ _ _ _ _ _ _ _ _ _ _ _
 72
    65
 73
     2
 40
5.1
 49
3.5
 49
-1.6
  0
LTYPE
  2
DASHDOT
 70
     0
  3
Dash dot __ . __ . __ . __ . __ . __ . __ . __
 72
    65
 73
     4
 40
10.4
 49
6.2
 49
-2.1
 49
0.0
 49
-2.1
  0
LTYPE
  2
DOT
 70
     0
  3
Dot . . . . . . . . . . . . . . . . . . . . . .
 72
    65
 73
     2
 40
2.2
 49
1.1
 49
-1.1
  0
LTYPE
  2
DASHED
 70
     0
  3
Dashed __ __ __ __ __ __ __ __ __ __ __ __ __ _
 72
    65
 73
     2
 40
11.049999999999979
 49
8.699999999999999
 49
-2.3499999999999979
  0
LTYPE
  2
PHANTOM2
 70
     0
  3
Phantom (.5x) ___ _ _ ___ _ _ ___ _ _ ___ _ _
 72
    65
 73
     6
 40
18.3
 49
7.8
 49
-2.1
 49
2.1
 49
-2.1
 49
2.1
 49
-2.1
  0
LTYPE
  2
CENTER
 70
     0
  3
Center ____ _ ____ _ ____ _ ____ _ ____ _ ____
 72
    65
 73
     4
 40
14.1
 49
7.8
 49
-2.1
 49
2.1
 49
-2.1
  0
ENDTAB
  0
TABLE
  2
LAYER
 70
     8
  0
LAYER
  2
0
 70
    64
 62
     7
  6
CONTINUOUS
  0
LAYER
  2
OBRYS
 70
    64
 62
     2
  6
CONTINUOUS
  0
LAYER
  2
OSA
 70
    64
 62
     7
  6
DASHDOT
  0
LAYER
  2
KOTA
 70
    64
 62
     3
  6
CONTINUOUS
  0
LAYER
  2
SRAFY
 70
    64
 62
     7
  6
CONTINUOUS
  0
LAYER
  2
POMOC
 70
    64
 62
     5
  6
HIDDEN2
  0
LAYER
  2
NEVIDI
 70
    64
 62
     4
  6
DASHED
  0
LAYER
  2
TLUST_
 70
    64
 62
     1
  6
CONTINUOUS
  0
ENDTAB
  0
TABLE
  2
STYLE
 70
     1
  0
STYLE
  2
STANDARD
 70
     0
 40
0.0
 41
1.0
 50
0.0
 71
     0
 42
2.5
  3
txt
  4

  0
ENDTAB
  0
TABLE
  2
VIEW
 70
     0
  0
ENDTAB
  0
TABLE
  2
UCS
 70
     0
  0
ENDTAB
  0
TABLE
  2
APPID
 70
     1
  0
APPID
  2
ACAD
 70
     0
  0
ENDTAB
  0
TABLE
  2
DIMSTYLE
 70
     1
  0
DIMSTYLE
  2
ISO-25
 70
     0
  3

  4

  5

  6

  7

 40
1.0
 41
2.5
 42
0.625
 43
3.75
 44
1.25
 45
0.0
 46
0.0
 47
0.0
 48
0.0
140
2.5
141
2.5
142
0.0
143
0.03937007874016
144
1.0
145
0.0
146
1.0
147
0.625
 71
     0
 72
     0
 73
     0
 74
     0
 75
     0
 76
     0
 77
     1
 78
     8
170
     0
171
     3
172
     1
173
     0
174
     0
175
     0
176
     0
177
     0
178
     0
  0
ENDTAB
  0
ENDSEC
  0
SECTION
  2
BLOCKS
  0
BLOCK
  8
0
  2
$MODEL_SPACE
 70
     0
 10
0.0
 20
0.0
 30
0.0
  3
$MODEL_SPACE
  1

  0
ENDBLK
  8
0
  0
BLOCK
 67
     1
  8
0
  2
$PAPER_SPACE
 70
     0
 10
0.0
 20
0.0
 30
0.0
  3
$PAPER_SPACE
  1

  0
ENDBLK
 67
     1
  8
0
  0
BLOCK
  8
OSA
  2
_0
 70
   64
 10
270.373538
 20
-98.608522
  0
ARC
  8
OBRYS
 10
258.152614
 20
-89.511591
 40
2.000000
 50
293.822528
 51
2.782366
  0
ARC
  8
OBRYS
 10
258.152614
 20
-107.705452
 40
2.000000
 50
357.217634
 51
66.177472
  0
ARC
  8
OBRYS
 10
70.971653
 20
-98.608522
 40
189.401885
 50
348.136806
 51
357.032847
  0
LINE
  8
OBRYS
 10
228.373538
 20
-106.309089
 11
258.122302
 21
-106.309089
  0
ARC
  8
OBRYS
 10
262.169112
 20
-98.608522
 40
7.944164
 50
113.822528
 51
246.177472
  0
ARC
  8
OBRYS
 10
70.971653
 20
-98.608522
 40
189.401885
 50
2.782366
 51
11.863194
  0
LINE
  8
OBRYS
 10
228.373538
 20
-90.907955
 11
258.122302
 21
-90.907955
  0
LINE
  8
SRAFY
 62
     2
 10
270.373538
 20
-63.608522
 11
270.373538
 21
-133.608522
  0
LINE
  8
OBRYS
 10
267.373538
 20
-133.608522
 11
270.373538
 21
-133.608522
  0
ARC
  8
OBRYS
 10
267.373538
 20
-135.608522
 40
2.000000
 50
90.000000
 51
180.000000
  0
LINE
  8
OBRYS
 10
267.373538
 20
-63.608522
 11
270.373538
 21
-63.608522
  0
ARC
  8
OBRYS
 10
267.373538
 20
-61.608522
 40
2.000000
 50
180.000000
 51
270.000000
  0
LINE
  8
OBRYS
 10
228.373538
 20
-139.133771
 11
254.370867
 21
-139.133771
  0
LINE
  8
OBRYS
 10
255.987269
 20
-155.182036
 11
255.987269
 21
-141.133771
  0
LINE
  8
OBRYS
 10
255.987269
 20
-42.035008
 11
255.987269
 21
-56.083272
  0
LINE
  8
OBRYS
 10
228.373538
 20
-58.083272
 11
253.987269
 21
-58.083272
  0
LINE
  8
OBRYS
 10
228.373538
 20
-39.646997
 11
228.373538
 21
-157.570046
  0
LINE
  8
OBRYS
 10
215.218811
 20
-168.608522
 11
215.218811
 21
-28.608522
  0
LINE
  8
OBRYS
 10
222.218811
 20
-28.608522
 11
215.218811
 21
-28.608522
  0
ARC
  8
OBRYS
 10
222.218811
 20
-30.608522
 40
2.000000
 50
0.000000
 51
90.000000
  0
LINE
  8
OBRYS
 10
222.218811
 20
-168.608522
 11
215.218811
 21
-168.608522
  0
LINE
  8
OBRYS
 10
224.218811
 20
-166.608522
 11
224.218811
 21
-30.608522
  0
ARC
  8
OBRYS
 10
222.218811
 20
-166.608522
 40
2.000000
 50
270.000000
 51
360.000000
  0
ARC
  8
OBRYS
 10
226.218811
 20
-37.646997
 40
2.000000
 50
180.000000
 51
270.000000
  0
LINE
  8
OBRYS
 10
226.218811
 20
-39.646997
 11
261.373538
 21
-39.646997
  0
ARC
  8
OBRYS
 10
261.373538
 20
-43.646997
 40
4.000000
 50
0.000000
 51
90.000000
  0
ARC
  8
OBRYS
 10
254.224948
 20
-43.646997
 40
4.000000
 50
37.718185
 51
90.000000
  0
LINE
  8
OBRYS
 10
257.389066
 20
-41.199885
 11
264.537655
 21
-50.443015
  0
ARC
  8
OBRYS
 10
261.373538
 20
-52.890127
 40
4.000000
 50
0.000000
 51
37.718185
  0
LINE
  8
OBRYS
 10
265.373538
 20
-98.608522
 11
265.373538
 21
-43.646997
  0
LINE
  8
OBRYS
 10
237.373538
 20
-98.608522
 11
237.373538
 21
-39.646997
  0
LINE
  8
OBRYS
 10
237.373538
 20
-98.608522
 11
237.373538
 21
-157.570046
  0
ARC
  8
OBRYS
 10
261.373538
 20
-144.326916
 40
4.000000
 50
322.281815
 51
360.000000
  0
LINE
  8
OBRYS
 10
257.389066
 20
-156.017158
 11
264.537655
 21
-146.774029
  0
ARC
  8
OBRYS
 10
254.224948
 20
-153.570046
 40
4.000000
 50
270.000000
 51
322.281815
  0
ARC
  8
OBRYS
 10
261.373538
 20
-153.570046
 40
4.000000
 50
270.000000
 51
360.000000
  0
LINE
  8
OBRYS
 10
226.218811
 20
-157.570046
 11
261.373538
 21
-157.570046
  0
ARC
  8
OBRYS
 10
226.218811
 20
-159.570046
 40
2.000000
 50
90.000000
 51
180.000000
  0
LINE
  8
OBRYS
 10
265.373538
 20
-98.608522
 11
265.373538
 21
-153.570046
  0
LINE
  8
OSA
 10
210.218811
 20
-41.108522
 11
225.649476
 21
-41.108522
  0
LINE
  8
OSA
 10
210.218811
 20
-156.108522
 11
225.649476
 21
-156.108522
  0
LINE
  8
NEVIDI
  6
HIDDEN2
 10
215.218811
 20
-51.108522
 11
219.218811
 21
-51.108522
  0
LINE
  8
NEVIDI
  6
HIDDEN2
 10
219.218811
 20
-146.108522
 11
219.218811
 21
-51.108522
  0
LINE
  8
NEVIDI
  6
HIDDEN2
 10
215.218811
 20
-146.108522
 11
219.218811
 21
-146.108522
  0
LINE
  8
OSA
 10
256.227491
 20
-98.608522
 11
210.218811
 21
-98.608522
  0
ENDBLK
  8
OSA
  0
BLOCK
  8
OSA
  2
_1
 70
   64
 10
270.373538
 20
353.734395
  0
LINE
  8
OSA
 10
205.218811
 20
353.734395
 11
261.961163
 21
353.734395
  0
LINE
  8
OBRYS
 10
267.373538
 20
318.734395
 11
270.373538
 21
318.734395
  0
ARC
  8
OBRYS
 10
267.373538
 20
316.734395
 40
2.000000
 50
90.000000
 51
180.000000
  0
LINE
  8
SRAFY
 62
     2
 10
270.373538
 20
388.734395
 11
270.373538
 21
318.734395
  0
LINE
  8
OSA
 10
247.373538
 20
336.234395
 11
247.373538
 21
326.234395
  0
LINE
  8
OSA
 10
247.373538
 20
336.234395
 11
247.373538
 21
346.234395
  0
LINE
  8
OSA
 10
247.373538
 20
336.234395
 11
237.373538
 21
336.234395
  0
LINE
  8
OSA
 10
247.373538
 20
336.234395
 11
257.373538
 21
336.234395
  0
LINE
  8
OBRYS
 10
224.218811
 20
302.847657
 11
240.373538
 21
302.847657
  0
LINE
  8
OBRYS
 10
241.373538
 20
303.847657
 11
241.373538
 21
322.422123
  0
LINE
  8
OBRYS
 10
265.373538
 20
353.734395
 11
265.373538
 21
298.772871
  0
ARC
  8
OBRYS
 10
226.218811
 20
292.772871
 40
2.000000
 50
90.000000
 51
180.000000
  0
LINE
  8
OBRYS
 10
226.218811
 20
294.772871
 11
261.373538
 21
294.772871
  0
ARC
  8
OBRYS
 10
261.373538
 20
298.772871
 40
4.000000
 50
270.000000
 51
360.000000
  0
ARC
  8
OBRYS
 10
254.224948
 20
298.772871
 40
4.000000
 50
270.000000
 51
322.281815
  0
LINE
  8
OBRYS
 10
257.389066
 20
296.325758
 11
264.537655
 21
305.568888
  0
ARC
  8
OBRYS
 10
261.373538
 20
308.016001
 40
4.000000
 50
322.281815
 51
360.000000
  0
LINE
  8
OBRYS
 10
242.373538
 20
306.649684
 11
264.455437
 21
306.649684
  0
LINE
  8
OBRYS
 10
237.373538
 20
353.734395
 11
237.373538
 21
294.772871
  0
LINE
  8
OBRYS
 10
267.373538
 20
388.734395
 11
270.373538
 21
388.734395
  0
ARC
  8
OBRYS
 10
267.373538
 20
390.734395
 40
2.000000
 50
180.000000
 51
270.000000
  0
LINE
  8
OBRYS
 10
237.373538
 20
353.734395
 11
237.373538
 21
412.695919
  0
LINE
  8
OBRYS
 10
265.373538
 20
353.734395
 11
265.373538
 21
408.695919
  0
LINE
  8
OBRYS
 10
242.373538
 20
400.819106
 11
264.455437
 21
400.819106
  0
ARC
  8
OBRYS
 10
261.373538
 20
399.452790
 40
4.000000
 50
0.000000
 51
37.718185
  0
LINE
  8
OBRYS
 10
257.389066
 20
411.143032
 11
264.537655
 21
401.899902
  0
ARC
  8
OBRYS
 10
254.224948
 20
408.695919
 40
4.000000
 50
37.718185
 51
90.000000
  0
ARC
  8
OBRYS
 10
261.373538
 20
408.695919
 40
4.000000
 50
0.000000
 51
90.000000
  0
LINE
  8
OBRYS
 10
226.218811
 20
412.695919
 11
261.373538
 21
412.695919
  0
ARC
  8
OBRYS
 10
226.218811
 20
414.695919
 40
2.000000
 50
180.000000
 51
270.000000
  0
LINE
  8
OBRYS
 10
224.218811
 20
404.621134
 11
240.373538
 21
404.621134
  0
LINE
  8
OBRYS
 10
242.373538
 20
353.734395
 11
261.373538
 21
353.734395
  0
LINE
  8
OBRYS
 10
242.373538
 20
323.422123
 11
261.373538
 21
323.422123
  0
ARC
  8
OBRYS
 10
242.373538
 20
354.734395
 40
1.000000
 50
180.000000
 51
270.000000
  0
LINE
  8
OBRYS
 10
241.373538
 20
354.734395
 11
241.373538
 21
403.621134
  0
ARC
  8
OBRYS
 10
242.373538
 20
322.422123
 40
1.000000
 50
90.000000
 51
180.000000
  0
ARC
  8
OBRYS
 10
222.218811
 20
285.734395
 40
2.000000
 50
270.000000
 51
360.000000
  0
LINE
  8
OBRYS
 10
224.218811
 20
285.734395
 11
224.218811
 21
421.734395
  0
LINE
  8
OBRYS
 10
222.218811
 20
283.734395
 11
215.218811
 21
283.734395
  0
ARC
  8
OBRYS
 10
222.218811
 20
421.734395
 40
2.000000
 50
0.000000
 51
90.000000
  0
LINE
  8
OBRYS
 10
222.218811
 20
423.734395
 11
215.218811
 21
423.734395
  0
LINE
  8
OBRYS
 10
215.218811
 20
283.734395
 11
215.218811
 21
423.734395
  0
ENDBLK
  8
OSA
  0
BLOCK
  8
OBRYS
  2
Vnitrni_metricky_zavit_M8_2
 70
   66
 10
509.783120
 20
319.891032
  0
CIRCLE
  8
OBRYS
 10
509.783120
 20
319.891032
 40
3.323500
  0
ARC
  8
OBRYS
 62
     7
 10
509.783120
 20
319.891032
 40
4.000000
 50
355.000000
 51
275.000000
  0
ENDBLK
  8
OBRYS
  0
BLOCK
  8
OBRYS
  2
Vnitrni_metricky_zavit_M8_3
 70
   66
 10
601.707001
 20
319.891032
  0
CIRCLE
  8
OBRYS
 10
601.707001
 20
319.891032
 40
3.323500
  0
ARC
  8
OBRYS
 62
     7
 10
601.707001
 20
319.891032
 40
4.000000
 50
355.000000
 51
275.000000
  0
ENDBLK
  8
OBRYS
  0
BLOCK
  8
OBRYS
  2
Vnitrni_metricky_zavit_M8_4
 70
   66
 10
601.707001
 20
411.814914
  0
CIRCLE
  8
OBRYS
 10
601.707001
 20
411.814914
 40
3.323500
  0
ARC
  8
OBRYS
 62
     7
 10
601.707001
 20
411.814914
 40
4.000000
 50
355.000000
 51
275.000000
  0
ENDBLK
  8
OBRYS
  0
BLOCK
  8
OBRYS
  2
Vnitrni_metricky_zavit_M8_5
 70
   66
 10
509.783120
 20
411.814914
  0
CIRCLE
  8
OBRYS
 10
509.783120
 20
411.814914
 40
3.323500
  0
ARC
  8
OBRYS
 62
     7
 10
509.783120
 20
411.814914
 40
4.000000
 50
355.000000
 51
275.000000
  0
ENDBLK
  8
OBRYS
  0
BLOCK
  8
OBRYS
  2
_6
 70
   64
 10
348.373538
 20
124.126054
  0
ARC
  8
OBRYS
 10
348.373538
 20
124.126054
 40
82.513413
 50
290.576520
 51
328.032325
  0
ARC
  8
OBRYS
 10
348.373538
 20
124.126054
 40
82.513413
 50
253.090442
 51
286.909558
  0
ARC
  8
OBRYS
 10
446.373538
 20
124.126054
 40
65.000000
 50
171.620667
 51
188.379333
  0
ARC
  8
OBRYS
 10
348.373538
 20
26.126054
 40
65.000000
 50
81.620667
 51
98.379333
  0
ARC
  8
OBRYS
 10
250.373538
 20
124.126054
 40
65.000000
 50
351.620667
 51
8.379333
  0
ARC
  8
OBRYS
 10
348.373538
 20
222.126054
 40
65.000000
 50
261.620667
 51
278.379333
  0
CIRCLE
  8
OBRYS
 10
348.373538
 20
124.126054
 40
27.500000
  0
CIRCLE
  8
OBRYS
 10
348.373538
 20
124.126054
 40
20.000000
  0
LINE
  8
OBRYS
 10
344.373538
 20
139.926054
 11
344.373538
 21
135.968773
  0
LINE
  8
OBRYS
 10
348.373538
 20
139.926054
 11
344.373538
 21
139.926054
  0
LINE
  8
OBRYS
 10
352.373538
 20
139.926054
 11
352.373538
 21
135.968773
  0
ARC
  8
OBRYS
 10
348.373538
 20
124.126054
 40
12.500000
 50
108.662925
 51
71.337075
  0
LINE
  8
OBRYS
 10
348.373538
 20
139.926054
 11
352.373538
 21
139.926054
  0
INSERT
  8
OBRYS
  2
Srouby_s_valcovou_hlavou___1
 62
     7
 10
390.873538
 20
124.126054
  0
INSERT
  8
OBRYS
  2
Srouby_s_valcovou_hlavou___2
 62
     7
 10
348.373538
 20
81.626054
  0
INSERT
  8
OBRYS
  2
Srouby_s_valcovou_hlavou___3
 62
     7
 10
305.873538
 20
124.126054
  0
INSERT
  8
OBRYS
  2
Srouby_s_valcovou_hlavou___4
 62
     7
 10
348.373538
 20
166.626054
  0
ARC
  8
OBRYS
 10
300.873538
 20
47.026054
 40
7.100000
 50
0.000000
 51
180.000000
  0
LINE
  8
OBRYS
 10
293.773538
 20
47.026055
 11
293.773538
 21
36.126054
  0
LINE
  8
OBRYS
 10
307.973538
 20
47.026056
 11
307.973538
 21
36.126054
  0
LINE
  8
OBRYS
 62
     7
  6
DASHDOT
 10
300.873538
 20
24.126054
 11
300.873538
 21
56.126531
  0
ARC
  8
OBRYS
 10
348.373538
 20
124.126054
 40
82.513413
 50
211.967675
 51
249.423480
  0
LINE
  8
OBRYS
 10
393.704047
 20
82.331079
 11
405.189001
 21
70.846125
  0
LINE
  8
OBRYS
 10
390.168513
 20
78.795545
 11
401.653467
 21
67.310591
  0
LINE
  8
OBRYS
 10
303.043029
 20
82.331079
 11
291.558074
 21
70.846125
  0
LINE
  8
OBRYS
 10
306.578562
 20
78.795545
 11
295.093608
 21
67.310591
  0
LINE
  8
OBRYS
 10
393.704047
 20
165.921030
 11
399.607202
 21
171.824185
  0
LINE
  8
OBRYS
 10
390.168513
 20
169.456563
 11
396.071668
 21
175.359719
  0
LINE
  8
OBRYS
 10
409.980559
 20
121.626054
 11
418.328881
 21
121.626054
  0
LINE
  8
OBRYS
 10
409.980559
 20
126.626054
 11
418.328881
 21
126.626054
  0
LINE
  8
OBRYS
 10
286.766517
 20
126.626054
 11
278.418195
 21
126.626054
  0
LINE
  8
OBRYS
 10
286.766517
 20
121.626054
 11
278.418195
 21
121.626054
  0
LINE
  8
OBRYS
 10
306.578562
 20
169.456563
 11
300.675407
 21
175.359719
  0
LINE
  8
OBRYS
 10
303.043029
 20
165.921030
 11
297.139873
 21
171.824185
  0
LINE
  8
OBRYS
 10
345.873538
 20
185.733075
 11
345.873538
 21
194.081397
  0
LINE
  8
OBRYS
 10
350.873538
 20
185.733075
 11
350.873538
 21
194.081397
  0
ARC
  8
OBRYS
 10
348.373538
 20
124.126054
 40
74.278193
 50
289.245485
 51
292.157585
  0
ARC
  8
OBRYS
 10
348.373538
 20
124.126054
 40
74.278193
 50
247.842415
 51
250.754515
  0
LINE
  8
OBRYS
 10
319.373538
 20
55.742942
 11
319.373538
 21
40.126054
  0
LINE
  8
OBRYS
 10
377.373538
 20
55.742942
 11
377.373538
 21
40.126054
  0
ARC
  8
OBRYS
 10
380.373538
 20
55.742942
 40
3.000000
 50
115.077328
 51
180.000000
  0
LINE
  8
OBRYS
 10
372.373538
 20
24.126054
 11
372.373538
 21
51.605368
  0
ARC
  8
OBRYS
 10
369.373538
 20
51.605368
 40
3.000000
 50
0.000000
 51
106.149565
  0
ARC
  8
OBRYS
 10
327.373538
 20
51.605368
 40
3.000000
 50
73.850435
 51
180.000000
  0
LINE
  8
OBRYS
 10
324.373538
 20
24.126054
 11
324.373538
 21
51.605368
  0
ARC
  8
OBRYS
 10
316.373538
 20
55.742942
 40
3.000000
 50
0.000000
 51
64.922672
  0
LINE
  8
OBRYS
 10
377.373538
 20
36.126054
 11
373.773171
 21
36.126054
  0
LINE
  8
OBRYS
 10
319.373538
 20
36.126054
 11
322.973904
 21
36.126054
  0
LINE
  8
OBRYS
 62
     7
  6
DASHDOT
 10
395.873538
 20
24.126054
 11
395.873538
 21
56.226531
  0
ARC
  8
OBRYS
 10
280.373538
 20
34.126054
 40
2.000000
 50
90.000000
 51
180.000000
  0
LINE
  8
OBRYS
 10
280.373538
 20
36.126054
 11
315.373538
 21
36.126054
  0
ARC
  8
OBRYS
 10
416.373538
 20
34.126054
 40
2.000000
 50
0.000000
 51
90.000000
  0
LINE
  8
OBRYS
 10
416.373538
 20
36.126054
 11
381.373538
 21
36.126054
  0
ARC
  8
OBRYS
 10
348.373538
 20
124.126054
 40
61.657725
 50
73.917222
 51
106.082778
  0
ARC
  8
OBRYS
 10
348.373538
 20
124.126054
 40
61.657725
 50
118.917222
 51
151.082778
  0
LINE
  8
OBRYS
 10
324.373538
 20
30.126054
 11
348.373538
 21
30.126054
  0
LINE
  8
OBRYS
 10
372.373538
 20
30.126054
 11
348.373538
 21
30.126054
  0
ARC
  8
OBRYS
 10
315.373538
 20
40.126054
 40
4.000000
 50
270.000000
 51
360.000000
  0
ARC
  8
OBRYS
 10
381.373538
 20
40.126054
 40
4.000000
 50
180.000000
 51
270.000000
  0
ARC
  8
OBRYS
 10
348.373538
 20
81.626054
 40
7.500000
 50
180.000000
 51
360.000000
  0
ARC
  8
OBRYS
 10
390.873538
 20
124.126054
 40
7.500000
 50
270.000000
 51
90.000000
  0
ARC
  8
OBRYS
 10
348.373538
 20
166.626054
 40
7.500000
 50
0.000000
 51
180.000000
  0
LINE
  8
OBRYS
 10
340.873538
 20
81.626054
 11
340.873538
 21
87.605512
  0
LINE
  8
OBRYS
 10
390.873538
 20
116.626054
 11
384.894080
 21
116.626054
  0
LINE
  8
OBRYS
 10
355.873538
 20
166.626054
 11
355.873538
 21
160.646596
  0
ARC
  8
OBRYS
 10
337.873538
 20
87.605512
 40
3.000000
 50
0.000000
 51
73.959558
  0
ARC
  8
OBRYS
 10
384.894080
 20
113.626054
 40
3.000000
 50
90.000000
 51
163.959558
  0
ARC
  8
OBRYS
 10
358.873538
 20
160.646596
 40
3.000000
 50
180.000000
 51
253.959558
  0
LINE
  8
OBRYS
 10
355.873538
 20
81.626054
 11
355.873538
 21
87.605512
  0
LINE
  8
OBRYS
 10
390.873538
 20
131.626054
 11
384.894080
 21
131.626054
  0
LINE
  8
OBRYS
 10
340.873538
 20
166.626054
 11
340.873538
 21
160.646596
  0
ARC
  8
OBRYS
 10
358.873538
 20
87.605512
 40
3.000000
 50
106.040442
 51
180.000000
  0
ARC
  8
OBRYS
 10
384.894080
 20
134.626054
 40
3.000000
 50
196.040442
 51
270.000000
  0
ARC
  8
OBRYS
 10
337.873538
 20
160.646596
 40
3.000000
 50
286.040442
 51
360.000000
  0
ARC
  8
OBRYS
 10
311.852996
 20
113.626054
 40
3.000000
 50
16.040442
 51
90.000000
  0
LINE
  8
OBRYS
 10
305.873538
 20
116.626054
 11
311.852996
 21
116.626054
  0
ARC
  8
OBRYS
 10
311.852996
 20
134.626054
 40
3.000000
 50
270.000000
 51
343.959558
  0
LINE
  8
OBRYS
 10
305.873538
 20
131.626054
 11
311.852996
 21
131.626054
  0
ARC
  8
OBRYS
 10
305.873538
 20
124.126054
 40
7.500000
 50
90.000000
 51
270.000000
  0
LINE
  8
OBRYS
 62
     7
  6
DASHDOT
 10
348.373538
 20
124.126054
 11
423.373538
 21
124.126054
  0
LINE
  8
OBRYS
 62
     7
  6
DASHDOT
 10
348.373538
 20
124.126054
 11
273.373538
 21
124.126054
  0
LINE
  8
OBRYS
 62
     7
  6
DASHDOT
 10
348.373538
 20
124.126054
 11
348.373538
 21
199.126054
  0
LINE
  8
OBRYS
 62
     7
  6
DASHDOT
 10
348.373538
 20
124.126054
 11
348.373538
 21
24.126054
  0
LINE
  8
OBRYS
 10
278.373538
 20
124.126054
 11
278.373538
 21
24.126054
  0
LINE
  8
OBRYS
 10
418.373538
 20
124.126054
 11
418.373538
 21
24.126054
  0
LINE
  8
OBRYS
 62
     4
  6
DASHED
 10
401.373538
 20
36.126054
 11
401.373538
 21
24.126054
  0
LINE
  8
OBRYS
 62
     4
  6
DASHED
 10
390.373538
 20
36.126054
 11
390.373538
 21
24.126054
  0
LINE
  8
OBRYS
 10
418.373538
 20
24.126054
 11
372.373538
 21
24.126054
  0
LINE
  8
OBRYS
 10
372.373538
 20
26.126054
 11
348.373538
 21
26.126054
  0
LINE
  8
OBRYS
 62
     4
  6
DASHED
 10
306.373538
 20
36.126054
 11
306.373538
 21
24.126054
  0
LINE
  8
OBRYS
 62
     4
  6
DASHED
 10
295.373538
 20
36.126054
 11
295.373538
 21
24.126054
  0
LINE
  8
OBRYS
 10
324.373538
 20
26.126054
 11
348.373538
 21
26.126054
  0
LINE
  8
OBRYS
 10
278.373538
 20
24.126054
 11
324.373538
 21
24.126054
  0
LINE
  8
OBRYS
 62
     7
  6
DASHDOT
 10
413.784209
 20
97.032067
 11
398.447808
 21
103.384612
  0
LINE
  8
OBRYS
 62
     7
  6
DASHDOT
 10
375.467525
 20
58.715383
 11
369.114980
 21
74.051784
  0
LINE
  8
OBRYS
 62
     7
  6
DASHDOT
 10
321.279551
 20
58.715383
 11
327.632096
 21
74.051784
  0
LINE
  8
OBRYS
 62
     7
  6
DASHDOT
 10
282.962867
 20
97.032067
 11
298.299267
 21
103.384612
  0
CIRCLE
  8
OBRYS
 62
     7
  6
DASHDOT
 10
348.373538
 20
124.126054
 40
62.500000
  0
CIRCLE
  8
OBRYS
 62
     7
  6
DASHDOT
 10
348.373538
 20
124.126054
 40
42.500000
  0
LINE
  8
OBRYS
 62
     7
  6
DASHDOT
 10
413.784209
 20
151.220041
 11
398.447808
 21
144.867496
  0
ARC
  8
OBRYS
 10
395.873538
 20
48.126054
 40
6.062177
 50
0.000000
 51
179.999995
  0
LINE
  8
OBRYS
 10
389.811361
 20
48.126054
 11
389.811361
 21
36.126054
  0
LINE
  8
OBRYS
 10
401.935715
 20
48.126054
 11
401.935715
 21
36.126054
  0
ARC
  8
OBRYS
 10
348.373538
 20
124.126054
 40
70.000000
 50
0.000000
 51
14.394101
  0
LINE
  8
OBRYS
 62
     7
  6
DASHDOT
 10
309.164316
 20
47.026054
 11
288.773538
 21
47.026053
  0
LINE
  8
OBRYS
 62
     7
  6
DASHDOT
 10
389.811361
 20
48.126054
 11
409.435711
 21
48.126054
  0
CIRCLE
  8
OBRYS
 10
290.631067
 20
100.208340
 40
7.500000
  0
ARC
  8
OBRYS
 10
348.373538
 20
124.126054
 40
61.657725
 50
163.917222
 51
195.617358
  0
CIRCLE
  8
OBRYS
 10
324.455823
 20
66.383583
 40
7.500000
  0
CIRCLE
  8
OBRYS
 10
372.291252
 20
66.383583
 40
7.500000
  0
CIRCLE
  8
OBRYS
 10
406.116009
 20
100.208340
 40
7.500000
  0
ARC
  8
OBRYS
 10
348.373538
 20
124.126054
 40
61.657725
 50
209.382642
 51
240.617358
  0
ARC
  8
OBRYS
 10
348.373538
 20
124.126054
 40
61.657725
 50
254.382642
 51
285.617358
  0
ARC
  8
OBRYS
 10
348.373538
 20
124.126054
 40
61.657725
 50
299.382642
 51
330.617358
  0
ARC
  8
OBRYS
 10
348.373538
 20
124.126054
 40
61.657725
 50
29.382642
 51
61.082778
  0
ARC
  8
OBRYS
 10
348.373538
 20
124.126054
 40
61.657725
 50
344.382642
 51
15.617358
  0
ARC
  8
OBRYS
 10
406.116009
 20
148.043769
 40
7.500000
 50
122.377756
 51
282.622244
  0
ARC
  8
OBRYS
 10
406.619274
 20
159.217852
 40
2.000000
 50
299.382642
 51
31.068055
  0
LINE
  8
OBRYS
 10
402.099766
 20
154.377788
 11
407.600553
 21
157.475127
  0
LINE
  8
OBRYS
 10
407.754924
 20
140.725029
 11
413.834717
 21
142.424523
  0
ARC
  8
OBRYS
 10
414.373141
 20
140.498361
 40
2.000000
 50
13.931945
 51
105.617358
  0
ARC
  8
OBRYS
 10
364.745845
 20
190.125657
 40
2.000000
 50
344.382642
 51
76.068055
  0
LINE
  8
OBRYS
 10
364.972512
 20
183.507441
 11
366.672007
 21
189.587234
  0
LINE
  8
OBRYS
 10
378.625271
 20
177.852283
 11
381.722610
 21
183.353070
  0
ARC
  8
OBRYS
 10
383.465335
 20
182.371790
 40
2.000000
 50
58.931945
 51
150.617358
  0
ARC
  8
OBRYS
 10
372.291252
 20
181.868525
 40
7.500000
 50
167.377756
 51
327.622244
  0
LINE
  8
OBRYS
 62
     7
  6
DASHDOT
 10
375.467525
 20
189.536725
 11
369.114980
 21
174.200325
  0
LINE
  8
OBRYS
 62
     7
  6
DASHDOT
 10
321.279551
 20
189.536725
 11
327.632096
 21
174.200325
  0
ARC
  8
OBRYS
 10
324.455823
 20
181.868525
 40
7.500000
 50
212.377756
 51
12.622244
  0
ARC
  8
OBRYS
 10
313.281740
 20
182.371790
 40
2.000000
 50
29.382642
 51
121.068055
  0
LINE
  8
OBRYS
 10
318.121804
 20
177.852283
 11
315.024465
 21
183.353070
  0
LINE
  8
OBRYS
 10
331.774563
 20
183.507441
 11
330.075069
 21
189.587234
  0
ARC
  8
OBRYS
 10
332.001231
 20
190.125657
 40
2.000000
 50
103.931945
 51
195.617358
  0
ARC
  8
OBRYS
 10
282.373935
 20
140.498361
 40
2.000000
 50
74.382642
 51
166.068055
  0
LINE
  8
OBRYS
 10
288.992151
 20
140.725029
 11
282.912358
 21
142.424523
  0
LINE
  8
OBRYS
 10
294.647309
 20
154.377788
 11
289.146522
 21
157.475127
  0
ARC
  8
OBRYS
 10
290.127802
 20
159.217852
 40
2.000000
 50
148.931945
 51
240.617358
  0
ARC
  8
OBRYS
 10
290.631067
 20
148.043769
 40
7.500000
 50
257.377756
 51
57.622244
  0
LINE
  8
OBRYS
 62
     7
  6
DASHDOT
 10
282.962867
 20
151.220041
 11
298.299267
 21
144.867496
  0
ARC
  8
OBRYS
 10
348.373538
 20
124.126054
 40
70.000000
 50
31.068055
 51
58.931945
  0
ARC
  8
OBRYS
 10
348.373538
 20
124.126054
 40
70.000000
 50
76.068055
 51
103.931945
  0
ARC
  8
OBRYS
 10
348.373538
 20
124.126054
 40
70.000000
 50
121.068055
 51
148.931945
  0
ARC
  8
OBRYS
 10
348.373538
 20
124.126054
 40
70.000000
 50
166.068055
 51
180.000000
  0
ARC
  8
OBRYS
 10
348.373538
 20
124.126054
 40
35.000000
 50
286.040442
 51
343.959558
  0
ARC
  8
OBRYS
 10
348.373538
 20
124.126054
 40
35.000000
 50
16.040442
 51
73.959558
  0
ARC
  8
OBRYS
 10
348.373538
 20
124.126054
 40
35.000000
 50
106.040442
 51
163.959558
  0
ARC
  8
OBRYS
 10
348.373538
 20
124.126054
 40
35.000000
 50
196.040442
 51
253.959558
  0
ARC
  8
OBRYS
 10
348.373538
 20
19.126054
 40
70.000000
 50
83.678944
 51
96.321056
  0
ARC
  8
OBRYS
 10
453.373538
 20
124.126054
 40
70.000000
 50
173.678944
 51
186.321056
  0
ARC
  8
OBRYS
 10
348.373538
 20
229.126054
 40
70.000000
 50
263.678944
 51
276.321056
  0
ARC
  8
OBRYS
 10
243.373538
 20
124.126054
 40
70.000000
 50
353.678944
 51
6.321056
  0
INSERT
  8
OBRYS
  2
Srouby_s_valcovou_hlavou___5
 62
     7
 10
1320.724856
 20
-47.860390
  0
INSERT
  8
OBRYS
  2
Srouby_s_valcovou_hlavou___6
 62
     7
 10
1354.549612
 20
-14.035634
  0
INSERT
  8
OBRYS
  2
Srouby_s_valcovou_hlavou___7
 62
     7
 10
1402.385042
 20
-14.035634
  0
INSERT
  8
OBRYS
  2
Srouby_s_valcovou_hlavou___8
 62
     7
 10
1436.209798
 20
-47.860390
  0
INSERT
  8
OBRYS
  2
Srouby_s_valcovou_hlavou___9
 62
     7
 10
1436.209798
 20
-95.695819
  0
INSERT
  8
OBRYS
  2
Srouby_s_valcovou_hlavou___10
 62
     7
 10
1402.385042
 20
-129.520575
  0
INSERT
  8
OBRYS
  2
Srouby_s_valcovou_hlavou___11
 62
     7
 10
1354.549612
 20
-129.520575
  0
INSERT
  8
OBRYS
  2
Srouby_s_valcovou_hlavou___12
 62
     7
 10
1320.724856
 20
-95.695819
  0
ARC
  8
OBRYS
 10
348.373538
 20
124.126054
 40
70.000000
 50
0.000000
 51
180.000000
  0
ENDBLK
  8
OBRYS
  0
BLOCK
  8
OBRYS
  2
Srouby_s_valcovou_hlavou___1
 70
   66
 10
390.873538
 20
124.126054
  0
LINE
  8
OBRYS
 10
387.873538
 20
122.393993
 11
387.873538
 21
125.858116
  0
LINE
  8
OBRYS
 10
387.873538
 20
125.858116
 11
390.873538
 21
127.590177
  0
LINE
  8
OBRYS
 10
390.873538
 20
127.590177
 11
393.873538
 21
125.858116
  0
LINE
  8
OBRYS
 10
393.873538
 20
125.858116
 11
393.873538
 21
122.393993
  0
LINE
  8
OBRYS
 10
393.873538
 20
122.393993
 11
390.873538
 21
120.661931
  0
LINE
  8
OBRYS
 10
390.873538
 20
120.661931
 11
387.873538
 21
122.393993
  0
CIRCLE
  8
OBRYS
 10
390.873538
 20
124.126054
 40
3.464123
  0
CIRCLE
  8
OBRYS
 10
390.873538
 20
124.126054
 40
6.500000
  0
ENDBLK
  8
OBRYS
  0
BLOCK
  8
OBRYS
  2
Srouby_s_valcovou_hlavou___2
 70
   66
 10
348.373538
 20
81.626054
  0
LINE
  8
OBRYS
 10
345.373538
 20
79.893993
 11
345.373538
 21
83.358116
  0
LINE
  8
OBRYS
 10
345.373538
 20
83.358116
 11
348.373538
 21
85.090177
  0
LINE
  8
OBRYS
 10
348.373538
 20
85.090177
 11
351.373538
 21
83.358116
  0
LINE
  8
OBRYS
 10
351.373538
 20
83.358116
 11
351.373538
 21
79.893993
  0
LINE
  8
OBRYS
 10
351.373538
 20
79.893993
 11
348.373538
 21
78.161931
  0
LINE
  8
OBRYS
 10
348.373538
 20
78.161931
 11
345.373538
 21
79.893993
  0
CIRCLE
  8
OBRYS
 10
348.373538
 20
81.626054
 40
3.464123
  0
CIRCLE
  8
OBRYS
 10
348.373538
 20
81.626054
 40
6.500000
  0
ENDBLK
  8
OBRYS
  0
BLOCK
  8
OBRYS
  2
Srouby_s_valcovou_hlavou___3
 70
   66
 10
305.873538
 20
124.126054
  0
LINE
  8
OBRYS
 10
302.873538
 20
122.393993
 11
302.873538
 21
125.858116
  0
LINE
  8
OBRYS
 10
302.873538
 20
125.858116
 11
305.873538
 21
127.590177
  0
LINE
  8
OBRYS
 10
305.873538
 20
127.590177
 11
308.873538
 21
125.858116
  0
LINE
  8
OBRYS
 10
308.873538
 20
125.858116
 11
308.873538
 21
122.393993
  0
LINE
  8
OBRYS
 10
308.873538
 20
122.393993
 11
305.873538
 21
120.661931
  0
LINE
  8
OBRYS
 10
305.873538
 20
120.661931
 11
302.873538
 21
122.393993
  0
CIRCLE
  8
OBRYS
 10
305.873538
 20
124.126054
 40
3.464123
  0
CIRCLE
  8
OBRYS
 10
305.873538
 20
124.126054
 40
6.500000
  0
ENDBLK
  8
OBRYS
  0
BLOCK
  8
OBRYS
  2
Srouby_s_valcovou_hlavou___4
 70
   66
 10
348.373538
 20
166.626054
  0
LINE
  8
OBRYS
 10
345.373538
 20
164.893993
 11
345.373538
 21
168.358116
  0
LINE
  8
OBRYS
 10
345.373538
 20
168.358116
 11
348.373538
 21
170.090177
  0
LINE
  8
OBRYS
 10
348.373538
 20
170.090177
 11
351.373538
 21
168.358116
  0
LINE
  8
OBRYS
 10
351.373538
 20
168.358116
 11
351.373538
 21
164.893993
  0
LINE
  8
OBRYS
 10
351.373538
 20
164.893993
 11
348.373538
 21
163.161931
  0
LINE
  8
OBRYS
 10
348.373538
 20
163.161931
 11
345.373538
 21
164.893993
  0
CIRCLE
  8
OBRYS
 10
348.373538
 20
166.626054
 40
3.464123
  0
CIRCLE
  8
OBRYS
 10
348.373538
 20
166.626054
 40
6.500000
  0
ENDBLK
  8
OBRYS
  0
BLOCK
  8
OBRYS
  2
Srouby_s_valcovou_hlavou___5
 70
   66
 10
1320.724856
 20
-47.860390
  0
LINE
  8
OBRYS
 10
288.131067
 20
146.600384
 11
288.131067
 21
149.487153
  0
LINE
  8
OBRYS
 10
288.131067
 20
149.487153
 11
290.631067
 21
150.930538
  0
LINE
  8
OBRYS
 10
290.631067
 20
150.930538
 11
293.131067
 21
149.487153
  0
LINE
  8
OBRYS
 10
293.131067
 20
149.487153
 11
293.131067
 21
146.600384
  0
LINE
  8
OBRYS
 10
293.131067
 20
146.600384
 11
290.631067
 21
145.156999
  0
LINE
  8
OBRYS
 10
290.631067
 20
145.156999
 11
288.131067
 21
146.600384
  0
CIRCLE
  8
OBRYS
 10
290.631067
 20
148.043769
 40
2.886769
  0
CIRCLE
  8
OBRYS
 10
290.631067
 20
148.043769
 40
5.000000
  0
ENDBLK
  8
OBRYS
  0
BLOCK
  8
OBRYS
  2
Srouby_s_valcovou_hlavou___6
 70
   66
 10
1354.549612
 20
-14.035634
  0
LINE
  8
OBRYS
 10
321.955823
 20
180.425140
 11
321.955823
 21
183.311910
  0
LINE
  8
OBRYS
 10
321.955823
 20
183.311910
 11
324.455823
 21
184.755294
  0
LINE
  8
OBRYS
 10
324.455823
 20
184.755294
 11
326.955823
 21
183.311910
  0
LINE
  8
OBRYS
 10
326.955823
 20
183.311910
 11
326.955823
 21
180.425140
  0
LINE
  8
OBRYS
 10
326.955823
 20
180.425140
 11
324.455823
 21
178.981756
  0
LINE
  8
OBRYS
 10
324.455823
 20
178.981756
 11
321.955823
 21
180.425140
  0
CIRCLE
  8
OBRYS
 10
324.455823
 20
181.868525
 40
2.886769
  0
CIRCLE
  8
OBRYS
 10
324.455823
 20
181.868525
 40
5.000000
  0
ENDBLK
  8
OBRYS
  0
BLOCK
  8
OBRYS
  2
Srouby_s_valcovou_hlavou___7
 70
   66
 10
1402.385042
 20
-14.035634
  0
LINE
  8
OBRYS
 10
369.791252
 20
180.425140
 11
369.791252
 21
183.311910
  0
LINE
  8
OBRYS
 10
369.791252
 20
183.311910
 11
372.291252
 21
184.755294
  0
LINE
  8
OBRYS
 10
372.291252
 20
184.755294
 11
374.791252
 21
183.311910
  0
LINE
  8
OBRYS
 10
374.791252
 20
183.311910
 11
374.791252
 21
180.425140
  0
LINE
  8
OBRYS
 10
374.791252
 20
180.425140
 11
372.291252
 21
178.981756
  0
LINE
  8
OBRYS
 10
372.291252
 20
178.981756
 11
369.791252
 21
180.425140
  0
CIRCLE
  8
OBRYS
 10
372.291252
 20
181.868525
 40
2.886769
  0
CIRCLE
  8
OBRYS
 10
372.291252
 20
181.868525
 40
5.000000
  0
ENDBLK
  8
OBRYS
  0
BLOCK
  8
OBRYS
  2
Srouby_s_valcovou_hlavou___8
 70
   66
 10
1436.209798
 20
-47.860390
  0
LINE
  8
OBRYS
 10
403.616009
 20
146.600384
 11
403.616009
 21
149.487153
  0
LINE
  8
OBRYS
 10
403.616009
 20
149.487153
 11
406.116009
 21
150.930538
  0
LINE
  8
OBRYS
 10
406.116009
 20
150.930538
 11
408.616009
 21
149.487153
  0
LINE
  8
OBRYS
 10
408.616009
 20
149.487153
 11
408.616009
 21
146.600384
  0
LINE
  8
OBRYS
 10
408.616009
 20
146.600384
 11
406.116009
 21
145.156999
  0
LINE
  8
OBRYS
 10
406.116009
 20
145.156999
 11
403.616009
 21
146.600384
  0
CIRCLE
  8
OBRYS
 10
406.116009
 20
148.043769
 40
2.886769
  0
CIRCLE
  8
OBRYS
 10
406.116009
 20
148.043769
 40
5.000000
  0
ENDBLK
  8
OBRYS
  0
BLOCK
  8
OBRYS
  2
Srouby_s_valcovou_hlavou___9
 70
   66
 10
1436.209798
 20
-95.695819
  0
LINE
  8
OBRYS
 10
403.616009
 20
98.764955
 11
403.616009
 21
101.651724
  0
LINE
  8
OBRYS
 10
403.616009
 20
101.651724
 11
406.116009
 21
103.095109
  0
LINE
  8
OBRYS
 10
406.116009
 20
103.095109
 11
408.616009
 21
101.651724
  0
LINE
  8
OBRYS
 10
408.616009
 20
101.651724
 11
408.616009
 21
98.764955
  0
LINE
  8
OBRYS
 10
408.616009
 20
98.764955
 11
406.116009
 21
97.321570
  0
LINE
  8
OBRYS
 10
406.116009
 20
97.321570
 11
403.616009
 21
98.764955
  0
CIRCLE
  8
OBRYS
 10
406.116009
 20
100.208340
 40
2.886769
  0
CIRCLE
  8
OBRYS
 10
406.116009
 20
100.208340
 40
5.000000
  0
ENDBLK
  8
OBRYS
  0
BLOCK
  8
OBRYS
  2
Srouby_s_valcovou_hlavou___10
 70
   66
 10
1402.385042
 20
-129.520575
  0
LINE
  8
OBRYS
 10
369.791252
 20
64.940199
 11
369.791252
 21
67.826968
  0
LINE
  8
OBRYS
 10
369.791252
 20
67.826968
 11
372.291252
 21
69.270353
  0
LINE
  8
OBRYS
 10
372.291252
 20
69.270353
 11
374.791252
 21
67.826968
  0
LINE
  8
OBRYS
 10
374.791252
 20
67.826968
 11
374.791252
 21
64.940199
  0
LINE
  8
OBRYS
 10
374.791252
 20
64.940199
 11
372.291252
 21
63.496814
  0
LINE
  8
OBRYS
 10
372.291252
 20
63.496814
 11
369.791252
 21
64.940199
  0
CIRCLE
  8
OBRYS
 10
372.291252
 20
66.383583
 40
2.886769
  0
CIRCLE
  8
OBRYS
 10
372.291252
 20
66.383583
 40
5.000000
  0
ENDBLK
  8
OBRYS
  0
BLOCK
  8
OBRYS
  2
Srouby_s_valcovou_hlavou___11
 70
   66
 10
1354.549612
 20
-129.520575
  0
LINE
  8
OBRYS
 10
321.955823
 20
64.940199
 11
321.955823
 21
67.826968
  0
LINE
  8
OBRYS
 10
321.955823
 20
67.826968
 11
324.455823
 21
69.270353
  0
LINE
  8
OBRYS
 10
324.455823
 20
69.270353
 11
326.955823
 21
67.826968
  0
LINE
  8
OBRYS
 10
326.955823
 20
67.826968
 11
326.955823
 21
64.940199
  0
LINE
  8
OBRYS
 10
326.955823
 20
64.940199
 11
324.455823
 21
63.496814
  0
LINE
  8
OBRYS
 10
324.455823
 20
63.496814
 11
321.955823
 21
64.940199
  0
CIRCLE
  8
OBRYS
 10
324.455823
 20
66.383583
 40
2.886769
  0
CIRCLE
  8
OBRYS
 10
324.455823
 20
66.383583
 40
5.000000
  0
ENDBLK
  8
OBRYS
  0
BLOCK
  8
OBRYS
  2
Srouby_s_valcovou_hlavou___12
 70
   66
 10
1320.724856
 20
-95.695819
  0
LINE
  8
OBRYS
 10
288.131067
 20
98.764955
 11
288.131067
 21
101.651724
  0
LINE
  8
OBRYS
 10
288.131067
 20
101.651724
 11
290.631067
 21
103.095109
  0
LINE
  8
OBRYS
 10
290.631067
 20
103.095109
 11
293.131067
 21
101.651724
  0
LINE
  8
OBRYS
 10
293.131067
 20
101.651724
 11
293.131067
 21
98.764955
  0
LINE
  8
OBRYS
 10
293.131067
 20
98.764955
 11
290.631067
 21
97.321570
  0
LINE
  8
OBRYS
 10
290.631067
 20
97.321570
 11
288.131067
 21
98.764955
  0
CIRCLE
  8
OBRYS
 10
290.631067
 20
100.208340
 40
2.886769
  0
CIRCLE
  8
OBRYS
 10
290.631067
 20
100.208340
 40
5.000000
  0
ENDBLK
  8
OBRYS
  0
BLOCK
  8
OBRYS
  2
_7
 70
   64
 10
555.745061
 20
184.126054
  0
INSERT
  8
OBRYS
  2
Srouby_s_valcovou_hlavou___14
 62
     7
 10
555.745061
 20
244.126054
  0
INSERT
  8
OBRYS
  2
Srouby_s_valcovou_hlavou___15
 62
     7
 10
555.745061
 20
94.126054
  0
INSERT
  8
OBRYS
  2
Srouby_s_valcovou_hlavou___16
 62
     7
 10
607.706585
 20
154.126054
  0
INSERT
  8
OBRYS
  2
Srouby_s_valcovou_hlavou___17
 62
     7
 10
503.783536
 20
154.126054
  0
INSERT
  8
OBRYS
  2
Srouby_s_valcovou_hlavou___18
 62
     7
 10
503.783536
 20
214.126054
  0
INSERT
  8
OBRYS
  2
Srouby_s_valcovou_hlavou___19
 62
     7
 10
607.706585
 20
214.126054
  0
LINE
  8
OSA
 10
531.745061
 20
108.126054
 11
531.745061
 21
116.126054
  0
LINE
  8
OSA
 10
482.426187
 20
122.126054
 11
629.880161
 21
122.126054
  0
LINE
  8
OSA
 10
492.491305
 20
184.126054
 11
619.815043
 21
184.126054
  0
LINE
  8
OSA
 10
555.745061
 20
255.472107
 11
555.745061
 21
48.130683
  0
LINE
  8
OSA
 10
589.371892
 20
88.499223
 11
605.598561
 21
72.272554
  0
LINE
  8
OSA
 10
508.595176
 20
169.275939
 11
519.472394
 21
158.398721
  0
LINE
  8
OSA
 10
507.803773
 20
74.184766
 11
522.425607
 21
88.806600
  0
LINE
  8
OSA
 10
590.720269
 20
157.101263
 11
602.667377
 21
169.048371
  0
INSERT
  8
OBRYS
  2
Vnitrni_metricky_zavit_M8__20
 62
     7
 10
596.403700
 20
162.784694
  0
INSERT
  8
OBRYS
  2
Vnitrni_metricky_zavit_M8__21
 62
     7
 10
515.086421
 20
162.784694
  0
CIRCLE
  8
OBRYS
 10
515.086421
 20
81.467414
 40
4.500000
  0
CIRCLE
  8
OBRYS
 10
596.403700
 20
81.467414
 40
4.500000
  0
CIRCLE
  8
OSA
 10
555.745061
 20
122.126054
 40
57.500000
  0
CIRCLE
  8
OBRYS
 10
503.783536
 20
214.126054
 40
5.000000
  0
CIRCLE
  8
OBRYS
 10
555.745061
 20
244.126054
 40
5.000000
  0
CIRCLE
  8
OBRYS
 10
607.706585
 20
214.126054
 40
5.000000
  0
LINE
  8
OBRYS
 10
533.016986
 20
138.444586
 11
533.282253
 21
138.841983
  0
LINE
  8
OBRYS
 10
519.252527
 20
148.419969
 11
519.881753
 21
149.307356
  0
LINE
  8
OBRYS
 10
592.414336
 20
148.209847
 11
592.875030
 21
147.636281
  0
ARC
  8
OBRYS
 10
585.528752
 20
143.360510
 40
8.500000
 50
214.445674
 51
294.117511
  0
ARC
  8
OBRYS
 10
585.528752
 20
143.360510
 40
8.500000
 50
0.000000
 51
30.200786
  0
ARC
  8
OBRYS
 10
555.745061
 20
122.126054
 40
45.000000
 50
35.425214
 51
142.841004
  0
ARC
  8
OBRYS
 10
555.745061
 20
122.126054
 40
28.000000
 50
35.315423
 51
143.187187
  0
ARC
  8
OBRYS
 10
526.082745
 20
143.360510
 40
8.500000
 50
238.024118
 51
324.665849
  0
ARC
  8
OBRYS
 10
526.082745
 20
143.360510
 40
8.500000
 50
143.470940
 51
238.024118
  0
ARC
  8
OBRYS
 10
585.528752
 20
143.360510
 40
8.500000
 50
294.117511
 51
360.000000
  0
ARC
  8
OBRYS
 10
555.745061
 20
184.126054
 40
60.000000
 50
340.005162
 51
21.101147
  0
ARC
  8
OBRYS
 10
555.745061
 20
184.126054
 40
60.000000
 50
180.000000
 51
199.994838
  0
CIRCLE
  8
OBRYS
 10
503.783536
 20
154.126054
 40
5.000000
  0
CIRCLE
  8
OBRYS
 10
607.706585
 20
154.126054
 40
5.000000
  0
CIRCLE
  8
OBRYS
 10
555.745061
 20
122.126054
 40
47.500000
  0
CIRCLE
  8
OBRYS
 10
555.745062
 20
94.126054
 40
5.000000
  0
CIRCLE
  8
OBRYS
 10
555.745061
 20
122.126054
 40
70.000000
  0
ARC
  8
OBRYS
 10
503.783536
 20
214.126054
 40
7.000000
 50
122.047113
 51
180.000000
  0
LINE
  8
OSA
 10
555.745062
 20
94.126054
 11
555.745062
 21
86.476054
  0
LINE
  8
OSA
 10
555.745062
 20
94.126054
 11
555.745062
 21
101.776054
  0
LINE
  8
OSA
 10
555.745062
 20
94.126054
 11
563.395062
 21
94.126054
  0
LINE
  8
OSA
 10
555.745062
 20
94.126054
 11
548.095062
 21
94.126054
  0
LINE
  8
OSA
 10
555.745061
 20
244.126054
 11
555.745061
 21
236.476054
  0
LINE
  8
OSA
 10
555.745061
 20
244.126054
 11
555.745061
 21
251.776054
  0
LINE
  8
OSA
 10
555.745061
 20
244.126054
 11
563.395061
 21
244.126054
  0
LINE
  8
OSA
 10
555.745061
 20
244.126054
 11
548.095061
 21
244.126054
  0
LINE
  8
OSA
 10
607.706585
 20
214.126054
 11
607.706585
 21
206.476054
  0
LINE
  8
OSA
 10
607.706585
 20
214.126054
 11
607.706585
 21
221.776054
  0
LINE
  8
OSA
 10
607.706585
 20
214.126054
 11
615.356585
 21
214.126054
  0
LINE
  8
OSA
 10
607.706585
 20
214.126054
 11
600.056585
 21
214.126054
  0
LINE
  8
OSA
 10
607.706585
 20
154.126054
 11
607.706585
 21
146.476054
  0
LINE
  8
OSA
 10
607.706585
 20
154.126054
 11
607.706585
 21
161.776054
  0
LINE
  8
OSA
 10
607.706585
 20
154.126054
 11
615.356585
 21
154.126054
  0
LINE
  8
OSA
 10
607.706585
 20
154.126054
 11
600.056585
 21
154.126054
  0
LINE
  8
OSA
 10
503.783536
 20
154.126054
 11
503.783536
 21
146.476054
  0
LINE
  8
OSA
 10
503.783536
 20
154.126054
 11
503.783536
 21
161.776054
  0
LINE
  8
OSA
 10
503.783536
 20
154.126054
 11
511.433536
 21
154.126054
  0
LINE
  8
OSA
 10
503.783536
 20
154.126054
 11
496.133536
 21
154.126054
  0
LINE
  8
OSA
 10
503.783536
 20
214.126054
 11
503.783536
 21
206.476054
  0
LINE
  8
OSA
 10
503.783536
 20
214.126054
 11
503.783536
 21
221.776054
  0
LINE
  8
OSA
 10
503.783536
 20
214.126054
 11
511.433536
 21
214.126054
  0
LINE
  8
OSA
 10
503.783536
 20
214.126054
 11
496.133536
 21
214.126054
  0
ARC
  8
OBRYS
 10
555.745061
 20
244.126054
 40
7.000000
 50
12.953880
 51
167.046120
  0
ARC
  8
OBRYS
 10
555.745061
 20
184.126054
 40
60.000000
 50
158.898853
 51
180.000000
  0
ARC
  8
OBRYS
 10
496.969442
 20
206.807030
 40
3.000000
 50
338.898853
 51
47.046120
  0
ARC
  8
OBRYS
 10
614.520679
 20
206.807030
 40
3.000000
 50
132.953880
 51
201.101147
  0
ARC
  8
OBRYS
 10
565.490569
 20
246.367721
 40
3.000000
 50
192.953880
 51
261.101147
  0
ARC
  8
OBRYS
 10
545.999552
 20
246.367721
 40
3.000000
 50
278.898853
 51
347.046120
  0
ARC
  8
OBRYS
 10
555.745061
 20
122.126054
 40
21.000000
 50
239.612032
 51
180.000000
  0
ARC
  8
OBRYS
 10
555.745061
 20
122.126054
 40
21.000000
 50
180.000000
 51
239.612032
  0
ARC
  8
OBRYS
 10
555.745061
 20
122.126054
 40
81.000000
 50
42.650065
 51
137.349935
  0
LINE
  8
OSA
 10
593.745061
 20
229.126054
 11
593.745061
 21
221.126054
  0
LINE
  8
OSA
 10
593.745061
 20
229.126054
 11
593.745061
 21
237.126054
  0
LINE
  8
OSA
 10
593.745061
 20
229.126054
 11
601.745061
 21
229.126054
  0
LINE
  8
OSA
 10
593.745061
 20
229.126054
 11
585.745061
 21
229.126054
  0
ARC
  8
OBRYS
 10
593.745061
 20
229.126054
 40
5.000000
 50
48.547337
 51
70.783336
  0
ARC
  8
OBRYS
 10
555.745061
 20
184.126054
 40
60.000000
 50
70.783336
 51
81.101147
  0
LINE
  8
TLUST_
 62
     2
 10
575.493538
 20
240.782895
 11
595.390767
 21
233.847458
  0
LINE
  8
TLUST_
 62
     2
 10
612.340592
 20
219.372575
 11
597.055066
 21
232.873569
  0
CIRCLE
  8
OBRYS
 10
593.745061
 20
229.126054
 40
3.000000
  0
ARC
  8
OBRYS
 10
607.706585
 20
214.126054
 40
7.000000
 50
312.953878
 51
40.000000
  0
LINE
  8
OBRYS
 10
612.340592
 20
219.372575
 11
613.068896
 21
218.625568
  0
CIRCLE
  8
OBRYS
 10
531.745061
 20
108.126054
 40
3.000000
  0
LINE
  8
OSA
 10
531.745061
 20
108.126054
 11
523.745061
 21
108.126054
  0
LINE
  8
OSA
 10
531.745061
 20
108.126054
 11
539.745061
 21
108.126054
  0
LINE
  8
OSA
 10
531.745061
 20
108.126054
 11
531.745061
 21
100.126054
  0
LINE
  8
OBRYS
 10
499.149529
 20
219.372575
 11
498.421225
 21
218.625568
  0
ARC
  8
OBRYS
 10
503.783536
 20
214.126054
 40
7.000000
 50
140.000000
 51
227.046122
  0
LINE
  8
TLUST_
 62
     2
 10
499.149529
 20
219.372575
 11
514.435055
 21
232.873569
  0
LINE
  8
TLUST_
 62
     2
 10
535.996583
 20
240.782895
 11
516.099354
 21
233.847458
  0
ARC
  8
OBRYS
 10
555.745061
 20
184.126054
 40
60.000000
 50
98.898853
 51
109.216664
  0
ARC
  8
OBRYS
 10
517.745061
 20
229.126054
 40
5.000000
 50
109.216664
 51
131.452663
  0
CIRCLE
  8
OBRYS
 10
555.745061
 20
122.126054
 40
12.500000
  0
ARC
  8
OBRYS
 10
555.745061
 20
122.126054
 40
5.500000
 50
110.654018
 51
68.003576
  0
LINE
  8
OBRYS
 10
557.805079
 20
127.225694
 11
557.805079
 21
129.315015
  0
LINE
  8
OBRYS
 10
553.805079
 20
127.272555
 11
553.805079
 21
129.315015
  0
LINE
  8
OBRYS
 10
553.805079
 20
129.315015
 11
557.805079
 21
129.315015
  0
ARC
  8
OBRYS
 10
555.745061
 20
122.126054
 40
6.654700
 50
106.949013
 51
71.967383
  0
ENDBLK
  8
OBRYS
  0
BLOCK
  8
OBRYS
  2
Srouby_s_valcovou_hlavou___14
 70
   66
 10
555.745061
 20
244.126054
  0
LINE
  8
OBRYS
 10
553.745061
 20
242.971346
 11
553.745061
 21
245.280762
  0
LINE
  8
OBRYS
 10
553.745061
 20
245.280762
 11
555.745061
 21
246.435470
  0
LINE
  8
OBRYS
 10
555.745061
 20
246.435470
 11
557.745061
 21
245.280762
  0
LINE
  8
OBRYS
 10
557.745061
 20
245.280762
 11
557.745061
 21
242.971346
  0
LINE
  8
OBRYS
 10
557.745061
 20
242.971346
 11
555.745061
 21
241.816639
  0
LINE
  8
OBRYS
 10
555.745061
 20
241.816639
 11
553.745061
 21
242.971346
  0
CIRCLE
  8
OBRYS
 10
555.745061
 20
244.126054
 40
2.309415
  0
CIRCLE
  8
OBRYS
 10
555.745061
 20
244.126054
 40
4.250000
  0
ENDBLK
  8
OBRYS
  0
BLOCK
  8
OBRYS
  2
Srouby_s_valcovou_hlavou___15
 70
   66
 10
555.745061
 20
94.126054
  0
LINE
  8
OBRYS
 10
553.745061
 20
92.971346
 11
553.745061
 21
95.280762
  0
LINE
  8
OBRYS
 10
553.745061
 20
95.280762
 11
555.745061
 21
96.435470
  0
LINE
  8
OBRYS
 10
555.745061
 20
96.435470
 11
557.745061
 21
95.280762
  0
LINE
  8
OBRYS
 10
557.745061
 20
95.280762
 11
557.745061
 21
92.971346
  0
LINE
  8
OBRYS
 10
557.745061
 20
92.971346
 11
555.745061
 21
91.816639
  0
LINE
  8
OBRYS
 10
555.745061
 20
91.816639
 11
553.745061
 21
92.971346
  0
CIRCLE
  8
OBRYS
 10
555.745061
 20
94.126054
 40
2.309415
  0
CIRCLE
  8
OBRYS
 10
555.745061
 20
94.126054
 40
4.250000
  0
ENDBLK
  8
OBRYS
  0
BLOCK
  8
OBRYS
  2
Srouby_s_valcovou_hlavou___16
 70
   66
 10
607.706585
 20
154.126054
  0
LINE
  8
OBRYS
 10
605.706585
 20
152.971346
 11
605.706585
 21
155.280762
  0
LINE
  8
OBRYS
 10
605.706585
 20
155.280762
 11
607.706585
 21
156.435470
  0
LINE
  8
OBRYS
 10
607.706585
 20
156.435470
 11
609.706585
 21
155.280762
  0
LINE
  8
OBRYS
 10
609.706585
 20
155.280762
 11
609.706585
 21
152.971346
  0
LINE
  8
OBRYS
 10
609.706585
 20
152.971346
 11
607.706585
 21
151.816639
  0
LINE
  8
OBRYS
 10
607.706585
 20
151.816639
 11
605.706585
 21
152.971346
  0
CIRCLE
  8
OBRYS
 10
607.706585
 20
154.126054
 40
2.309415
  0
CIRCLE
  8
OBRYS
 10
607.706585
 20
154.126054
 40
4.250000
  0
ENDBLK
  8
OBRYS
  0
BLOCK
  8
OBRYS
  2
Srouby_s_valcovou_hlavou___17
 70
   66
 10
503.783536
 20
154.126054
  0
LINE
  8
OBRYS
 10
501.783536
 20
152.971346
 11
501.783536
 21
155.280762
  0
LINE
  8
OBRYS
 10
501.783536
 20
155.280762
 11
503.783536
 21
156.435470
  0
LINE
  8
OBRYS
 10
503.783536
 20
156.435470
 11
505.783536
 21
155.280762
  0
LINE
  8
OBRYS
 10
505.783536
 20
155.280762
 11
505.783536
 21
152.971346
  0
LINE
  8
OBRYS
 10
505.783536
 20
152.971346
 11
503.783536
 21
151.816639
  0
LINE
  8
OBRYS
 10
503.783536
 20
151.816639
 11
501.783536
 21
152.971346
  0
CIRCLE
  8
OBRYS
 10
503.783536
 20
154.126054
 40
2.309415
  0
CIRCLE
  8
OBRYS
 10
503.783536
 20
154.126054
 40
4.250000
  0
ENDBLK
  8
OBRYS
  0
BLOCK
  8
OBRYS
  2
Srouby_s_valcovou_hlavou___18
 70
   66
 10
503.783536
 20
214.126054
  0
LINE
  8
OBRYS
 10
501.783536
 20
212.971346
 11
501.783536
 21
215.280762
  0
LINE
  8
OBRYS
 10
501.783536
 20
215.280762
 11
503.783536
 21
216.435470
  0
LINE
  8
OBRYS
 10
503.783536
 20
216.435470
 11
505.783536
 21
215.280762
  0
LINE
  8
OBRYS
 10
505.783536
 20
215.280762
 11
505.783536
 21
212.971346
  0
LINE
  8
OBRYS
 10
505.783536
 20
212.971346
 11
503.783536
 21
211.816639
  0
LINE
  8
OBRYS
 10
503.783536
 20
211.816639
 11
501.783536
 21
212.971346
  0
CIRCLE
  8
OBRYS
 10
503.783536
 20
214.126054
 40
2.309415
  0
CIRCLE
  8
OBRYS
 10
503.783536
 20
214.126054
 40
4.250000
  0
ENDBLK
  8
OBRYS
  0
BLOCK
  8
OBRYS
  2
Srouby_s_valcovou_hlavou___19
 70
   66
 10
607.706585
 20
214.126054
  0
LINE
  8
OBRYS
 10
605.706585
 20
212.971346
 11
605.706585
 21
215.280762
  0
LINE
  8
OBRYS
 10
605.706585
 20
215.280762
 11
607.706585
 21
216.435470
  0
LINE
  8
OBRYS
 10
607.706585
 20
216.435470
 11
609.706585
 21
215.280762
  0
LINE
  8
OBRYS
 10
609.706585
 20
215.280762
 11
609.706585
 21
212.971346
  0
LINE
  8
OBRYS
 10
609.706585
 20
212.971346
 11
607.706585
 21
211.816639
  0
LINE
  8
OBRYS
 10
607.706585
 20
211.816639
 11
605.706585
 21
212.971346
  0
CIRCLE
  8
OBRYS
 10
607.706585
 20
214.126054
 40
2.309415
  0
CIRCLE
  8
OBRYS
 10
607.706585
 20
214.126054
 40
4.250000
  0
ENDBLK
  8
OBRYS
  0
BLOCK
  8
OBRYS
  2
Vnitrni_metricky_zavit_M8__20
 70
   66
 10
596.403700
 20
162.784694
  0
CIRCLE
  8
OBRYS
 10
596.403700
 20
162.784694
 40
3.323500
  0
ARC
  8
OBRYS
 62
     7
 10
596.403700
 20
162.784694
 40
4.000000
 50
355.000000
 51
275.000000
  0
ENDBLK
  8
OBRYS
  0
BLOCK
  8
OBRYS
  2
Vnitrni_metricky_zavit_M8__21
 70
   66
 10
515.086421
 20
162.784694
  0
CIRCLE
  8
OBRYS
 10
515.086421
 20
162.784694
 40
3.323500
  0
ARC
  8
OBRYS
 62
     7
 10
515.086421
 20
162.784694
 40
4.000000
 50
355.000000
 51
275.000000
  0
ENDBLK
  8
OBRYS
  0
BLOCK
  8
OSA
  2
_8
 70
   64
 10
98.004611
 20
184.126054
  0
ARC
  8
OSA
 62
     2
  6
CONTINUOUS
 10
69.004611
 20
167.382896
 40
6.000000
 50
180.000000
 51
240.000000
  0
LINE
  8
OSA
 62
     2
  6
CONTINUOUS
 10
63.004611
 20
167.382896
 11
63.004611
 21
200.869212
  0
LINE
  8
OSA
 62
     2
  6
CONTINUOUS
 10
66.004611
 20
162.186744
 11
95.004611
 21
145.443586
  0
ARC
  8
OSA
 62
     2
  6
CONTINUOUS
 10
127.004611
 20
200.869212
 40
6.000000
 50
0.000000
 51
60.000000
  0
LINE
  8
OSA
 62
     2
  6
CONTINUOUS
 10
133.004611
 20
200.869212
 11
133.004611
 21
167.382896
  0
LINE
  8
OSA
 62
     2
  6
CONTINUOUS
 10
130.004611
 20
206.065364
 11
101.004611
 21
222.808522
  0
ARC
  8
OSA
 62
     2
  6
CONTINUOUS
 10
98.004611
 20
150.639739
 40
6.000000
 50
240.000000
 51
300.000000
  0
LINE
  8
OSA
 62
     2
  6
CONTINUOUS
 10
130.004611
 20
162.186744
 11
101.004611
 21
145.443586
  0
ARC
  8
OSA
 62
     2
  6
CONTINUOUS
 10
127.004611
 20
167.382896
 40
6.000000
 50
300.000000
 51
360.000000
  0
ARC
  8
OSA
 62
     2
  6
CONTINUOUS
 10
69.004611
 20
200.869212
 40
6.000000
 50
120.000000
 51
180.000000
  0
LINE
  8
OSA
 62
     2
  6
CONTINUOUS
 10
66.004611
 20
206.065364
 11
95.004611
 21
222.808522
  0
ARC
  8
OSA
 62
     2
  6
CONTINUOUS
 10
98.004611
 20
217.612370
 40
6.000000
 50
60.000000
 51
120.000000
  0
LINE
  8
OSA
 62
     2
  6
CONTINUOUS
 10
60.004611
 20
194.126054
 11
63.004611
 21
194.126054
  0
LINE
  8
OSA
 62
     2
  6
CONTINUOUS
 10
68.004611
 20
161.032043
 11
68.004611
 21
124.126054
  0
LINE
  8
OSA
 62
     2
  6
CONTINUOUS
 10
84.758621
 20
151.359100
 11
84.958084
 21
148.003815
  0
LINE
  8
OSA
 62
     2
  6
CONTINUOUS
 10
128.004611
 20
161.032043
 11
128.004611
 21
124.126054
  0
LINE
  8
OSA
 62
     2
  6
CONTINUOUS
 10
133.004611
 20
194.147811
 11
141.074410
 21
193.866007
  0
INSERT
  8
OSA
  2
Vnitrni_metricky_zavit_M1__23
  6
CONTINUOUS
 10
98.004611
 20
124.126054
  0
CIRCLE
  8
OSA
 62
     2
  6
CONTINUOUS
 10
98.004611
 20
124.126054
 40
9.000000
  0
ARC
  8
OSA
 62
     2
  6
CONTINUOUS
 10
70.004611
 20
137.514753
 40
2.000000
 50
90.000000
 51
180.000000
  0
LINE
  8
OSA
 62
     2
  6
CONTINUOUS
 10
81.004611
 20
139.514753
 11
70.004611
 21
139.514753
  0
ARC
  8
OSA
 62
     2
  6
CONTINUOUS
 10
145.004611
 20
169.369606
 40
2.000000
 50
180.000000
 51
228.111296
  0
ARC
  8
OSA
 62
     2
  6
CONTINUOUS
 10
145.004611
 20
172.833376
 40
2.000000
 50
180.000000
 51
241.454628
  0
LINE
  8
OSA
 62
     2
  6
CONTINUOUS
 10
143.004611
 20
191.867226
 11
143.004611
 21
124.126054
  0
LINE
  8
OSA
 10
56.004611
 20
124.126054
 11
171.193319
 21
124.126054
  0
ARC
  8
OSA
 62
     2
  6
CONTINUOUS
 10
141.004611
 20
191.867226
 40
2.000000
 50
0.000000
 51
88.000000
  0
ARC
  8
OSA
 62
     2
  6
CONTINUOUS
 10
145.004611
 20
189.954481
 40
2.000000
 50
180.000000
 51
225.000000
  0
LINE
  8
OSA
 10
98.004611
 20
181.126054
 11
98.004611
 21
222.626054
  0
LINE
  8
OSA
 10
98.004611
 20
184.126054
 11
135.004611
 21
184.126054
  0
LINE
  8
OSA
 10
98.004611
 20
184.126054
 11
61.004611
 21
184.126054
  0
ARC
  8
OSA
 62
     2
  6
CONTINUOUS
 10
109.004611
 20
62.126054
 40
2.000000
 50
90.000000
 51
180.000000
  0
ARC
  8
OSA
 62
     2
  6
CONTINUOUS
 10
87.004611
 20
62.126054
 40
2.000000
 50
0.000000
 51
90.000000
  0
LINE
  8
OSA
 62
     2
  6
CONTINUOUS
 10
107.004611
 20
62.126054
 11
89.004611
 21
62.126054
  0
LINE
  8
OSA
 62
     2
  6
CONTINUOUS
 10
131.004611
 20
54.126054
 11
136.886876
 21
54.126054
  0
ARC
  8
OSA
 62
     2
  6
CONTINUOUS
 10
131.004611
 20
57.126054
 40
3.000000
 50
180.000000
 51
270.000000
  0
ARC
  8
OSA
 62
     2
  6
CONTINUOUS
 10
125.004611
 20
61.126054
 40
3.000000
 50
0.000000
 51
90.000000
  0
LINE
  8
OSA
 62
     2
  6
CONTINUOUS
 10
60.004611
 20
54.126054
 11
65.004611
 21
54.126054
  0
ARC
  8
OSA
 62
     2
  6
CONTINUOUS
 10
65.004611
 20
57.126054
 40
3.000000
 50
270.000000
 51
360.000000
  0
LINE
  8
OSA
 62
     2
  6
CONTINUOUS
 10
71.004611
 20
60.383583
 11
81.004611
 21
60.383583
  0
ARC
  8
OSA
 62
     2
  6
CONTINUOUS
 10
71.004611
 20
57.383583
 40
3.000000
 50
90.000000
 51
180.000000
  0
LINE
  8
OSA
 62
     2
  6
CONTINUOUS
 10
60.004611
 20
194.126054
 11
60.004611
 21
124.126054
  0
LINE
  8
OSA
 62
     2
  6
CONTINUOUS
 10
60.004611
 20
124.126054
 11
60.004611
 21
54.126054
  0
LINE
  8
OSA
 62
     2
  6
CONTINUOUS
 10
68.004611
 20
124.126054
 11
68.004611
 21
57.126054
  0
LINE
  8
OSA
 62
     2
  6
CONTINUOUS
 10
128.004611
 20
124.126054
 11
128.004611
 21
57.126054
  0
LINE
  8
OSA
 10
98.004611
 20
184.126054
 11
98.004611
 21
54.126054
  0
POLYLINE
  8
OSA
 62
     2
  6
CONTINUOUS
 66
    1
  0
VERTEX
  8
OSA
 62
     2
  6
CONTINUOUS
 10
81.004593
 20
108.737389
  0
VERTEX
  8
OSA
 62
     2
  6
CONTINUOUS
 10
81.129837
 20
108.733727
  0
VERTEX
  8
OSA
 62
     2
  6
CONTINUOUS
 10
81.272171
 20
108.720909
  0
VERTEX
  8
OSA
 62
     2
  6
CONTINUOUS
 10
81.433426
 20
108.694908
  0
VERTEX
  8
OSA
 62
     2
  6
CONTINUOUS
 10
81.615189
 20
108.651085
  0
VERTEX
  8
OSA
 62
     2
  6
CONTINUOUS
 10
81.818558
 20
108.583214
  0
VERTEX
  8
OSA
 62
     2
  6
CONTINUOUS
 10
82.044022
 20
108.484337
  0
VERTEX
  8
OSA
 62
     2
  6
CONTINUOUS
 10
82.290726
 20
108.346153
  0
VERTEX
  8
OSA
 62
     2
  6
CONTINUOUS
 10
82.556595
 20
108.160118
  0
VERTEX
  8
OSA
 62
     2
  6
CONTINUOUS
 10
82.837357
 20
107.918419
  0
VERTEX
  8
OSA
 62
     2
  6
CONTINUOUS
 10
83.127029
 20
107.614586
  0
VERTEX
  8
OSA
 62
     2
  6
CONTINUOUS
 10
83.417679
 20
107.245567
  0
VERTEX
  8
OSA
 62
     2
  6
CONTINUOUS
 10
83.700394
 20
106.812584
  0
VERTEX
  8
OSA
 62
     2
  6
CONTINUOUS
 10
83.966263
 20
106.321617
  0
VERTEX
  8
OSA
 62
     2
  6
CONTINUOUS
 10
84.207718
 20
105.782433
  0
VERTEX
  8
OSA
 62
     2
  6
CONTINUOUS
 10
84.419022
 20
105.207237
  0
VERTEX
  8
OSA
 62
     2
  6
CONTINUOUS
 10
84.597366
 20
104.608360
  0
VERTEX
  8
OSA
 62
     2
  6
CONTINUOUS
 10
84.741653
 20
103.996178
  0
VERTEX
  8
OSA
 62
     2
  6
CONTINUOUS
 10
84.852982
 20
103.378380
  0
VERTEX
  8
OSA
 62
     2
  6
CONTINUOUS
 10
84.932816
 20
102.758995
  0
VERTEX
  8
OSA
 62
     2
  6
CONTINUOUS
 10
84.982742
 20
102.138756
  0
VERTEX
  8
OSA
 62
     2
  6
CONTINUOUS
 10
85.003860
 20
101.515709
  0
VERTEX
  8
OSA
 62
     2
  6
CONTINUOUS
 10
84.996048
 20
100.886803
  0
VERTEX
  8
OSA
 62
     2
  6
CONTINUOUS
 10
84.958084
 20
100.248253
  0
VERTEX
  8
OSA
 62
     2
  6
CONTINUOUS
 10
84.887405
 20
99.598106
  0
VERTEX
  8
OSA
 62
     2
  6
CONTINUOUS
 10
84.780472
 20
98.936607
  0
VERTEX
  8
OSA
 62
     2
  6
CONTINUOUS
 10
84.633377
 20
98.269005
  0
VERTEX
  8
OSA
 62
     2
  6
CONTINUOUS
 10
84.443558
 20
97.605553
  0
VERTEX
  8
OSA
 62
     2
  6
CONTINUOUS
 10
84.210526
 20
96.962242
  0
VERTEX
  8
OSA
 62
     2
  6
CONTINUOUS
 10
83.937576
 20
96.358360
  0
VERTEX
  8
OSA
 62
     2
  6
CONTINUOUS
 10
83.632523
 20
95.813683
  0
VERTEX
  8
OSA
 62
     2
  6
CONTINUOUS
 10
83.307083
 20
95.343346
  0
VERTEX
  8
OSA
 62
     2
  6
CONTINUOUS
 10
82.974564
 20
94.955772
  0
VERTEX
  8
OSA
 62
     2
  6
CONTINUOUS
 10
82.648026
 20
94.650963
  0
VERTEX
  8
OSA
 62
     2
  6
CONTINUOUS
 10
82.338089
 20
94.421837
  0
VERTEX
  8
OSA
 62
     2
  6
CONTINUOUS
 10
82.052200
 20
94.257530
  0
VERTEX
  8
OSA
 62
     2
  6
CONTINUOUS
 10
81.794022
 20
94.145226
  0
VERTEX
  8
OSA
 62
     2
  6
CONTINUOUS
 10
81.564896
 20
94.072960
  0
VERTEX
  8
OSA
 62
     2
  6
CONTINUOUS
 10
81.363968
 20
94.030113
  0
VERTEX
  8
OSA
 62
     2
  6
CONTINUOUS
 10
81.189285
 20
94.008141
  0
VERTEX
  8
OSA
 62
     2
  6
CONTINUOUS
 10
81.038284
 20
94.000572
  0
VERTEX
  8
OSA
 62
     2
  6
CONTINUOUS
 10
81.004593
 20
94.000328
  0
SEQEND
  8
OSA
  0
LINE
  8
OSA
 62
     2
  6
CONTINUOUS
 10
81.004608
 20
94.000264
 11
68.004611
 21
94.000264
  0
LINE
  8
OSA
 62
     2
  6
CONTINUOUS
 10
81.004608
 20
108.737356
 11
68.004611
 21
108.737356
  0
LINE
  8
OSA
 62
     2
  6
CONTINUOUS
 10
81.004611
 20
72.237358
 11
68.004611
 21
72.237358
  0
LINE
  8
OSA
 62
     2
  6
CONTINUOUS
 10
86.767124
 20
64.126054
 11
125.004611
 21
64.126054
  0
LINE
  8
OSA
 62
     2
  6
CONTINUOUS
 10
81.004611
 20
72.237358
 11
81.105346
 21
72.235478
  0
LINE
  8
OSA
 62
     2
  6
CONTINUOUS
 10
81.105346
 20
72.235478
 11
81.220012
 21
72.228758
  0
LINE
  8
OSA
 62
     2
  6
CONTINUOUS
 10
81.220012
 20
72.228758
 11
81.350265
 21
72.215188
  0
LINE
  8
OSA
 62
     2
  6
CONTINUOUS
 10
81.350265
 20
72.215188
 11
81.497783
 21
72.192138
  0
LINE
  8
OSA
 62
     2
  6
CONTINUOUS
 10
81.497783
 20
72.192138
 11
81.664166
 21
72.156232
  0
LINE
  8
OSA
 62
     2
  6
CONTINUOUS
 10
81.664166
 20
72.156232
 11
81.850777
 21
72.103227
  0
LINE
  8
OSA
 62
     2
  6
CONTINUOUS
 10
81.850777
 20
72.103227
 11
82.058506
 21
72.027941
  0
LINE
  8
OSA
 62
     2
  6
CONTINUOUS
 10
82.058506
 20
72.027941
 11
82.287471
 21
71.924275
  0
LINE
  8
OSA
 62
     2
  6
CONTINUOUS
 10
82.287471
 20
71.924275
 11
82.536653
 21
71.785398
  0
LINE
  8
OSA
 62
     2
  6
CONTINUOUS
 10
82.536653
 20
71.785398
 11
82.803513
 21
71.604170
  0
LINE
  8
OSA
 62
     2
  6
CONTINUOUS
 10
82.803513
 20
71.604170
 11
83.083696
 21
71.373843
  0
LINE
  8
OSA
 62
     2
  6
CONTINUOUS
 10
83.083696
 20
71.373843
 11
83.370932
 21
71.089001
  0
LINE
  8
OSA
 62
     2
  6
CONTINUOUS
 10
83.370932
 20
71.089001
 11
83.657277
 21
70.746580
  0
LINE
  8
OSA
 62
     2
  6
CONTINUOUS
 10
83.657277
 20
70.746580
 11
83.933746
 21
70.346678
  0
LINE
  8
OSA
 62
     2
  6
CONTINUOUS
 10
83.933746
 20
70.346678
 11
84.191258
 21
69.892831
  0
LINE
  8
OSA
 62
     2
  6
CONTINUOUS
 10
84.191258
 20
69.892831
 11
84.421649
 21
69.391544
  0
LINE
  8
OSA
 62
     2
  6
CONTINUOUS
 10
84.421649
 20
69.391544
 11
84.618449
 21
68.851169
  0
LINE
  8
OSA
 62
     2
  6
CONTINUOUS
 10
84.618449
 20
68.851169
 11
84.777189
 21
68.280464
  0
LINE
  8
OSA
 62
     2
  6
CONTINUOUS
 10
84.777189
 20
68.280464
 11
84.895181
 21
67.687325
  0
LINE
  8
OSA
 62
     2
  6
CONTINUOUS
 10
84.895181
 20
67.687325
 11
84.970924
 21
67.078050
  0
LINE
  8
OSA
 62
     2
  6
CONTINUOUS
 10
84.970924
 20
67.078050
 11
85.003383
 21
66.457339
  0
LINE
  8
OSA
 62
     2
  6
CONTINUOUS
 10
85.003383
 20
66.457339
 11
84.991389
 21
65.828964
  0
LINE
  8
OSA
 62
     2
  6
CONTINUOUS
 10
84.991389
 20
65.828964
 11
84.933382
 21
65.196951
  0
LINE
  8
OSA
 62
     2
  6
CONTINUOUS
 10
84.933382
 20
65.196951
 11
84.827624
 21
64.566964
  0
LINE
  8
OSA
 62
     2
  6
CONTINUOUS
 10
84.827624
 20
64.566964
 11
84.672954
 21
63.947480
  0
LINE
  8
OSA
 62
     2
  6
CONTINUOUS
 10
84.672954
 20
63.947480
 11
84.469957
 21
63.350223
  0
LINE
  8
OSA
 62
     2
  6
CONTINUOUS
 10
84.469957
 20
63.350223
 11
84.022936
 21
62.338257
  0
LINE
  8
OSA
 62
     2
  6
CONTINUOUS
 10
84.222221
 20
62.789398
 11
83.937109
 21
62.279627
  0
LINE
  8
OSA
 62
     2
  6
CONTINUOUS
 10
83.937109
 20
62.279627
 11
83.625521
 21
61.833113
  0
LINE
  8
OSA
 62
     2
  6
CONTINUOUS
 10
83.625521
 20
61.833113
 11
83.300545
 21
61.457139
  0
LINE
  8
OSA
 62
     2
  6
CONTINUOUS
 10
83.300545
 20
61.457139
 11
82.975424
 21
61.152909
  0
LINE
  8
OSA
 62
     2
  6
CONTINUOUS
 10
82.975424
 20
61.152909
 11
82.661641
 21
60.916056
  0
LINE
  8
OSA
 62
     2
  6
CONTINUOUS
 10
82.661641
 20
60.916056
 11
82.367717
 21
60.738341
  0
LINE
  8
OSA
 62
     2
  6
CONTINUOUS
 10
82.367717
 20
60.738341
 11
82.098917
 21
60.609693
  0
LINE
  8
OSA
 62
     2
  6
CONTINUOUS
 10
82.098917
 20
60.609693
 11
81.857618
 21
60.519918
  0
LINE
  8
OSA
 62
     2
  6
CONTINUOUS
 10
81.857618
 20
60.519918
 11
81.644014
 21
60.459796
  0
LINE
  8
OSA
 62
     2
  6
CONTINUOUS
 10
81.644014
 20
60.459796
 11
81.456853
 21
60.421586
  0
LINE
  8
OSA
 62
     2
  6
CONTINUOUS
 10
81.456853
 20
60.421586
 11
81.294058
 21
60.399121
  0
LINE
  8
OSA
 62
     2
  6
CONTINUOUS
 10
81.294058
 20
60.399121
 11
81.153178
 21
60.387673
  0
LINE
  8
OSA
 62
     2
  6
CONTINUOUS
 10
81.153178
 20
60.387673
 11
81.031685
 21
60.383719
  0
LINE
  8
OSA
 62
     2
  6
CONTINUOUS
 10
81.031685
 20
60.383719
 11
81.004611
 21
60.383583
  0
ARC
  8
OSA
 62
     2
  6
CONTINUOUS
 10
86.767124
 20
61.126054
 40
3.000000
 50
90.000000
 51
156.167287
  0
CIRCLE
  8
OSA
 62
     2
  6
CONTINUOUS
 10
98.004611
 20
184.126054
 40
26.000000
  0
LINE
  8
OSA
 62
     2
  6
CONTINUOUS
 10
143.004611
 20
95.251402
 11
143.004611
 21
124.126054
  0
LINE
  8
OSA
 62
     2
  6
CONTINUOUS
 10
143.004611
 20
126.365994
 11
144.004611
 21
126.606179
  0
LINE
  8
OSA
 62
     2
  6
CONTINUOUS
 10
143.004611
 20
121.886115
 11
144.004611
 21
121.645929
  0
LINE
  8
OSA
 62
     2
  6
CONTINUOUS
 10
144.004611
 20
188.126054
 11
143.590397
 21
188.540268
  0
POLYLINE
  8
OSA
 62
     2
  6
CONTINUOUS
 66
    1
  0
VERTEX
  8
OSA
 62
     2
  6
CONTINUOUS
 10
81.004593
 20
139.514679
  0
VERTEX
  8
OSA
 62
     2
  6
CONTINUOUS
 10
81.129837
 20
139.518341
  0
VERTEX
  8
OSA
 62
     2
  6
CONTINUOUS
 10
81.272171
 20
139.531281
  0
VERTEX
  8
OSA
 62
     2
  6
CONTINUOUS
 10
81.433426
 20
139.557159
  0
VERTEX
  8
OSA
 62
     2
  6
CONTINUOUS
 10
81.615189
 20
139.601105
  0
VERTEX
  8
OSA
 62
     2
  6
CONTINUOUS
 10
81.818558
 20
139.668854
  0
VERTEX
  8
OSA
 62
     2
  6
CONTINUOUS
 10
82.044022
 20
139.767853
  0
VERTEX
  8
OSA
 62
     2
  6
CONTINUOUS
 10
82.290726
 20
139.906036
  0
VERTEX
  8
OSA
 62
     2
  6
CONTINUOUS
 10
82.556595
 20
140.091949
  0
VERTEX
  8
OSA
 62
     2
  6
CONTINUOUS
 10
82.837357
 20
140.333649
  0
VERTEX
  8
OSA
 62
     2
  6
CONTINUOUS
 10
83.127029
 20
140.637604
  0
VERTEX
  8
OSA
 62
     2
  6
CONTINUOUS
 10
83.417679
 20
141.006500
  0
VERTEX
  8
OSA
 62
     2
  6
CONTINUOUS
 10
83.700394
 20
141.439484
  0
VERTEX
  8
OSA
 62
     2
  6
CONTINUOUS
 10
83.966263
 20
141.930450
  0
VERTEX
  8
OSA
 62
     2
  6
CONTINUOUS
 10
84.207718
 20
142.469635
  0
VERTEX
  8
OSA
 62
     2
  6
CONTINUOUS
 10
84.419022
 20
143.044830
  0
VERTEX
  8
OSA
 62
     2
  6
CONTINUOUS
 10
84.597366
 20
143.643829
  0
VERTEX
  8
OSA
 62
     2
  6
CONTINUOUS
 10
84.741653
 20
144.255890
  0
VERTEX
  8
OSA
 62
     2
  6
CONTINUOUS
 10
84.852982
 20
144.873688
  0
VERTEX
  8
OSA
 62
     2
  6
CONTINUOUS
 10
84.932816
 20
145.493073
  0
VERTEX
  8
OSA
 62
     2
  6
CONTINUOUS
 10
84.982742
 20
146.113434
  0
VERTEX
  8
OSA
 62
     2
  6
CONTINUOUS
 10
85.003860
 20
146.736359
  0
VERTEX
  8
OSA
 62
     2
  6
CONTINUOUS
 10
84.996048
 20
147.365387
  0
VERTEX
  8
OSA
 62
     2
  6
CONTINUOUS
 10
84.958084
 20
148.003815
  0
VERTEX
  8
OSA
 62
     2
  6
CONTINUOUS
 10
84.887405
 20
148.654083
  0
VERTEX
  8
OSA
 62
     2
  6
CONTINUOUS
 10
84.830032
 20
149.008453
  0
SEQEND
  8
OSA
  0
ENDBLK
  8
OSA
  0
BLOCK
  8
OSA
  2
Vnitrni_metricky_zavit_M1__23
 70
   66
 10
98.004611
 20
124.126054
  0
CIRCLE
  8
OSA
 62
     2
  6
CONTINUOUS
 10
98.004611
 20
124.126054
 40
4.458800
  0
ARC
  8
OSA
  6
CONTINUOUS
 10
98.004611
 20
124.126054
 40
5.000000
 50
265.000000
 51
185.000000
  0
ENDBLK
  8
OSA
  0
BLOCK
  8
OSA
  2
_9
 70
   64
 10
555.745061
 20
184.126054
  0
LINE
  8
OSA
 10
555.745061
 20
184.126054
 11
555.745061
 21
54.126054
  0
ARC
  8
OSA
 62
     2
  6
CONTINUOUS
 10
588.745061
 20
57.126054
 40
3.000000
 50
180.000000
 51
270.000000
  0
LINE
  8
OSA
 62
     2
  6
CONTINUOUS
 10
593.745061
 20
54.126054
 11
588.745061
 21
54.126054
  0
ARC
  8
OSA
 62
     2
  6
CONTINUOUS
 10
522.745061
 20
57.126054
 40
3.000000
 50
270.000000
 51
360.000000
  0
LINE
  8
OSA
 62
     2
  6
CONTINUOUS
 10
522.745061
 20
54.126054
 11
516.862795
 21
54.126054
  0
LINE
  8
OSA
 62
     2
  6
CONTINUOUS
 10
525.745061
 20
58.880501
 11
525.745061
 21
57.126054
  0
LINE
  8
OSA
 62
     2
  6
CONTINUOUS
 10
585.745061
 20
58.880501
 11
585.745061
 21
57.126054
  0
LINE
  8
OSA
 62
     2
  6
CONTINUOUS
 10
593.745061
 20
63.338300
 11
593.745061
 21
54.126054
  0
ENDBLK
  8
OSA
  0
BLOCK
  8
OBRYS
  2
_10
 70
   64
 10
495.745061
 20
124.126054
  0
LINE
  8
OBRYS
 10
495.745061
 20
186.247592
 11
495.745061
 21
158.181567
  0
LINE
  8
OBRYS
 10
517.245061
 20
63.664528
 11
517.245061
 21
24.126054
  0
LINE
  8
OBRYS
 10
511.745061
 20
39.126054
 11
511.745061
 21
67.683424
  0
LINE
  8
OBRYS
 10
495.745061
 20
64.288179
 11
495.745061
 21
86.070541
  0
LINE
  8
OBRYS
 10
488.123740
 20
35.247375
 11
502.743673
 21
49.867307
  0
LINE
  8
OBRYS
 10
487.245061
 20
33.126054
 11
487.245061
 21
24.126054
  0
LINE
  8
OBRYS
 10
487.245061
 20
24.126054
 11
517.245061
 21
24.126054
  0
ARC
  8
OBRYS
 10
490.245061
 20
33.126054
 40
3.000000
 50
135.000000
 51
180.000000
  0
ARC
  8
OBRYS
 10
490.245061
 20
33.126054
 40
3.000000
 50
90.000000
 51
135.000000
  0
LINE
  8
OBRYS
 62
     4
  6
HIDDEN2
 10
494.745061
 20
36.126054
 11
494.745061
 21
24.126054
  0
LINE
  8
OBRYS
 62
     7
  6
DASHDOT
 10
500.245061
 20
43.726054
 11
500.245061
 21
14.726054
  0
LINE
  8
OBRYS
 62
     4
  6
HIDDEN2
 10
505.745061
 20
36.126054
 11
505.745061
 21
24.126054
  0
ARC
  8
OBRYS
 10
500.745061
 20
64.288181
 40
5.000000
 50
180.000000
 51
220.000000
  0
ARC
  8
OBRYS
 10
500.622353
 20
51.988628
 40
3.000000
 50
315.000000
 51
40.000000
  0
POLYLINE
  8
OBRYS
 66
    1
  0
VERTEX
  8
OBRYS
 10
502.503235
 20
58.883587
  0
VERTEX
  8
OBRYS
 10
502.028748
 20
59.027691
  0
VERTEX
  8
OBRYS
 10
501.340027
 20
59.454487
  0
VERTEX
  8
OBRYS
 10
500.463440
 20
60.147564
  0
VERTEX
  8
OBRYS
 10
499.432800
 20
61.080280
  0
VERTEX
  8
OBRYS
 10
498.287415
 20
62.216808
  0
VERTEX
  8
OBRYS
 10
497.071594
 20
63.513458
  0
VERTEX
  8
OBRYS
 10
496.914856
 20
63.691425
  0
VERTEX
  8
OBRYS
 10
496.169739
 20
64.920403
  0
VERTEX
  8
OBRYS
 10
496.046570
 20
65.135834
  0
VERTEX
  8
OBRYS
 10
495.828674
 20
66.383583
  0
VERTEX
  8
OBRYS
 10
495.745056
 20
66.892197
  0
VERTEX
  8
OBRYS
 10
495.745056
 20
67.846764
  0
VERTEX
  8
OBRYS
 10
495.745056
 20
69.253708
  0
VERTEX
  8
OBRYS
 10
495.745056
 20
70.550362
  0
VERTEX
  8
OBRYS
 10
495.745056
 20
71.686890
  0
VERTEX
  8
OBRYS
 10
495.745056
 20
72.619606
  0
VERTEX
  8
OBRYS
 10
495.745056
 20
73.312683
  0
VERTEX
  8
OBRYS
 10
495.745056
 20
73.739471
  0
VERTEX
  8
OBRYS
 10
495.745056
 20
73.883583
  0
SEQEND
  8
OBRYS
  0
POLYLINE
  8
OBRYS
 66
    1
  0
VERTEX
  8
OBRYS
 10
495.745056
 20
72.011108
  0
VERTEX
  8
OBRYS
 10
495.828674
 20
71.686890
  0
VERTEX
  8
OBRYS
 10
496.046570
 20
70.717697
  0
VERTEX
  8
OBRYS
 10
496.169739
 20
70.550362
  0
VERTEX
  8
OBRYS
 10
496.914856
 20
69.417725
  0
VERTEX
  8
OBRYS
 10
497.071594
 20
69.253708
  0
VERTEX
  8
OBRYS
 10
498.287415
 20
67.846764
  0
VERTEX
  8
OBRYS
 10
499.432800
 20
66.383583
  0
VERTEX
  8
OBRYS
 10
500.463440
 20
64.920403
  0
VERTEX
  8
OBRYS
 10
501.340027
 20
63.513458
  0
VERTEX
  8
OBRYS
 10
502.028748
 20
62.216808
  0
VERTEX
  8
OBRYS
 10
502.503235
 20
61.080280
  0
VERTEX
  8
OBRYS
 10
502.745056
 20
60.147564
  0
VERTEX
  8
OBRYS
 10
502.745056
 20
59.454487
  0
VERTEX
  8
OBRYS
 10
502.745056
 20
59.027691
  0
VERTEX
  8
OBRYS
 10
502.503235
 20
58.883587
  0
SEQEND
  8
OBRYS
  0
LINE
  8
OBRYS
 10
490.245061
 20
36.126054
 11
508.745061
 21
36.126054
  0
ARC
  8
OBRYS
 10
508.745061
 20
39.126054
 40
3.000000
 50
270.000000
 51
360.000000
  0
LINE
  8
OBRYS
 10
511.043194
 20
44.236724
 11
496.914838
 21
61.074243
  0
ARC
  8
OBRYS
 10
508.745061
 20
42.308361
 40
3.000000
 50
0.000000
 51
40.000000
  0
ENDBLK
  8
OBRYS
  0
BLOCK
  8
OBRYS
  2
_11
 70
   64
 10
615.745061
 20
124.126054
  0
LINE
  8
OBRYS
 10
615.745061
 20
186.247592
 11
615.745061
 21
158.181567
  0
LINE
  8
OBRYS
 10
594.245061
 20
63.664528
 11
594.245061
 21
24.126054
  0
LINE
  8
OBRYS
 10
599.745061
 20
39.126054
 11
599.745061
 21
67.683424
  0
LINE
  8
OBRYS
 10
615.745061
 20
64.288179
 11
615.745061
 21
86.070541
  0
LINE
  8
OBRYS
 10
623.366381
 20
35.247375
 11
608.746448
 21
49.867307
  0
LINE
  8
OBRYS
 10
624.245061
 20
33.126054
 11
624.245061
 21
24.126054
  0
LINE
  8
OBRYS
 10
624.245061
 20
24.126054
 11
594.245061
 21
24.126054
  0
ARC
  8
OBRYS
 10
621.245061
 20
33.126054
 40
3.000000
 50
0.000000
 51
45.000000
  0
ARC
  8
OBRYS
 10
621.245061
 20
33.126054
 40
3.000000
 50
45.000000
 51
90.000000
  0
LINE
  8
OBRYS
 62
     4
  6
HIDDEN2
 10
616.745061
 20
36.126054
 11
616.745061
 21
24.126054
  0
LINE
  8
OBRYS
 62
     7
  6
DASHDOT
 10
611.245061
 20
43.726054
 11
611.245061
 21
14.726054
  0
LINE
  8
OBRYS
 62
     4
  6
HIDDEN2
 10
605.745061
 20
36.126054
 11
605.745061
 21
24.126054
  0
ARC
  8
OBRYS
 10
610.745061
 20
64.288181
 40
5.000000
 50
320.000000
 51
360.000000
  0
ARC
  8
OBRYS
 10
610.867769
 20
51.988628
 40
3.000000
 50
140.000000
 51
225.000000
  0
POLYLINE
  8
OBRYS
 66
    1
  0
VERTEX
  8
OBRYS
 10
608.986877
 20
58.883587
  0
VERTEX
  8
OBRYS
 10
609.461243
 20
59.027691
  0
VERTEX
  8
OBRYS
 10
610.149963
 20
59.454487
  0
VERTEX
  8
OBRYS
 10
611.026550
 20
60.147564
  0
VERTEX
  8
OBRYS
 10
612.057312
 20
61.080280
  0
VERTEX
  8
OBRYS
 10
613.202576
 20
62.216808
  0
VERTEX
  8
OBRYS
 10
614.418396
 20
63.513458
  0
VERTEX
  8
OBRYS
 10
614.575256
 20
63.691425
  0
VERTEX
  8
OBRYS
 10
615.320374
 20
64.920403
  0
VERTEX
  8
OBRYS
 10
615.443542
 20
65.135834
  0
VERTEX
  8
OBRYS
 10
615.661438
 20
66.383583
  0
VERTEX
  8
OBRYS
 10
615.745056
 20
66.892197
  0
VERTEX
  8
OBRYS
 10
615.745056
 20
67.846764
  0
VERTEX
  8
OBRYS
 10
615.745056
 20
69.253708
  0
VERTEX
  8
OBRYS
 10
615.745056
 20
70.550362
  0
VERTEX
  8
OBRYS
 10
615.745056
 20
71.686890
  0
VERTEX
  8
OBRYS
 10
615.745056
 20
72.619606
  0
VERTEX
  8
OBRYS
 10
615.745056
 20
73.312683
  0
VERTEX
  8
OBRYS
 10
615.745056
 20
73.739471
  0
VERTEX
  8
OBRYS
 10
615.745056
 20
73.883583
  0
SEQEND
  8
OBRYS
  0
POLYLINE
  8
OBRYS
 66
    1
  0
VERTEX
  8
OBRYS
 10
615.745056
 20
72.011108
  0
VERTEX
  8
OBRYS
 10
615.661438
 20
71.686890
  0
VERTEX
  8
OBRYS
 10
615.443542
 20
70.717697
  0
VERTEX
  8
OBRYS
 10
615.320374
 20
70.550362
  0
VERTEX
  8
OBRYS
 10
614.575256
 20
69.417725
  0
VERTEX
  8
OBRYS
 10
614.418396
 20
69.253708
  0
VERTEX
  8
OBRYS
 10
613.202576
 20
67.846764
  0
VERTEX
  8
OBRYS
 10
612.057312
 20
66.383583
  0
VERTEX
  8
OBRYS
 10
611.026550
 20
64.920403
  0
VERTEX
  8
OBRYS
 10
610.149963
 20
63.513458
  0
VERTEX
  8
OBRYS
 10
609.461243
 20
62.216808
  0
VERTEX
  8
OBRYS
 10
608.986877
 20
61.080280
  0
VERTEX
  8
OBRYS
 10
608.745056
 20
60.147564
  0
VERTEX
  8
OBRYS
 10
608.745056
 20
59.454487
  0
VERTEX
  8
OBRYS
 10
608.745056
 20
59.027691
  0
VERTEX
  8
OBRYS
 10
608.986877
 20
58.883587
  0
SEQEND
  8
OBRYS
  0
LINE
  8
OBRYS
 10
621.245061
 20
36.126054
 11
602.745061
 21
36.126054
  0
ARC
  8
OBRYS
 10
602.745061
 20
39.126054
 40
3.000000
 50
180.000000
 51
270.000000
  0
LINE
  8
OBRYS
 10
600.446927
 20
44.236724
 11
614.575283
 21
61.074243
  0
ARC
  8
OBRYS
 10
602.745061
 20
42.308361
 40
3.000000
 50
140.000000
 51
180.000000
  0
ENDBLK
  8
OBRYS
  0
BLOCK
  8
OBRYS
  2
_12
 70
   64
 10
270.373538
 20
184.126054
  0
ARC
  8
OBRYS
 10
227.218811
 20
84.126054
 40
3.000000
 50
90.000000
 51
180.000000
  0
LINE
  8
OBRYS
 10
237.373538
 20
87.126054
 11
227.218811
 21
87.126054
  0
ARC
  8
OBRYS
 10
221.218811
 20
55.126054
 40
3.000000
 50
270.000000
 51
360.000000
  0
LINE
  8
OBRYS
 10
221.218811
 20
52.126054
 11
215.218811
 21
52.126054
  0
LINE
  8
OBRYS
 10
220.853380
 20
192.126054
 11
215.218811
 21
192.126054
  0
LINE
  8
OBRYS
 10
215.218811
 20
192.126054
 11
215.218811
 21
52.126054
  0
ARC
  8
OBRYS
 10
220.853380
 20
195.126054
 40
3.000000
 50
270.000000
 51
331.296591
  0
LINE
  8
OBRYS
 10
228.004891
 20
201.940297
 11
223.484733
 21
193.685227
  0
ARC
  8
OBRYS
 10
225.373538
 20
203.381125
 40
3.000000
 50
331.296591
 51
360.000000
  0
LINE
  8
OBRYS
 10
228.373538
 20
203.381125
 11
228.373538
 21
248.126054
  0
ARC
  8
OBRYS
 10
231.373538
 20
248.126054
 40
3.000000
 50
90.000000
 51
180.000000
  0
LINE
  8
OBRYS
 10
231.373538
 20
251.126054
 11
237.373538
 21
251.126054
  0
LINE
  8
OBRYS
 62
     7
  6
DASHDOT
 10
234.373538
 20
122.126054
 11
213.218811
 21
122.126054
  0
ARC
  8
OBRYS
 10
268.373538
 20
228.330316
 40
3.000000
 50
180.000000
 51
239.595105
  0
LINE
  8
OBRYS
 10
270.373538
 20
223.678313
 11
266.855215
 21
225.742905
  0
LINE
  8
OBRYS
 62
     7
 10
258.480978
 20
87.203077
 11
258.462482
 21
87.184580
  0
LINE
  8
OBRYS
 62
     7
 10
258.462482
 20
87.184580
 11
258.480978
 21
87.203077
  0
LINE
  8
OBRYS
 10
237.373538
 20
87.126054
 11
257.373538
 21
87.126054
  0
ARC
  8
OBRYS
 10
257.373538
 20
95.126054
 40
8.000000
 50
270.000000
 51
360.000000
  0
ARC
  8
OBRYS
 10
268.373538
 20
102.653918
 40
3.000000
 50
131.810315
 51
180.000000
  0
ARC
  8
OBRYS
 10
264.373538
 20
107.126054
 40
3.000000
 50
311.810315
 51
360.000000
  0
ARC
  8
OBRYS
 10
262.373538
 20
238.995654
 40
3.000000
 50
0.000000
 51
39.745666
  0
LINE
  8
OBRYS
 10
264.680208
 20
240.913797
 11
257.087703
 21
250.044197
  0
LINE
  8
OBRYS
 62
     7
  6
DASHDOT
 10
238.327058
 20
122.126054
 11
237.373538
 21
122.126054
  0
LINE
  8
OBRYS
 62
     7
  6
DASHDOT
 10
262.373538
 20
122.126054
 11
245.225566
 21
122.126054
  0
LINE
  8
OBRYS
 62
     7
  6
DASHDOT
 10
275.373538
 20
184.126054
 11
237.373538
 21
184.126054
  0
LINE
  8
OBRYS
 10
237.373538
 20
251.126054
 11
254.781033
 21
251.126054
  0
ARC
  8
OBRYS
 10
254.781033
 20
248.126054
 40
3.000000
 50
39.745666
 51
90.000000
  0
LINE
  8
OBRYS
 10
270.373538
 20
184.126054
 11
270.373538
 21
144.639739
  0
LINE
  8
OBRYS
 10
270.373538
 20
223.678313
 11
270.373538
 21
184.126054
  0
LINE
  8
OBRYS
 10
265.373538
 20
238.995654
 11
265.373538
 21
184.126054
  0
LINE
  8
OBRYS
 10
265.373538
 20
95.126054
 11
265.373538
 21
184.126054
  0
LINE
  8
OBRYS
 10
270.373538
 20
144.573795
 11
267.373538
 21
141.573795
  0
LINE
  8
OBRYS
 10
267.373538
 20
107.126054
 11
267.373538
 21
141.573795
  0
LINE
  8
OBRYS
 10
228.373538
 20
233.524046
 11
254.781033
 21
233.524046
  0
LINE
  8
OBRYS
 10
228.373538
 20
243.403832
 11
254.781033
 21
243.403832
  0
LINE
  8
OBRYS
 10
241.373538
 20
203.793965
 11
262.896509
 21
203.793965
  0
LINE
  8
OBRYS
 10
228.373538
 20
209.002739
 11
240.373538
 21
209.002739
  0
LINE
  8
OBRYS
 10
224.218811
 20
192.126054
 11
224.218811
 21
55.126054
  0
LINE
  8
OBRYS
 10
241.373538
 20
208.002739
 11
241.373538
 21
164.458144
  0
LINE
  8
OBRYS
 10
224.218811
 20
164.458144
 11
262.896509
 21
164.458144
  0
LINE
  8
OBRYS
 10
237.373538
 20
251.126054
 11
237.373538
 21
87.126054
  0
LINE
  8
OBRYS
 10
224.218811
 20
147.144745
 11
262.896509
 21
147.144745
  0
LINE
  8
OBRYS
 10
242.373538
 20
90.243823
 11
261.476732
 21
90.243823
  0
LINE
  8
OBRYS
 10
241.373538
 20
146.144745
 11
241.373538
 21
91.243823
  0
ENDBLK
  8
OBRYS
  0
BLOCK
  8
OBRYS
  2
_13
 70
   64
 10
158.004611
 20
124.126054
  0
ARC
  8
OSA
 62
     2
  6
CONTINUOUS
 10
139.504611
 20
91.487470
 40
3.000000
 50
90.000000
 51
180.000000
  0
LINE
  8
OSA
 62
     2
  6
CONTINUOUS
 10
136.504611
 20
91.487470
 11
136.504611
 21
24.126054
  0
LINE
  8
OBRYS
 10
165.625931
 20
35.247375
 11
151.005998
 21
49.867307
  0
LINE
  8
OSA
 62
     2
  6
CONTINUOUS
 10
166.504611
 20
33.126054
 11
166.504611
 21
24.126054
  0
LINE
  8
OSA
 62
     2
  6
CONTINUOUS
 10
166.504611
 20
24.126054
 11
136.504611
 21
24.126054
  0
ARC
  8
OBRYS
 10
163.504611
 20
33.126054
 40
3.000000
 50
0.000000
 51
45.000000
  0
ARC
  8
OSA
 62
     2
  6
CONTINUOUS
 10
163.504611
 20
33.126054
 40
3.000000
 50
45.000000
 51
90.000000
  0
LINE
  8
OSA
 10
163.004611
 20
166.626054
 11
144.004611
 21
166.626054
  0
LINE
  8
OSA
 10
163.004611
 20
81.626054
 11
144.004611
 21
81.626054
  0
ARC
  8
OBRYS
 10
148.673073
 20
189.126054
 40
5.000000
 50
40.000000
 51
90.000000
  0
LINE
  8
OBRYS
 10
152.503295
 20
192.339992
 11
156.834833
 21
187.177866
  0
ARC
  8
OBRYS
 10
153.004611
 20
183.963928
 40
5.000000
 50
0.000000
 51
40.000000
  0
LINE
  8
OSA
 10
163.004611
 20
124.126054
 11
139.004611
 21
124.126054
  0
LINE
  8
NEVIDI
  6
HIDDEN2
 10
159.004611
 20
36.126054
 11
159.004611
 21
24.126054
  0
LINE
  8
OSA
 10
153.504611
 20
43.726054
 11
153.504611
 21
14.726054
  0
LINE
  8
NEVIDI
  6
HIDDEN2
 10
148.004611
 20
36.126054
 11
148.004611
 21
24.126054
  0
ARC
  8
OBRYS
 10
153.004611
 20
64.288181
 40
5.000000
 50
320.000000
 51
360.000000
  0
LINE
  8
OBRYS
 10
150.911095
 20
194.126054
 11
144.004611
 21
194.126054
  0
ARC
  8
OBRYS
 10
150.911095
 20
191.126054
 40
3.000000
 50
40.000000
 51
90.000000
  0
LINE
  8
OBRYS
 10
153.209228
 20
193.054417
 11
157.302744
 21
188.175955
  0
ARC
  8
OBRYS
 10
155.004611
 20
186.247592
 40
3.000000
 50
0.000000
 51
40.000000
  0
LINE
  8
OBRYS
 10
144.004611
 20
194.126054
 11
144.004611
 21
124.126054
  0
ARC
  8
OBRYS
 10
153.127319
 20
51.988628
 40
3.000000
 50
140.000000
 51
225.000000
  0
LINE
  8
OBRYS
 10
158.004611
 20
64.288179
 11
158.004611
 21
124.126054
  0
LINE
  8
OBRYS
 10
146.165142
 20
95.131105
 11
149.853885
 21
110.202189
  0
LINE
  8
OBRYS
 10
149.853885
 20
110.202189
 11
151.004611
 21
124.126054
  0
LINE
  8
OBRYS
 10
144.004611
 20
97.487470
 11
144.004611
 21
124.126054
  0
ARC
  8
OBRYS
 10
141.004611
 20
97.487470
 40
3.000000
 50
270.000000
 51
360.000000
  0
LINE
  8
OBRYS
 10
141.004611
 20
94.487470
 11
139.504611
 21
94.487470
  0
LINE
  8
OBRYS
 10
151.004611
 20
126.626054
 11
158.004611
 21
126.626054
  0
LINE
  8
OBRYS
 10
151.004611
 20
121.626054
 11
158.004611
 21
121.626054
  0
LINE
  8
OBRYS
 10
157.894767
 20
182.022480
 11
158.004611
 21
181.358612
  0
LINE
  8
OBRYS
 10
157.703074
 20
183.113043
 11
157.894767
 21
182.022480
  0
LINE
  8
OBRYS
 10
157.476082
 20
183.507441
 11
157.703074
 21
183.113043
  0
LINE
  8
OBRYS
 10
156.834833
 20
184.572218
 11
157.476082
 21
183.507441
  0
POLYLINE
  8
OBRYS
 66
    1
  0
VERTEX
  8
OBRYS
 10
151.246414
 20
58.883572
  0
VERTEX
  8
OBRYS
 10
151.720901
 20
59.027676
  0
VERTEX
  8
OBRYS
 10
152.409622
 20
59.454494
  0
VERTEX
  8
OBRYS
 10
153.286087
 20
60.147549
  0
VERTEX
  8
OBRYS
 10
154.316849
 20
61.080288
  0
VERTEX
  8
OBRYS
 10
155.462234
 20
62.216824
  0
VERTEX
  8
OBRYS
 10
156.678055
 20
63.513454
  0
VERTEX
  8
OBRYS
 10
156.834793
 20
63.691433
  0
VERTEX
  8
OBRYS
 10
157.579910
 20
64.920372
  0
VERTEX
  8
OBRYS
 10
157.703079
 20
65.135826
  0
VERTEX
  8
OBRYS
 10
157.920975
 20
66.383568
  0
VERTEX
  8
OBRYS
 10
158.004593
 20
66.892174
  0
VERTEX
  8
OBRYS
 10
158.004593
 20
67.846764
  0
VERTEX
  8
OBRYS
 10
158.004593
 20
69.253685
  0
VERTEX
  8
OBRYS
 10
158.004593
 20
70.550377
  0
VERTEX
  8
OBRYS
 10
158.004593
 20
71.686913
  0
VERTEX
  8
OBRYS
 10
158.004593
 20
72.619591
  0
VERTEX
  8
OBRYS
 10
158.004593
 20
73.312706
  0
VERTEX
  8
OBRYS
 10
158.004593
 20
73.739464
  0
VERTEX
  8
OBRYS
 10
158.004593
 20
73.883568
  0
SEQEND
  8
OBRYS
  0
POLYLINE
  8
OBRYS
 66
    1
  0
VERTEX
  8
OBRYS
 10
154.316849
 20
92.708336
  0
VERTEX
  8
OBRYS
 10
155.462234
 20
92.852440
  0
VERTEX
  8
OBRYS
 10
156.678055
 20
93.279259
  0
VERTEX
  8
OBRYS
 10
156.834793
 20
93.366905
  0
VERTEX
  8
OBRYS
 10
157.579910
 20
93.972313
  0
VERTEX
  8
OBRYS
 10
157.703079
 20
94.109642
  0
VERTEX
  8
OBRYS
 10
157.920975
 20
94.905052
  0
VERTEX
  8
OBRYS
 10
158.004593
 20
95.300133
  0
VERTEX
  8
OBRYS
 10
158.004593
 20
96.041588
  0
VERTEX
  8
OBRYS
 10
158.004593
 20
97.338219
  0
VERTEX
  8
OBRYS
 10
158.004593
 20
98.745140
  0
VERTEX
  8
OBRYS
 10
158.004593
 20
100.208336
  0
VERTEX
  8
OBRYS
 10
158.004593
 20
101.671532
  0
VERTEX
  8
OBRYS
 10
158.004593
 20
103.078453
  0
VERTEX
  8
OBRYS
 10
158.004593
 20
104.375084
  0
VERTEX
  8
OBRYS
 10
158.004593
 20
105.511620
  0
VERTEX
  8
OBRYS
 10
158.004593
 20
106.444359
  0
VERTEX
  8
OBRYS
 10
158.004593
 20
107.137413
  0
VERTEX
  8
OBRYS
 10
158.004593
 20
107.564232
  0
VERTEX
  8
OBRYS
 10
158.004593
 20
107.658226
  0
VERTEX
  8
OBRYS
 10
157.920975
 20
107.708336
  0
SEQEND
  8
OBRYS
  0
POLYLINE
  8
OBRYS
 66
    1
  0
VERTEX
  8
OBRYS
 10
158.004593
 20
72.011131
  0
VERTEX
  8
OBRYS
 10
157.920975
 20
71.686913
  0
VERTEX
  8
OBRYS
 10
157.703079
 20
70.717674
  0
VERTEX
  8
OBRYS
 10
157.579910
 20
70.550377
  0
VERTEX
  8
OBRYS
 10
156.834793
 20
69.417747
  0
VERTEX
  8
OBRYS
 10
156.678055
 20
69.253685
  0
VERTEX
  8
OBRYS
 10
155.462234
 20
67.846764
  0
VERTEX
  8
OBRYS
 10
154.316849
 20
66.383568
  0
VERTEX
  8
OBRYS
 10
153.286087
 20
64.920372
  0
VERTEX
  8
OBRYS
 10
152.409622
 20
63.513454
  0
VERTEX
  8
OBRYS
 10
151.720901
 20
62.216824
  0
VERTEX
  8
OBRYS
 10
151.246414
 20
61.080288
  0
VERTEX
  8
OBRYS
 10
151.004593
 20
60.147549
  0
VERTEX
  8
OBRYS
 10
151.004593
 20
59.454494
  0
VERTEX
  8
OBRYS
 10
151.004593
 20
59.027676
  0
VERTEX
  8
OBRYS
 10
151.246414
 20
58.883572
  0
SEQEND
  8
OBRYS
  0
POLYLINE
  8
OBRYS
 66
    1
  0
VERTEX
  8
OBRYS
 10
157.920975
 20
107.708336
  0
VERTEX
  8
OBRYS
 10
157.703079
 20
107.585472
  0
VERTEX
  8
OBRYS
 10
157.579910
 20
107.564232
  0
VERTEX
  8
OBRYS
 10
156.834793
 20
107.191429
  0
VERTEX
  8
OBRYS
 10
156.678055
 20
107.137413
  0
VERTEX
  8
OBRYS
 10
155.462234
 20
106.444359
  0
VERTEX
  8
OBRYS
 10
154.316849
 20
105.511620
  0
VERTEX
  8
OBRYS
 10
153.286087
 20
104.375084
  0
VERTEX
  8
OBRYS
 10
152.409622
 20
103.078453
  0
VERTEX
  8
OBRYS
 10
151.720901
 20
101.671532
  0
VERTEX
  8
OBRYS
 10
151.246414
 20
100.208336
  0
VERTEX
  8
OBRYS
 10
151.004593
 20
98.745140
  0
VERTEX
  8
OBRYS
 10
151.004593
 20
97.338219
  0
VERTEX
  8
OBRYS
 10
151.004593
 20
96.041588
  0
VERTEX
  8
OBRYS
 10
151.246414
 20
94.905052
  0
VERTEX
  8
OBRYS
 10
151.720901
 20
93.972313
  0
VERTEX
  8
OBRYS
 10
152.409622
 20
93.279259
  0
VERTEX
  8
OBRYS
 10
153.286087
 20
92.852440
  0
VERTEX
  8
OBRYS
 10
154.316849
 20
92.708336
  0
SEQEND
  8
OBRYS
  0
LINE
  8
OBRYS
 10
149.373598
 20
191.541728
 11
144.004611
 21
191.541728
  0
LINE
  8
OBRYS
 10
151.631025
 20
190.517588
 11
156.834833
 21
184.572218
  0
ARC
  8
OBRYS
 10
149.373598
 20
188.541728
 40
3.000000
 50
41.194706
 51
90.000000
  0
LINE
  8
OBRYS
 10
144.004611
 20
185.121429
 11
149.462767
 21
185.121429
  0
LINE
  8
OBRYS
 10
158.004611
 20
176.243109
 11
157.894767
 21
176.675204
  0
LINE
  8
OBRYS
 10
157.894767
 20
176.675204
 11
157.703074
 21
177.539657
  0
LINE
  8
OBRYS
 10
157.703074
 20
177.539657
 11
157.476082
 21
177.852283
  0
LINE
  8
OBRYS
 10
157.476082
 20
177.852283
 11
156.834833
 21
178.815656
  0
LINE
  8
OBRYS
 10
156.834833
 20
178.815656
 11
151.618942
 21
184.207313
  0
ARC
  8
OBRYS
 10
149.462767
 20
182.121429
 40
3.000000
 50
44.050707
 51
90.000000
  0
LINE
  8
OBRYS
 10
149.925124
 20
158.470840
 11
144.004611
 21
158.470840
  0
ARC
  8
OBRYS
 10
149.925124
 20
155.470840
 40
3.000000
 50
59.798611
 51
90.000000
  0
LINE
  8
OBRYS
 10
158.004611
 20
186.247592
 11
158.004611
 21
124.126054
  0
LINE
  8
OBRYS
 10
151.434247
 20
158.063628
 11
157.259172
 21
154.673251
  0
ARC
  8
OBRYS
 10
156.504611
 20
153.376858
 40
1.500000
 50
0.000000
 51
59.798611
  0
ARC
  8
OBRYS
 10
156.504611
 20
139.553490
 40
1.500000
 50
0.000000
 51
72.288290
  0
LINE
  8
OBRYS
 10
142.004611
 20
84.663377
 11
146.165142
 21
95.131105
  0
LINE
  8
OSA
 62
     2
  6
CONTINUOUS
 10
163.504611
 20
36.126054
 11
145.004611
 21
36.126054
  0
LINE
  8
OBRYS
 10
142.004611
 20
39.126054
 11
142.004611
 21
84.663377
  0
ARC
  8
OSA
 62
     2
  6
CONTINUOUS
 10
145.004611
 20
39.126054
 40
3.000000
 50
180.000000
 51
270.000000
  0
LINE
  8
OBRYS
 10
142.706477
 20
44.236724
 11
156.834833
 21
61.074243
  0
ARC
  8
OBRYS
 10
145.004611
 20
42.308361
 40
3.000000
 50
140.000000
 51
180.000000
  0
LINE
  8
OBRYS
 10
150.770901
 20
142.884642
 11
144.004611
 21
142.884642
  0
LINE
  8
OBRYS
 10
156.960952
 20
140.982389
 11
151.227243
 21
142.813541
  0
ARC
  8
OBRYS
 10
150.770901
 20
141.384642
 40
1.500000
 50
72.288290
 51
90.000000
  0
LINE
  8
OBRYS
 10
151.004611
 20
193.226455
 11
151.004611
 21
191.695555
  0
LINE
  8
OBRYS
 10
151.004611
 20
183.742344
 11
151.004611
 21
159.500439
  0
LINE
  8
OBRYS
 10
151.004611
 20
140.915047
 11
151.004611
 21
124.126054
  0
ENDBLK
  8
OBRYS
  0
BLOCK
  8
OSA
  2
_14
 70
   64
 10
60.004611
 20
124.126054
  0
ARC
  8
OSA
 62
     2
  6
CONTINUOUS
 10
51.004611
 20
169.369606
 40
2.000000
 50
311.888704
 51
360.000000
  0
ARC
  8
OSA
 62
     2
  6
CONTINUOUS
 10
51.004611
 20
172.833376
 40
2.000000
 50
298.545372
 51
360.000000
  0
LINE
  8
OSA
 62
     2
  6
CONTINUOUS
 10
53.004611
 20
191.867226
 11
53.004611
 21
124.126054
  0
ARC
  8
OSA
 62
     2
  6
CONTINUOUS
 10
55.004611
 20
191.867226
 40
2.000000
 50
92.000000
 51
180.000000
  0
ARC
  8
OSA
 62
     2
  6
CONTINUOUS
 10
51.004611
 20
189.954481
 40
2.000000
 50
315.000000
 51
360.000000
  0
LINE
  8
OSA
 62
     2
  6
CONTINUOUS
 10
60.004611
 20
124.126054
 11
60.004611
 21
54.126054
  0
LINE
  8
OSA
 10
65.004611
 20
124.126054
 11
33.004611
 21
124.126054
  0
LINE
  8
OSA
 62
     2
  6
CONTINUOUS
 10
60.004611
 20
194.043048
 11
54.934812
 21
193.866007
  0
LINE
  8
OSA
 62
     2
  6
CONTINUOUS
 10
60.004611
 20
194.043048
 11
60.004611
 21
124.126054
  0
LINE
  8
OSA
 62
     2
  6
CONTINUOUS
 10
60.004611
 20
54.071265
 11
59.504611
 21
54.102315
  0
LINE
  8
OSA
 62
     2
  6
CONTINUOUS
 10
53.004611
 20
95.251402
 11
53.004611
 21
124.126054
  0
LINE
  8
OSA
 62
     2
  6
CONTINUOUS
 10
53.004611
 20
126.365994
 11
52.004611
 21
126.606179
  0
LINE
  8
OSA
 62
     2
  6
CONTINUOUS
 10
53.004611
 20
121.886115
 11
52.004611
 21
121.645929
  0
LINE
  8
OSA
 62
     2
  6
CONTINUOUS
 10
52.004611
 20
167.579927
 11
52.339982
 21
167.880719
  0
LINE
  8
OSA
 62
     2
  6
CONTINUOUS
 10
52.004611
 20
188.126054
 11
52.418824
 21
188.540268
  0
ENDBLK
  8
OSA
  0
BLOCK
  8
OBRYS
  2
_15
 70
   64
 10
38.004611
 20
124.126054
  0
ARC
  8
OSA
 62
     2
  6
CONTINUOUS
 10
56.504611
 20
91.487470
 40
3.000000
 50
0.000000
 51
90.000000
  0
LINE
  8
OSA
 62
     2
  6
CONTINUOUS
 10
59.504611
 20
91.487470
 11
59.504611
 21
24.126054
  0
LINE
  8
OBRYS
 10
30.383290
 20
35.247375
 11
45.003223
 21
49.867307
  0
LINE
  8
OSA
 62
     2
  6
CONTINUOUS
 10
29.504611
 20
33.126054
 11
29.504611
 21
24.126054
  0
LINE
  8
OSA
 62
     2
  6
CONTINUOUS
 10
29.504611
 20
24.126054
 11
59.504611
 21
24.126054
  0
ARC
  8
OBRYS
 10
32.504611
 20
33.126054
 40
3.000000
 50
135.000000
 51
180.000000
  0
ARC
  8
OSA
 62
     2
  6
CONTINUOUS
 10
32.504611
 20
33.126054
 40
3.000000
 50
90.000000
 51
135.000000
  0
LINE
  8
OSA
 10
33.004611
 20
166.626054
 11
52.004611
 21
166.626054
  0
LINE
  8
OSA
 10
33.004611
 20
81.626054
 11
52.004611
 21
81.626054
  0
ARC
  8
OBRYS
 10
47.336149
 20
189.126054
 40
5.000000
 50
90.000000
 51
140.000000
  0
LINE
  8
OBRYS
 10
43.505927
 20
192.339992
 11
39.174389
 21
187.177866
  0
ARC
  8
OBRYS
 10
43.004611
 20
183.963928
 40
5.000000
 50
140.000000
 51
180.000000
  0
LINE
  8
OSA
 10
33.004611
 20
124.126054
 11
57.004611
 21
124.126054
  0
LINE
  8
NEVIDI
  6
HIDDEN2
 10
37.004611
 20
36.126054
 11
37.004611
 21
24.126054
  0
LINE
  8
OSA
 10
42.504611
 20
43.726054
 11
42.504611
 21
14.726054
  0
LINE
  8
NEVIDI
  6
HIDDEN2
 10
48.004611
 20
36.126054
 11
48.004611
 21
24.126054
  0
ARC
  8
OBRYS
 10
43.004611
 20
64.288181
 40
5.000000
 50
180.000000
 51
220.000000
  0
LINE
  8
OBRYS
 10
45.098126
 20
194.126054
 11
52.004611
 21
194.126054
  0
ARC
  8
OBRYS
 10
45.098126
 20
191.126054
 40
3.000000
 50
90.000000
 51
140.000000
  0
LINE
  8
OBRYS
 10
42.799993
 20
193.054417
 11
38.706477
 21
188.175955
  0
ARC
  8
OBRYS
 10
41.004611
 20
186.247592
 40
3.000000
 50
140.000000
 51
180.000000
  0
LINE
  8
OBRYS
 10
52.004611
 20
194.126054
 11
52.004611
 21
124.126054
  0
ARC
  8
OBRYS
 10
42.881903
 20
51.988628
 40
3.000000
 50
315.000000
 51
40.000000
  0
LINE
  8
OBRYS
 10
38.004611
 20
64.288179
 11
38.004611
 21
124.126054
  0
LINE
  8
OBRYS
 10
49.844079
 20
95.131105
 11
46.155336
 21
110.202189
  0
LINE
  8
OBRYS
 10
46.155336
 20
110.202189
 11
45.004611
 21
124.126054
  0
LINE
  8
OBRYS
 10
52.004611
 20
97.487470
 11
52.004611
 21
124.126054
  0
ARC
  8
OBRYS
 10
55.004611
 20
97.487470
 40
3.000000
 50
180.000000
 51
270.000000
  0
LINE
  8
OBRYS
 10
55.004611
 20
94.487470
 11
56.504611
 21
94.487470
  0
LINE
  8
OBRYS
 10
45.004611
 20
126.626054
 11
38.004611
 21
126.626054
  0
LINE
  8
OBRYS
 10
45.004611
 20
121.626054
 11
38.004611
 21
121.626054
  0
LINE
  8
OBRYS
 10
38.114455
 20
182.022480
 11
38.004611
 21
181.358612
  0
LINE
  8
OBRYS
 10
38.306148
 20
183.113043
 11
38.114455
 21
182.022480
  0
LINE
  8
OBRYS
 10
38.533139
 20
183.507441
 11
38.306148
 21
183.113043
  0
LINE
  8
OBRYS
 10
39.174389
 20
184.572218
 11
38.533139
 21
183.507441
  0
POLYLINE
  8
OBRYS
 66
    1
  0
VERTEX
  8
OBRYS
 10
44.762772
 20
58.883572
  0
VERTEX
  8
OBRYS
 10
44.288406
 20
59.027676
  0
VERTEX
  8
OBRYS
 10
43.599686
 20
59.454494
  0
VERTEX
  8
OBRYS
 10
42.723099
 20
60.147549
  0
VERTEX
  8
OBRYS
 10
41.692337
 20
61.080288
  0
VERTEX
  8
OBRYS
 10
40.547073
 20
62.216824
  0
VERTEX
  8
OBRYS
 10
39.331253
 20
63.513454
  0
VERTEX
  8
OBRYS
 10
39.174393
 20
63.691433
  0
VERTEX
  8
OBRYS
 10
38.429276
 20
64.920372
  0
VERTEX
  8
OBRYS
 10
38.306107
 20
65.135826
  0
VERTEX
  8
OBRYS
 10
38.088211
 20
66.383568
  0
VERTEX
  8
OBRYS
 10
38.004593
 20
66.892174
  0
VERTEX
  8
OBRYS
 10
38.004593
 20
67.846764
  0
VERTEX
  8
OBRYS
 10
38.004593
 20
69.253685
  0
VERTEX
  8
OBRYS
 10
38.004593
 20
70.550377
  0
VERTEX
  8
OBRYS
 10
38.004593
 20
71.686913
  0
VERTEX
  8
OBRYS
 10
38.004593
 20
72.619591
  0
VERTEX
  8
OBRYS
 10
38.004593
 20
73.312706
  0
VERTEX
  8
OBRYS
 10
38.004593
 20
73.739464
  0
VERTEX
  8
OBRYS
 10
38.004593
 20
73.883568
  0
SEQEND
  8
OBRYS
  0
POLYLINE
  8
OBRYS
 66
    1
  0
VERTEX
  8
OBRYS
 10
41.692337
 20
92.708336
  0
VERTEX
  8
OBRYS
 10
40.547073
 20
92.852440
  0
VERTEX
  8
OBRYS
 10
39.331253
 20
93.279259
  0
VERTEX
  8
OBRYS
 10
39.174393
 20
93.366905
  0
VERTEX
  8
OBRYS
 10
38.429276
 20
93.972313
  0
VERTEX
  8
OBRYS
 10
38.306107
 20
94.109642
  0
VERTEX
  8
OBRYS
 10
38.088211
 20
94.905052
  0
VERTEX
  8
OBRYS
 10
38.004593
 20
95.300133
  0
VERTEX
  8
OBRYS
 10
38.004593
 20
96.041588
  0
VERTEX
  8
OBRYS
 10
38.004593
 20
97.338219
  0
VERTEX
  8
OBRYS
 10
38.004593
 20
98.745140
  0
VERTEX
  8
OBRYS
 10
38.004593
 20
100.208336
  0
VERTEX
  8
OBRYS
 10
38.004593
 20
101.671532
  0
VERTEX
  8
OBRYS
 10
38.004593
 20
103.078453
  0
VERTEX
  8
OBRYS
 10
38.004593
 20
104.375084
  0
VERTEX
  8
OBRYS
 10
38.004593
 20
105.511620
  0
VERTEX
  8
OBRYS
 10
38.004593
 20
106.444359
  0
VERTEX
  8
OBRYS
 10
38.004593
 20
107.137413
  0
VERTEX
  8
OBRYS
 10
38.004593
 20
107.564232
  0
VERTEX
  8
OBRYS
 10
38.004593
 20
107.658226
  0
VERTEX
  8
OBRYS
 10
38.088211
 20
107.708336
  0
SEQEND
  8
OBRYS
  0
POLYLINE
  8
OBRYS
 66
    1
  0
VERTEX
  8
OBRYS
 10
38.004593
 20
72.011131
  0
VERTEX
  8
OBRYS
 10
38.088211
 20
71.686913
  0
VERTEX
  8
OBRYS
 10
38.306107
 20
70.717674
  0
VERTEX
  8
OBRYS
 10
38.429276
 20
70.550377
  0
VERTEX
  8
OBRYS
 10
39.174393
 20
69.417747
  0
VERTEX
  8
OBRYS
 10
39.331253
 20
69.253685
  0
VERTEX
  8
OBRYS
 10
40.547073
 20
67.846764
  0
VERTEX
  8
OBRYS
 10
41.692337
 20
66.383568
  0
VERTEX
  8
OBRYS
 10
42.723099
 20
64.920372
  0
VERTEX
  8
OBRYS
 10
43.599686
 20
63.513454
  0
VERTEX
  8
OBRYS
 10
44.288406
 20
62.216824
  0
VERTEX
  8
OBRYS
 10
44.762772
 20
61.080288
  0
VERTEX
  8
OBRYS
 10
45.004593
 20
60.147549
  0
VERTEX
  8
OBRYS
 10
45.004593
 20
59.454494
  0
VERTEX
  8
OBRYS
 10
45.004593
 20
59.027676
  0
VERTEX
  8
OBRYS
 10
44.762772
 20
58.883572
  0
SEQEND
  8
OBRYS
  0
POLYLINE
  8
OBRYS
 66
    1
  0
VERTEX
  8
OBRYS
 10
38.088211
 20
107.708336
  0
VERTEX
  8
OBRYS
 10
38.306107
 20
107.585472
  0
VERTEX
  8
OBRYS
 10
38.429276
 20
107.564232
  0
VERTEX
  8
OBRYS
 10
39.174393
 20
107.191429
  0
VERTEX
  8
OBRYS
 10
39.331253
 20
107.137413
  0
VERTEX
  8
OBRYS
 10
40.547073
 20
106.444359
  0
VERTEX
  8
OBRYS
 10
41.692337
 20
105.511620
  0
VERTEX
  8
OBRYS
 10
42.723099
 20
104.375084
  0
VERTEX
  8
OBRYS
 10
43.599686
 20
103.078453
  0
VERTEX
  8
OBRYS
 10
44.288406
 20
101.671532
  0
VERTEX
  8
OBRYS
 10
44.762772
 20
100.208336
  0
VERTEX
  8
OBRYS
 10
45.004593
 20
98.745140
  0
VERTEX
  8
OBRYS
 10
45.004593
 20
97.338219
  0
VERTEX
  8
OBRYS
 10
45.004593
 20
96.041588
  0
VERTEX
  8
OBRYS
 10
44.762772
 20
94.905052
  0
VERTEX
  8
OBRYS
 10
44.288406
 20
93.972313
  0
VERTEX
  8
OBRYS
 10
43.599686
 20
93.279259
  0
VERTEX
  8
OBRYS
 10
42.723099
 20
92.852440
  0
VERTEX
  8
OBRYS
 10
41.692337
 20
92.708336
  0
SEQEND
  8
OBRYS
  0
LINE
  8
OBRYS
 10
46.635624
 20
191.541728
 11
52.004611
 21
191.541728
  0
LINE
  8
OBRYS
 10
44.378196
 20
190.517588
 11
39.174389
 21
184.572218
  0
ARC
  8
OBRYS
 10
46.635624
 20
188.541728
 40
3.000000
 50
90.000000
 51
138.805294
  0
LINE
  8
OBRYS
 10
52.004611
 20
185.121429
 11
46.546454
 21
185.121429
  0
LINE
  8
OBRYS
 10
38.004611
 20
176.243109
 11
38.114455
 21
176.675204
  0
LINE
  8
OBRYS
 10
38.114455
 20
176.675204
 11
38.306148
 21
177.539657
  0
LINE
  8
OBRYS
 10
38.306148
 20
177.539657
 11
38.533139
 21
177.852283
  0
LINE
  8
OBRYS
 10
38.533139
 20
177.852283
 11
39.174389
 21
178.815656
  0
LINE
  8
OBRYS
 10
39.174389
 20
178.815656
 11
44.390280
 21
184.207313
  0
ARC
  8
OBRYS
 10
46.546454
 20
182.121429
 40
3.000000
 50
90.000000
 51
135.949293
  0
LINE
  8
OBRYS
 10
46.084097
 20
158.470840
 11
52.004611
 21
158.470840
  0
ARC
  8
OBRYS
 10
46.084097
 20
155.470840
 40
3.000000
 50
90.000000
 51
120.201389
  0
LINE
  8
OBRYS
 10
38.004611
 20
186.247592
 11
38.004611
 21
124.126054
  0
LINE
  8
OBRYS
 10
44.574975
 20
158.063628
 11
38.750049
 21
154.673251
  0
ARC
  8
OBRYS
 10
39.504611
 20
153.376858
 40
1.500000
 50
120.201389
 51
180.000000
  0
ARC
  8
OBRYS
 10
39.504611
 20
139.553490
 40
1.500000
 50
107.711710
 51
180.000000
  0
LINE
  8
OBRYS
 10
54.004611
 20
84.663377
 11
49.844079
 21
95.131105
  0
LINE
  8
OSA
 62
     2
  6
CONTINUOUS
 10
32.504611
 20
36.126054
 11
51.004611
 21
36.126054
  0
LINE
  8
OBRYS
 10
54.004611
 20
39.126054
 11
54.004611
 21
84.663377
  0
ARC
  8
OSA
 62
     2
  6
CONTINUOUS
 10
51.004611
 20
39.126054
 40
3.000000
 50
270.000000
 51
360.000000
  0
LINE
  8
OBRYS
 10
53.302744
 20
44.236724
 11
39.174389
 21
61.074243
  0
ARC
  8
OBRYS
 10
51.004611
 20
42.308361
 40
3.000000
 50
0.000000
 51
40.000000
  0
LINE
  8
OBRYS
 10
45.238321
 20
142.884642
 11
52.004611
 21
142.884642
  0
LINE
  8
OBRYS
 10
39.048269
 20
140.982389
 11
44.781979
 21
142.813541
  0
ARC
  8
OBRYS
 10
45.238321
 20
141.384642
 40
1.500000
 50
90.000000
 51
107.711710
  0
LINE
  8
OBRYS
 10
45.004611
 20
193.226455
 11
45.004611
 21
191.695555
  0
LINE
  8
OBRYS
 10
45.004611
 20
183.742344
 11
45.004611
 21
159.500439
  0
LINE
  8
OBRYS
 10
45.004611
 20
140.915047
 11
45.004611
 21
124.126054
  0
ENDBLK
  8
OBRYS
  0
BLOCK
  8
OBRYS
  2
M10x1_16
 70
   66
 10
98.004611
 20
62.126054
  0
LINE
  8
OBRYS
 62
     7
  6
DASHDOT
 10
98.004611
 20
71.454956
 11
98.004611
 21
57.680706
  0
LINE
  8
OBRYS
 10
105.004611
 20
62.126054
 11
91.004611
 21
62.126054
  0
LINE
  8
OBRYS
 10
91.004611
 20
62.126054
 11
91.004611
 21
60.126054
  0
LINE
  8
OBRYS
 10
105.004611
 20
62.126054
 11
105.004611
 21
60.126054
  0
ARC
  8
OBRYS
 10
92.004611
 20
60.126054
 40
1.000000
 50
180.000000
 51
270.000000
  0
LINE
  8
OBRYS
 10
104.004611
 20
59.126054
 11
92.004611
 21
59.126054
  0
ARC
  8
OBRYS
 10
104.004611
 20
60.126054
 40
1.000000
 50
270.000000
 51
360.000000
  0
ENDBLK
  8
OBRYS
  0
BLOCK
  8
OBRYS
  2
_17
 70
   64
 10
836.823854
 20
184.126054
  0
ARC
  8
OBRYS
 10
879.978581
 20
84.126054
 40
3.000000
 50
0.000000
 51
90.000000
  0
LINE
  8
OBRYS
 10
869.823854
 20
87.126054
 11
879.978581
 21
87.126054
  0
ARC
  8
OBRYS
 10
885.978581
 20
55.126054
 40
3.000000
 50
180.000000
 51
270.000000
  0
LINE
  8
OBRYS
 10
885.978581
 20
52.126054
 11
891.978581
 21
52.126054
  0
LINE
  8
OBRYS
 10
886.344011
 20
192.126054
 11
891.978581
 21
192.126054
  0
LINE
  8
OBRYS
 10
891.978581
 20
192.126054
 11
891.978581
 21
52.126054
  0
ARC
  8
OBRYS
 10
886.344011
 20
195.126054
 40
3.000000
 50
208.703409
 51
270.000000
  0
LINE
  8
OBRYS
 10
879.192501
 20
201.940297
 11
883.712658
 21
193.685227
  0
ARC
  8
OBRYS
 10
881.823854
 20
203.381125
 40
3.000000
 50
180.000000
 51
208.703409
  0
LINE
  8
OBRYS
 10
878.823854
 20
203.381125
 11
878.823854
 21
248.126054
  0
ARC
  8
OBRYS
 10
875.823854
 20
248.126054
 40
3.000000
 50
0.000000
 51
90.000000
  0
LINE
  8
OBRYS
 10
875.823854
 20
251.126054
 11
869.823854
 21
251.126054
  0
LINE
  8
OBRYS
 62
     7
  6
DASHDOT
 10
872.823854
 20
122.126054
 11
893.978581
 21
122.126054
  0
ARC
  8
OBRYS
 10
838.823854
 20
228.330316
 40
3.000000
 50
300.404895
 51
360.000000
  0
LINE
  8
OBRYS
 10
836.823854
 20
223.678313
 11
840.342176
 21
225.742905
  0
LINE
  8
OBRYS
 62
     7
 10
848.716414
 20
87.203077
 11
848.734910
 21
87.184580
  0
LINE
  8
OBRYS
 62
     7
 10
848.734910
 20
87.184580
 11
848.716414
 21
87.203077
  0
LINE
  8
OBRYS
 10
869.823854
 20
87.126054
 11
849.823854
 21
87.126054
  0
ARC
  8
OBRYS
 10
849.823854
 20
95.126054
 40
8.000000
 50
180.000000
 51
270.000000
  0
ARC
  8
OBRYS
 10
838.823854
 20
102.653918
 40
3.000000
 50
0.000000
 51
48.189685
  0
ARC
  8
OBRYS
 10
842.823854
 20
107.126054
 40
3.000000
 50
180.000000
 51
228.189685
  0
ARC
  8
OBRYS
 10
844.823854
 20
238.995654
 40
3.000000
 50
140.254334
 51
180.000000
  0
LINE
  8
OBRYS
 10
842.517183
 20
240.913797
 11
850.109688
 21
250.044197
  0
LINE
  8
OBRYS
 62
     7
  6
DASHDOT
 10
868.870334
 20
122.126054
 11
869.823854
 21
122.126054
  0
LINE
  8
OBRYS
 62
     7
  6
DASHDOT
 10
844.823854
 20
122.126054
 11
861.971825
 21
122.126054
  0
LINE
  8
OBRYS
 62
     7
  6
DASHDOT
 10
831.823854
 20
184.126054
 11
869.823854
 21
184.126054
  0
LINE
  8
OBRYS
 10
869.823854
 20
251.126054
 11
852.416359
 21
251.126054
  0
ARC
  8
OBRYS
 10
852.416359
 20
248.126054
 40
3.000000
 50
90.000000
 51
140.254334
  0
LINE
  8
OBRYS
 10
836.823854
 20
184.126054
 11
836.823854
 21
144.639739
  0
LINE
  8
OBRYS
 10
836.823854
 20
223.678313
 11
836.823854
 21
184.126054
  0
LINE
  8
OBRYS
 10
841.823854
 20
238.995654
 11
841.823854
 21
184.126054
  0
LINE
  8
OBRYS
 10
841.823854
 20
95.126054
 11
841.823854
 21
184.126054
  0
LINE
  8
OBRYS
 10
836.823854
 20
144.573795
 11
839.823854
 21
141.573795
  0
LINE
  8
OBRYS
 10
839.823854
 20
107.126054
 11
839.823854
 21
141.573795
  0
LINE
  8
OBRYS
 10
878.823854
 20
233.524046
 11
852.416359
 21
233.524046
  0
LINE
  8
OBRYS
 10
878.823854
 20
243.403832
 11
852.416359
 21
243.403832
  0
LINE
  8
OBRYS
 10
865.823854
 20
203.793965
 11
844.300882
 21
203.793965
  0
LINE
  8
OBRYS
 10
878.823854
 20
209.002739
 11
866.823854
 21
209.002739
  0
LINE
  8
OBRYS
 10
882.978581
 20
192.126054
 11
882.978581
 21
55.126054
  0
LINE
  8
OBRYS
 10
865.823854
 20
208.002739
 11
865.823854
 21
164.458144
  0
LINE
  8
OBRYS
 10
882.978581
 20
164.458144
 11
844.300882
 21
164.458144
  0
LINE
  8
OBRYS
 10
869.823854
 20
251.126054
 11
869.823854
 21
87.126054
  0
LINE
  8
OBRYS
 10
882.978581
 20
147.144745
 11
844.300882
 21
147.144745
  0
LINE
  8
OBRYS
 10
864.823854
 20
90.243823
 11
845.720660
 21
90.243823
  0
LINE
  8
OBRYS
 10
865.823854
 20
146.144745
 11
865.823854
 21
91.243823
  0
ENDBLK
  8
OBRYS
  0
BLOCK
  8
OBRYS
  2
_18
 70
   64
 10
758.823854
 20
124.126054
  0
ARC
  8
OBRYS
 10
758.823854
 20
124.126054
 40
82.513413
 50
211.967675
 51
249.423480
  0
ARC
  8
OBRYS
 10
758.823854
 20
124.126054
 40
82.513413
 50
253.090442
 51
286.909558
  0
ARC
  8
OBRYS
 10
660.823854
 20
124.126054
 40
65.000000
 50
351.620667
 51
8.379333
  0
ARC
  8
OBRYS
 10
758.823854
 20
26.126054
 40
65.000000
 50
81.620667
 51
98.379333
  0
ARC
  8
OBRYS
 10
856.823854
 20
124.126054
 40
65.000000
 50
171.620667
 51
188.379333
  0
ARC
  8
OBRYS
 10
758.823854
 20
222.126054
 40
65.000000
 50
261.620667
 51
278.379333
  0
CIRCLE
  8
OBRYS
 10
758.823854
 20
124.126054
 40
27.500000
  0
CIRCLE
  8
OBRYS
 10
758.823854
 20
124.126054
 40
20.000000
  0
LINE
  8
OBRYS
 10
762.823854
 20
139.926054
 11
762.823854
 21
135.968773
  0
LINE
  8
OBRYS
 10
758.823854
 20
139.926054
 11
762.823854
 21
139.926054
  0
LINE
  8
OBRYS
 10
754.823854
 20
139.926054
 11
754.823854
 21
135.968773
  0
ARC
  8
OBRYS
 10
758.823854
 20
124.126054
 40
12.500000
 50
108.662925
 51
71.337075
  0
LINE
  8
OBRYS
 10
758.823854
 20
139.926054
 11
754.823854
 21
139.926054
  0
INSERT
  8
OBRYS
  2
Srouby_s_valcovou_hlavou___25
 62
     7
 10
390.873538
 20
124.126054
  0
INSERT
  8
OBRYS
  2
Srouby_s_valcovou_hlavou___26
 62
     7
 10
348.373538
 20
81.626054
  0
INSERT
  8
OBRYS
  2
Srouby_s_valcovou_hlavou___27
 62
     7
 10
305.873538
 20
124.126054
  0
INSERT
  8
OBRYS
  2
Srouby_s_valcovou_hlavou___28
 62
     7
 10
348.373538
 20
166.626054
  0
ARC
  8
OBRYS
 10
806.323854
 20
47.026054
 40
7.100000
 50
0.000000
 51
180.000000
  0
LINE
  8
OBRYS
 10
813.423854
 20
47.026055
 11
813.423854
 21
36.126054
  0
LINE
  8
OBRYS
 10
799.223854
 20
47.026056
 11
799.223854
 21
36.126054
  0
LINE
  8
OBRYS
 62
     7
  6
DASHDOT
 10
806.323854
 20
24.126054
 11
806.323854
 21
56.126531
  0
ARC
  8
OBRYS
 10
758.823854
 20
124.126054
 40
82.513413
 50
290.576520
 51
328.032325
  0
LINE
  8
OBRYS
 10
713.493345
 20
82.331079
 11
702.008391
 21
70.846125
  0
LINE
  8
OBRYS
 10
717.028879
 20
78.795545
 11
705.543924
 21
67.310591
  0
LINE
  8
OBRYS
 10
804.154363
 20
82.331079
 11
815.639317
 21
70.846125
  0
LINE
  8
OBRYS
 10
800.618829
 20
78.795545
 11
812.103783
 21
67.310591
  0
LINE
  8
OBRYS
 10
713.493345
 20
165.921030
 11
707.590190
 21
171.824185
  0
LINE
  8
OBRYS
 10
717.028879
 20
169.456563
 11
711.125724
 21
175.359719
  0
LINE
  8
OBRYS
 10
697.216833
 20
121.626054
 11
688.868511
 21
121.626054
  0
LINE
  8
OBRYS
 10
697.216833
 20
126.626054
 11
688.868511
 21
126.626054
  0
LINE
  8
OBRYS
 10
820.430875
 20
126.626054
 11
828.779197
 21
126.626054
  0
LINE
  8
OBRYS
 10
820.430875
 20
121.626054
 11
828.779197
 21
121.626054
  0
LINE
  8
OBRYS
 10
800.618829
 20
169.456563
 11
806.521984
 21
175.359719
  0
LINE
  8
OBRYS
 10
804.154363
 20
165.921030
 11
810.057518
 21
171.824185
  0
LINE
  8
OBRYS
 10
761.323854
 20
185.733075
 11
761.323854
 21
194.081397
  0
LINE
  8
OBRYS
 10
756.323854
 20
185.733075
 11
756.323854
 21
194.081397
  0
ARC
  8
OBRYS
 10
758.823854
 20
124.126054
 40
74.278193
 50
247.842415
 51
250.754515
  0
ARC
  8
OBRYS
 10
758.823854
 20
124.126054
 40
74.278193
 50
289.245485
 51
292.157585
  0
LINE
  8
OBRYS
 10
787.823854
 20
55.742942
 11
787.823854
 21
40.126054
  0
LINE
  8
OBRYS
 10
729.823854
 20
55.742942
 11
729.823854
 21
40.126054
  0
ARC
  8
OBRYS
 10
726.823854
 20
55.742942
 40
3.000000
 50
0.000000
 51
64.922672
  0
LINE
  8
OBRYS
 10
734.823854
 20
24.126054
 11
734.823854
 21
51.605368
  0
ARC
  8
OBRYS
 10
737.823854
 20
51.605368
 40
3.000000
 50
73.850435
 51
180.000000
  0
ARC
  8
OBRYS
 10
779.823854
 20
51.605368
 40
3.000000
 50
0.000000
 51
106.149565
  0
LINE
  8
OBRYS
 10
782.823854
 20
24.126054
 11
782.823854
 21
51.605368
  0
ARC
  8
OBRYS
 10
790.823854
 20
55.742942
 40
3.000000
 50
115.077328
 51
180.000000
  0
LINE
  8
OBRYS
 10
729.823854
 20
36.126054
 11
733.424220
 21
36.126054
  0
LINE
  8
OBRYS
 10
787.823854
 20
36.126054
 11
784.223487
 21
36.126054
  0
LINE
  8
OBRYS
 62
     7
  6
DASHDOT
 10
711.323854
 20
24.126054
 11
711.323854
 21
56.226531
  0
ARC
  8
OBRYS
 10
826.823854
 20
34.126054
 40
2.000000
 50
0.000000
 51
90.000000
  0
LINE
  8
OBRYS
 10
826.823854
 20
36.126054
 11
791.823854
 21
36.126054
  0
ARC
  8
OBRYS
 10
690.823854
 20
34.126054
 40
2.000000
 50
90.000000
 51
180.000000
  0
LINE
  8
OBRYS
 10
690.823854
 20
36.126054
 11
725.823854
 21
36.126054
  0
ARC
  8
OBRYS
 10
758.823854
 20
124.126054
 40
61.657725
 50
73.917222
 51
106.082778
  0
ARC
  8
OBRYS
 10
758.823854
 20
124.126054
 40
61.657725
 50
28.917222
 51
61.082778
  0
LINE
  8
OBRYS
 10
782.823854
 20
30.126054
 11
758.823854
 21
30.126054
  0
LINE
  8
OBRYS
 10
734.823854
 20
30.126054
 11
758.823854
 21
30.126054
  0
ARC
  8
OBRYS
 10
791.823854
 20
40.126054
 40
4.000000
 50
180.000000
 51
270.000000
  0
ARC
  8
OBRYS
 10
725.823854
 20
40.126054
 40
4.000000
 50
270.000000
 51
360.000000
  0
ARC
  8
OBRYS
 10
758.823854
 20
81.626054
 40
7.500000
 50
180.000000
 51
360.000000
  0
ARC
  8
OBRYS
 10
716.323854
 20
124.126054
 40
7.500000
 50
90.000000
 51
270.000000
  0
ARC
  8
OBRYS
 10
758.823854
 20
166.626054
 40
7.500000
 50
0.000000
 51
180.000000
  0
LINE
  8
OBRYS
 10
766.323854
 20
81.626054
 11
766.323854
 21
87.605512
  0
LINE
  8
OBRYS
 10
716.323854
 20
116.626054
 11
722.303312
 21
116.626054
  0
LINE
  8
OBRYS
 10
751.323854
 20
166.626054
 11
751.323854
 21
160.646596
  0
ARC
  8
OBRYS
 10
769.323854
 20
87.605512
 40
3.000000
 50
106.040442
 51
180.000000
  0
ARC
  8
OBRYS
 10
722.303312
 20
113.626054
 40
3.000000
 50
16.040442
 51
90.000000
  0
ARC
  8
OBRYS
 10
748.323854
 20
160.646596
 40
3.000000
 50
286.040442
 51
360.000000
  0
LINE
  8
OBRYS
 10
751.323854
 20
81.626054
 11
751.323854
 21
87.605512
  0
LINE
  8
OBRYS
 10
716.323854
 20
131.626054
 11
722.303312
 21
131.626054
  0
LINE
  8
OBRYS
 10
766.323854
 20
166.626054
 11
766.323854
 21
160.646596
  0
ARC
  8
OBRYS
 10
748.323854
 20
87.605512
 40
3.000000
 50
0.000000
 51
73.959558
  0
ARC
  8
OBRYS
 10
722.303312
 20
134.626054
 40
3.000000
 50
270.000000
 51
343.959558
  0
ARC
  8
OBRYS
 10
769.323854
 20
160.646596
 40
3.000000
 50
180.000000
 51
253.959558
  0
ARC
  8
OBRYS
 10
795.344396
 20
113.626054
 40
3.000000
 50
90.000000
 51
163.959558
  0
LINE
  8
OBRYS
 10
801.323854
 20
116.626054
 11
795.344396
 21
116.626054
  0
ARC
  8
OBRYS
 10
795.344396
 20
134.626054
 40
3.000000
 50
196.040442
 51
270.000000
  0
LINE
  8
OBRYS
 10
801.323854
 20
131.626054
 11
795.344396
 21
131.626054
  0
ARC
  8
OBRYS
 10
801.323854
 20
124.126054
 40
7.500000
 50
270.000000
 51
90.000000
  0
LINE
  8
OBRYS
 62
     7
  6
DASHDOT
 10
758.823854
 20
124.126054
 11
683.823854
 21
124.126054
  0
LINE
  8
OBRYS
 62
     7
  6
DASHDOT
 10
758.823854
 20
124.126054
 11
833.823854
 21
124.126054
  0
LINE
  8
OBRYS
 62
     7
  6
DASHDOT
 10
758.823854
 20
124.126054
 11
758.823854
 21
199.126054
  0
LINE
  8
OBRYS
 62
     7
  6
DASHDOT
 10
758.823854
 20
124.126054
 11
758.823854
 21
24.126054
  0
LINE
  8
OBRYS
 10
828.823854
 20
124.126054
 11
828.823854
 21
24.126054
  0
LINE
  8
OBRYS
 10
688.823854
 20
124.126054
 11
688.823854
 21
24.126054
  0
LINE
  8
OBRYS
 62
     4
  6
DASHED
 10
705.823854
 20
36.126054
 11
705.823854
 21
24.126054
  0
LINE
  8
OBRYS
 62
     4
  6
DASHED
 10
716.823854
 20
36.126054
 11
716.823854
 21
24.126054
  0
LINE
  8
OBRYS
 10
688.823854
 20
24.126054
 11
734.823854
 21
24.126054
  0
LINE
  8
OBRYS
 10
734.823854
 20
26.126054
 11
758.823854
 21
26.126054
  0
LINE
  8
OBRYS
 62
     4
  6
DASHED
 10
800.823854
 20
36.126054
 11
800.823854
 21
24.126054
  0
LINE
  8
OBRYS
 62
     4
  6
DASHED
 10
811.823854
 20
36.126054
 11
811.823854
 21
24.126054
  0
LINE
  8
OBRYS
 10
782.823854
 20
26.126054
 11
758.823854
 21
26.126054
  0
LINE
  8
OBRYS
 10
828.823854
 20
24.126054
 11
782.823854
 21
24.126054
  0
LINE
  8
OBRYS
 62
     7
  6
DASHDOT
 10
693.413183
 20
97.032067
 11
708.749583
 21
103.384612
  0
LINE
  8
OBRYS
 62
     7
  6
DASHDOT
 10
731.729867
 20
58.715383
 11
738.082412
 21
74.051784
  0
LINE
  8
OBRYS
 62
     7
  6
DASHDOT
 10
785.917841
 20
58.715383
 11
779.565296
 21
74.051784
  0
LINE
  8
OBRYS
 62
     7
  6
DASHDOT
 10
824.234525
 20
97.032067
 11
808.898125
 21
103.384612
  0
CIRCLE
  8
OBRYS
 62
     7
  6
DASHDOT
 10
758.823854
 20
124.126054
 40
62.500000
  0
CIRCLE
  8
OBRYS
 62
     7
  6
DASHDOT
 10
758.823854
 20
124.126054
 40
42.500000
  0
LINE
  8
OBRYS
 62
     7
  6
DASHDOT
 10
693.413183
 20
151.220041
 11
708.749583
 21
144.867496
  0
ARC
  8
OBRYS
 10
711.323854
 20
48.126054
 40
6.062177
 50
0.000005
 51
180.000000
  0
LINE
  8
OBRYS
 10
717.386031
 20
48.126054
 11
717.386031
 21
36.126054
  0
LINE
  8
OBRYS
 10
705.261677
 20
48.126054
 11
705.261677
 21
36.126054
  0
ARC
  8
OBRYS
 10
758.823854
 20
124.126054
 40
70.000000
 50
165.605899
 51
180.000000
  0
LINE
  8
OBRYS
 62
     7
  6
DASHDOT
 10
798.033076
 20
47.026054
 11
818.423854
 21
47.026053
  0
LINE
  8
OBRYS
 62
     7
  6
DASHDOT
 10
717.386031
 20
48.126054
 11
697.761681
 21
48.126054
  0
CIRCLE
  8
OBRYS
 10
816.566325
 20
100.208340
 40
7.500000
  0
ARC
  8
OBRYS
 10
758.823854
 20
124.126054
 40
61.657725
 50
344.382642
 51
16.082778
  0
CIRCLE
  8
OBRYS
 10
782.741568
 20
66.383583
 40
7.500000
  0
CIRCLE
  8
OBRYS
 10
734.906139
 20
66.383583
 40
7.500000
  0
CIRCLE
  8
OBRYS
 10
701.081383
 20
100.208340
 40
7.500000
  0
ARC
  8
OBRYS
 10
758.823854
 20
124.126054
 40
61.657725
 50
299.382642
 51
330.617358
  0
ARC
  8
OBRYS
 10
758.823854
 20
124.126054
 40
61.657725
 50
254.382642
 51
285.617358
  0
ARC
  8
OBRYS
 10
758.823854
 20
124.126054
 40
61.657725
 50
209.382642
 51
240.617358
  0
ARC
  8
OBRYS
 10
758.823854
 20
124.126054
 40
61.657725
 50
118.917222
 51
150.617358
  0
ARC
  8
OBRYS
 10
758.823854
 20
124.126054
 40
61.657725
 50
164.382642
 51
195.617358
  0
ARC
  8
OBRYS
 10
701.081383
 20
148.043769
 40
7.500000
 50
257.377756
 51
57.622244
  0
ARC
  8
OBRYS
 10
700.578118
 20
159.217852
 40
2.000000
 50
148.931945
 51
240.617358
  0
LINE
  8
OBRYS
 10
705.097625
 20
154.377788
 11
699.596838
 21
157.475127
  0
LINE
  8
OBRYS
 10
699.442467
 20
140.725029
 11
693.362674
 21
142.424523
  0
ARC
  8
OBRYS
 10
692.824251
 20
140.498361
 40
2.000000
 50
74.382642
 51
166.068055
  0
ARC
  8
OBRYS
 10
742.451547
 20
190.125657
 40
2.000000
 50
103.931945
 51
195.617358
  0
LINE
  8
OBRYS
 10
742.224879
 20
183.507441
 11
740.525385
 21
189.587234
  0
LINE
  8
OBRYS
 10
728.572120
 20
177.852283
 11
725.474781
 21
183.353070
  0
ARC
  8
OBRYS
 10
723.732056
 20
182.371790
 40
2.000000
 50
29.382642
 51
121.068055
  0
ARC
  8
OBRYS
 10
734.906139
 20
181.868525
 40
7.500000
 50
212.377756
 51
12.622244
  0
LINE
  8
OBRYS
 62
     7
  6
DASHDOT
 10
731.729867
 20
189.536725
 11
738.082412
 21
174.200325
  0
LINE
  8
OBRYS
 62
     7
  6
DASHDOT
 10
785.917841
 20
189.536725
 11
779.565296
 21
174.200325
  0
ARC
  8
OBRYS
 10
782.741568
 20
181.868525
 40
7.500000
 50
167.377756
 51
327.622244
  0
ARC
  8
OBRYS
 10
793.915651
 20
182.371790
 40
2.000000
 50
58.931945
 51
150.617358
  0
LINE
  8
OBRYS
 10
789.075588
 20
177.852283
 11
792.172926
 21
183.353070
  0
LINE
  8
OBRYS
 10
775.422828
 20
183.507441
 11
777.122323
 21
189.587234
  0
ARC
  8
OBRYS
 10
775.196161
 20
190.125657
 40
2.000000
 50
344.382642
 51
76.068055
  0
ARC
  8
OBRYS
 10
824.823457
 20
140.498361
 40
2.000000
 50
13.931945
 51
105.617358
  0
LINE
  8
OBRYS
 10
818.205241
 20
140.725029
 11
824.285034
 21
142.424523
  0
LINE
  8
OBRYS
 10
812.550083
 20
154.377788
 11
818.050869
 21
157.475127
  0
ARC
  8
OBRYS
 10
817.069590
 20
159.217852
 40
2.000000
 50
299.382642
 51
31.068055
  0
ARC
  8
OBRYS
 10
816.566325
 20
148.043769
 40
7.500000
 50
122.377756
 51
282.622244
  0
LINE
  8
OBRYS
 62
     7
  6
DASHDOT
 10
824.234525
 20
151.220041
 11
808.898125
 21
144.867496
  0
ARC
  8
OBRYS
 10
758.823854
 20
124.126054
 40
70.000000
 50
121.068055
 51
148.931945
  0
ARC
  8
OBRYS
 10
758.823854
 20
124.126054
 40
70.000000
 50
76.068055
 51
103.931945
  0
ARC
  8
OBRYS
 10
758.823854
 20
124.126054
 40
70.000000
 50
31.068055
 51
58.931945
  0
ARC
  8
OBRYS
 10
758.823854
 20
124.126054
 40
70.000000
 50
0.000000
 51
13.931945
  0
ARC
  8
OBRYS
 10
758.823854
 20
124.126054
 40
35.000000
 50
196.040442
 51
253.959558
  0
ARC
  8
OBRYS
 10
758.823854
 20
124.126054
 40
35.000000
 50
106.040442
 51
163.959558
  0
ARC
  8
OBRYS
 10
758.823854
 20
124.126054
 40
35.000000
 50
16.040442
 51
73.959558
  0
ARC
  8
OBRYS
 10
758.823854
 20
124.126054
 40
35.000000
 50
286.040442
 51
343.959558
  0
ARC
  8
OBRYS
 10
758.823854
 20
19.126054
 40
70.000000
 50
83.678944
 51
96.321056
  0
ARC
  8
OBRYS
 10
653.823854
 20
124.126054
 40
70.000000
 50
353.678944
 51
6.321056
  0
ARC
  8
OBRYS
 10
758.823854
 20
229.126054
 40
70.000000
 50
263.678944
 51
276.321056
  0
ARC
  8
OBRYS
 10
863.823854
 20
124.126054
 40
70.000000
 50
173.678944
 51
186.321056
  0
INSERT
  8
OBRYS
  2
Srouby_s_valcovou_hlavou___29
 62
     7
 10
1320.724856
 20
-47.860390
  0
INSERT
  8
OBRYS
  2
Srouby_s_valcovou_hlavou___30
 62
     7
 10
1354.549612
 20
-14.035634
  0
INSERT
  8
OBRYS
  2
Srouby_s_valcovou_hlavou___31
 62
     7
 10
1402.385042
 20
-14.035634
  0
INSERT
  8
OBRYS
  2
Srouby_s_valcovou_hlavou___32
 62
     7
 10
1436.209798
 20
-47.860390
  0
INSERT
  8
OBRYS
  2
Srouby_s_valcovou_hlavou___33
 62
     7
 10
1436.209798
 20
-95.695819
  0
INSERT
  8
OBRYS
  2
Srouby_s_valcovou_hlavou___34
 62
     7
 10
1402.385042
 20
-129.520575
  0
INSERT
  8
OBRYS
  2
Srouby_s_valcovou_hlavou___35
 62
     7
 10
1354.549612
 20
-129.520575
  0
INSERT
  8
OBRYS
  2
Srouby_s_valcovou_hlavou___36
 62
     7
 10
1320.724856
 20
-95.695819
  0
ARC
  8
OBRYS
 10
758.823854
 20
124.126054
 40
70.000000
 50
0.000000
 51
180.000000
  0
ENDBLK
  8
OBRYS
  0
BLOCK
  8
OBRYS
  2
Srouby_s_valcovou_hlavou___25
 70
   66
 10
390.873538
 20
124.126054
  0
LINE
  8
OBRYS
 10
719.323854
 20
122.393993
 11
719.323854
 21
125.858116
  0
LINE
  8
OBRYS
 10
719.323854
 20
125.858116
 11
716.323854
 21
127.590177
  0
LINE
  8
OBRYS
 10
716.323854
 20
127.590177
 11
713.323854
 21
125.858116
  0
LINE
  8
OBRYS
 10
713.323854
 20
125.858116
 11
713.323854
 21
122.393993
  0
LINE
  8
OBRYS
 10
713.323854
 20
122.393993
 11
716.323854
 21
120.661931
  0
LINE
  8
OBRYS
 10
716.323854
 20
120.661931
 11
719.323854
 21
122.393993
  0
CIRCLE
  8
OBRYS
 10
716.323854
 20
124.126054
 40
3.464123
  0
CIRCLE
  8
OBRYS
 10
716.323854
 20
124.126054
 40
6.500000
  0
ENDBLK
  8
OBRYS
  0
BLOCK
  8
OBRYS
  2
Srouby_s_valcovou_hlavou___26
 70
   66
 10
348.373538
 20
81.626054
  0
LINE
  8
OBRYS
 10
761.823854
 20
79.893993
 11
761.823854
 21
83.358116
  0
LINE
  8
OBRYS
 10
761.823854
 20
83.358116
 11
758.823854
 21
85.090177
  0
LINE
  8
OBRYS
 10
758.823854
 20
85.090177
 11
755.823854
 21
83.358116
  0
LINE
  8
OBRYS
 10
755.823854
 20
83.358116
 11
755.823854
 21
79.893993
  0
LINE
  8
OBRYS
 10
755.823854
 20
79.893993
 11
758.823854
 21
78.161931
  0
LINE
  8
OBRYS
 10
758.823854
 20
78.161931
 11
761.823854
 21
79.893993
  0
CIRCLE
  8
OBRYS
 10
758.823854
 20
81.626054
 40
3.464123
  0
CIRCLE
  8
OBRYS
 10
758.823854
 20
81.626054
 40
6.500000
  0
ENDBLK
  8
OBRYS
  0
BLOCK
  8
OBRYS
  2
Srouby_s_valcovou_hlavou___27
 70
   66
 10
305.873538
 20
124.126054
  0
LINE
  8
OBRYS
 10
804.323854
 20
122.393993
 11
804.323854
 21
125.858116
  0
LINE
  8
OBRYS
 10
804.323854
 20
125.858116
 11
801.323854
 21
127.590177
  0
LINE
  8
OBRYS
 10
801.323854
 20
127.590177
 11
798.323854
 21
125.858116
  0
LINE
  8
OBRYS
 10
798.323854
 20
125.858116
 11
798.323854
 21
122.393993
  0
LINE
  8
OBRYS
 10
798.323854
 20
122.393993
 11
801.323854
 21
120.661931
  0
LINE
  8
OBRYS
 10
801.323854
 20
120.661931
 11
804.323854
 21
122.393993
  0
CIRCLE
  8
OBRYS
 10
801.323854
 20
124.126054
 40
3.464123
  0
CIRCLE
  8
OBRYS
 10
801.323854
 20
124.126054
 40
6.500000
  0
ENDBLK
  8
OBRYS
  0
BLOCK
  8
OBRYS
  2
Srouby_s_valcovou_hlavou___28
 70
   66
 10
348.373538
 20
166.626054
  0
LINE
  8
OBRYS
 10
761.823854
 20
164.893993
 11
761.823854
 21
168.358116
  0
LINE
  8
OBRYS
 10
761.823854
 20
168.358116
 11
758.823854
 21
170.090177
  0
LINE
  8
OBRYS
 10
758.823854
 20
170.090177
 11
755.823854
 21
168.358116
  0
LINE
  8
OBRYS
 10
755.823854
 20
168.358116
 11
755.823854
 21
164.893993
  0
LINE
  8
OBRYS
 10
755.823854
 20
164.893993
 11
758.823854
 21
163.161931
  0
LINE
  8
OBRYS
 10
758.823854
 20
163.161931
 11
761.823854
 21
164.893993
  0
CIRCLE
  8
OBRYS
 10
758.823854
 20
166.626054
 40
3.464123
  0
CIRCLE
  8
OBRYS
 10
758.823854
 20
166.626054
 40
6.500000
  0
ENDBLK
  8
OBRYS
  0
BLOCK
  8
OBRYS
  2
Srouby_s_valcovou_hlavou___29
 70
   66
 10
1320.724856
 20
-47.860390
  0
LINE
  8
OBRYS
 10
819.066325
 20
146.600384
 11
819.066325
 21
149.487153
  0
LINE
  8
OBRYS
 10
819.066325
 20
149.487153
 11
816.566325
 21
150.930538
  0
LINE
  8
OBRYS
 10
816.566325
 20
150.930538
 11
814.066325
 21
149.487153
  0
LINE
  8
OBRYS
 10
814.066325
 20
149.487153
 11
814.066325
 21
146.600384
  0
LINE
  8
OBRYS
 10
814.066325
 20
146.600384
 11
816.566325
 21
145.156999
  0
LINE
  8
OBRYS
 10
816.566325
 20
145.156999
 11
819.066325
 21
146.600384
  0
CIRCLE
  8
OBRYS
 10
816.566325
 20
148.043769
 40
2.886769
  0
CIRCLE
  8
OBRYS
 10
816.566325
 20
148.043769
 40
5.000000
  0
ENDBLK
  8
OBRYS
  0
BLOCK
  8
OBRYS
  2
Srouby_s_valcovou_hlavou___30
 70
   66
 10
1354.549612
 20
-14.035634
  0
LINE
  8
OBRYS
 10
785.241568
 20
180.425140
 11
785.241568
 21
183.311910
  0
LINE
  8
OBRYS
 10
785.241568
 20
183.311910
 11
782.741568
 21
184.755294
  0
LINE
  8
OBRYS
 10
782.741568
 20
184.755294
 11
780.241568
 21
183.311910
  0
LINE
  8
OBRYS
 10
780.241568
 20
183.311910
 11
780.241568
 21
180.425140
  0
LINE
  8
OBRYS
 10
780.241568
 20
180.425140
 11
782.741568
 21
178.981756
  0
LINE
  8
OBRYS
 10
782.741568
 20
178.981756
 11
785.241568
 21
180.425140
  0
CIRCLE
  8
OBRYS
 10
782.741568
 20
181.868525
 40
2.886769
  0
CIRCLE
  8
OBRYS
 10
782.741568
 20
181.868525
 40
5.000000
  0
ENDBLK
  8
OBRYS
  0
BLOCK
  8
OBRYS
  2
Srouby_s_valcovou_hlavou___31
 70
   66
 10
1402.385042
 20
-14.035634
  0
LINE
  8
OBRYS
 10
737.406139
 20
180.425140
 11
737.406139
 21
183.311910
  0
LINE
  8
OBRYS
 10
737.406139
 20
183.311910
 11
734.906139
 21
184.755294
  0
LINE
  8
OBRYS
 10
734.906139
 20
184.755294
 11
732.406139
 21
183.311910
  0
LINE
  8
OBRYS
 10
732.406139
 20
183.311910
 11
732.406139
 21
180.425140
  0
LINE
  8
OBRYS
 10
732.406139
 20
180.425140
 11
734.906139
 21
178.981756
  0
LINE
  8
OBRYS
 10
734.906139
 20
178.981756
 11
737.406139
 21
180.425140
  0
CIRCLE
  8
OBRYS
 10
734.906139
 20
181.868525
 40
2.886769
  0
CIRCLE
  8
OBRYS
 10
734.906139
 20
181.868525
 40
5.000000
  0
ENDBLK
  8
OBRYS
  0
BLOCK
  8
OBRYS
  2
Srouby_s_valcovou_hlavou___32
 70
   66
 10
1436.209798
 20
-47.860390
  0
LINE
  8
OBRYS
 10
703.581383
 20
146.600384
 11
703.581383
 21
149.487153
  0
LINE
  8
OBRYS
 10
703.581383
 20
149.487153
 11
701.081383
 21
150.930538
  0
LINE
  8
OBRYS
 10
701.081383
 20
150.930538
 11
698.581383
 21
149.487153
  0
LINE
  8
OBRYS
 10
698.581383
 20
149.487153
 11
698.581383
 21
146.600384
  0
LINE
  8
OBRYS
 10
698.581383
 20
146.600384
 11
701.081383
 21
145.156999
  0
LINE
  8
OBRYS
 10
701.081383
 20
145.156999
 11
703.581383
 21
146.600384
  0
CIRCLE
  8
OBRYS
 10
701.081383
 20
148.043769
 40
2.886769
  0
CIRCLE
  8
OBRYS
 10
701.081383
 20
148.043769
 40
5.000000
  0
ENDBLK
  8
OBRYS
  0
BLOCK
  8
OBRYS
  2
Srouby_s_valcovou_hlavou___33
 70
   66
 10
1436.209798
 20
-95.695819
  0
LINE
  8
OBRYS
 10
703.581383
 20
98.764955
 11
703.581383
 21
101.651724
  0
LINE
  8
OBRYS
 10
703.581383
 20
101.651724
 11
701.081383
 21
103.095109
  0
LINE
  8
OBRYS
 10
701.081383
 20
103.095109
 11
698.581383
 21
101.651724
  0
LINE
  8
OBRYS
 10
698.581383
 20
101.651724
 11
698.581383
 21
98.764955
  0
LINE
  8
OBRYS
 10
698.581383
 20
98.764955
 11
701.081383
 21
97.321570
  0
LINE
  8
OBRYS
 10
701.081383
 20
97.321570
 11
703.581383
 21
98.764955
  0
CIRCLE
  8
OBRYS
 10
701.081383
 20
100.208340
 40
2.886769
  0
CIRCLE
  8
OBRYS
 10
701.081383
 20
100.208340
 40
5.000000
  0
ENDBLK
  8
OBRYS
  0
BLOCK
  8
OBRYS
  2
Srouby_s_valcovou_hlavou___34
 70
   66
 10
1402.385042
 20
-129.520575
  0
LINE
  8
OBRYS
 10
737.406139
 20
64.940199
 11
737.406139
 21
67.826968
  0
LINE
  8
OBRYS
 10
737.406139
 20
67.826968
 11
734.906139
 21
69.270353
  0
LINE
  8
OBRYS
 10
734.906139
 20
69.270353
 11
732.406139
 21
67.826968
  0
LINE
  8
OBRYS
 10
732.406139
 20
67.826968
 11
732.406139
 21
64.940199
  0
LINE
  8
OBRYS
 10
732.406139
 20
64.940199
 11
734.906139
 21
63.496814
  0
LINE
  8
OBRYS
 10
734.906139
 20
63.496814
 11
737.406139
 21
64.940199
  0
CIRCLE
  8
OBRYS
 10
734.906139
 20
66.383583
 40
2.886769
  0
CIRCLE
  8
OBRYS
 10
734.906139
 20
66.383583
 40
5.000000
  0
ENDBLK
  8
OBRYS
  0
BLOCK
  8
OBRYS
  2
Srouby_s_valcovou_hlavou___35
 70
   66
 10
1354.549612
 20
-129.520575
  0
LINE
  8
OBRYS
 10
785.241568
 20
64.940199
 11
785.241568
 21
67.826968
  0
LINE
  8
OBRYS
 10
785.241568
 20
67.826968
 11
782.741568
 21
69.270353
  0
LINE
  8
OBRYS
 10
782.741568
 20
69.270353
 11
780.241568
 21
67.826968
  0
LINE
  8
OBRYS
 10
780.241568
 20
67.826968
 11
780.241568
 21
64.940199
  0
LINE
  8
OBRYS
 10
780.241568
 20
64.940199
 11
782.741568
 21
63.496814
  0
LINE
  8
OBRYS
 10
782.741568
 20
63.496814
 11
785.241568
 21
64.940199
  0
CIRCLE
  8
OBRYS
 10
782.741568
 20
66.383583
 40
2.886769
  0
CIRCLE
  8
OBRYS
 10
782.741568
 20
66.383583
 40
5.000000
  0
ENDBLK
  8
OBRYS
  0
BLOCK
  8
OBRYS
  2
Srouby_s_valcovou_hlavou___36
 70
   66
 10
1320.724856
 20
-95.695819
  0
LINE
  8
OBRYS
 10
819.066325
 20
98.764955
 11
819.066325
 21
101.651724
  0
LINE
  8
OBRYS
 10
819.066325
 20
101.651724
 11
816.566325
 21
103.095109
  0
LINE
  8
OBRYS
 10
816.566325
 20
103.095109
 11
814.066325
 21
101.651724
  0
LINE
  8
OBRYS
 10
814.066325
 20
101.651724
 11
814.066325
 21
98.764955
  0
LINE
  8
OBRYS
 10
814.066325
 20
98.764955
 11
816.566325
 21
97.321570
  0
LINE
  8
OBRYS
 10
816.566325
 20
97.321570
 11
819.066325
 21
98.764955
  0
CIRCLE
  8
OBRYS
 10
816.566325
 20
100.208340
 40
2.886769
  0
CIRCLE
  8
OBRYS
 10
816.566325
 20
100.208340
 40
5.000000
  0
ENDBLK
  8
OBRYS
  0
BLOCK
  8
OBRYS
  2
_19
 70
   64
 10
348.373538
 20
-52.608522
  0
LINE
  8
OBRYS
 10
331.584546
 20
-45.608522
 11
348.373538
 21
-45.608522
  0
LINE
  8
OBRYS
 10
288.757248
 20
-45.608522
 11
312.999153
 21
-45.608522
  0
LINE
  8
OBRYS
 10
279.273137
 20
-45.608522
 11
280.804037
 21
-45.608522
  0
ARC
  8
OBRYS
 10
331.114950
 20
-45.842231
 40
1.500000
 50
162.288290
 51
180.000000
  0
LINE
  8
OBRYS
 10
331.517203
 20
-39.652180
 11
329.686051
 21
-45.385890
  0
LINE
  8
OBRYS
 10
329.614950
 20
-45.842231
 11
329.614950
 21
-52.608522
  0
ARC
  8
OBRYS
 10
332.946102
 20
-40.108522
 40
1.500000
 50
90.000000
 51
162.288290
  0
ARC
  8
OBRYS
 10
319.122734
 20
-40.108522
 40
1.500000
 50
90.000000
 51
149.798611
  0
LINE
  8
OBRYS
 10
314.435964
 20
-45.178885
 11
317.826341
 21
-39.353960
  0
LINE
  8
OBRYS
 10
286.252000
 20
-38.608522
 11
348.373538
 21
-38.608522
  0
ARC
  8
OBRYS
 10
317.028752
 20
-46.688008
 40
3.000000
 50
149.798611
 51
180.000000
  0
LINE
  8
OBRYS
 10
314.028752
 20
-46.688008
 11
314.028752
 21
-52.608522
  0
ARC
  8
OBRYS
 10
290.378164
 20
-47.150365
 40
3.000000
 50
134.050707
 51
180.000000
  0
LINE
  8
OBRYS
 10
296.256483
 20
-38.608522
 11
295.824388
 21
-38.718366
  0
LINE
  8
OBRYS
 10
295.824388
 20
-38.718366
 11
294.959935
 21
-38.910059
  0
LINE
  8
OBRYS
 10
294.959935
 20
-38.910059
 11
294.647309
 21
-39.137050
  0
LINE
  8
OBRYS
 10
294.647309
 20
-39.137050
 11
293.683936
 21
-39.778299
  0
LINE
  8
OBRYS
 10
293.683936
 20
-39.778299
 11
288.292279
 21
-44.994191
  0
LINE
  8
OBRYS
 10
287.378164
 20
-52.608522
 11
287.378164
 21
-47.150365
  0
ARC
  8
OBRYS
 10
283.957864
 20
-47.239534
 40
3.000000
 50
131.194706
 51
180.000000
  0
LINE
  8
OBRYS
 10
281.982004
 20
-44.982107
 11
287.927374
 21
-39.778299
  0
LINE
  8
OBRYS
 10
280.957864
 20
-47.239534
 11
280.957864
 21
-52.608522
  0
LINE
  8
OBRYS
 10
287.927374
 20
-39.778299
 11
288.992151
 21
-39.137050
  0
LINE
  8
OBRYS
 10
288.992151
 20
-39.137050
 11
289.386549
 21
-38.910059
  0
LINE
  8
OBRYS
 10
289.386549
 20
-38.910059
 11
290.477112
 21
-38.718366
  0
LINE
  8
OBRYS
 10
290.477112
 20
-38.718366
 11
291.140980
 21
-38.608522
  0
LINE
  8
OBRYS
 10
345.873538
 20
-45.608522
 11
345.873538
 21
-38.608522
  0
ARC
  8
OBRYS
 10
286.252000
 20
-41.608522
 40
3.000000
 50
90.000000
 51
130.000000
  0
LINE
  8
OBRYS
 10
279.445175
 20
-43.403904
 11
284.323637
 21
-39.310388
  0
ARC
  8
OBRYS
 10
281.373538
 20
-45.702037
 40
3.000000
 50
130.000000
 51
180.000000
  0
ARC
  8
OBRYS
 10
288.535664
 20
-43.608522
 40
5.000000
 50
90.000000
 51
130.000000
  0
LINE
  8
OBRYS
 10
280.159600
 20
-44.109838
 11
285.321726
 21
-39.778299
  0
ARC
  8
OBRYS
 10
283.373538
 20
-47.940060
 40
5.000000
 50
130.000000
 51
180.000000
  0
ARC
  8
OBRYS
 10
413.373538
 20
-47.940060
 40
5.000000
 50
0.000000
 51
50.000000
  0
LINE
  8
OBRYS
 10
416.587476
 20
-44.109838
 11
411.425349
 21
-39.778299
  0
ARC
  8
OBRYS
 10
408.211411
 20
-43.608522
 40
5.000000
 50
50.000000
 51
90.000000
  0
LINE
  8
OSA
 10
348.373538
 20
-33.608522
 11
348.373538
 21
-57.608522
  0
ARC
  8
OBRYS
 10
415.373538
 20
-45.702037
 40
3.000000
 50
0.000000
 51
50.000000
  0
LINE
  8
OBRYS
 10
417.301901
 20
-43.403904
 11
412.423439
 21
-39.310388
  0
ARC
  8
OBRYS
 10
410.495076
 20
-41.608522
 40
3.000000
 50
50.000000
 51
90.000000
  0
LINE
  8
OBRYS
 10
350.873538
 20
-45.608522
 11
350.873538
 21
-38.608522
  0
LINE
  8
OBRYS
 10
406.269963
 20
-38.718366
 11
405.606096
 21
-38.608522
  0
LINE
  8
OBRYS
 10
407.360527
 20
-38.910059
 11
406.269963
 21
-38.718366
  0
LINE
  8
OBRYS
 10
407.754924
 20
-39.137050
 11
407.360527
 21
-38.910059
  0
LINE
  8
OBRYS
 10
408.819701
 20
-39.778299
 11
407.754924
 21
-39.137050
  0
LINE
  8
OBRYS
 10
415.789212
 20
-47.239534
 11
415.789212
 21
-52.608522
  0
LINE
  8
OBRYS
 10
414.765071
 20
-44.982107
 11
408.819701
 21
-39.778299
  0
ARC
  8
OBRYS
 10
412.789212
 20
-47.239534
 40
3.000000
 50
0.000000
 51
48.805294
  0
LINE
  8
OBRYS
 10
409.368912
 20
-52.608522
 11
409.368912
 21
-47.150365
  0
LINE
  8
OBRYS
 10
400.490593
 20
-38.608522
 11
400.922688
 21
-38.718366
  0
LINE
  8
OBRYS
 10
400.922688
 20
-38.718366
 11
401.787141
 21
-38.910059
  0
LINE
  8
OBRYS
 10
401.787141
 20
-38.910059
 11
402.099766
 21
-39.137050
  0
LINE
  8
OBRYS
 10
402.099766
 20
-39.137050
 11
403.063140
 21
-39.778299
  0
LINE
  8
OBRYS
 10
403.063140
 20
-39.778299
 11
408.454796
 21
-44.994191
  0
ARC
  8
OBRYS
 10
406.368912
 20
-47.150365
 40
3.000000
 50
0.000000
 51
45.949293
  0
LINE
  8
OBRYS
 10
382.718324
 20
-46.688008
 11
382.718324
 21
-52.608522
  0
ARC
  8
OBRYS
 10
379.718324
 20
-46.688008
 40
3.000000
 50
0.000000
 51
30.201389
  0
LINE
  8
OBRYS
 10
410.495076
 20
-38.608522
 11
348.373538
 21
-38.608522
  0
LINE
  8
OBRYS
 10
382.311111
 20
-45.178885
 11
378.920735
 21
-39.353960
  0
ARC
  8
OBRYS
 10
377.624341
 20
-40.108522
 40
1.500000
 50
30.201389
 51
90.000000
  0
ARC
  8
OBRYS
 10
363.800974
 20
-40.108522
 40
1.500000
 50
17.711710
 51
90.000000
  0
LINE
  8
OBRYS
 10
367.132125
 20
-45.842231
 11
367.132125
 21
-52.608522
  0
LINE
  8
OBRYS
 10
365.229873
 20
-39.652180
 11
367.061024
 21
-45.385890
  0
ARC
  8
OBRYS
 10
365.632125
 20
-45.842231
 40
1.500000
 50
0.000000
 51
17.711710
  0
LINE
  8
OBRYS
 10
417.473938
 20
-45.608522
 11
415.943038
 21
-45.608522
  0
LINE
  8
OBRYS
 10
407.989827
 20
-45.608522
 11
383.747923
 21
-45.608522
  0
LINE
  8
OBRYS
 10
365.162530
 20
-45.608522
 11
348.373538
 21
-45.608522
  0
ARC
  8
OBRYS
 10
414.373538
 20
-34.108522
 40
4.000000
 50
0.000000
 51
90.000000
  0
LINE
  8
OBRYS
 10
414.373538
 20
-30.108522
 11
376.373538
 21
-30.108522
  0
ARC
  8
OBRYS
 10
376.373538
 20
-34.108522
 40
4.000000
 50
90.000000
 51
180.000000
  0
CIRCLE
  8
NEVIDI
 10
395.873538
 20
-43.108522
 40
5.500000
  0
LINE
  8
OSA
 10
395.873538
 20
-43.108522
 11
382.873542
 21
-43.108522
  0
LINE
  8
OSA
 10
395.873538
 20
-43.108522
 11
408.873534
 21
-43.108522
  0
LINE
  8
OSA
 10
395.873538
 20
-43.108522
 11
395.873538
 21
-30.108525
  0
LINE
  8
OSA
 10
395.873538
 20
-43.108522
 11
395.873538
 21
-56.108518
  0
LINE
  8
OSA
 10
300.873538
 20
-43.108522
 11
300.873538
 21
-56.108518
  0
LINE
  8
OSA
 10
300.873538
 20
-43.108522
 11
300.873538
 21
-30.108525
  0
LINE
  8
OSA
 10
300.873538
 20
-43.108522
 11
287.873542
 21
-43.108522
  0
LINE
  8
OSA
 10
300.873538
 20
-43.108522
 11
313.873534
 21
-43.108522
  0
CIRCLE
  8
NEVIDI
 10
300.873538
 20
-43.108522
 40
5.500000
  0
ARC
  8
OBRYS
 10
320.373538
 20
-34.108522
 40
4.000000
 50
0.000000
 51
90.000000
  0
LINE
  8
OBRYS
 10
282.373538
 20
-30.108522
 11
320.373538
 21
-30.108522
  0
ARC
  8
OBRYS
 10
282.373538
 20
-34.108522
 40
4.000000
 50
90.000000
 51
180.000000
  0
LINE
  8
OBRYS
 10
324.373538
 20
-34.108522
 11
324.373538
 21
-38.608522
  0
LINE
  8
OBRYS
 10
372.373538
 20
-34.108522
 11
372.373538
 21
-38.608522
  0
LINE
  8
OBRYS
 10
278.373538
 20
-52.608522
 11
348.373538
 21
-52.608522
  0
LINE
  8
OBRYS
 10
278.373538
 20
-52.608522
 11
278.373538
 21
-34.108522
  0
LINE
  8
OBRYS
 10
418.373538
 20
-52.608522
 11
348.373538
 21
-52.608522
  0
LINE
  8
OBRYS
 10
418.373538
 20
-52.608522
 11
418.373538
 21
-34.108522
  0
LINE
  8
OBRYS
 10
377.373538
 20
-33.108522
 11
377.373538
 21
-38.608522
  0
LINE
  8
OBRYS
 10
319.373538
 20
-33.108522
 11
319.373538
 21
-38.608522
  0
ENDBLK
  8
OBRYS
  0
BLOCK
  8
OBRYS
  2
_20
 70
   64
 10
348.373538
 20
-144.608522
  0
LINE
  8
OBRYS
 10
331.584546
 20
-151.608522
 11
348.373538
 21
-151.608522
  0
LINE
  8
OBRYS
 10
288.757248
 20
-151.608522
 11
312.999153
 21
-151.608522
  0
LINE
  8
OBRYS
 10
279.273137
 20
-151.608522
 11
280.804037
 21
-151.608522
  0
ARC
  8
OBRYS
 10
331.114950
 20
-151.374812
 40
1.500000
 50
180.000000
 51
197.711710
  0
LINE
  8
OBRYS
 10
331.517203
 20
-157.564863
 11
329.686051
 21
-151.831153
  0
LINE
  8
OBRYS
 10
329.614950
 20
-151.374812
 11
329.614950
 21
-144.608522
  0
ARC
  8
OBRYS
 10
332.946102
 20
-157.108522
 40
1.500000
 50
197.711710
 51
270.000000
  0
ARC
  8
OBRYS
 10
319.122734
 20
-157.108522
 40
1.500000
 50
210.201389
 51
270.000000
  0
LINE
  8
OBRYS
 10
314.435964
 20
-152.038158
 11
317.826341
 21
-157.863083
  0
LINE
  8
OBRYS
 10
286.252000
 20
-158.608522
 11
348.373538
 21
-158.608522
  0
ARC
  8
OBRYS
 10
317.028752
 20
-150.529035
 40
3.000000
 50
180.000000
 51
210.201389
  0
LINE
  8
OBRYS
 10
314.028752
 20
-150.529035
 11
314.028752
 21
-144.608522
  0
ARC
  8
OBRYS
 10
290.378164
 20
-150.066678
 40
3.000000
 50
180.000000
 51
225.949293
  0
LINE
  8
OBRYS
 10
296.256483
 20
-158.608522
 11
295.824388
 21
-158.498678
  0
LINE
  8
OBRYS
 10
295.824388
 20
-158.498678
 11
294.959935
 21
-158.306985
  0
LINE
  8
OBRYS
 10
294.959935
 20
-158.306985
 11
294.647309
 21
-158.079993
  0
LINE
  8
OBRYS
 10
294.647309
 20
-158.079993
 11
293.683936
 21
-157.438744
  0
LINE
  8
OBRYS
 10
293.683936
 20
-157.438744
 11
288.292279
 21
-152.222852
  0
LINE
  8
OBRYS
 10
287.378164
 20
-144.608522
 11
287.378164
 21
-150.066678
  0
ARC
  8
OBRYS
 10
283.957864
 20
-149.977509
 40
3.000000
 50
180.000000
 51
228.805294
  0
LINE
  8
OBRYS
 10
281.982004
 20
-152.234936
 11
287.927374
 21
-157.438744
  0
LINE
  8
OBRYS
 10
280.957864
 20
-149.977509
 11
280.957864
 21
-144.608522
  0
LINE
  8
OBRYS
 10
287.927374
 20
-157.438744
 11
288.992151
 21
-158.079993
  0
LINE
  8
OBRYS
 10
288.992151
 20
-158.079993
 11
289.386549
 21
-158.306985
  0
LINE
  8
OBRYS
 10
289.386549
 20
-158.306985
 11
290.477112
 21
-158.498678
  0
LINE
  8
OBRYS
 10
290.477112
 20
-158.498678
 11
291.140980
 21
-158.608522
  0
LINE
  8
OBRYS
 10
345.873538
 20
-151.608522
 11
345.873538
 21
-158.608522
  0
ARC
  8
OBRYS
 10
286.252000
 20
-155.608522
 40
3.000000
 50
230.000000
 51
270.000000
  0
LINE
  8
OBRYS
 10
279.445175
 20
-153.813139
 11
284.323637
 21
-157.906655
  0
ARC
  8
OBRYS
 10
281.373538
 20
-151.515006
 40
3.000000
 50
180.000000
 51
230.000000
  0
ARC
  8
OBRYS
 10
288.535664
 20
-153.608522
 40
5.000000
 50
230.000000
 51
270.000000
  0
LINE
  8
OBRYS
 10
280.159600
 20
-153.107206
 11
285.321726
 21
-157.438744
  0
ARC
  8
OBRYS
 10
283.373538
 20
-149.276983
 40
5.000000
 50
180.000000
 51
230.000000
  0
ARC
  8
OBRYS
 10
413.373538
 20
-149.276983
 40
5.000000
 50
310.000000
 51
360.000000
  0
LINE
  8
OBRYS
 10
416.587476
 20
-153.107206
 11
411.425349
 21
-157.438744
  0
ARC
  8
OBRYS
 10
408.211411
 20
-153.608522
 40
5.000000
 50
270.000000
 51
310.000000
  0
LINE
  8
OSA
 10
348.373538
 20
-163.608522
 11
348.373538
 21
-139.608522
  0
ARC
  8
OBRYS
 10
415.373538
 20
-151.515006
 40
3.000000
 50
310.000000
 51
360.000000
  0
LINE
  8
OBRYS
 10
417.301901
 20
-153.813139
 11
412.423439
 21
-157.906655
  0
ARC
  8
OBRYS
 10
410.495076
 20
-155.608522
 40
3.000000
 50
270.000000
 51
310.000000
  0
LINE
  8
OBRYS
 10
350.873538
 20
-151.608522
 11
350.873538
 21
-158.608522
  0
LINE
  8
OBRYS
 10
406.269963
 20
-158.498678
 11
405.606096
 21
-158.608522
  0
LINE
  8
OBRYS
 10
407.360527
 20
-158.306985
 11
406.269963
 21
-158.498678
  0
LINE
  8
OBRYS
 10
407.754924
 20
-158.079993
 11
407.360527
 21
-158.306985
  0
LINE
  8
OBRYS
 10
408.819701
 20
-157.438744
 11
407.754924
 21
-158.079993
  0
LINE
  8
OBRYS
 10
415.789212
 20
-149.977509
 11
415.789212
 21
-144.608522
  0
LINE
  8
OBRYS
 10
414.765071
 20
-152.234936
 11
408.819701
 21
-157.438744
  0
ARC
  8
OBRYS
 10
412.789212
 20
-149.977509
 40
3.000000
 50
311.194706
 51
360.000000
  0
LINE
  8
OBRYS
 10
409.368912
 20
-144.608522
 11
409.368912
 21
-150.066678
  0
LINE
  8
OBRYS
 10
400.490593
 20
-158.608522
 11
400.922688
 21
-158.498678
  0
LINE
  8
OBRYS
 10
400.922688
 20
-158.498678
 11
401.787141
 21
-158.306985
  0
LINE
  8
OBRYS
 10
401.787141
 20
-158.306985
 11
402.099766
 21
-158.079993
  0
LINE
  8
OBRYS
 10
402.099766
 20
-158.079993
 11
403.063140
 21
-157.438744
  0
LINE
  8
OBRYS
 10
403.063140
 20
-157.438744
 11
408.454796
 21
-152.222852
  0
ARC
  8
OBRYS
 10
406.368912
 20
-150.066678
 40
3.000000
 50
314.050707
 51
360.000000
  0
LINE
  8
OBRYS
 10
382.718324
 20
-150.529035
 11
382.718324
 21
-144.608522
  0
ARC
  8
OBRYS
 10
379.718324
 20
-150.529035
 40
3.000000
 50
329.798611
 51
360.000000
  0
LINE
  8
OBRYS
 10
410.495076
 20
-158.608522
 11
348.373538
 21
-158.608522
  0
LINE
  8
OBRYS
 10
382.311111
 20
-152.038158
 11
378.920735
 21
-157.863083
  0
ARC
  8
OBRYS
 10
377.624341
 20
-157.108522
 40
1.500000
 50
270.000000
 51
329.798611
  0
ARC
  8
OBRYS
 10
363.800974
 20
-157.108522
 40
1.500000
 50
270.000000
 51
342.288290
  0
LINE
  8
OBRYS
 10
367.132125
 20
-151.374812
 11
367.132125
 21
-144.608522
  0
LINE
  8
OBRYS
 10
365.229873
 20
-157.564863
 11
367.061024
 21
-151.831153
  0
ARC
  8
OBRYS
 10
365.632125
 20
-151.374812
 40
1.500000
 50
342.288290
 51
360.000000
  0
LINE
  8
OBRYS
 10
417.473938
 20
-151.608522
 11
415.943038
 21
-151.608522
  0
LINE
  8
OBRYS
 10
407.989827
 20
-151.608522
 11
383.747923
 21
-151.608522
  0
LINE
  8
OBRYS
 10
365.162530
 20
-151.608522
 11
348.373538
 21
-151.608522
  0
ARC
  8
OBRYS
 10
414.373538
 20
-163.108522
 40
4.000000
 50
270.000000
 51
360.000000
  0
LINE
  8
OBRYS
 10
414.373538
 20
-167.108522
 11
376.373538
 21
-167.108522
  0
ARC
  8
OBRYS
 10
376.373538
 20
-163.108522
 40
4.000000
 50
180.000000
 51
270.000000
  0
CIRCLE
  8
NEVIDI
 10
395.873538
 20
-154.108522
 40
5.500000
  0
LINE
  8
OSA
 10
395.873538
 20
-154.108522
 11
382.873542
 21
-154.108522
  0
LINE
  8
OSA
 10
395.873538
 20
-154.108522
 11
408.873534
 21
-154.108522
  0
LINE
  8
OSA
 10
395.873538
 20
-154.108522
 11
395.873538
 21
-167.108518
  0
LINE
  8
OSA
 10
395.873538
 20
-154.108522
 11
395.873538
 21
-141.108525
  0
LINE
  8
OSA
 10
300.873538
 20
-154.108522
 11
300.873538
 21
-141.108525
  0
LINE
  8
OSA
 10
300.873538
 20
-154.108522
 11
300.873538
 21
-167.108518
  0
LINE
  8
OSA
 10
300.873538
 20
-154.108522
 11
287.873542
 21
-154.108522
  0
LINE
  8
OSA
 10
300.873538
 20
-154.108522
 11
313.873534
 21
-154.108522
  0
CIRCLE
  8
NEVIDI
 10
300.873538
 20
-154.108522
 40
5.500000
  0
ARC
  8
OBRYS
 10
320.373538
 20
-163.108522
 40
4.000000
 50
270.000000
 51
360.000000
  0
LINE
  8
OBRYS
 10
282.373538
 20
-167.108522
 11
320.373538
 21
-167.108522
  0
ARC
  8
OBRYS
 10
282.373538
 20
-163.108522
 40
4.000000
 50
180.000000
 51
270.000000
  0
LINE
  8
OBRYS
 10
324.373538
 20
-163.108522
 11
324.373538
 21
-158.608522
  0
LINE
  8
OBRYS
 10
372.373538
 20
-163.108522
 11
372.373538
 21
-158.608522
  0
LINE
  8
OBRYS
 10
278.373538
 20
-144.608522
 11
348.373538
 21
-144.608522
  0
LINE
  8
OBRYS
 10
278.373538
 20
-144.608522
 11
278.373538
 21
-163.108522
  0
LINE
  8
OBRYS
 10
418.373538
 20
-144.608522
 11
348.373538
 21
-144.608522
  0
LINE
  8
OBRYS
 10
418.373538
 20
-144.608522
 11
418.373538
 21
-163.108522
  0
LINE
  8
OBRYS
 10
377.373538
 20
-164.108522
 11
377.373538
 21
-158.608522
  0
LINE
  8
OBRYS
 10
319.373538
 20
-164.108522
 11
319.373538
 21
-158.608522
  0
ENDBLK
  8
OBRYS
  0
BLOCK
  8
OSA
  2
_21
 70
   64
 10
348.373538
 20
-136.608522
  0
ARC
  8
OSA
 62
     2
  6
CONTINUOUS
 10
282.545111
 20
-145.608522
 40
2.000000
 50
45.000000
 51
90.000000
  0
ARC
  8
OSA
 62
     2
  6
CONTINUOUS
 10
299.666216
 20
-145.608522
 40
2.000000
 50
28.545372
 51
90.000000
  0
ARC
  8
OSA
 62
     2
  6
CONTINUOUS
 10
303.129986
 20
-145.608522
 40
2.000000
 50
41.888704
 51
90.000000
  0
ARC
  8
OSA
 62
     2
  6
CONTINUOUS
 10
393.617089
 20
-145.608522
 40
2.000000
 50
90.000000
 51
138.111296
  0
ARC
  8
OSA
 62
     2
  6
CONTINUOUS
 10
397.080859
 20
-145.608522
 40
2.000000
 50
90.000000
 51
151.454628
  0
LINE
  8
OSA
 62
     2
  6
CONTINUOUS
 10
416.114709
 20
-143.608522
 11
348.373538
 21
-143.608522
  0
ARC
  8
OSA
 62
     2
  6
CONTINUOUS
 10
416.114709
 20
-141.608522
 40
2.000000
 50
270.000000
 51
358.000000
  0
ARC
  8
OSA
 62
     2
  6
CONTINUOUS
 10
414.201965
 20
-145.608522
 40
2.000000
 50
90.000000
 51
135.000000
  0
ARC
  8
OSA
 62
     2
  6
CONTINUOUS
 10
280.632366
 20
-141.608522
 40
2.000000
 50
182.000000
 51
270.000000
  0
LINE
  8
OSA
 62
     2
  6
CONTINUOUS
 10
280.632366
 20
-143.608522
 11
348.373538
 21
-143.608522
  0
LINE
  8
OSA
 10
348.373538
 20
-131.608522
 11
348.373538
 21
-163.608522
  0
LINE
  8
OSA
 62
     2
  6
CONTINUOUS
 10
418.290532
 20
-136.608522
 11
418.113491
 21
-141.678321
  0
LINE
  8
OSA
 62
     2
  6
CONTINUOUS
 10
418.290532
 20
-136.608522
 11
348.373538
 21
-136.608522
  0
LINE
  8
OSA
 62
     2
  6
CONTINUOUS
 10
278.318749
 20
-136.608522
 11
278.633585
 21
-141.678321
  0
LINE
  8
OSA
 62
     2
  6
CONTINUOUS
 10
348.373538
 20
-136.608522
 11
278.318749
 21
-136.608522
  0
LINE
  8
OSA
 62
     2
  6
CONTINUOUS
 10
412.373538
 20
-144.608522
 11
412.787751
 21
-144.194308
  0
LINE
  8
OSA
 62
     2
  6
CONTINUOUS
 10
350.613477
 20
-143.608522
 11
350.853663
 21
-144.608522
  0
LINE
  8
OSA
 62
     2
  6
CONTINUOUS
 10
346.133598
 20
-143.608522
 11
345.893413
 21
-144.608522
  0
LINE
  8
OSA
 62
     2
  6
CONTINUOUS
 10
391.827410
 20
-144.608522
 11
392.128203
 21
-144.273150
  0
LINE
  8
OSA
 62
     2
  6
CONTINUOUS
 10
304.919665
 20
-144.608522
 11
304.618873
 21
-144.273150
  0
LINE
  8
OSA
 62
     2
  6
CONTINUOUS
 10
284.373538
 20
-144.608522
 11
283.959324
 21
-144.194308
  0
ENDBLK
  8
OSA
  0
BLOCK
  8
OSA
  2
_22
 70
   64
 10
408.373538
 20
-98.608522
  0
LINE
  8
OSA
 10
427.455366
 20
-98.608522
 11
251.227491
 21
-98.608522
  0
LINE
  8
OSA
 62
     2
  6
CONTINUOUS
 10
284.373538
 20
-52.608522
 11
283.959324
 21
-53.022735
  0
LINE
  8
OSA
 62
     2
  6
CONTINUOUS
 10
304.919665
 20
-52.608522
 11
304.618873
 21
-52.943893
  0
LINE
  8
OSA
 62
     2
  6
CONTINUOUS
 10
391.827410
 20
-52.608522
 11
392.128203
 21
-52.943893
  0
LINE
  8
OSA
 62
     2
  6
CONTINUOUS
 10
346.133598
 20
-53.608522
 11
345.893413
 21
-52.608522
  0
LINE
  8
OSA
 62
     2
  6
CONTINUOUS
 10
350.613477
 20
-53.608522
 11
350.853663
 21
-52.608522
  0
LINE
  8
OSA
 62
     2
  6
CONTINUOUS
 10
412.373538
 20
-52.608522
 11
412.787751
 21
-53.022735
  0
LINE
  8
OSA
 62
     2
  6
CONTINUOUS
 10
348.373538
 20
-136.608522
 11
278.373538
 21
-136.608522
  0
LINE
  8
OSA
 62
     2
  6
CONTINUOUS
 10
418.373538
 20
-136.608522
 11
348.373538
 21
-136.608522
  0
ARC
  8
OSA
 62
     2
  6
CONTINUOUS
 10
414.201965
 20
-51.608522
 40
2.000000
 50
225.000000
 51
270.000000
  0
LINE
  8
OSA
 10
348.373538
 20
-140.608522
 11
348.373538
 21
-25.419813
  0
ARC
  8
OSA
 62
     2
  6
CONTINUOUS
 10
397.080859
 20
-51.608522
 40
2.000000
 50
208.545372
 51
270.000000
  0
ARC
  8
OSA
 62
     2
  6
CONTINUOUS
 10
393.617089
 20
-51.608522
 40
2.000000
 50
221.888704
 51
270.000000
  0
ARC
  8
OSA
 62
     2
  6
CONTINUOUS
 10
416.114709
 20
-55.608522
 40
2.000000
 50
2.000000
 51
90.000000
  0
LINE
  8
OSA
 62
     2
  6
CONTINUOUS
 10
416.114709
 20
-53.608522
 11
348.373538
 21
-53.608522
  0
LINE
  8
OSA
 62
     2
  6
CONTINUOUS
 10
280.632366
 20
-53.608522
 11
348.373538
 21
-53.608522
  0
ARC
  8
OSA
 62
     2
  6
CONTINUOUS
 10
280.632366
 20
-55.608522
 40
2.000000
 50
90.000000
 51
178.000000
  0
LINE
  8
OSA
 62
     2
  6
CONTINUOUS
 10
348.373538
 20
-136.608522
 11
418.373538
 21
-136.608522
  0
ARC
  8
OSA
 62
     2
  6
CONTINUOUS
 10
303.129986
 20
-51.608522
 40
2.000000
 50
270.000000
 51
318.111296
  0
ARC
  8
OSA
 62
     2
  6
CONTINUOUS
 10
299.666216
 20
-51.608522
 40
2.000000
 50
270.000000
 51
331.454628
  0
ARC
  8
OSA
 62
     2
  6
CONTINUOUS
 10
282.545111
 20
-51.608522
 40
2.000000
 50
270.000000
 51
315.000000
  0
LINE
  8
OSA
 62
     2
  6
CONTINUOUS
 10
270.373538
 20
-63.608522
 11
270.373538
 21
-133.608522
  0
LINE
  8
OSA
 62
     2
  6
CONTINUOUS
 10
418.614628
 20
-63.608522
 11
418.113491
 21
-55.538723
  0
POLYLINE
  8
OSA
 62
     2
  6
CONTINUOUS
 66
    1
  0
VERTEX
  8
OSA
 62
     2
  6
CONTINUOUS
 10
398.661285
 20
-63.593739
  0
VERTEX
  8
OSA
 62
     2
  6
CONTINUOUS
 10
398.661285
 20
-63.593739
  0
VERTEX
  8
OSA
 62
     2
  6
CONTINUOUS
 10
397.961639
 20
-64.338982
  0
VERTEX
  8
OSA
 62
     2
  6
CONTINUOUS
 10
397.815216
 20
-64.608521
  0
VERTEX
  8
OSA
 62
     2
  6
CONTINUOUS
 10
392.920654
 20
-71.522644
  0
VERTEX
  8
OSA
 62
     2
  6
CONTINUOUS
 10
390.797455
 20
-78.008316
  0
VERTEX
  8
OSA
 62
     2
  6
CONTINUOUS
 10
391.212921
 20
-84.327057
  0
VERTEX
  8
OSA
 62
     2
  6
CONTINUOUS
 10
394.251587
 20
-90.985634
  0
VERTEX
  8
OSA
 62
     2
  6
CONTINUOUS
 10
398.085846
 20
-95.608521
  0
VERTEX
  8
OSA
 62
     2
  6
CONTINUOUS
 10
398.774017
 20
-96.754425
  0
VERTEX
  8
OSA
 62
     2
  6
CONTINUOUS
 10
399.016418
 20
-97.981354
  0
VERTEX
  8
OSA
 62
     2
  6
CONTINUOUS
 10
398.909424
 20
-98.608521
  0
VERTEX
  8
OSA
 62
     2
  6
CONTINUOUS
 10
399.016418
 20
-99.235695
  0
VERTEX
  8
OSA
 62
     2
  6
CONTINUOUS
 10
398.774017
 20
-100.462624
  0
VERTEX
  8
OSA
 62
     2
  6
CONTINUOUS
 10
398.085846
 20
-101.608521
  0
VERTEX
  8
OSA
 62
     2
  6
CONTINUOUS
 10
394.251587
 20
-106.231407
  0
VERTEX
  8
OSA
 62
     2
  6
CONTINUOUS
 10
391.212921
 20
-112.889992
  0
VERTEX
  8
OSA
 62
     2
  6
CONTINUOUS
 10
390.797455
 20
-119.208725
  0
VERTEX
  8
OSA
 62
     2
  6
CONTINUOUS
 10
392.920654
 20
-125.694405
  0
VERTEX
  8
OSA
 62
     2
  6
CONTINUOUS
 10
397.815216
 20
-132.608521
  0
VERTEX
  8
OSA
 62
     2
  6
CONTINUOUS
 10
397.961639
 20
-132.878067
  0
VERTEX
  8
OSA
 62
     2
  6
CONTINUOUS
 10
398.661285
 20
-133.623306
  0
SEQEND
  8
OSA
  0
POLYLINE
  8
OSA
 62
     2
  6
CONTINUOUS
 66
    1
  0
VERTEX
  8
OSA
 62
     2
  6
CONTINUOUS
 10
298.085785
 20
-63.593739
  0
VERTEX
  8
OSA
 62
     2
  6
CONTINUOUS
 10
298.085785
 20
-63.593739
  0
VERTEX
  8
OSA
 62
     2
  6
CONTINUOUS
 10
298.785431
 20
-64.338982
  0
VERTEX
  8
OSA
 62
     2
  6
CONTINUOUS
 10
298.931854
 20
-64.608521
  0
VERTEX
  8
OSA
 62
     2
  6
CONTINUOUS
 10
303.826416
 20
-71.522644
  0
VERTEX
  8
OSA
 62
     2
  6
CONTINUOUS
 10
305.949615
 20
-78.008316
  0
VERTEX
  8
OSA
 62
     2
  6
CONTINUOUS
 10
305.534119
 20
-84.327057
  0
VERTEX
  8
OSA
 62
     2
  6
CONTINUOUS
 10
302.495483
 20
-90.985634
  0
VERTEX
  8
OSA
 62
     2
  6
CONTINUOUS
 10
298.661224
 20
-95.608521
  0
VERTEX
  8
OSA
 62
     2
  6
CONTINUOUS
 10
297.973053
 20
-96.754425
  0
VERTEX
  8
OSA
 62
     2
  6
CONTINUOUS
 10
297.730652
 20
-97.981354
  0
VERTEX
  8
OSA
 62
     2
  6
CONTINUOUS
 10
297.837616
 20
-98.608521
  0
VERTEX
  8
OSA
 62
     2
  6
CONTINUOUS
 10
297.730652
 20
-99.235695
  0
VERTEX
  8
OSA
 62
     2
  6
CONTINUOUS
 10
297.973053
 20
-100.462624
  0
VERTEX
  8
OSA
 62
     2
  6
CONTINUOUS
 10
298.661224
 20
-101.608521
  0
VERTEX
  8
OSA
 62
     2
  6
CONTINUOUS
 10
302.495483
 20
-106.231407
  0
VERTEX
  8
OSA
 62
     2
  6
CONTINUOUS
 10
305.534119
 20
-112.889992
  0
VERTEX
  8
OSA
 62
     2
  6
CONTINUOUS
 10
305.949615
 20
-119.208725
  0
VERTEX
  8
OSA
 62
     2
  6
CONTINUOUS
 10
303.826416
 20
-125.694405
  0
VERTEX
  8
OSA
 62
     2
  6
CONTINUOUS
 10
298.931854
 20
-132.608521
  0
VERTEX
  8
OSA
 62
     2
  6
CONTINUOUS
 10
298.785431
 20
-132.878067
  0
VERTEX
  8
OSA
 62
     2
  6
CONTINUOUS
 10
298.085785
 20
-133.623306
  0
SEQEND
  8
OSA
  0
LINE
  8
OSA
 62
     2
  6
CONTINUOUS
 10
270.373538
 20
-63.608522
 11
423.373538
 21
-63.608522
  0
LINE
  8
OSA
 62
     2
  6
CONTINUOUS
 10
298.661233
 20
-101.608522
 11
269.780704
 21
-101.608522
  0
LINE
  8
OSA
 62
     2
  6
CONTINUOUS
 10
298.661233
 20
-95.608522
 11
269.780704
 21
-95.608522
  0
LINE
  8
OSA
 62
     2
  6
CONTINUOUS
 10
306.087134
 20
-63.608522
 11
306.087134
 21
-133.608522
  0
LINE
  8
OSA
 62
     2
  6
CONTINUOUS
 10
390.659941
 20
-63.608522
 11
390.659941
 21
-133.608522
  0
LINE
  8
OSA
 62
     2
  6
CONTINUOUS
 10
423.373538
 20
-63.608522
 11
423.373538
 21
-133.608522
  0
LINE
  8
OSA
 62
     2
  6
CONTINUOUS
 10
423.373538
 20
-133.608522
 11
270.373538
 21
-133.608522
  0
LINE
  8
OSA
 62
     2
  6
CONTINUOUS
 10
278.132448
 20
-63.608522
 11
278.633585
 21
-55.538723
  0
LINE
  8
OSA
 62
     2
  6
CONTINUOUS
 10
418.373538
 20
-136.608522
 11
418.373538
 21
-133.608522
  0
LINE
  8
OSA
 62
     2
  6
CONTINUOUS
 10
278.373538
 20
-136.608522
 11
278.373538
 21
-133.608522
  0
LINE
  8
OSA
 62
     2
  6
CONTINUOUS
 10
398.085837
 20
-101.608522
 11
423.373538
 21
-101.608522
  0
LINE
  8
OSA
 62
     2
  6
CONTINUOUS
 10
398.085837
 20
-95.608522
 11
423.373538
 21
-95.608522
  0
ENDBLK
  8
OSA
  0
BLOCK
  8
OSA
  2
_23
 70
   64
 10
408.373538
 20
353.734395
  0
ARC
  8
OSA
 62
     2
  6
CONTINUOUS
 10
411.373538
 20
364.971882
 40
3.000000
 50
113.832713
 51
180.000000
  0
LINE
  8
OSA
 62
     2
  6
CONTINUOUS
 10
408.373538
 20
364.971882
 11
408.373538
 21
326.734395
  0
ARC
  8
OSA
 62
     2
  6
CONTINUOUS
 10
411.373538
 20
326.734395
 40
3.000000
 50
180.000000
 51
270.000000
  0
LINE
  8
OSA
 62
     2
  6
CONTINUOUS
 10
409.710194
 20
367.516785
 11
410.219965
 21
367.801897
  0
LINE
  8
OSA
 62
     2
  6
CONTINUOUS
 10
410.219965
 20
367.801897
 11
410.666479
 21
368.113485
  0
LINE
  8
OSA
 62
     2
  6
CONTINUOUS
 10
410.666479
 20
368.113485
 11
411.042453
 21
368.438461
  0
LINE
  8
OSA
 62
     2
  6
CONTINUOUS
 10
411.042453
 20
368.438461
 11
411.346683
 21
368.763582
  0
LINE
  8
OSA
 62
     2
  6
CONTINUOUS
 10
411.346683
 20
368.763582
 11
411.583536
 21
369.077365
  0
LINE
  8
OSA
 62
     2
  6
CONTINUOUS
 10
411.583536
 20
369.077365
 11
411.761251
 21
369.371289
  0
LINE
  8
OSA
 62
     2
  6
CONTINUOUS
 10
411.761251
 20
369.371289
 11
411.889899
 21
369.640089
  0
LINE
  8
OSA
 62
     2
  6
CONTINUOUS
 10
411.889899
 20
369.640089
 11
411.979674
 21
369.881388
  0
LINE
  8
OSA
 62
     2
  6
CONTINUOUS
 10
411.979674
 20
369.881388
 11
412.039796
 21
370.094992
  0
LINE
  8
OSA
 62
     2
  6
CONTINUOUS
 10
412.039796
 20
370.094992
 11
412.078006
 21
370.282153
  0
LINE
  8
OSA
 62
     2
  6
CONTINUOUS
 10
412.078006
 20
370.282153
 11
412.100471
 21
370.444948
  0
LINE
  8
OSA
 62
     2
  6
CONTINUOUS
 10
412.100471
 20
370.444948
 11
412.111919
 21
370.585828
  0
LINE
  8
OSA
 62
     2
  6
CONTINUOUS
 10
412.111919
 20
370.585828
 11
412.115873
 21
370.707321
  0
LINE
  8
OSA
 62
     2
  6
CONTINUOUS
 10
412.115873
 20
370.707321
 11
412.116009
 21
370.734395
  0
LINE
  8
OSA
 62
     2
  6
CONTINUOUS
 10
400.262234
 20
370.734395
 11
400.264114
 21
370.633660
  0
LINE
  8
OSA
 62
     2
  6
CONTINUOUS
 10
400.264114
 20
370.633660
 11
400.270834
 21
370.518994
  0
LINE
  8
OSA
 62
     2
  6
CONTINUOUS
 10
400.270834
 20
370.518994
 11
400.284404
 21
370.388741
  0
LINE
  8
OSA
 62
     2
  6
CONTINUOUS
 10
400.284404
 20
370.388741
 11
400.307454
 21
370.241223
  0
LINE
  8
OSA
 62
     2
  6
CONTINUOUS
 10
400.307454
 20
370.241223
 11
400.343360
 21
370.074840
  0
LINE
  8
OSA
 62
     2
  6
CONTINUOUS
 10
400.343360
 20
370.074840
 11
400.396365
 21
369.888229
  0
LINE
  8
OSA
 62
     2
  6
CONTINUOUS
 10
400.396365
 20
369.888229
 11
400.471651
 21
369.680500
  0
LINE
  8
OSA
 62
     2
  6
CONTINUOUS
 10
400.471651
 20
369.680500
 11
400.575317
 21
369.451535
  0
LINE
  8
OSA
 62
     2
  6
CONTINUOUS
 10
400.575317
 20
369.451535
 11
400.714194
 21
369.202353
  0
LINE
  8
OSA
 62
     2
  6
CONTINUOUS
 10
400.714194
 20
369.202353
 11
400.895422
 21
368.935493
  0
LINE
  8
OSA
 62
     2
  6
CONTINUOUS
 10
400.895422
 20
368.935493
 11
401.125749
 21
368.655310
  0
LINE
  8
OSA
 62
     2
  6
CONTINUOUS
 10
401.125749
 20
368.655310
 11
401.410591
 21
368.368074
  0
LINE
  8
OSA
 62
     2
  6
CONTINUOUS
 10
401.410591
 20
368.368074
 11
401.753012
 21
368.081729
  0
LINE
  8
OSA
 62
     2
  6
CONTINUOUS
 10
401.753012
 20
368.081729
 11
402.152914
 21
367.805260
  0
LINE
  8
OSA
 62
     2
  6
CONTINUOUS
 10
402.152914
 20
367.805260
 11
402.606761
 21
367.547748
  0
LINE
  8
OSA
 62
     2
  6
CONTINUOUS
 10
402.606761
 20
367.547748
 11
403.108048
 21
367.317357
  0
LINE
  8
OSA
 62
     2
  6
CONTINUOUS
 10
403.108048
 20
367.317357
 11
403.648423
 21
367.120557
  0
LINE
  8
OSA
 62
     2
  6
CONTINUOUS
 10
403.648423
 20
367.120557
 11
404.219128
 21
366.961816
  0
LINE
  8
OSA
 62
     2
  6
CONTINUOUS
 10
404.219128
 20
366.961816
 11
404.812267
 21
366.843825
  0
LINE
  8
OSA
 62
     2
  6
CONTINUOUS
 10
404.812267
 20
366.843825
 11
405.421542
 21
366.768082
  0
LINE
  8
OSA
 62
     2
  6
CONTINUOUS
 10
405.421542
 20
366.768082
 11
406.042253
 21
366.735623
  0
LINE
  8
OSA
 62
     2
  6
CONTINUOUS
 10
406.042253
 20
366.735623
 11
406.670628
 21
366.747617
  0
LINE
  8
OSA
 62
     2
  6
CONTINUOUS
 10
406.670628
 20
366.747617
 11
407.302642
 21
366.805624
  0
LINE
  8
OSA
 62
     2
  6
CONTINUOUS
 10
407.302642
 20
366.805624
 11
407.932628
 21
366.911381
  0
LINE
  8
OSA
 62
     2
  6
CONTINUOUS
 10
407.932628
 20
366.911381
 11
408.552112
 21
367.066052
  0
LINE
  8
OSA
 62
     2
  6
CONTINUOUS
 10
408.552112
 20
367.066052
 11
409.149370
 21
367.269049
  0
LINE
  8
OSA
 62
     2
  6
CONTINUOUS
 10
409.149370
 20
367.269049
 11
410.161335
 21
367.716070
  0
LINE
  8
OSA
 62
     2
  6
CONTINUOUS
 10
400.262234
 20
370.734395
 11
400.262234
 21
383.734395
  0
LINE
  8
OSA
 62
     2
  6
CONTINUOUS
 10
363.762236
 20
370.734398
 11
363.762236
 21
383.734395
  0
LINE
  8
OSA
 62
     2
  6
CONTINUOUS
 10
378.499328
 20
370.734398
 11
378.499328
 21
383.734395
  0
POLYLINE
  8
OSA
 62
     2
  6
CONTINUOUS
 66
    1
  0
VERTEX
  8
OSA
 62
     2
  6
CONTINUOUS
 10
363.762238
 20
370.734375
  0
VERTEX
  8
OSA
 62
     2
  6
CONTINUOUS
 10
363.765900
 20
370.609161
  0
VERTEX
  8
OSA
 62
     2
  6
CONTINUOUS
 10
363.778717
 20
370.466797
  0
VERTEX
  8
OSA
 62
     2
  6
CONTINUOUS
 10
363.804718
 20
370.305511
  0
VERTEX
  8
OSA
 62
     2
  6
CONTINUOUS
 10
363.848541
 20
370.123779
  0
VERTEX
  8
OSA
 62
     2
  6
CONTINUOUS
 10
363.916412
 20
369.920410
  0
VERTEX
  8
OSA
 62
     2
  6
CONTINUOUS
 10
364.015289
 20
369.695007
  0
VERTEX
  8
OSA
 62
     2
  6
CONTINUOUS
 10
364.153473
 20
369.448273
  0
VERTEX
  8
OSA
 62
     2
  6
CONTINUOUS
 10
364.339508
 20
369.182434
  0
VERTEX
  8
OSA
 62
     2
  6
CONTINUOUS
 10
364.581207
 20
368.901611
  0
VERTEX
  8
OSA
 62
     2
  6
CONTINUOUS
 10
364.885040
 20
368.611969
  0
VERTEX
  8
OSA
 62
     2
  6
CONTINUOUS
 10
365.254059
 20
368.321320
  0
VERTEX
  8
OSA
 62
     2
  6
CONTINUOUS
 10
365.687042
 20
368.038635
  0
VERTEX
  8
OSA
 62
     2
  6
CONTINUOUS
 10
366.178009
 20
367.772736
  0
VERTEX
  8
OSA
 62
     2
  6
CONTINUOUS
 10
366.717194
 20
367.531342
  0
VERTEX
  8
OSA
 62
     2
  6
CONTINUOUS
 10
367.292389
 20
367.319946
  0
VERTEX
  8
OSA
 62
     2
  6
CONTINUOUS
 10
367.891266
 20
367.141663
  0
VERTEX
  8
OSA
 62
     2
  6
CONTINUOUS
 10
368.503448
 20
366.997284
  0
VERTEX
  8
OSA
 62
     2
  6
CONTINUOUS
 10
369.121246
 20
366.886017
  0
VERTEX
  8
OSA
 62
     2
  6
CONTINUOUS
 10
369.740631
 20
366.806213
  0
VERTEX
  8
OSA
 62
     2
  6
CONTINUOUS
 10
370.360870
 20
366.756287
  0
VERTEX
  8
OSA
 62
     2
  6
CONTINUOUS
 10
370.983917
 20
366.735168
  0
VERTEX
  8
OSA
 62
     2
  6
CONTINUOUS
 10
371.612823
 20
366.742950
  0
VERTEX
  8
OSA
 62
     2
  6
CONTINUOUS
 10
372.251373
 20
366.780914
  0
VERTEX
  8
OSA
 62
     2
  6
CONTINUOUS
 10
372.901520
 20
366.851593
  0
VERTEX
  8
OSA
 62
     2
  6
CONTINUOUS
 10
373.563019
 20
366.958557
  0
VERTEX
  8
OSA
 62
     2
  6
CONTINUOUS
 10
374.230621
 20
367.105560
  0
VERTEX
  8
OSA
 62
     2
  6
CONTINUOUS
 10
374.894073
 20
367.295410
  0
VERTEX
  8
OSA
 62
     2
  6
CONTINUOUS
 10
375.537384
 20
367.528503
  0
VERTEX
  8
OSA
 62
     2
  6
CONTINUOUS
 10
376.141266
 20
367.801422
  0
VERTEX
  8
OSA
 62
     2
  6
CONTINUOUS
 10
376.685944
 20
368.106445
  0
VERTEX
  8
OSA
 62
     2
  6
CONTINUOUS
 10
377.156281
 20
368.431946
  0
VERTEX
  8
OSA
 62
     2
  6
CONTINUOUS
 10
377.543854
 20
368.764465
  0
VERTEX
  8
OSA
 62
     2
  6
CONTINUOUS
 10
377.848663
 20
369.090973
  0
VERTEX
  8
OSA
 62
     2
  6
CONTINUOUS
 10
378.077789
 20
369.400848
  0
VERTEX
  8
OSA
 62
     2
  6
CONTINUOUS
 10
378.242096
 20
369.686798
  0
VERTEX
  8
OSA
 62
     2
  6
CONTINUOUS
 10
378.354401
 20
369.944946
  0
VERTEX
  8
OSA
 62
     2
  6
CONTINUOUS
 10
378.426666
 20
370.174103
  0
VERTEX
  8
OSA
 62
     2
  6
CONTINUOUS
 10
378.469513
 20
370.375031
  0
VERTEX
  8
OSA
 62
     2
  6
CONTINUOUS
 10
378.491486
 20
370.549744
  0
VERTEX
  8
OSA
 62
     2
  6
CONTINUOUS
 10
378.499054
 20
370.700714
  0
VERTEX
  8
OSA
 62
     2
  6
CONTINUOUS
 10
378.499298
 20
370.734375
  0
SEQEND
  8
OSA
  0
LINE
  8
OSA
 62
     2
  6
CONTINUOUS
 10
348.373538
 20
383.734395
 11
415.373538
 21
383.734395
  0
LINE
  8
OSA
 62
     2
  6
CONTINUOUS
 10
348.373538
 20
391.734395
 11
418.373538
 21
391.734395
  0
ARC
  8
OSA
 62
     2
  6
CONTINUOUS
 10
415.116009
 20
380.734395
 40
3.000000
 50
90.000000
 51
180.000000
  0
LINE
  8
OSA
 62
     2
  6
CONTINUOUS
 10
412.116009
 20
380.734395
 11
412.116009
 21
370.734395
  0
ARC
  8
OSA
 62
     2
  6
CONTINUOUS
 10
415.373538
 20
386.734395
 40
3.000000
 50
270.000000
 51
360.000000
  0
LINE
  8
OSA
 62
     2
  6
CONTINUOUS
 10
418.373538
 20
391.734395
 11
418.373538
 21
386.734395
  0
LINE
  8
OSA
 62
     2
  6
CONTINUOUS
 10
278.373538
 20
320.734395
 11
278.373538
 21
314.852130
  0
ARC
  8
OSA
 62
     2
  6
CONTINUOUS
 10
281.373538
 20
320.734395
 40
3.000000
 50
90.000000
 51
180.000000
  0
LINE
  8
OSA
 62
     2
  6
CONTINUOUS
 10
348.373538
 20
323.734395
 11
281.373538
 21
323.734395
  0
LINE
  8
OSA
 62
     2
  6
CONTINUOUS
 10
348.373538
 20
323.734395
 11
415.373538
 21
323.734395
  0
ARC
  8
OSA
 62
     2
  6
CONTINUOUS
 10
415.373538
 20
320.734395
 40
3.000000
 50
0.000000
 51
90.000000
  0
LINE
  8
OSA
 62
     2
  6
CONTINUOUS
 10
418.373538
 20
320.734395
 11
418.373538
 21
314.852130
  0
LINE
  8
OSA
 10
348.373538
 20
395.734395
 11
348.373538
 21
280.545687
  0
LINE
  8
OSA
 62
     2
  6
CONTINUOUS
 10
418.373538
 20
391.734395
 11
418.373538
 21
390.734395
  0
ARC
  8
OSA
 62
     2
  6
CONTINUOUS
 10
285.373538
 20
326.734395
 40
3.000000
 50
270.000000
 51
360.000000
  0
LINE
  8
OSA
 62
     2
  6
CONTINUOUS
 10
278.373538
 20
391.734395
 11
278.373538
 21
386.734395
  0
ARC
  8
OSA
 62
     2
  6
CONTINUOUS
 10
281.373538
 20
386.734395
 40
3.000000
 50
180.000000
 51
270.000000
  0
LINE
  8
OSA
 62
     2
  6
CONTINUOUS
 10
284.631067
 20
380.734395
 11
284.631067
 21
370.734395
  0
ARC
  8
OSA
 62
     2
  6
CONTINUOUS
 10
281.631067
 20
380.734395
 40
3.000000
 50
0.000000
 51
90.000000
  0
LINE
  8
OSA
 62
     2
  6
CONTINUOUS
 10
418.373538
 20
391.734395
 11
348.373538
 21
391.734395
  0
LINE
  8
OSA
 62
     2
  6
CONTINUOUS
 10
348.373538
 20
391.734395
 11
278.373538
 21
391.734395
  0
LINE
  8
OSA
 62
     2
  6
CONTINUOUS
 10
348.373538
 20
383.734395
 11
281.373538
 21
383.734395
  0
POLYLINE
  8
OSA
 62
     2
  6
CONTINUOUS
 66
    1
  0
VERTEX
  8
OSA
 62
     2
  6
CONTINUOUS
 10
332.984833
 20
370.734375
  0
VERTEX
  8
OSA
 62
     2
  6
CONTINUOUS
 10
332.981171
 20
370.609161
  0
VERTEX
  8
OSA
 62
     2
  6
CONTINUOUS
 10
332.968353
 20
370.466797
  0
VERTEX
  8
OSA
 62
     2
  6
CONTINUOUS
 10
332.942352
 20
370.305511
  0
VERTEX
  8
OSA
 62
     2
  6
CONTINUOUS
 10
332.898529
 20
370.123779
  0
VERTEX
  8
OSA
 62
     2
  6
CONTINUOUS
 10
332.830658
 20
369.920410
  0
VERTEX
  8
OSA
 62
     2
  6
CONTINUOUS
 10
332.731781
 20
369.695007
  0
VERTEX
  8
OSA
 62
     2
  6
CONTINUOUS
 10
332.593597
 20
369.448273
  0
VERTEX
  8
OSA
 62
     2
  6
CONTINUOUS
 10
332.407562
 20
369.182434
  0
VERTEX
  8
OSA
 62
     2
  6
CONTINUOUS
 10
332.165863
 20
368.901611
  0
VERTEX
  8
OSA
 62
     2
  6
CONTINUOUS
 10
331.862030
 20
368.611969
  0
VERTEX
  8
OSA
 62
     2
  6
CONTINUOUS
 10
331.493011
 20
368.321320
  0
VERTEX
  8
OSA
 62
     2
  6
CONTINUOUS
 10
331.060028
 20
368.038635
  0
VERTEX
  8
OSA
 62
     2
  6
CONTINUOUS
 10
330.569061
 20
367.772736
  0
VERTEX
  8
OSA
 62
     2
  6
CONTINUOUS
 10
330.029877
 20
367.531342
  0
VERTEX
  8
OSA
 62
     2
  6
CONTINUOUS
 10
329.454681
 20
367.319946
  0
VERTEX
  8
OSA
 62
     2
  6
CONTINUOUS
 10
328.855804
 20
367.141663
  0
VERTEX
  8
OSA
 62
     2
  6
CONTINUOUS
 10
328.243622
 20
366.997284
  0
VERTEX
  8
OSA
 62
     2
  6
CONTINUOUS
 10
327.625824
 20
366.886017
  0
VERTEX
  8
OSA
 62
     2
  6
CONTINUOUS
 10
327.006439
 20
366.806213
  0
VERTEX
  8
OSA
 62
     2
  6
CONTINUOUS
 10
326.386200
 20
366.756287
  0
VERTEX
  8
OSA
 62
     2
  6
CONTINUOUS
 10
325.763153
 20
366.735168
  0
VERTEX
  8
OSA
 62
     2
  6
CONTINUOUS
 10
325.134247
 20
366.742950
  0
VERTEX
  8
OSA
 62
     2
  6
CONTINUOUS
 10
324.495697
 20
366.780914
  0
VERTEX
  8
OSA
 62
     2
  6
CONTINUOUS
 10
323.845551
 20
366.851593
  0
VERTEX
  8
OSA
 62
     2
  6
CONTINUOUS
 10
323.184052
 20
366.958557
  0
VERTEX
  8
OSA
 62
     2
  6
CONTINUOUS
 10
322.516449
 20
367.105560
  0
VERTEX
  8
OSA
 62
     2
  6
CONTINUOUS
 10
321.852997
 20
367.295410
  0
VERTEX
  8
OSA
 62
     2
  6
CONTINUOUS
 10
321.209686
 20
367.528503
  0
VERTEX
  8
OSA
 62
     2
  6
CONTINUOUS
 10
320.605804
 20
367.801422
  0
VERTEX
  8
OSA
 62
     2
  6
CONTINUOUS
 10
320.061127
 20
368.106445
  0
VERTEX
  8
OSA
 62
     2
  6
CONTINUOUS
 10
319.590790
 20
368.431946
  0
VERTEX
  8
OSA
 62
     2
  6
CONTINUOUS
 10
319.203217
 20
368.764465
  0
VERTEX
  8
OSA
 62
     2
  6
CONTINUOUS
 10
318.898407
 20
369.090973
  0
VERTEX
  8
OSA
 62
     2
  6
CONTINUOUS
 10
318.669281
 20
369.400848
  0
VERTEX
  8
OSA
 62
     2
  6
CONTINUOUS
 10
318.504974
 20
369.686798
  0
VERTEX
  8
OSA
 62
     2
  6
CONTINUOUS
 10
318.392670
 20
369.944946
  0
VERTEX
  8
OSA
 62
     2
  6
CONTINUOUS
 10
318.320404
 20
370.174103
  0
VERTEX
  8
OSA
 62
     2
  6
CONTINUOUS
 10
318.277557
 20
370.375031
  0
VERTEX
  8
OSA
 62
     2
  6
CONTINUOUS
 10
318.255585
 20
370.549744
  0
VERTEX
  8
OSA
 62
     2
  6
CONTINUOUS
 10
318.248016
 20
370.700714
  0
VERTEX
  8
OSA
 62
     2
  6
CONTINUOUS
 10
318.247772
 20
370.734375
  0
SEQEND
  8
OSA
  0
LINE
  8
OSA
 62
     2
  6
CONTINUOUS
 10
318.247748
 20
370.734398
 11
318.247748
 21
383.734395
  0
LINE
  8
OSA
 62
     2
  6
CONTINUOUS
 10
332.984839
 20
370.734398
 11
332.984839
 21
383.734395
  0
LINE
  8
OSA
 62
     2
  6
CONTINUOUS
 10
296.484842
 20
370.734395
 11
296.484842
 21
383.734395
  0
LINE
  8
OSA
 62
     2
  6
CONTINUOUS
 10
288.373538
 20
364.971882
 11
288.373538
 21
326.734395
  0
LINE
  8
OSA
 62
     2
  6
CONTINUOUS
 10
296.484842
 20
370.734395
 11
296.482962
 21
370.633660
  0
LINE
  8
OSA
 62
     2
  6
CONTINUOUS
 10
296.482962
 20
370.633660
 11
296.476242
 21
370.518994
  0
LINE
  8
OSA
 62
     2
  6
CONTINUOUS
 10
296.476242
 20
370.518994
 11
296.462671
 21
370.388741
  0
LINE
  8
OSA
 62
     2
  6
CONTINUOUS
 10
296.462671
 20
370.388741
 11
296.439621
 21
370.241223
  0
LINE
  8
OSA
 62
     2
  6
CONTINUOUS
 10
296.439621
 20
370.241223
 11
296.403715
 21
370.074840
  0
LINE
  8
OSA
 62
     2
  6
CONTINUOUS
 10
296.403715
 20
370.074840
 11
296.350711
 21
369.888229
  0
LINE
  8
OSA
 62
     2
  6
CONTINUOUS
 10
296.350711
 20
369.888229
 11
296.275425
 21
369.680500
  0
LINE
  8
OSA
 62
     2
  6
CONTINUOUS
 10
296.275425
 20
369.680500
 11
296.171758
 21
369.451535
  0
LINE
  8
OSA
 62
     2
  6
CONTINUOUS
 10
296.171758
 20
369.451535
 11
296.032881
 21
369.202353
  0
LINE
  8
OSA
 62
     2
  6
CONTINUOUS
 10
296.032881
 20
369.202353
 11
295.851654
 21
368.935493
  0
LINE
  8
OSA
 62
     2
  6
CONTINUOUS
 10
295.851654
 20
368.935493
 11
295.621327
 21
368.655310
  0
LINE
  8
OSA
 62
     2
  6
CONTINUOUS
 10
295.621327
 20
368.655310
 11
295.336485
 21
368.368074
  0
LINE
  8
OSA
 62
     2
  6
CONTINUOUS
 10
295.336485
 20
368.368074
 11
294.994063
 21
368.081729
  0
LINE
  8
OSA
 62
     2
  6
CONTINUOUS
 10
294.994063
 20
368.081729
 11
294.594162
 21
367.805260
  0
LINE
  8
OSA
 62
     2
  6
CONTINUOUS
 10
294.594162
 20
367.805260
 11
294.140315
 21
367.547748
  0
LINE
  8
OSA
 62
     2
  6
CONTINUOUS
 10
294.140315
 20
367.547748
 11
293.639028
 21
367.317357
  0
LINE
  8
OSA
 62
     2
  6
CONTINUOUS
 10
293.639028
 20
367.317357
 11
293.098652
 21
367.120557
  0
LINE
  8
OSA
 62
     2
  6
CONTINUOUS
 10
293.098652
 20
367.120557
 11
292.527948
 21
366.961816
  0
LINE
  8
OSA
 62
     2
  6
CONTINUOUS
 10
292.527948
 20
366.961816
 11
291.934808
 21
366.843825
  0
LINE
  8
OSA
 62
     2
  6
CONTINUOUS
 10
291.934808
 20
366.843825
 11
291.325534
 21
366.768082
  0
LINE
  8
OSA
 62
     2
  6
CONTINUOUS
 10
291.325534
 20
366.768082
 11
290.704822
 21
366.735623
  0
LINE
  8
OSA
 62
     2
  6
CONTINUOUS
 10
290.704822
 20
366.735623
 11
290.076447
 21
366.747617
  0
LINE
  8
OSA
 62
     2
  6
CONTINUOUS
 10
290.076447
 20
366.747617
 11
289.444434
 21
366.805624
  0
LINE
  8
OSA
 62
     2
  6
CONTINUOUS
 10
289.444434
 20
366.805624
 11
288.814448
 21
366.911381
  0
LINE
  8
OSA
 62
     2
  6
CONTINUOUS
 10
288.814448
 20
366.911381
 11
288.194964
 21
367.066052
  0
LINE
  8
OSA
 62
     2
  6
CONTINUOUS
 10
288.194964
 20
367.066052
 11
287.597706
 21
367.269049
  0
LINE
  8
OSA
 62
     2
  6
CONTINUOUS
 10
287.597706
 20
367.269049
 11
286.585741
 21
367.716070
  0
LINE
  8
OSA
 62
     2
  6
CONTINUOUS
 10
287.036882
 20
367.516785
 11
286.527111
 21
367.801897
  0
LINE
  8
OSA
 62
     2
  6
CONTINUOUS
 10
286.527111
 20
367.801897
 11
286.080596
 21
368.113485
  0
LINE
  8
OSA
 62
     2
  6
CONTINUOUS
 10
286.080596
 20
368.113485
 11
285.704623
 21
368.438461
  0
LINE
  8
OSA
 62
     2
  6
CONTINUOUS
 10
285.704623
 20
368.438461
 11
285.400393
 21
368.763582
  0
LINE
  8
OSA
 62
     2
  6
CONTINUOUS
 10
285.400393
 20
368.763582
 11
285.163540
 21
369.077365
  0
LINE
  8
OSA
 62
     2
  6
CONTINUOUS
 10
285.163540
 20
369.077365
 11
284.985825
 21
369.371289
  0
LINE
  8
OSA
 62
     2
  6
CONTINUOUS
 10
284.985825
 20
369.371289
 11
284.857176
 21
369.640089
  0
LINE
  8
OSA
 62
     2
  6
CONTINUOUS
 10
284.857176
 20
369.640089
 11
284.767402
 21
369.881388
  0
LINE
  8
OSA
 62
     2
  6
CONTINUOUS
 10
284.767402
 20
369.881388
 11
284.707280
 21
370.094992
  0
LINE
  8
OSA
 62
     2
  6
CONTINUOUS
 10
284.707280
 20
370.094992
 11
284.669070
 21
370.282153
  0
LINE
  8
OSA
 62
     2
  6
CONTINUOUS
 10
284.669070
 20
370.282153
 11
284.646605
 21
370.444948
  0
LINE
  8
OSA
 62
     2
  6
CONTINUOUS
 10
284.646605
 20
370.444948
 11
284.635157
 21
370.585828
  0
LINE
  8
OSA
 62
     2
  6
CONTINUOUS
 10
284.635157
 20
370.585828
 11
284.631203
 21
370.707321
  0
LINE
  8
OSA
 62
     2
  6
CONTINUOUS
 10
284.631203
 20
370.707321
 11
284.631067
 21
370.734395
  0
ARC
  8
OSA
 62
     2
  6
CONTINUOUS
 10
285.373538
 20
364.971882
 40
3.000000
 50
0.000000
 51
66.167287
  0
CIRCLE
  8
OSA
 62
     2
  6
CONTINUOUS
 10
348.373538
 20
353.734395
 40
9.000000
  0
INSERT
  8
OSA
  2
Sroub_M10x16__38
  6
CONTINUOUS
 10
348.373538
 20
353.734395
  0
ARC
  8
OSA
 62
     2
  6
CONTINUOUS
 10
410.373538
 20
364.734395
 40
2.000000
 50
180.000000
 51
270.000000
  0
ARC
  8
OSA
 62
     2
  6
CONTINUOUS
 10
410.373538
 20
342.734395
 40
2.000000
 50
90.000000
 51
180.000000
  0
LINE
  8
OSA
 62
     2
  6
CONTINUOUS
 10
410.373538
 20
362.734395
 11
410.373538
 21
344.734395
  0
INSERT
  8
OSA
  2
M10x1__39
  6
CONTINUOUS
 10
410.373538
 20
353.734395
  0
LINE
  8
OSA
 62
     2
  6
CONTINUOUS
 10
413.373538
 20
350.734395
 11
423.373538
 21
350.734395
  0
LINE
  8
OSA
 62
     2
  6
CONTINUOUS
 10
413.373538
 20
356.734395
 11
423.373538
 21
356.734395
  0
LINE
  8
OSA
 62
     2
  6
CONTINUOUS
 10
413.373538
 20
356.734395
 11
423.373538
 21
356.734395
  0
LINE
  8
OSA
 62
     2
  6
CONTINUOUS
 10
413.373538
 20
350.734395
 11
423.373538
 21
350.734395
  0
LINE
  8
OSA
 62
     2
  6
CONTINUOUS
 10
423.373538
 20
318.734395
 11
423.373538
 21
388.734395
  0
LINE
  8
OSA
 62
     2
  6
CONTINUOUS
 10
270.373538
 20
318.734395
 11
270.373538
 21
388.734395
  0
LINE
  8
OSA
 62
     2
  6
CONTINUOUS
 10
270.373538
 20
350.734395
 11
288.373538
 21
350.734395
  0
LINE
  8
OSA
 62
     2
  6
CONTINUOUS
 10
270.373538
 20
356.734395
 11
288.373538
 21
356.734395
  0
LINE
  8
OSA
 62
     2
  6
CONTINUOUS
 10
270.373538
 20
318.734395
 11
278.373538
 21
318.734395
  0
LINE
  8
OSA
 62
     2
  6
CONTINUOUS
 10
418.373538
 20
318.734395
 11
423.373538
 21
318.734395
  0
LINE
  8
OSA
 62
     2
  6
CONTINUOUS
 10
270.373538
 20
388.734395
 11
278.373538
 21
388.734395
  0
LINE
  8
OSA
 62
     2
  6
CONTINUOUS
 10
418.373538
 20
388.734395
 11
423.373538
 21
388.734395
  0
LINE
  8
OSA
 10
433.373538
 20
353.734395
 11
251.961163
 21
353.734395
  0
ENDBLK
  8
OSA
  0
BLOCK
  8
OSA
  2
Sroub_M10x16__38
 70
   66
 10
348.373538
 20
353.734395
  0
LINE
  8
OSA
 62
     2
  6
CONTINUOUS
 10
344.373538
 20
356.043811
 11
344.373538
 21
351.424980
  0
LINE
  8
OSA
 62
     2
  6
CONTINUOUS
 10
344.373538
 20
351.424980
 11
348.373538
 21
349.115564
  0
LINE
  8
OSA
 62
     2
  6
CONTINUOUS
 10
348.373538
 20
349.115564
 11
352.373538
 21
351.424980
  0
LINE
  8
OSA
 62
     2
  6
CONTINUOUS
 10
352.373538
 20
351.424980
 11
352.373538
 21
356.043811
  0
LINE
  8
OSA
 62
     2
  6
CONTINUOUS
 10
352.373538
 20
356.043811
 11
348.373538
 21
358.353226
  0
LINE
  8
OSA
 62
     2
  6
CONTINUOUS
 10
348.373538
 20
358.353226
 11
344.373538
 21
356.043811
  0
CIRCLE
  8
OSA
 62
     2
  6
CONTINUOUS
 10
348.373538
 20
353.734395
 40
4.618831
  0
CIRCLE
  8
OSA
 62
     2
  6
CONTINUOUS
 10
348.373538
 20
353.734395
 40
8.000000
  0
ENDBLK
  8
OSA
  0
BLOCK
  8
OSA
  2
M10x1__39
 70
   66
 10
410.373538
 20
353.734395
  0
LINE
  8
OSA
 10
401.044636
 20
353.734395
 11
414.818886
 21
353.734395
  0
LINE
  8
OSA
 62
     2
  6
CONTINUOUS
 10
410.373538
 20
360.734395
 11
410.373538
 21
346.734395
  0
LINE
  8
OSA
 62
     2
  6
CONTINUOUS
 10
410.373538
 20
346.734395
 11
412.373538
 21
346.734395
  0
LINE
  8
OSA
 62
     2
  6
CONTINUOUS
 10
410.373538
 20
360.734395
 11
412.373538
 21
360.734395
  0
ARC
  8
OSA
 62
     2
  6
CONTINUOUS
 10
412.373538
 20
347.734395
 40
1.000000
 50
270.000000
 51
360.000000
  0
LINE
  8
OSA
 62
     2
  6
CONTINUOUS
 10
413.373538
 20
359.734395
 11
413.373538
 21
347.734395
  0
ARC
  8
OSA
 62
     2
  6
CONTINUOUS
 10
412.373538
 20
359.734395
 40
1.000000
 50
0.000000
 51
90.000000
  0
ENDBLK
  8
OSA
  0
BLOCK
  8
OBRYS
  2
_24
 70
   64
 10
348.373538
 20
293.734395
  0
ARC
  8
OBRYS
 10
414.373538
 20
289.234395
 40
4.000000
 50
270.000000
 51
360.000000
  0
LINE
  8
OBRYS
 10
418.373538
 20
315.234395
 11
418.373538
 21
289.234395
  0
LINE
  8
OBRYS
 10
414.373538
 20
285.234395
 11
376.373538
 21
285.234395
  0
ARC
  8
OBRYS
 10
376.373538
 20
289.234395
 40
4.000000
 50
180.000000
 51
270.000000
  0
LINE
  8
OBRYS
 10
372.373538
 20
289.234395
 11
372.373538
 21
315.234395
  0
CIRCLE
  8
OBRYS
 10
395.873538
 20
298.234395
 40
5.500000
  0
LINE
  8
OBRYS
 62
     7
  6
DASHDOT
 10
395.873538
 20
298.234395
 11
382.873542
 21
298.234395
  0
LINE
  8
OBRYS
 62
     7
  6
DASHDOT
 10
395.873538
 20
298.234395
 11
408.873534
 21
298.234395
  0
LINE
  8
OBRYS
 62
     7
  6
DASHDOT
 10
395.873538
 20
298.234395
 11
395.873538
 21
285.234399
  0
LINE
  8
OBRYS
 62
     7
  6
DASHDOT
 10
395.873538
 20
298.234395
 11
395.873538
 21
311.234391
  0
LINE
  8
OBRYS
 10
350.873538
 20
309.734395
 11
350.873538
 21
293.734395
  0
POLYLINE
  8
OBRYS
 66
    1
  0
VERTEX
  8
OBRYS
 10
372.373535
 20
296.234406
  0
VERTEX
  8
OBRYS
 10
371.978394
 20
296.230499
  0
VERTEX
  8
OBRYS
 10
371.571625
 20
296.218323
  0
VERTEX
  8
OBRYS
 10
371.145966
 20
296.196564
  0
VERTEX
  8
OBRYS
 10
370.694763
 20
296.163147
  0
VERTEX
  8
OBRYS
 10
370.212860
 20
296.115204
  0
VERTEX
  8
OBRYS
 10
369.697693
 20
296.049103
  0
VERTEX
  8
OBRYS
 10
369.151154
 20
295.960632
  0
VERTEX
  8
OBRYS
 10
368.581055
 20
295.845764
  0
VERTEX
  8
OBRYS
 10
368.002655
 20
295.701508
  0
VERTEX
  8
OBRYS
 10
367.437866
 20
295.527313
  0
VERTEX
  8
OBRYS
 10
366.912537
 20
295.326263
  0
VERTEX
  8
OBRYS
 10
366.450958
 20
295.105255
  0
VERTEX
  8
OBRYS
 10
366.070129
 20
294.874176
  0
VERTEX
  8
OBRYS
 10
365.776367
 20
294.643738
  0
VERTEX
  8
OBRYS
 10
365.565521
 20
294.423401
  0
VERTEX
  8
OBRYS
 10
365.426056
 20
294.219849
  0
VERTEX
  8
OBRYS
 10
365.343292
 20
294.036926
  0
VERTEX
  8
OBRYS
 10
365.302582
 20
293.875732
  0
VERTEX
  8
OBRYS
 10
365.291260
 20
293.735718
  0
VERTEX
  8
OBRYS
 10
365.291260
 20
293.734406
  0
SEQEND
  8
OBRYS
  0
LINE
  8
OBRYS
 10
372.373538
 20
293.734395
 11
348.373538
 21
293.734395
  0
LINE
  8
OBRYS
 10
372.373538
 20
309.734395
 11
348.373538
 21
309.734395
  0
LINE
  8
OBRYS
 10
418.373538
 20
315.234395
 11
348.373538
 21
315.234395
  0
LINE
  8
OBRYS
 10
278.373538
 20
315.234395
 11
348.373538
 21
315.234395
  0
LINE
  8
OBRYS
 10
324.373538
 20
309.734395
 11
348.373538
 21
309.734395
  0
LINE
  8
OBRYS
 10
324.373538
 20
293.734395
 11
348.373538
 21
293.734395
  0
POLYLINE
  8
OBRYS
 66
    1
  0
VERTEX
  8
OBRYS
 10
324.373535
 20
296.234406
  0
VERTEX
  8
OBRYS
 10
324.768677
 20
296.230499
  0
VERTEX
  8
OBRYS
 10
325.175446
 20
296.218323
  0
VERTEX
  8
OBRYS
 10
325.601105
 20
296.196564
  0
VERTEX
  8
OBRYS
 10
326.052307
 20
296.163147
  0
VERTEX
  8
OBRYS
 10
326.534210
 20
296.115204
  0
VERTEX
  8
OBRYS
 10
327.049377
 20
296.049103
  0
VERTEX
  8
OBRYS
 10
327.595917
 20
295.960632
  0
VERTEX
  8
OBRYS
 10
328.166016
 20
295.845764
  0
VERTEX
  8
OBRYS
 10
328.744415
 20
295.701508
  0
VERTEX
  8
OBRYS
 10
329.309204
 20
295.527313
  0
VERTEX
  8
OBRYS
 10
329.834534
 20
295.326263
  0
VERTEX
  8
OBRYS
 10
330.296112
 20
295.105255
  0
VERTEX
  8
OBRYS
 10
330.676941
 20
294.874176
  0
VERTEX
  8
OBRYS
 10
330.970703
 20
294.643738
  0
VERTEX
  8
OBRYS
 10
331.181549
 20
294.423401
  0
VERTEX
  8
OBRYS
 10
331.321014
 20
294.219849
  0
VERTEX
  8
OBRYS
 10
331.403778
 20
294.036926
  0
VERTEX
  8
OBRYS
 10
331.444489
 20
293.875732
  0
VERTEX
  8
OBRYS
 10
331.455811
 20
293.735718
  0
VERTEX
  8
OBRYS
 10
331.455811
 20
293.734406
  0
SEQEND
  8
OBRYS
  0
LINE
  8
OBRYS
 10
345.873538
 20
309.734395
 11
345.873538
 21
293.734395
  0
LINE
  8
OBRYS
 62
     7
  6
DASHDOT
 10
300.873538
 20
298.234395
 11
300.873538
 21
311.234391
  0
LINE
  8
OBRYS
 62
     7
  6
DASHDOT
 10
300.873538
 20
298.234395
 11
300.873538
 21
285.234399
  0
LINE
  8
OBRYS
 62
     7
  6
DASHDOT
 10
300.873538
 20
298.234395
 11
287.873542
 21
298.234395
  0
LINE
  8
OBRYS
 62
     7
  6
DASHDOT
 10
300.873538
 20
298.234395
 11
313.873534
 21
298.234395
  0
CIRCLE
  8
OBRYS
 10
300.873538
 20
298.234395
 40
5.500000
  0
LINE
  8
OBRYS
 62
     7
  6
DASHDOT
 10
348.373538
 20
322.734391
 11
348.373538
 21
277.734399
  0
LINE
  8
OBRYS
 10
324.373538
 20
289.234395
 11
324.373538
 21
315.234395
  0
ARC
  8
OBRYS
 10
320.373538
 20
289.234395
 40
4.000000
 50
270.000000
 51
360.000000
  0
LINE
  8
OBRYS
 10
282.373538
 20
285.234395
 11
320.373538
 21
285.234395
  0
LINE
  8
OBRYS
 10
278.373538
 20
315.234395
 11
278.373538
 21
289.234395
  0
ARC
  8
OBRYS
 10
282.373538
 20
289.234395
 40
4.000000
 50
180.000000
 51
270.000000
  0
LINE
  8
OBRYS
 10
418.373538
 20
315.234395
 11
418.373538
 21
315.734395
  0
LINE
  8
OBRYS
 10
278.373538
 20
315.734395
 11
278.373538
 21
315.234395
  0
ENDBLK
  8
OBRYS
  0
BLOCK
  8
OBRYS
  2
_25
 70
   64
 10
348.373538
 20
413.734395
  0
ARC
  8
OBRYS
 10
414.373538
 20
418.234395
 40
4.000000
 50
0.000000
 51
90.000000
  0
LINE
  8
OBRYS
 10
418.373538
 20
392.234395
 11
418.373538
 21
418.234395
  0
LINE
  8
OBRYS
 10
414.373538
 20
422.234395
 11
376.373538
 21
422.234395
  0
ARC
  8
OBRYS
 10
376.373538
 20
418.234395
 40
4.000000
 50
90.000000
 51
180.000000
  0
LINE
  8
OBRYS
 10
372.373538
 20
418.234395
 11
372.373538
 21
392.234395
  0
CIRCLE
  8
OBRYS
 10
395.873538
 20
409.234395
 40
5.500000
  0
LINE
  8
OBRYS
 62
     7
  6
DASHDOT
 10
395.873538
 20
409.234395
 11
382.873542
 21
409.234395
  0
LINE
  8
OBRYS
 62
     7
  6
DASHDOT
 10
395.873538
 20
409.234395
 11
408.873534
 21
409.234395
  0
LINE
  8
OBRYS
 62
     7
  6
DASHDOT
 10
395.873538
 20
409.234395
 11
395.873538
 21
422.234391
  0
LINE
  8
OBRYS
 62
     7
  6
DASHDOT
 10
395.873538
 20
409.234395
 11
395.873538
 21
396.234399
  0
LINE
  8
OBRYS
 10
350.873538
 20
397.734395
 11
350.873538
 21
413.734395
  0
POLYLINE
  8
OBRYS
 66
    1
  0
VERTEX
  8
OBRYS
 10
372.373535
 20
411.234375
  0
VERTEX
  8
OBRYS
 10
371.978394
 20
411.238281
  0
VERTEX
  8
OBRYS
 10
371.571625
 20
411.250458
  0
VERTEX
  8
OBRYS
 10
371.145966
 20
411.272217
  0
VERTEX
  8
OBRYS
 10
370.694763
 20
411.305634
  0
VERTEX
  8
OBRYS
 10
370.212860
 20
411.353577
  0
VERTEX
  8
OBRYS
 10
369.697693
 20
411.419678
  0
VERTEX
  8
OBRYS
 10
369.151154
 20
411.508148
  0
VERTEX
  8
OBRYS
 10
368.581055
 20
411.623016
  0
VERTEX
  8
OBRYS
 10
368.002655
 20
411.767273
  0
VERTEX
  8
OBRYS
 10
367.437866
 20
411.941467
  0
VERTEX
  8
OBRYS
 10
366.912537
 20
412.142517
  0
VERTEX
  8
OBRYS
 10
366.450958
 20
412.363525
  0
VERTEX
  8
OBRYS
 10
366.070129
 20
412.594604
  0
VERTEX
  8
OBRYS
 10
365.776367
 20
412.825043
  0
VERTEX
  8
OBRYS
 10
365.565521
 20
413.045380
  0
VERTEX
  8
OBRYS
 10
365.426056
 20
413.248932
  0
VERTEX
  8
OBRYS
 10
365.343292
 20
413.431854
  0
VERTEX
  8
OBRYS
 10
365.302582
 20
413.593048
  0
VERTEX
  8
OBRYS
 10
365.291260
 20
413.733063
  0
VERTEX
  8
OBRYS
 10
365.291260
 20
413.734375
  0
SEQEND
  8
OBRYS
  0
LINE
  8
OBRYS
 10
372.373538
 20
413.734395
 11
348.373538
 21
413.734395
  0
LINE
  8
OBRYS
 10
372.373538
 20
397.734395
 11
348.373538
 21
397.734395
  0
LINE
  8
OBRYS
 10
418.373538
 20
392.234395
 11
348.373538
 21
392.234395
  0
LINE
  8
OBRYS
 10
278.373538
 20
392.234395
 11
348.373538
 21
392.234395
  0
LINE
  8
OBRYS
 10
324.373538
 20
397.734395
 11
348.373538
 21
397.734395
  0
LINE
  8
OBRYS
 10
324.373538
 20
413.734395
 11
348.373538
 21
413.734395
  0
POLYLINE
  8
OBRYS
 66
    1
  0
VERTEX
  8
OBRYS
 10
324.373535
 20
411.234375
  0
VERTEX
  8
OBRYS
 10
324.768677
 20
411.238281
  0
VERTEX
  8
OBRYS
 10
325.175446
 20
411.250458
  0
VERTEX
  8
OBRYS
 10
325.601105
 20
411.272217
  0
VERTEX
  8
OBRYS
 10
326.052307
 20
411.305634
  0
VERTEX
  8
OBRYS
 10
326.534210
 20
411.353577
  0
VERTEX
  8
OBRYS
 10
327.049377
 20
411.419678
  0
VERTEX
  8
OBRYS
 10
327.595917
 20
411.508148
  0
VERTEX
  8
OBRYS
 10
328.166016
 20
411.623016
  0
VERTEX
  8
OBRYS
 10
328.744415
 20
411.767273
  0
VERTEX
  8
OBRYS
 10
329.309204
 20
411.941467
  0
VERTEX
  8
OBRYS
 10
329.834534
 20
412.142517
  0
VERTEX
  8
OBRYS
 10
330.296112
 20
412.363525
  0
VERTEX
  8
OBRYS
 10
330.676941
 20
412.594604
  0
VERTEX
  8
OBRYS
 10
330.970703
 20
412.825043
  0
VERTEX
  8
OBRYS
 10
331.181549
 20
413.045380
  0
VERTEX
  8
OBRYS
 10
331.321014
 20
413.248932
  0
VERTEX
  8
OBRYS
 10
331.403778
 20
413.431854
  0
VERTEX
  8
OBRYS
 10
331.444489
 20
413.593048
  0
VERTEX
  8
OBRYS
 10
331.455811
 20
413.733063
  0
VERTEX
  8
OBRYS
 10
331.455811
 20
413.734375
  0
SEQEND
  8
OBRYS
  0
LINE
  8
OBRYS
 10
345.873538
 20
397.734395
 11
345.873538
 21
413.734395
  0
LINE
  8
OBRYS
 62
     7
  6
DASHDOT
 10
300.873538
 20
409.234395
 11
300.873538
 21
396.234399
  0
LINE
  8
OBRYS
 62
     7
  6
DASHDOT
 10
300.873538
 20
409.234395
 11
300.873538
 21
422.234391
  0
LINE
  8
OBRYS
 62
     7
  6
DASHDOT
 10
300.873538
 20
409.234395
 11
287.873542
 21
409.234395
  0
LINE
  8
OBRYS
 62
     7
  6
DASHDOT
 10
300.873538
 20
409.234395
 11
313.873534
 21
409.234395
  0
CIRCLE
  8
OBRYS
 10
300.873538
 20
409.234395
 40
5.500000
  0
LINE
  8
OBRYS
 62
     7
  6
DASHDOT
 10
348.373538
 20
384.734399
 11
348.373538
 21
429.734391
  0
LINE
  8
OBRYS
 10
324.373538
 20
418.234395
 11
324.373538
 21
392.234395
  0
ARC
  8
OBRYS
 10
320.373538
 20
418.234395
 40
4.000000
 50
0.000000
 51
90.000000
  0
LINE
  8
OBRYS
 10
282.373538
 20
422.234395
 11
320.373538
 21
422.234395
  0
LINE
  8
OBRYS
 10
278.373538
 20
392.234395
 11
278.373538
 21
418.234395
  0
ARC
  8
OBRYS
 10
282.373538
 20
418.234395
 40
4.000000
 50
90.000000
 51
180.000000
  0
LINE
  8
OBRYS
 10
418.373538
 20
392.234395
 11
418.373538
 21
391.734395
  0
LINE
  8
OBRYS
 10
278.373538
 20
391.734395
 11
278.373538
 21
392.234395
  0
ENDBLK
  8
OBRYS
  0
ENDSEC
  0
SECTION
  2
ENTITIES
  0
INSERT
  8
OSA
  2
_0
  6
CONTINUOUS
 10
270.373538
 20
-98.608522
  0
INSERT
  8
OSA
  2
_1
  6
CONTINUOUS
 10
270.373538
 20
353.734395
  0
TEXT
  8
NEVIDI
 62
     2
  6
CONTINUOUS
 10
171.886246
 20
484.679413
 40
15.000000
  1
MRP 60A - FT + 2x adaptér
 50
0.00
 51
0.00
 41
0.80
  0
LINE
  8
OSA
 10
591.807506
 20
329.790527
 11
611.606496
 21
309.991537
  0
LINE
  8
OSA
 10
519.682615
 20
329.790527
 11
499.883625
 21
309.991537
  0
LINE
  8
OSA
 10
519.682615
 20
401.915419
 11
499.883625
 21
421.714409
  0
LINE
  8
OSA
 10
591.807506
 20
401.915419
 11
611.606496
 21
421.714409
  0
LINE
  8
OSA
 10
555.745061
 20
408.352973
 11
555.745061
 21
385.852973
  0
LINE
  8
OSA
 10
555.745061
 20
365.852973
 11
555.745061
 21
343.352973
  0
LINE
  8
OSA
 10
555.745061
 20
365.852973
 11
555.745061
 21
388.352973
  0
LINE
  8
OSA
 10
555.745061
 20
365.852973
 11
533.245061
 21
365.852973
  0
LINE
  8
OSA
 10
555.745061
 20
365.852973
 11
578.245061
 21
365.852973
  0
CIRCLE
  8
OBRYS
 10
555.745061
 20
365.852973
 40
12.500000
  0
ARC
  8
OBRYS
 10
555.745061
 20
365.852973
 40
7.000000
 50
110.924832
 51
69.075168
  0
LINE
  8
OBRYS
 10
553.245061
 20
372.391321
 11
553.245061
 21
375.052973
  0
LINE
  8
OBRYS
 10
558.245061
 20
372.391321
 11
558.245061
 21
375.052973
  0
LINE
  8
OBRYS
 10
553.245061
 20
375.052973
 11
558.245061
 21
375.052973
  0
CIRCLE
  8
OBRYS
 10
555.745061
 20
365.852973
 40
80.000000
  0
CIRCLE
  8
OBRYS
 10
555.745061
 20
365.852973
 40
55.000000
  0
LINE
  8
OSA
 10
555.745061
 20
365.852973
 11
640.745061
 21
365.852973
  0
LINE
  8
OSA
 10
555.745061
 20
365.852973
 11
470.745061
 21
365.852973
  0
LINE
  8
OSA
 10
555.745061
 20
365.852973
 11
555.745061
 21
450.852973
  0
LINE
  8
OSA
 10
555.745061
 20
365.852973
 11
555.745061
 21
280.852973
  0
CIRCLE
  8
OSA
 10
555.745061
 20
365.852973
 40
65.000000
  0
INSERT
  8
OBRYS
 66
     1
  2
Vnitrni_metricky_zavit_M8_2
 62
     7
 10
509.783120
 20
319.891032
  0
ATTRIB
  8
OBRYS
 10
0.000000
 20
0.000000
 40
25.000000
  1
CSN 02 1034
  2
norma roz.
 70
     1
  0
ATTRIB
  8
OBRYS
 10
0.000000
 20
0.000000
 40
25.000000
  1
1.25
  2
roztec
 70
     1
  0
ATTRIB
  8
OBRYS
 10
0.000000
 20
0.000000
 40
25.000000
  1
*NB
  2
puvod
 70
     1
  0
ATTRIB
  8
OBRYS
 10
0.000000
 20
0.000000
 40
25.000000
  1
02 1034
  2
tridici znak
 70
     1
  0
SEQEND
  8
OBRYS
  0
INSERT
  8
OBRYS
 66
     1
  2
Vnitrni_metricky_zavit_M8_3
 62
     7
 10
601.707001
 20
319.891032
  0
ATTRIB
  8
OBRYS
 10
0.000000
 20
0.000000
 40
25.000000
  1
CSN 02 1034
  2
norma roz.
 70
     1
  0
ATTRIB
  8
OBRYS
 10
0.000000
 20
0.000000
 40
25.000000
  1
1.25
  2
roztec
 70
     1
  0
ATTRIB
  8
OBRYS
 10
0.000000
 20
0.000000
 40
25.000000
  1
*NB
  2
puvod
 70
     1
  0
ATTRIB
  8
OBRYS
 10
0.000000
 20
0.000000
 40
25.000000
  1
02 1034
  2
tridici znak
 70
     1
  0
SEQEND
  8
OBRYS
  0
INSERT
  8
OBRYS
 66
     1
  2
Vnitrni_metricky_zavit_M8_4
 62
     7
 10
601.707001
 20
411.814914
  0
ATTRIB
  8
OBRYS
 10
0.000000
 20
0.000000
 40
25.000000
  1
CSN 02 1034
  2
norma roz.
 70
     1
  0
ATTRIB
  8
OBRYS
 10
0.000000
 20
0.000000
 40
25.000000
  1
1.25
  2
roztec
 70
     1
  0
ATTRIB
  8
OBRYS
 10
0.000000
 20
0.000000
 40
25.000000
  1
*NB
  2
puvod
 70
     1
  0
ATTRIB
  8
OBRYS
 10
0.000000
 20
0.000000
 40
25.000000
  1
02 1034
  2
tridici znak
 70
     1
  0
SEQEND
  8
OBRYS
  0
INSERT
  8
OBRYS
 66
     1
  2
Vnitrni_metricky_zavit_M8_5
 62
     7
 10
509.783120
 20
411.814914
  0
ATTRIB
  8
OBRYS
 10
0.000000
 20
0.000000
 40
25.000000
  1
CSN 02 1034
  2
norma roz.
 70
     1
  0
ATTRIB
  8
OBRYS
 10
0.000000
 20
0.000000
 40
25.000000
  1
1.25
  2
roztec
 70
     1
  0
ATTRIB
  8
OBRYS
 10
0.000000
 20
0.000000
 40
25.000000
  1
*NB
  2
puvod
 70
     1
  0
ATTRIB
  8
OBRYS
 10
0.000000
 20
0.000000
 40
25.000000
  1
02 1034
  2
tridici znak
 70
     1
  0
SEQEND
  8
OBRYS
  0
INSERT
  8
OBRYS
  2
_6
 62
     7
 10
348.373538
 20
124.126054
  0
INSERT
  8
OBRYS
  2
_7
 62
     7
 10
555.745061
 20
184.126054
  0
INSERT
  8
OSA
  2
_8
  6
CONTINUOUS
 10
98.004611
 20
184.126054
  0
INSERT
  8
OSA
  2
_9
  6
CONTINUOUS
 10
555.745061
 20
184.126054
  0
INSERT
  8
OBRYS
  2
_10
 62
     7
 10
495.745061
 20
124.126054
  0
INSERT
  8
OBRYS
  2
_11
 62
     7
 10
615.745061
 20
124.126054
  0
INSERT
  8
OBRYS
  2
_12
 62
     7
 10
270.373538
 20
184.126054
  0
LINE
  8
SRAFY
 62
     2
 10
270.373538
 20
222.626054
 11
270.373538
 21
145.626054
  0
LINE
  8
OSA
 62
     2
  6
CONTINUOUS
 10
270.373538
 20
219.626054
 11
270.373538
 21
222.388093
  0
LINE
  8
OSA
 10
250.373538
 20
184.126054
 11
279.191958
 21
184.126054
  0
LINE
  8
OBRYS
 10
270.373538
 20
184.126054
 11
270.373538
 21
223.612370
  0
LINE
  8
OBRYS
 10
270.373538
 20
184.126054
 11
270.373538
 21
144.639739
  0
LINE
  8
OSA
 10
348.373538
 20
236.626054
 11
348.373538
 21
50.182607
  0
LINE
  8
OSA
 10
348.373538
 20
124.126054
 11
268.373538
 21
124.126054
  0
LINE
  8
OSA
 10
348.373538
 20
124.126054
 11
428.373538
 21
124.126054
  0
LINE
  8
OSA
 10
422.373538
 20
184.126054
 11
270.623538
 21
184.126054
  0
LINE
  8
0
 62
     2
 10
403.408487
 20
167.382896
 11
423.373538
 21
167.382896
  0
LINE
  8
0
 62
     2
 10
407.122018
 20
162.186744
 11
423.373538
 21
162.186744
  0
LINE
  8
0
 62
     2
 10
415.048592
 20
145.443586
 11
423.373538
 21
145.443586
  0
LINE
  8
OBRYS
 10
423.373538
 20
223.579501
 11
423.373538
 21
144.672607
  0
LINE
  8
0
 62
     2
 10
423.373538
 20
144.672607
 11
415.290196
 21
144.672607
  0
LINE
  8
0
 62
     2
 10
293.338589
 20
167.382896
 11
270.373538
 21
167.382896
  0
LINE
  8
0
 62
     2
 10
289.625058
 20
162.186744
 11
270.373538
 21
162.186744
  0
LINE
  8
0
 62
     2
 10
281.698484
 20
145.443586
 11
270.373538
 21
145.443586
  0
LINE
  8
0
 62
     2
 10
270.373538
 20
144.672607
 11
281.456879
 21
144.672607
  0
LINE
  8
0
 62
     2
 10
390.659941
 20
219.126054
 11
398.373538
 21
223.579501
  0
LINE
  8
0
 62
     2
 10
397.497137
 20
200.869212
 11
423.373538
 21
200.869212
  0
LINE
  8
0
 62
     2
 10
397.313646
 20
206.065364
 11
423.373538
 21
206.065364
  0
LINE
  8
0
 62
     2
 10
423.373538
 20
223.579501
 11
398.480528
 21
223.579501
  0
LINE
  8
0
 62
     2
 10
397.549939
 20
222.808522
 11
423.373538
 21
222.808522
  0
LINE
  8
0
 62
     2
 10
390.659941
 20
179.910103
 11
390.659941
 21
219.126054
  0
POLYLINE
  8
0
 62
     2
 66
    1
  0
VERTEX
  8
0
 62
     2
 10
398.373505
 20
223.579498
  0
VERTEX
  8
0
 62
     2
 10
398.480560
 20
223.579498
  0
VERTEX
  8
0
 62
     2
 10
398.238129
 20
223.318695
  0
VERTEX
  8
0
 62
     2
 10
397.550018
 20
222.808502
  0
VERTEX
  8
0
 62
     2
 10
394.057465
 20
220.377411
  0
VERTEX
  8
0
 62
     2
 10
391.183075
 20
216.740875
  0
VERTEX
  8
0
 62
     2
 10
390.790009
 20
213.289948
  0
VERTEX
  8
0
 62
     2
 10
392.798431
 20
209.747833
  0
VERTEX
  8
0
 62
     2
 10
397.313690
 20
206.065338
  0
VERTEX
  8
0
 62
     2
 10
397.530853
 20
205.774872
  0
VERTEX
  8
0
 62
     2
 10
398.108246
 20
205.328094
  0
VERTEX
  8
0
 62
     2
 10
398.631683
 20
204.395905
  0
VERTEX
  8
0
 62
     2
 10
398.703217
 20
203.309601
  0
VERTEX
  8
0
 62
     2
 10
398.319427
 20
202.116669
  0
VERTEX
  8
0
 62
     2
 10
397.497162
 20
200.869232
  0
VERTEX
  8
0
 62
     2
 10
395.654755
 20
198.623505
  0
VERTEX
  8
0
 62
     2
 10
391.847626
 20
191.087982
  0
VERTEX
  8
0
 62
     2
 10
390.660004
 20
184.126068
  0
VERTEX
  8
0
 62
     2
 10
391.487885
 20
179.272675
  0
SEQEND
  8
0
  0
POLYLINE
  8
0
 62
     2
 66
    1
  0
VERTEX
  8
0
 62
     2
 10
298.373505
 20
223.579498
  0
VERTEX
  8
0
 62
     2
 10
298.266571
 20
223.579498
  0
VERTEX
  8
0
 62
     2
 10
298.509003
 20
223.318695
  0
VERTEX
  8
0
 62
     2
 10
299.197113
 20
222.808502
  0
VERTEX
  8
0
 62
     2
 10
302.689667
 20
220.377411
  0
VERTEX
  8
0
 62
     2
 10
305.564056
 20
216.740875
  0
VERTEX
  8
0
 62
     2
 10
305.957123
 20
213.289948
  0
VERTEX
  8
0
 62
     2
 10
303.948700
 20
209.747833
  0
VERTEX
  8
0
 62
     2
 10
299.433441
 20
206.065338
  0
VERTEX
  8
0
 62
     2
 10
299.216278
 20
205.774872
  0
VERTEX
  8
0
 62
     2
 10
298.638885
 20
205.328094
  0
VERTEX
  8
0
 62
     2
 10
298.115448
 20
204.395905
  0
VERTEX
  8
0
 62
     2
 10
298.043915
 20
203.309601
  0
VERTEX
  8
0
 62
     2
 10
298.427704
 20
202.116669
  0
VERTEX
  8
0
 62
     2
 10
299.249969
 20
200.869232
  0
VERTEX
  8
0
 62
     2
 10
301.092377
 20
198.623505
  0
VERTEX
  8
0
 62
     2
 10
304.899506
 20
191.087982
  0
VERTEX
  8
0
 62
     2
 10
306.087128
 20
184.126068
  0
VERTEX
  8
0
 62
     2
 10
305.259247
 20
179.272675
  0
SEQEND
  8
0
  0
LINE
  8
0
 62
     2
 10
306.087134
 20
219.126054
 11
298.373538
 21
223.579501
  0
LINE
  8
0
 62
     2
 10
306.087134
 20
179.910103
 11
306.087134
 21
219.126054
  0
LINE
  8
OBRYS
 10
306.087134
 20
219.126054
 11
390.659941
 21
219.126054
  0
LINE
  8
0
 62
     2
 10
299.249938
 20
200.869212
 11
270.373538
 21
200.869212
  0
LINE
  8
0
 62
     2
 10
299.433430
 20
206.065364
 11
270.373538
 21
206.065364
  0
LINE
  8
0
 62
     2
 10
299.197136
 20
222.808522
 11
270.373538
 21
222.808522
  0
LINE
  8
0
 62
     2
 10
270.373538
 20
223.579501
 11
298.266547
 21
223.579501
  0
LINE
  8
OBRYS
 10
270.373538
 20
223.579501
 11
270.373538
 21
144.672607
  0
INSERT
  8
OBRYS
  2
_13
 62
     7
 10
158.004611
 20
124.126054
  0
INSERT
  8
OSA
  2
_14
  6
CONTINUOUS
 10
60.004611
 20
124.126054
  0
INSERT
  8
OBRYS
  2
_15
 62
     7
 10
38.004611
 20
124.126054
  0
INSERT
  8
OBRYS
 66
     1
  2
M10x1_16
 62
     7
 10
98.004611
 20
62.126054
  0
ATTRIB
  8
0
 62
     2
 10
0.000000
 20
0.000000
 40
3.749998
  1
DIN 908
  2
norma roz.
 70
     1
  0
SEQEND
  8
OBRYS
  0
ARC
  8
OBRYS
 10
60.004611
 20
229.126054
 40
5.000000
 50
109.216664
 51
131.452663
  0
ARC
  8
OBRYS
 10
98.004611
 20
184.126054
 40
60.000000
 50
98.898853
 51
109.216664
  0
LINE
  8
TLUST_
 62
     2
 10
78.256133
 20
240.782895
 11
58.358904
 21
233.847458
  0
LINE
  8
TLUST_
 62
     2
 10
41.409079
 20
219.372575
 11
56.694606
 21
232.873569
  0
ARC
  8
OBRYS
 10
46.043087
 20
214.126054
 40
7.000000
 50
140.000000
 51
227.046122
  0
ARC
  8
OBRYS
 10
149.966135
 20
214.126054
 40
7.000000
 50
312.953878
 51
40.000000
  0
LINE
  8
TLUST_
 62
     2
 10
154.600142
 20
219.372575
 11
139.314616
 21
232.873569
  0
LINE
  8
TLUST_
 62
     2
 10
117.753089
 20
240.782895
 11
137.650317
 21
233.847458
  0
ARC
  8
OBRYS
 10
98.004611
 20
184.126054
 40
60.000000
 50
70.783336
 51
81.101147
  0
ARC
  8
OBRYS
 10
136.004611
 20
229.126054
 40
5.000000
 50
48.547337
 51
70.783336
  0
ARC
  8
OBRYS
 10
88.259103
 20
246.367721
 40
3.000000
 50
278.898853
 51
347.046120
  0
ARC
  8
OBRYS
 10
107.750119
 20
246.367721
 40
3.000000
 50
192.953880
 51
261.101147
  0
ARC
  8
OBRYS
 10
156.780229
 20
206.807030
 40
3.000000
 50
132.953880
 51
201.101147
  0
ARC
  8
OBRYS
 10
39.228992
 20
206.807030
 40
3.000000
 50
338.898853
 51
47.046120
  0
ARC
  8
OBRYS
 10
98.004611
 20
244.126054
 40
7.000000
 50
12.953880
 51
167.046120
  0
ARC
  8
OBRYS
 10
98.004611
 20
184.126054
 40
60.000000
 50
158.898853
 51
180.000000
  0
ARC
  8
OBRYS
 10
98.004611
 20
122.126054
 40
70.000000
 50
328.997281
 51
31.002719
  0
ARC
  8
OBRYS
 10
98.004611
 20
184.126054
 40
60.000000
 50
0.000000
 51
21.101147
  0
ARC
  8
OBRYS
 10
98.004611
 20
122.126054
 40
70.000000
 50
148.997281
 51
211.002719
  0
LINE
  8
OBRYS
 10
836.823854
 20
223.579501
 11
836.823854
 21
144.672607
  0
LINE
  8
0
 62
     2
 10
836.823854
 20
223.579501
 11
808.930844
 21
223.579501
  0
LINE
  8
0
 62
     2
 10
808.000256
 20
222.808522
 11
836.823854
 21
222.808522
  0
LINE
  8
0
 62
     2
 10
807.763962
 20
206.065364
 11
836.823854
 21
206.065364
  0
LINE
  8
0
 62
     2
 10
807.947453
 20
200.869212
 11
836.823854
 21
200.869212
  0
LINE
  8
OBRYS
 10
801.110257
 20
219.126054
 11
716.537450
 21
219.126054
  0
LINE
  8
0
 62
     2
 10
801.110257
 20
179.910103
 11
801.110257
 21
219.126054
  0
LINE
  8
0
 62
     2
 10
801.110257
 20
219.126054
 11
808.823854
 21
223.579501
  0
POLYLINE
  8
0
 62
     2
 66
    1
  0
VERTEX
  8
0
 62
     2
 10
808.823914
 20
223.579498
  0
VERTEX
  8
0
 62
     2
 10
808.930847
 20
223.579498
  0
VERTEX
  8
0
 62
     2
 10
808.688416
 20
223.318695
  0
VERTEX
  8
0
 62
     2
 10
808.000305
 20
222.808502
  0
VERTEX
  8
0
 62
     2
 10
804.507751
 20
220.377411
  0
VERTEX
  8
0
 62
     2
 10
801.633362
 20
216.740875
  0
VERTEX
  8
0
 62
     2
 10
801.240295
 20
213.289948
  0
VERTEX
  8
0
 62
     2
 10
803.248718
 20
209.747833
  0
VERTEX
  8
0
 62
     2
 10
807.763977
 20
206.065338
  0
VERTEX
  8
0
 62
     2
 10
807.981140
 20
205.774872
  0
VERTEX
  8
0
 62
     2
 10
808.558533
 20
205.328094
  0
VERTEX
  8
0
 62
     2
 10
809.081970
 20
204.395905
  0
VERTEX
  8
0
 62
     2
 10
809.153503
 20
203.309601
  0
VERTEX
  8
0
 62
     2
 10
808.769714
 20
202.116669
  0
VERTEX
  8
0
 62
     2
 10
807.947449
 20
200.869232
  0
VERTEX
  8
0
 62
     2
 10
806.105042
 20
198.623505
  0
VERTEX
  8
0
 62
     2
 10
802.297913
 20
191.087982
  0
VERTEX
  8
0
 62
     2
 10
801.110291
 20
184.126068
  0
VERTEX
  8
0
 62
     2
 10
801.938171
 20
179.272675
  0
SEQEND
  8
0
  0
POLYLINE
  8
0
 62
     2
 66
    1
  0
VERTEX
  8
0
 62
     2
 10
708.823914
 20
223.579498
  0
VERTEX
  8
0
 62
     2
 10
708.716858
 20
223.579498
  0
VERTEX
  8
0
 62
     2
 10
708.959290
 20
223.318695
  0
VERTEX
  8
0
 62
     2
 10
709.647400
 20
222.808502
  0
VERTEX
  8
0
 62
     2
 10
713.139954
 20
220.377411
  0
VERTEX
  8
0
 62
     2
 10
716.014343
 20
216.740875
  0
VERTEX
  8
0
 62
     2
 10
716.407410
 20
213.289948
  0
VERTEX
  8
0
 62
     2
 10
714.398987
 20
209.747833
  0
VERTEX
  8
0
 62
     2
 10
709.883728
 20
206.065338
  0
VERTEX
  8
0
 62
     2
 10
709.666565
 20
205.774872
  0
VERTEX
  8
0
 62
     2
 10
709.089172
 20
205.328094
  0
VERTEX
  8
0
 62
     2
 10
708.565735
 20
204.395905
  0
VERTEX
  8
0
 62
     2
 10
708.494202
 20
203.309601
  0
VERTEX
  8
0
 62
     2
 10
708.877991
 20
202.116669
  0
VERTEX
  8
0
 62
     2
 10
709.700256
 20
200.869232
  0
VERTEX
  8
0
 62
     2
 10
711.542664
 20
198.623505
  0
VERTEX
  8
0
 62
     2
 10
715.349792
 20
191.087982
  0
VERTEX
  8
0
 62
     2
 10
716.537415
 20
184.126068
  0
VERTEX
  8
0
 62
     2
 10
715.709534
 20
179.272675
  0
SEQEND
  8
0
  0
LINE
  8
0
 62
     2
 10
716.537450
 20
179.910103
 11
716.537450
 21
219.126054
  0
LINE
  8
0
 62
     2
 10
709.647452
 20
222.808522
 11
683.823854
 21
222.808522
  0
LINE
  8
0
 62
     2
 10
683.823854
 20
223.579501
 11
708.716864
 21
223.579501
  0
LINE
  8
0
 62
     2
 10
709.883746
 20
206.065364
 11
683.823854
 21
206.065364
  0
LINE
  8
0
 62
     2
 10
709.700255
 20
200.869212
 11
683.823854
 21
200.869212
  0
LINE
  8
0
 62
     2
 10
716.537450
 20
219.126054
 11
708.823854
 21
223.579501
  0
LINE
  8
0
 62
     2
 10
836.823854
 20
144.672607
 11
825.740512
 21
144.672607
  0
LINE
  8
0
 62
     2
 10
825.498908
 20
145.443586
 11
836.823854
 21
145.443586
  0
LINE
  8
0
 62
     2
 10
817.572334
 20
162.186744
 11
836.823854
 21
162.186744
  0
LINE
  8
0
 62
     2
 10
813.858803
 20
167.382896
 11
836.823854
 21
167.382896
  0
LINE
  8
0
 62
     2
 10
683.823854
 20
144.672607
 11
691.907196
 21
144.672607
  0
LINE
  8
OBRYS
 10
683.823854
 20
223.579501
 11
683.823854
 21
144.672607
  0
LINE
  8
0
 62
     2
 10
692.148800
 20
145.443586
 11
683.823854
 21
145.443586
  0
LINE
  8
0
 62
     2
 10
700.075374
 20
162.186744
 11
683.823854
 21
162.186744
  0
LINE
  8
0
 62
     2
 10
703.788905
 20
167.382896
 11
683.823854
 21
167.382896
  0
LINE
  8
OSA
 10
684.823854
 20
184.126054
 11
836.573854
 21
184.126054
  0
LINE
  8
OSA
 10
758.823854
 20
124.126054
 11
678.823854
 21
124.126054
  0
LINE
  8
OSA
 10
758.823854
 20
124.126054
 11
838.823854
 21
124.126054
  0
LINE
  8
OSA
 10
758.823854
 20
236.626054
 11
758.823854
 21
50.182607
  0
LINE
  8
OBRYS
 10
836.823854
 20
184.126054
 11
836.823854
 21
144.639739
  0
LINE
  8
OBRYS
 10
836.823854
 20
184.126054
 11
836.823854
 21
223.612370
  0
LINE
  8
OSA
 10
856.823854
 20
184.126054
 11
828.005434
 21
184.126054
  0
LINE
  8
OSA
 62
     2
  6
CONTINUOUS
 10
836.823854
 20
219.626054
 11
836.823854
 21
222.388093
  0
LINE
  8
SRAFY
 62
     2
 10
836.823854
 20
222.626054
 11
836.823854
 21
145.626054
  0
INSERT
  8
OBRYS
  2
_17
 62
     7
 10
836.823854
 20
184.126054
  0
INSERT
  8
OBRYS
  2
_18
 62
     7
 10
758.823854
 20
124.126054
  0
LINE
  8
OSA
 62
     2
  6
CONTINUOUS
 10
284.373538
 20
307.734395
 11
283.959324
 21
308.148609
  0
INSERT
  8
OBRYS
  2
_19
 62
     7
 10
348.373538
 20
-52.608522
  0
INSERT
  8
OBRYS
  2
_20
 62
     7
 10
348.373538
 20
-144.608522
  0
INSERT
  8
OSA
  2
_21
  6
CONTINUOUS
 10
348.373538
 20
-136.608522
  0
INSERT
  8
OSA
  2
_22
  6
CONTINUOUS
 10
408.373538
 20
-98.608522
  0
INSERT
  8
OSA
  2
_23
  6
CONTINUOUS
 10
408.373538
 20
353.734395
  0
INSERT
  8
OBRYS
  2
_24
 62
     7
 10
348.373538
 20
293.734395
  0
INSERT
  8
OBRYS
  2
_25
 62
     7
 10
348.373538
 20
413.734395
  0
LINE
  8
OBRYS
 10
553.245061
 20
-66.778380
 11
558.245061
 21
-66.778380
  0
LINE
  8
OBRYS
 10
558.245061
 20
-69.440032
 11
558.245061
 21
-66.778380
  0
LINE
  8
OBRYS
 10
553.245061
 20
-69.440032
 11
553.245061
 21
-66.778380
  0
ARC
  8
OBRYS
 10
555.745061
 20
-75.978380
 40
7.000000
 50
110.924832
 51
69.075168
  0
CIRCLE
  8
OBRYS
 10
555.745061
 20
-75.978380
 40
12.500000
  0
LINE
  8
OSA
 10
555.745061
 20
-75.978380
 11
578.245061
 21
-75.978380
  0
LINE
  8
OSA
 10
555.745061
 20
-75.978380
 11
533.245061
 21
-75.978380
  0
LINE
  8
OSA
 10
555.745061
 20
-75.978380
 11
555.745061
 21
-53.478380
  0
LINE
  8
OSA
 10
555.745061
 20
-75.978380
 11
555.745061
 21
-98.478380
  0
CIRCLE
  8
OBRYS
 10
555.745061
 20
-33.478380
 40
12.500000
  0
ARC
  8
OBRYS
 10
555.745061
 20
-33.478380
 40
5.500000
 50
110.654018
 51
68.003576
  0
LINE
  8
OBRYS
 10
557.805079
 20
-28.378740
 11
557.805079
 21
-26.289419
  0
LINE
  8
OBRYS
 10
553.805079
 20
-28.331879
 11
553.805079
 21
-26.289419
  0
LINE
  8
OBRYS
 10
553.805079
 20
-26.289419
 11
557.805079
 21
-26.289419
  0
LINE
  8
OSA
 10
555.745061
 20
-33.478380
 11
578.245061
 21
-33.478380
  0
LINE
  8
OSA
 10
555.745061
 20
-33.478380
 11
533.245061
 21
-33.478380
  0
LINE
  8
OSA
 10
555.745061
 20
-33.478380
 11
555.745061
 21
-10.978380
  0
LINE
  8
OSA
 10
555.745061
 20
-33.478380
 11
555.745061
 21
-55.978380
  0
TEXT
  8
NEVIDI
 62
     2
  6
CONTINUOUS
 10
170.501373
 20
518.928833
 40
15.000000
  1
MRP 60A - A
 50
0.00
 51
0.00
 41
0.80
  0
ENDSEC
  0
EOF

