  0
SECTION
  2
HEADER
  9
$ACADVER
  1
AC1009
  9
$INSBASE
 10
0.0
 20
0.0
 30
0.0
  9
$LIMMIN
 10
0.0
 20
0.0
  9
$LIMMAX
 10
430.0000
 20
307.0000
  9
$EXTMIN
 10
99999999999999998000000000000000000000.0000
 20
99999999999999998000000000000000000000.0000
  9
$EXTMAX
 10
99999999999999998000000000000000000000.0000
 20
99999999999999998000000000000000000000.0000
  9
$VIEWCTR
 10
454.8276
 20
193.4154
  9
$VIEWSIZE
 40
1023.0820
  9
$DIMLFAC
 40
0.5000
  9
$MEASUREMENT
 70
     1
  9
$DWGCODEPAGE
 3
ANSI_1250
  9
$CLAYER
  8
TLUST_
  9
$CELTYPE
  6
BYLAYER
  9
$CECOLOR
 62
  256
  9
$ORTHOMODE
 70
     0
  9
$REGENMODE
 70
     1
  9
$FILLMODE
 70
     1
  9
$QTEXTMODE
 70
     0
  9
$MIRRTEXT
 70
     1
  9
$DRAGMODE
 70
     2
  9
$LTSCALE
 40
1.0
  9
$OSMODE
 70
    37
  9
$ATTMODE
 70
     1
  9
$TEXTSIZE
 40
2.5
  9
$TRACEWID
 40
1.0
  9
$TEXTSTYLE
  7
STANDARD
  9
$CLAYER
  8
0
  9
$CELTYPE
  6
BYLAYER
  9
$CECOLOR
 62
   256
  9
$DIMSCALE
 40
1.0
  9
$DIMASZ
 40
2.5
  9
$DIMEXO
 40
0.625
  9
$DIMDLI
 40
3.75
  9
$DIMRND
 40
0.0
  9
$DIMDLE
 40
0.0
  9
$DIMEXE
 40
1.25
  9
$DIMTP
 40
0.0
  9
$DIMTM
 40
0.0
  9
$DIMTXT
 40
2.5
  9
$DIMCEN
 40
2.5
  9
$DIMTSZ
 40
0.0
  9
$DIMTOL
 70
     0
  9
$DIMLIM
 70
     0
  9
$DIMTIH
 70
     0
  9
$DIMTOH
 70
     0
  9
$DIMSE1
 70
     0
  9
$DIMSE2
 70
     0
  9
$DIMTAD
 70
     1
  9
$DIMZIN
 70
     8
  9
$DIMBLK
  1

  9
$DIMASO
 70
     1
  9
$DIMSHO
 70
     1
  9
$DIMPOST
  1

  9
$DIMAPOST
  1

  9
$DIMALT
 70
     0
  9
$DIMALTD
 70
     3
  9
$DIMALTF
 40
0.03937007874016
  9
$DIMTOFL
 70
     1
  9
$DIMTVP
 40
0.0
  9
$DIMTIX
 70
     0
  9
$DIMSOXD
 70
     0
  9
$DIMSAH
 70
     0
  9
$DIMBLK1
  1

  9
$DIMBLK2
  1

  9
$DIMSTYLE
  2
ISO-25
  9
$DIMCLRD
 70
     0
  9
$DIMCLRE
 70
     0
  9
$DIMCLRT
 70
     0
  9
$DIMTFAC
 40
1.0
  9
$DIMGAP
 40
0.625
  9
$LUNITS
 70
     2
  9
$LUPREC
 70
     4
  9
$SKETCHINC
 40
1.0
  9
$FILLETRAD
 40
10.0
  9
$AUNITS
 70
     0
  9
$AUPREC
 70
     0
  9
$MENU
  1
.
  9
$ELEVATION
 40
0.0
  9
$PELEVATION
 40
0.0
  9
$THICKNESS
 40
0.0
  9
$LIMCHECK
 70
     0
  9
$BLIPMODE
 70
     0
  9
$CHAMFERA
 40
10.0
  9
$CHAMFERB
 40
10.0
  9
$SKPOLY
 70
     0
  9
$TDCREATE
 40
2451579.5163292708
  9
$TDUPDATE
 40
2451579.6904035881
  9
$TDINDWG
 40
0.0082924769
  9
$TDUSRTIMER
 40
0.0082825116
  9
$USRTIMER
 70
     1
  9
$ANGBASE
 50
0.0
  9
$ANGDIR
 70
     0
  9
$PDMODE
 70
     0
  9
$PDSIZE
 40
0.0
  9
$PLINEWID
 40
0.0
  9
$COORDS
 70
     1
  9
$SPLFRAME
 70
     0
  9
$SPLINETYPE
 70
     6
  9
$SPLINESEGS
 70
     8
  9
$ATTDIA
 70
     0
  9
$ATTREQ
 70
     1
  9
$SURFTAB1
 70
     6
  9
$SURFTAB2
 70
     6
  9
$SURFTYPE
 70
     6
  9
$SURFU
 70
     6
  9
$SURFV
 70
     6
  9
$UCSNAME
  2

  9
$UCSORG
 10
0.0
 20
0.0
 30
0.0
  9
$UCSXDIR
 10
1.0
 20
0.0
 30
0.0
  9
$UCSYDIR
 10
0.0
 20
1.0
 30
0.0
  9
$PUCSNAME
  2

  9
$PUCSORG
 10
0.0
 20
0.0
 30
0.0
  9
$PUCSXDIR
 10
1.0
 20
0.0
 30
0.0
  9
$PUCSYDIR
 10
0.0
 20
1.0
 30
0.0
  9
$USERI1
 70
     0
  9
$USERI2
 70
     0
  9
$USERI3
 70
     0
  9
$USERI4
 70
     0
  9
$USERI5
 70
     0
  9
$USERR1
 40
0.0
  9
$USERR2
 40
0.0
  9
$USERR3
 40
0.0
  9
$USERR4
 40
0.0
  9
$USERR5
 40
0.0
  9
$WORLDVIEW
 70
     1
  9
$SHADEDGE
 70
     3
  9
$SHADEDIF
 70
    70
  9
$TILEMODE
 70
     1
  9
$MAXACTVP
 70
    64
  9
$PLIMCHECK
 70
     0
  9
$PEXTMIN
 10
1.0000000000000000E+020
 20
1.0000000000000000E+020
 30
1.0000000000000000E+020
  9
$PEXTMAX
 10
-1.0000000000000000E+020
 20
-1.0000000000000000E+020
 30
-1.0000000000000000E+020
  9
$PLIMMIN
 10
0.0
 20
0.0
  9
$PLIMMAX
 10
420.0
 20
297.0
  9
$UNITMODE
 70
     0
  9
$VISRETAIN
 70
     1
  9
$PLINEGEN
 70
     0
  9
$PSLTSCALE
 70
     1
  0
ENDSEC
  0
SECTION
  2
TABLES
  0
TABLE
  2
VPORT
 70
     2
  0
VPORT
  2
*ACTIVE
 70
     0
 10
0.0
 20
0.0
 11
1.0
 21
1.0
 12
454.8276
 22
193.4154
 13
0.0
 23
0.0
 14
10.0
 24
10.0
 15
10.0
 25
10.0
 16
0.0
 26
0.0
 36
1.0
 17
0.0
 27
0.0
 37
0.0
 40
1023.0820
 41
1.6916
 42
50.0
 43
0.0
 44
0.0
 50
0.0
 51
0.0
 71
     0
 72
   100
 73
     1
 74
     3
 75
     0
 76
     0
 77
     0
 78
     0
  0
ENDTAB
  0
TABLE
  2
LTYPE
 70
     7
  0
LTYPE
  2
CONTINUOUS
 70
     0
  3
Solid line
 72
    65
 73
     0
 40
0.0
  0
LTYPE
  2
HIDDEN2
 70
     0
  3
Hidden (.5x) _ _ _ _ _ _ _ _ _ _ _ _ _ _ _ _ _
 72
    65
 73
     2
 40
5.1
 49
3.5
 49
-1.6
  0
LTYPE
  2
DASHDOT
 70
     0
  3
Dash dot __ . __ . __ . __ . __ . __ . __ . __
 72
    65
 73
     4
 40
10.4
 49
6.2
 49
-2.1
 49
0.0
 49
-2.1
  0
LTYPE
  2
DOT
 70
     0
  3
Dot . . . . . . . . . . . . . . . . . . . . . .
 72
    65
 73
     2
 40
2.2
 49
1.1
 49
-1.1
  0
LTYPE
  2
DASHED
 70
     0
  3
Dashed __ __ __ __ __ __ __ __ __ __ __ __ __ _
 72
    65
 73
     2
 40
11.049999999999979
 49
8.699999999999999
 49
-2.3499999999999979
  0
LTYPE
  2
PHANTOM2
 70
     0
  3
Phantom (.5x) ___ _ _ ___ _ _ ___ _ _ ___ _ _
 72
    65
 73
     6
 40
18.3
 49
7.8
 49
-2.1
 49
2.1
 49
-2.1
 49
2.1
 49
-2.1
  0
LTYPE
  2
CENTER
 70
     0
  3
Center ____ _ ____ _ ____ _ ____ _ ____ _ ____
 72
    65
 73
     4
 40
14.1
 49
7.8
 49
-2.1
 49
2.1
 49
-2.1
  0
ENDTAB
  0
TABLE
  2
LAYER
 70
     8
  0
LAYER
  2
0
 70
    64
 62
     7
  6
CONTINUOUS
  0
LAYER
  2
OBRYS
 70
    64
 62
     2
  6
CONTINUOUS
  0
LAYER
  2
OSA
 70
    64
 62
     7
  6
DASHDOT
  0
LAYER
  2
KOTA
 70
    64
 62
     3
  6
CONTINUOUS
  0
LAYER
  2
SRAFY
 70
    64
 62
     7
  6
CONTINUOUS
  0
LAYER
  2
POMOC
 70
    64
 62
     5
  6
HIDDEN2
  0
LAYER
  2
NEVIDI
 70
    64
 62
     4
  6
DASHED
  0
LAYER
  2
TLUST_
 70
    64
 62
     1
  6
CONTINUOUS
  0
ENDTAB
  0
TABLE
  2
STYLE
 70
     1
  0
STYLE
  2
STANDARD
 70
     0
 40
0.0
 41
1.0
 50
0.0
 71
     0
 42
2.5
  3
txt
  4

  0
ENDTAB
  0
TABLE
  2
VIEW
 70
     0
  0
ENDTAB
  0
TABLE
  2
UCS
 70
     0
  0
ENDTAB
  0
TABLE
  2
APPID
 70
     1
  0
APPID
  2
ACAD
 70
     0
  0
ENDTAB
  0
TABLE
  2
DIMSTYLE
 70
     1
  0
DIMSTYLE
  2
ISO-25
 70
     0
  3

  4

  5

  6

  7

 40
1.0
 41
2.5
 42
0.625
 43
3.75
 44
1.25
 45
0.0
 46
0.0
 47
0.0
 48
0.0
140
2.5
141
2.5
142
0.0
143
0.03937007874016
144
1.0
145
0.0
146
1.0
147
0.625
 71
     0
 72
     0
 73
     0
 74
     0
 75
     0
 76
     0
 77
     1
 78
     8
170
     0
171
     3
172
     1
173
     0
174
     0
175
     0
176
     0
177
     0
178
     0
  0
ENDTAB
  0
ENDSEC
  0
SECTION
  2
BLOCKS
  0
BLOCK
  8
0
  2
$MODEL_SPACE
 70
     0
 10
0.0
 20
0.0
 30
0.0
  3
$MODEL_SPACE
  1

  0
ENDBLK
  8
0
  0
BLOCK
 67
     1
  8
0
  2
$PAPER_SPACE
 70
     0
 10
0.0
 20
0.0
 30
0.0
  3
$PAPER_SPACE
  1

  0
ENDBLK
 67
     1
  8
0
  0
BLOCK
  8
OBRYS
  2
_0
 70
   64
 10
588.623548
 20
61.042558
  0
INSERT
  8
OBRYS
  2
Srouby_s_valcovou_hlavou___1
 62
     7
 10
588.623548
 20
1.042558
  0
INSERT
  8
OBRYS
  2
Srouby_s_valcovou_hlavou___2
 62
     7
 10
588.623548
 20
151.042558
  0
INSERT
  8
OBRYS
  2
Srouby_s_valcovou_hlavou___3
 62
     7
 10
536.662024
 20
91.042558
  0
INSERT
  8
OBRYS
  2
Srouby_s_valcovou_hlavou___4
 62
     7
 10
640.585072
 20
91.042558
  0
INSERT
  8
OBRYS
  2
Srouby_s_valcovou_hlavou___5
 62
     7
 10
640.585072
 20
31.042558
  0
INSERT
  8
OBRYS
  2
Srouby_s_valcovou_hlavou___6
 62
     7
 10
536.662024
 20
31.042558
  0
LINE
  8
OSA
 10
612.623548
 20
137.042558
 11
612.623548
 21
129.042558
  0
LINE
  8
OSA
 10
661.942421
 20
123.042558
 11
514.488448
 21
123.042558
  0
LINE
  8
OSA
 10
651.877304
 20
61.042558
 11
524.553565
 21
61.042558
  0
LINE
  8
OSA
 10
588.623548
 20
-10.303495
 11
588.623548
 21
197.037929
  0
LINE
  8
OSA
 10
554.996717
 20
156.669389
 11
538.770047
 21
172.896058
  0
LINE
  8
OSA
 10
635.773432
 20
75.892673
 11
624.896215
 21
86.769891
  0
LINE
  8
OSA
 10
636.564836
 20
170.983845
 11
621.943002
 21
156.362012
  0
LINE
  8
OSA
 10
553.648339
 20
88.067349
 11
541.701231
 21
76.120241
  0
INSERT
  8
OBRYS
  2
Vnitrni_metricky_zavit_M8__7
 62
     7
 10
547.964908
 20
82.383918
  0
INSERT
  8
OBRYS
  2
Vnitrni_metricky_zavit_M8__8
 62
     7
 10
629.282188
 20
82.383918
  0
CIRCLE
  8
OBRYS
 10
629.282188
 20
163.701198
 40
4.500000
  0
CIRCLE
  8
OBRYS
 10
547.964908
 20
163.701198
 40
4.500000
  0
CIRCLE
  8
OSA
 10
588.623548
 20
123.042558
 40
57.500000
  0
CIRCLE
  8
OBRYS
 10
640.585072
 20
31.042558
 40
5.000000
  0
CIRCLE
  8
OBRYS
 10
588.623548
 20
1.042558
 40
5.000000
  0
CIRCLE
  8
OBRYS
 10
536.662024
 20
31.042558
 40
5.000000
  0
LINE
  8
OBRYS
 10
611.351623
 20
106.724025
 11
611.086355
 21
106.326629
  0
LINE
  8
OBRYS
 10
625.116081
 20
96.748643
 11
624.486856
 21
95.861256
  0
LINE
  8
OBRYS
 10
551.954272
 20
96.958765
 11
551.493579
 21
97.532331
  0
ARC
  8
OBRYS
 10
558.839856
 20
101.808102
 40
8.500000
 50
34.445674
 51
114.117511
  0
ARC
  8
OBRYS
 10
558.839856
 20
101.808102
 40
8.500000
 50
180.000000
 51
210.200786
  0
ARC
  8
OBRYS
 10
588.623548
 20
123.042558
 40
45.000000
 50
215.425214
 51
322.841004
  0
ARC
  8
OBRYS
 10
588.623548
 20
123.042558
 40
28.000000
 50
215.315423
 51
323.187187
  0
ARC
  8
OBRYS
 10
618.285863
 20
101.808102
 40
8.500000
 50
58.024118
 51
144.665849
  0
ARC
  8
OBRYS
 10
618.285863
 20
101.808102
 40
8.500000
 50
323.470940
 51
58.024118
  0
ARC
  8
OBRYS
 10
558.839856
 20
101.808102
 40
8.500000
 50
114.117511
 51
180.000000
  0
ARC
  8
OBRYS
 10
588.623548
 20
61.042558
 40
60.000000
 50
160.005162
 51
201.101147
  0
ARC
  8
OBRYS
 10
588.623548
 20
61.042558
 40
60.000000
 50
0.000000
 51
19.994838
  0
CIRCLE
  8
OBRYS
 10
640.585072
 20
91.042558
 40
5.000000
  0
CIRCLE
  8
OBRYS
 10
536.662024
 20
91.042558
 40
5.000000
  0
CIRCLE
  8
OBRYS
 10
588.623548
 20
123.042558
 40
47.500000
  0
CIRCLE
  8
OBRYS
 10
588.623546
 20
151.042558
 40
5.000000
  0
CIRCLE
  8
OBRYS
 10
588.623548
 20
123.042558
 40
70.000000
  0
ARC
  8
OBRYS
 10
640.585072
 20
31.042558
 40
7.000000
 50
302.047113
 51
360.000000
  0
LINE
  8
OSA
 10
588.623546
 20
151.042558
 11
588.623546
 21
158.692558
  0
LINE
  8
OSA
 10
588.623546
 20
151.042558
 11
588.623546
 21
143.392558
  0
LINE
  8
OSA
 10
588.623546
 20
151.042558
 11
580.973546
 21
151.042558
  0
LINE
  8
OSA
 10
588.623546
 20
151.042558
 11
596.273546
 21
151.042558
  0
LINE
  8
OSA
 10
588.623548
 20
1.042558
 11
588.623548
 21
8.692558
  0
LINE
  8
OSA
 10
588.623548
 20
1.042558
 11
588.623548
 21
-6.607442
  0
LINE
  8
OSA
 10
588.623548
 20
1.042558
 11
580.973548
 21
1.042558
  0
LINE
  8
OSA
 10
588.623548
 20
1.042558
 11
596.273548
 21
1.042558
  0
LINE
  8
OSA
 10
536.662024
 20
31.042558
 11
536.662024
 21
38.692558
  0
LINE
  8
OSA
 10
536.662024
 20
31.042558
 11
536.662024
 21
23.392558
  0
LINE
  8
OSA
 10
536.662024
 20
31.042558
 11
529.012024
 21
31.042558
  0
LINE
  8
OSA
 10
536.662024
 20
31.042558
 11
544.312024
 21
31.042558
  0
LINE
  8
OSA
 10
536.662024
 20
91.042558
 11
536.662024
 21
98.692558
  0
LINE
  8
OSA
 10
536.662024
 20
91.042558
 11
536.662024
 21
83.392558
  0
LINE
  8
OSA
 10
536.662024
 20
91.042558
 11
529.012024
 21
91.042558
  0
LINE
  8
OSA
 10
536.662024
 20
91.042558
 11
544.312024
 21
91.042558
  0
LINE
  8
OSA
 10
640.585072
 20
91.042558
 11
640.585072
 21
98.692558
  0
LINE
  8
OSA
 10
640.585072
 20
91.042558
 11
640.585072
 21
83.392558
  0
LINE
  8
OSA
 10
640.585072
 20
91.042558
 11
632.935072
 21
91.042558
  0
LINE
  8
OSA
 10
640.585072
 20
91.042558
 11
648.235072
 21
91.042558
  0
LINE
  8
OSA
 10
640.585072
 20
31.042558
 11
640.585072
 21
38.692558
  0
LINE
  8
OSA
 10
640.585072
 20
31.042558
 11
640.585072
 21
23.392558
  0
LINE
  8
OSA
 10
640.585072
 20
31.042558
 11
632.935072
 21
31.042558
  0
LINE
  8
OSA
 10
640.585072
 20
31.042558
 11
648.235072
 21
31.042558
  0
ARC
  8
OBRYS
 10
588.623548
 20
1.042558
 40
7.000000
 50
192.953880
 51
347.046120
  0
ARC
  8
OBRYS
 10
588.623548
 20
61.042558
 40
60.000000
 50
338.898853
 51
360.000000
  0
ARC
  8
OBRYS
 10
647.399166
 20
38.361582
 40
3.000000
 50
158.898853
 51
227.046120
  0
ARC
  8
OBRYS
 10
529.847929
 20
38.361582
 40
3.000000
 50
312.953880
 51
21.101147
  0
ARC
  8
OBRYS
 10
578.878040
 20
-1.199109
 40
3.000000
 50
12.953880
 51
81.101147
  0
ARC
  8
OBRYS
 10
598.369056
 20
-1.199109
 40
3.000000
 50
98.898853
 51
167.046120
  0
ARC
  8
OBRYS
 10
588.623548
 20
123.042558
 40
21.000000
 50
59.612032
 51
360.000000
  0
ARC
  8
OBRYS
 10
588.623548
 20
123.042558
 40
21.000000
 50
0.000000
 51
59.612032
  0
ARC
  8
OBRYS
 10
588.623548
 20
123.042558
 40
81.000000
 50
222.650065
 51
317.349935
  0
LINE
  8
OSA
 10
550.623548
 20
16.042558
 11
550.623548
 21
24.042558
  0
LINE
  8
OSA
 10
550.623548
 20
16.042558
 11
550.623548
 21
8.042558
  0
LINE
  8
OSA
 10
550.623548
 20
16.042558
 11
542.623548
 21
16.042558
  0
LINE
  8
OSA
 10
550.623548
 20
16.042558
 11
558.623548
 21
16.042558
  0
ARC
  8
OBRYS
 10
550.623548
 20
16.042558
 40
5.000000
 50
228.547337
 51
250.783336
  0
ARC
  8
OBRYS
 10
588.623548
 20
61.042558
 40
60.000000
 50
250.783336
 51
261.101147
  0
LINE
  8
TLUST_
 62
     2
 10
568.875070
 20
4.385717
 11
548.977841
 21
11.321154
  0
LINE
  8
TLUST_
 62
     2
 10
532.028016
 20
25.796037
 11
547.313543
 21
12.295043
  0
CIRCLE
  8
OBRYS
 10
550.623548
 20
16.042558
 40
3.000000
  0
ARC
  8
OBRYS
 10
536.662024
 20
31.042558
 40
7.000000
 50
132.953878
 51
220.000000
  0
LINE
  8
OBRYS
 10
532.028016
 20
25.796037
 11
531.299713
 21
26.543044
  0
CIRCLE
  8
OBRYS
 10
612.623548
 20
137.042558
 40
3.000000
  0
LINE
  8
OSA
 10
612.623548
 20
137.042558
 11
620.623548
 21
137.042558
  0
LINE
  8
OSA
 10
612.623548
 20
137.042558
 11
604.623548
 21
137.042558
  0
LINE
  8
OSA
 10
612.623548
 20
137.042558
 11
612.623548
 21
145.042558
  0
LINE
  8
OBRYS
 10
645.219079
 20
25.796037
 11
645.947383
 21
26.543044
  0
ARC
  8
OBRYS
 10
640.585072
 20
31.042558
 40
7.000000
 50
320.000000
 51
47.046122
  0
LINE
  8
TLUST_
 62
     2
 10
645.219079
 20
25.796037
 11
629.933553
 21
12.295043
  0
LINE
  8
TLUST_
 62
     2
 10
608.372026
 20
4.385717
 11
628.269254
 21
11.321154
  0
ARC
  8
OBRYS
 10
588.623548
 20
61.042558
 40
60.000000
 50
278.898853
 51
289.216664
  0
ARC
  8
OBRYS
 10
626.623548
 20
16.042558
 40
5.000000
 50
289.216664
 51
311.452663
  0
CIRCLE
  8
OBRYS
 10
588.623548
 20
123.042558
 40
12.500000
  0
ARC
  8
OBRYS
 10
588.623548
 20
123.042558
 40
5.500000
 50
290.654018
 51
248.003576
  0
LINE
  8
OBRYS
 10
586.563530
 20
117.942918
 11
586.563530
 21
115.853597
  0
LINE
  8
OBRYS
 10
590.563530
 20
117.896057
 11
590.563530
 21
115.853597
  0
LINE
  8
OBRYS
 10
590.563530
 20
115.853597
 11
586.563530
 21
115.853597
  0
ARC
  8
OBRYS
 10
588.623548
 20
123.042558
 40
6.654700
 50
286.949013
 51
251.967383
  0
ENDBLK
  8
OBRYS
  0
BLOCK
  8
OBRYS
  2
Srouby_s_valcovou_hlavou___1
 70
   66
 10
588.623548
 20
1.042558
  0
LINE
  8
OBRYS
 10
590.623548
 20
2.197265
 11
590.623548
 21
-0.112150
  0
LINE
  8
OBRYS
 10
590.623548
 20
-0.112150
 11
588.623548
 21
-1.266858
  0
LINE
  8
OBRYS
 10
588.623548
 20
-1.266858
 11
586.623548
 21
-0.112150
  0
LINE
  8
OBRYS
 10
586.623548
 20
-0.112150
 11
586.623548
 21
2.197265
  0
LINE
  8
OBRYS
 10
586.623548
 20
2.197265
 11
588.623548
 21
3.351973
  0
LINE
  8
OBRYS
 10
588.623548
 20
3.351973
 11
590.623548
 21
2.197265
  0
CIRCLE
  8
OBRYS
 10
588.623548
 20
1.042558
 40
2.309415
  0
CIRCLE
  8
OBRYS
 10
588.623548
 20
1.042558
 40
4.250000
  0
ENDBLK
  8
OBRYS
  0
BLOCK
  8
OBRYS
  2
Srouby_s_valcovou_hlavou___2
 70
   66
 10
588.623548
 20
151.042558
  0
LINE
  8
OBRYS
 10
590.623548
 20
152.197265
 11
590.623548
 21
149.887850
  0
LINE
  8
OBRYS
 10
590.623548
 20
149.887850
 11
588.623548
 21
148.733142
  0
LINE
  8
OBRYS
 10
588.623548
 20
148.733142
 11
586.623548
 21
149.887850
  0
LINE
  8
OBRYS
 10
586.623548
 20
149.887850
 11
586.623548
 21
152.197265
  0
LINE
  8
OBRYS
 10
586.623548
 20
152.197265
 11
588.623548
 21
153.351973
  0
LINE
  8
OBRYS
 10
588.623548
 20
153.351973
 11
590.623548
 21
152.197265
  0
CIRCLE
  8
OBRYS
 10
588.623548
 20
151.042558
 40
2.309415
  0
CIRCLE
  8
OBRYS
 10
588.623548
 20
151.042558
 40
4.250000
  0
ENDBLK
  8
OBRYS
  0
BLOCK
  8
OBRYS
  2
Srouby_s_valcovou_hlavou___3
 70
   66
 10
536.662024
 20
91.042558
  0
LINE
  8
OBRYS
 10
538.662024
 20
92.197265
 11
538.662024
 21
89.887850
  0
LINE
  8
OBRYS
 10
538.662024
 20
89.887850
 11
536.662024
 21
88.733142
  0
LINE
  8
OBRYS
 10
536.662024
 20
88.733142
 11
534.662024
 21
89.887850
  0
LINE
  8
OBRYS
 10
534.662024
 20
89.887850
 11
534.662024
 21
92.197265
  0
LINE
  8
OBRYS
 10
534.662024
 20
92.197265
 11
536.662024
 21
93.351973
  0
LINE
  8
OBRYS
 10
536.662024
 20
93.351973
 11
538.662024
 21
92.197265
  0
CIRCLE
  8
OBRYS
 10
536.662024
 20
91.042558
 40
2.309415
  0
CIRCLE
  8
OBRYS
 10
536.662024
 20
91.042558
 40
4.250000
  0
ENDBLK
  8
OBRYS
  0
BLOCK
  8
OBRYS
  2
Srouby_s_valcovou_hlavou___4
 70
   66
 10
640.585072
 20
91.042558
  0
LINE
  8
OBRYS
 10
642.585072
 20
92.197265
 11
642.585072
 21
89.887850
  0
LINE
  8
OBRYS
 10
642.585072
 20
89.887850
 11
640.585072
 21
88.733142
  0
LINE
  8
OBRYS
 10
640.585072
 20
88.733142
 11
638.585072
 21
89.887850
  0
LINE
  8
OBRYS
 10
638.585072
 20
89.887850
 11
638.585072
 21
92.197265
  0
LINE
  8
OBRYS
 10
638.585072
 20
92.197265
 11
640.585072
 21
93.351973
  0
LINE
  8
OBRYS
 10
640.585072
 20
93.351973
 11
642.585072
 21
92.197265
  0
CIRCLE
  8
OBRYS
 10
640.585072
 20
91.042558
 40
2.309415
  0
CIRCLE
  8
OBRYS
 10
640.585072
 20
91.042558
 40
4.250000
  0
ENDBLK
  8
OBRYS
  0
BLOCK
  8
OBRYS
  2
Srouby_s_valcovou_hlavou___5
 70
   66
 10
640.585072
 20
31.042558
  0
LINE
  8
OBRYS
 10
642.585072
 20
32.197265
 11
642.585072
 21
29.887850
  0
LINE
  8
OBRYS
 10
642.585072
 20
29.887850
 11
640.585072
 21
28.733142
  0
LINE
  8
OBRYS
 10
640.585072
 20
28.733142
 11
638.585072
 21
29.887850
  0
LINE
  8
OBRYS
 10
638.585072
 20
29.887850
 11
638.585072
 21
32.197265
  0
LINE
  8
OBRYS
 10
638.585072
 20
32.197265
 11
640.585072
 21
33.351973
  0
LINE
  8
OBRYS
 10
640.585072
 20
33.351973
 11
642.585072
 21
32.197265
  0
CIRCLE
  8
OBRYS
 10
640.585072
 20
31.042558
 40
2.309415
  0
CIRCLE
  8
OBRYS
 10
640.585072
 20
31.042558
 40
4.250000
  0
ENDBLK
  8
OBRYS
  0
BLOCK
  8
OBRYS
  2
Srouby_s_valcovou_hlavou___6
 70
   66
 10
536.662024
 20
31.042558
  0
LINE
  8
OBRYS
 10
538.662024
 20
32.197265
 11
538.662024
 21
29.887850
  0
LINE
  8
OBRYS
 10
538.662024
 20
29.887850
 11
536.662024
 21
28.733142
  0
LINE
  8
OBRYS
 10
536.662024
 20
28.733142
 11
534.662024
 21
29.887850
  0
LINE
  8
OBRYS
 10
534.662024
 20
29.887850
 11
534.662024
 21
32.197265
  0
LINE
  8
OBRYS
 10
534.662024
 20
32.197265
 11
536.662024
 21
33.351973
  0
LINE
  8
OBRYS
 10
536.662024
 20
33.351973
 11
538.662024
 21
32.197265
  0
CIRCLE
  8
OBRYS
 10
536.662024
 20
31.042558
 40
2.309415
  0
CIRCLE
  8
OBRYS
 10
536.662024
 20
31.042558
 40
4.250000
  0
ENDBLK
  8
OBRYS
  0
BLOCK
  8
OBRYS
  2
Vnitrni_metricky_zavit_M8__7
 70
   66
 10
547.964908
 20
82.383918
  0
CIRCLE
  8
OBRYS
 10
547.964908
 20
82.383918
 40
3.323500
  0
ARC
  8
OBRYS
 62
     7
 10
547.964908
 20
82.383918
 40
4.000000
 50
175.000000
 51
95.000000
  0
ENDBLK
  8
OBRYS
  0
BLOCK
  8
OBRYS
  2
Vnitrni_metricky_zavit_M8__8
 70
   66
 10
629.282188
 20
82.383918
  0
CIRCLE
  8
OBRYS
 10
629.282188
 20
82.383918
 40
3.323500
  0
ARC
  8
OBRYS
 62
     7
 10
629.282188
 20
82.383918
 40
4.000000
 50
175.000000
 51
95.000000
  0
ENDBLK
  8
OBRYS
  0
BLOCK
  8
OSA
  2
_1
 70
   64
 10
588.623548
 20
61.042558
  0
LINE
  8
OSA
 10
588.623548
 20
61.042558
 11
588.623548
 21
191.042558
  0
ARC
  8
OSA
 62
     2
  6
CONTINUOUS
 10
555.623548
 20
188.042558
 40
3.000000
 50
0.000000
 51
90.000000
  0
LINE
  8
OSA
 62
     2
  6
CONTINUOUS
 10
550.623548
 20
191.042558
 11
555.623548
 21
191.042558
  0
ARC
  8
OSA
 62
     2
  6
CONTINUOUS
 10
621.623548
 20
188.042558
 40
3.000000
 50
90.000000
 51
180.000000
  0
LINE
  8
OSA
 62
     2
  6
CONTINUOUS
 10
621.623548
 20
191.042558
 11
627.505813
 21
191.042558
  0
LINE
  8
OSA
 62
     2
  6
CONTINUOUS
 10
618.623548
 20
186.288111
 11
618.623548
 21
188.042558
  0
LINE
  8
OSA
 62
     2
  6
CONTINUOUS
 10
558.623548
 20
186.288111
 11
558.623548
 21
188.042558
  0
LINE
  8
OSA
 62
     2
  6
CONTINUOUS
 10
550.623548
 20
181.830311
 11
550.623548
 21
191.042558
  0
ENDBLK
  8
OSA
  0
BLOCK
  8
OSA
  2
_2
 70
   64
 10
550.623548
 20
121.042558
  0
LINE
  8
OSA
 62
     2
  6
CONTINUOUS
 10
542.623548
 20
185.042558
 11
543.037761
 21
185.456771
  0
LINE
  8
OSA
 62
     2
  6
CONTINUOUS
 10
550.623548
 20
190.959552
 11
545.553749
 21
190.782511
  0
ARC
  8
OSA
 62
     2
  6
CONTINUOUS
 10
541.623548
 20
186.870985
 40
2.000000
 50
315.000000
 51
360.000000
  0
ARC
  8
OSA
 62
     2
  6
CONTINUOUS
 10
545.623548
 20
188.783729
 40
2.000000
 50
92.000000
 51
180.000000
  0
LINE
  8
OSA
 62
     2
  6
CONTINUOUS
 10
543.623548
 20
188.783729
 11
543.623548
 21
176.661584
  0
LINE
  8
OSA
 62
     2
  6
CONTINUOUS
 10
550.623548
 20
190.959552
 11
550.623548
 21
181.830311
  0
ENDBLK
  8
OSA
  0
BLOCK
  8
OBRYS
  2
_3
 70
   64
 10
528.623548
 20
121.042558
  0
LINE
  8
OBRYS
 10
528.623548
 20
61.204682
 11
528.623548
 21
86.987045
  0
LINE
  8
OBRYS
 10
535.623548
 20
180.658847
 11
535.623548
 21
168.770011
  0
LINE
  8
OBRYS
 10
542.623548
 20
191.042558
 11
542.623548
 21
175.806181
  0
LINE
  8
OBRYS
 10
528.623548
 20
183.164096
 11
528.623548
 21
159.098070
  0
LINE
  8
OBRYS
 10
521.002227
 20
32.163878
 11
531.506341
 21
42.667991
  0
LINE
  8
OBRYS
 10
520.123548
 20
30.042558
 11
520.123548
 21
21.042558
  0
ARC
  8
OBRYS
 10
523.123548
 20
30.042558
 40
3.000000
 50
135.000000
 51
180.000000
  0
ARC
  8
OBRYS
 10
523.123548
 20
30.042558
 40
3.000000
 50
90.000000
 51
135.000000
  0
LINE
  8
OBRYS
 62
     7
  6
DASHDOT
 10
523.623548
 20
163.542558
 11
542.623548
 21
163.542558
  0
ARC
  8
OBRYS
 10
537.955086
 20
186.042558
 40
5.000000
 50
90.000000
 51
140.000000
  0
LINE
  8
OBRYS
 10
534.124864
 20
189.256496
 11
529.793326
 21
184.094369
  0
ARC
  8
OBRYS
 10
533.623548
 20
180.880431
 40
5.000000
 50
140.000000
 51
180.000000
  0
LINE
  8
OBRYS
 62
     4
  6
HIDDEN2
 10
527.623548
 20
33.042558
 11
527.623548
 21
21.042558
  0
LINE
  8
OBRYS
 62
     7
  6
DASHDOT
 10
533.123548
 20
40.642558
 11
533.123548
 21
11.642558
  0
LINE
  8
OBRYS
 10
535.717064
 20
191.042558
 11
542.623548
 21
191.042558
  0
ARC
  8
OBRYS
 10
535.717064
 20
188.042558
 40
3.000000
 50
90.000000
 51
140.000000
  0
LINE
  8
OBRYS
 10
533.418930
 20
189.970920
 11
529.325415
 21
185.092458
  0
ARC
  8
OBRYS
 10
531.623548
 20
183.164096
 40
3.000000
 50
140.000000
 51
180.000000
  0
LINE
  8
OBRYS
 10
528.733392
 20
178.938983
 11
528.623548
 21
178.275116
  0
LINE
  8
OBRYS
 10
528.925085
 20
180.029547
 11
528.733392
 21
178.938983
  0
LINE
  8
OBRYS
 10
529.152076
 20
180.423944
 11
528.925085
 21
180.029547
  0
LINE
  8
OBRYS
 10
529.793326
 20
181.488721
 11
529.152076
 21
180.423944
  0
LINE
  8
OBRYS
 10
537.254561
 20
188.458231
 11
542.623548
 21
188.458231
  0
LINE
  8
OBRYS
 10
534.997133
 20
187.434091
 11
529.793326
 21
181.488721
  0
ARC
  8
OBRYS
 10
537.254561
 20
185.458231
 40
3.000000
 50
90.000000
 51
138.805294
  0
LINE
  8
OBRYS
 10
542.623548
 20
182.037932
 11
537.165391
 21
182.037932
  0
LINE
  8
OBRYS
 10
528.623548
 20
173.159613
 11
528.733392
 21
173.591707
  0
LINE
  8
OBRYS
 10
528.733392
 20
173.591707
 11
528.925085
 21
174.456160
  0
LINE
  8
OBRYS
 10
528.925085
 20
174.456160
 11
529.152076
 21
174.768786
  0
LINE
  8
OBRYS
 10
529.152076
 20
174.768786
 11
529.793326
 21
175.732160
  0
LINE
  8
OBRYS
 10
529.793326
 20
175.732160
 11
535.009217
 21
181.123816
  0
ARC
  8
OBRYS
 10
537.165391
 20
179.037932
 40
3.000000
 50
90.000000
 51
135.949293
  0
LINE
  8
OBRYS
 10
535.623548
 20
190.142958
 11
535.623548
 21
188.612058
  0
LINE
  8
OBRYS
 10
520.123548
 20
21.042558
 11
537.409801
 21
21.042558
  0
LINE
  8
OBRYS
 10
523.123548
 20
33.042558
 11
529.953820
 21
33.042558
  0
ENDBLK
  8
OBRYS
  0
BLOCK
  8
OBRYS
  2
_4
 70
   64
 10
648.623548
 20
121.042558
  0
LINE
  8
OBRYS
 10
648.623548
 20
61.204682
 11
648.623548
 21
86.987045
  0
LINE
  8
OBRYS
 10
641.623548
 20
180.658847
 11
641.623548
 21
168.770011
  0
LINE
  8
OBRYS
 10
634.623548
 20
191.042558
 11
634.623548
 21
175.806181
  0
LINE
  8
OBRYS
 10
648.623548
 20
183.164096
 11
648.623548
 21
159.098070
  0
LINE
  8
OBRYS
 10
656.244868
 20
32.163878
 11
645.740755
 21
42.667991
  0
LINE
  8
OBRYS
 10
657.123548
 20
30.042558
 11
657.123548
 21
21.042558
  0
ARC
  8
OBRYS
 10
654.123548
 20
30.042558
 40
3.000000
 50
0.000000
 51
45.000000
  0
ARC
  8
OBRYS
 10
654.123548
 20
30.042558
 40
3.000000
 50
45.000000
 51
90.000000
  0
LINE
  8
OBRYS
 62
     7
  6
DASHDOT
 10
653.623548
 20
163.542558
 11
634.623548
 21
163.542558
  0
ARC
  8
OBRYS
 10
639.292010
 20
186.042558
 40
5.000000
 50
40.000000
 51
90.000000
  0
LINE
  8
OBRYS
 10
643.122232
 20
189.256496
 11
647.453770
 21
184.094369
  0
ARC
  8
OBRYS
 10
643.623548
 20
180.880431
 40
5.000000
 50
0.000000
 51
40.000000
  0
LINE
  8
OBRYS
 62
     4
  6
HIDDEN2
 10
649.623548
 20
33.042558
 11
649.623548
 21
21.042558
  0
LINE
  8
OBRYS
 62
     7
  6
DASHDOT
 10
644.123548
 20
40.642558
 11
644.123548
 21
11.642558
  0
LINE
  8
OBRYS
 10
641.530032
 20
191.042558
 11
634.623548
 21
191.042558
  0
ARC
  8
OBRYS
 10
641.530032
 20
188.042558
 40
3.000000
 50
40.000000
 51
90.000000
  0
LINE
  8
OBRYS
 10
643.828165
 20
189.970920
 11
647.921681
 21
185.092458
  0
ARC
  8
OBRYS
 10
645.623548
 20
183.164096
 40
3.000000
 50
0.000000
 51
40.000000
  0
LINE
  8
OBRYS
 10
648.513704
 20
178.938983
 11
648.623548
 21
178.275116
  0
LINE
  8
OBRYS
 10
648.322011
 20
180.029547
 11
648.513704
 21
178.938983
  0
LINE
  8
OBRYS
 10
648.095019
 20
180.423944
 11
648.322011
 21
180.029547
  0
LINE
  8
OBRYS
 10
647.453770
 20
181.488721
 11
648.095019
 21
180.423944
  0
LINE
  8
OBRYS
 10
639.992535
 20
188.458231
 11
634.623548
 21
188.458231
  0
LINE
  8
OBRYS
 10
642.249962
 20
187.434091
 11
647.453770
 21
181.488721
  0
ARC
  8
OBRYS
 10
639.992535
 20
185.458231
 40
3.000000
 50
41.194706
 51
90.000000
  0
LINE
  8
OBRYS
 10
634.623548
 20
182.037932
 11
640.081704
 21
182.037932
  0
LINE
  8
OBRYS
 10
648.623548
 20
173.159613
 11
648.513704
 21
173.591707
  0
LINE
  8
OBRYS
 10
648.513704
 20
173.591707
 11
648.322011
 21
174.456160
  0
LINE
  8
OBRYS
 10
648.322011
 20
174.456160
 11
648.095019
 21
174.768786
  0
LINE
  8
OBRYS
 10
648.095019
 20
174.768786
 11
647.453770
 21
175.732160
  0
LINE
  8
OBRYS
 10
647.453770
 20
175.732160
 11
642.237879
 21
181.123816
  0
ARC
  8
OBRYS
 10
640.081704
 20
179.037932
 40
3.000000
 50
44.050707
 51
90.000000
  0
LINE
  8
OBRYS
 10
641.623548
 20
190.142958
 11
641.623548
 21
188.612058
  0
LINE
  8
OBRYS
 10
657.123548
 20
21.042558
 11
639.837295
 21
21.042558
  0
LINE
  8
OBRYS
 10
654.123548
 20
33.042558
 11
647.293276
 21
33.042558
  0
ENDBLK
  8
OBRYS
  0
BLOCK
  8
OBRYS
  2
Vnitrni_metricky_zavit_M8_5
 70
   66
 10
542.661607
 20
316.807536
  0
CIRCLE
  8
OBRYS
 10
542.661607
 20
316.807536
 40
3.323500
  0
ARC
  8
OBRYS
 62
     7
 10
542.661607
 20
316.807536
 40
4.000000
 50
355.000000
 51
275.000000
  0
ENDBLK
  8
OBRYS
  0
BLOCK
  8
OBRYS
  2
Vnitrni_metricky_zavit_M8_6
 70
   66
 10
634.585489
 20
316.807536
  0
CIRCLE
  8
OBRYS
 10
634.585489
 20
316.807536
 40
3.323500
  0
ARC
  8
OBRYS
 62
     7
 10
634.585489
 20
316.807536
 40
4.000000
 50
355.000000
 51
275.000000
  0
ENDBLK
  8
OBRYS
  0
BLOCK
  8
OBRYS
  2
Vnitrni_metricky_zavit_M8_7
 70
   66
 10
634.585489
 20
408.731417
  0
CIRCLE
  8
OBRYS
 10
634.585489
 20
408.731417
 40
3.323500
  0
ARC
  8
OBRYS
 62
     7
 10
634.585489
 20
408.731417
 40
4.000000
 50
355.000000
 51
275.000000
  0
ENDBLK
  8
OBRYS
  0
BLOCK
  8
OBRYS
  2
Vnitrni_metricky_zavit_M8_8
 70
   66
 10
542.661607
 20
408.731417
  0
CIRCLE
  8
OBRYS
 10
542.661607
 20
408.731417
 40
3.323500
  0
ARC
  8
OBRYS
 62
     7
 10
542.661607
 20
408.731417
 40
4.000000
 50
355.000000
 51
275.000000
  0
ENDBLK
  8
OBRYS
  0
BLOCK
  8
OBRYS
  2
_9
 70
   64
 10
866.912937
 20
61.042558
  0
ARC
  8
OBRYS
 10
910.067664
 20
161.042558
 40
3.000000
 50
270.000000
 51
360.000000
  0
LINE
  8
OBRYS
 10
899.912937
 20
158.042558
 11
910.067664
 21
158.042558
  0
ARC
  8
OBRYS
 10
916.067664
 20
190.042558
 40
3.000000
 50
90.000000
 51
180.000000
  0
LINE
  8
OBRYS
 10
916.067664
 20
193.042558
 11
922.067664
 21
193.042558
  0
LINE
  8
OBRYS
 10
916.433094
 20
53.042558
 11
922.067664
 21
53.042558
  0
LINE
  8
OBRYS
 10
922.067664
 20
53.042558
 11
922.067664
 21
193.042558
  0
ARC
  8
OBRYS
 10
916.433094
 20
50.042558
 40
3.000000
 50
90.000000
 51
151.296591
  0
LINE
  8
OBRYS
 10
909.281584
 20
43.228314
 11
913.801741
 21
51.483385
  0
ARC
  8
OBRYS
 10
911.912937
 20
41.787487
 40
3.000000
 50
151.296591
 51
180.000000
  0
LINE
  8
OBRYS
 10
908.912937
 20
41.787487
 11
908.912937
 21
-2.957442
  0
ARC
  8
OBRYS
 10
905.912937
 20
-2.957442
 40
3.000000
 50
270.000000
 51
360.000000
  0
LINE
  8
OBRYS
 10
905.912937
 20
-5.957442
 11
899.912937
 21
-5.957442
  0
LINE
  8
OBRYS
 62
     7
  6
DASHDOT
 10
902.912937
 20
123.042558
 11
924.067664
 21
123.042558
  0
ARC
  8
OBRYS
 10
868.912937
 20
16.838296
 40
3.000000
 50
0.000000
 51
59.595105
  0
LINE
  8
OBRYS
 10
866.912937
 20
21.490299
 11
870.431259
 21
19.425707
  0
LINE
  8
OBRYS
 62
     7
 10
878.805497
 20
157.965535
 11
878.823993
 21
157.984032
  0
LINE
  8
OBRYS
 62
     7
 10
878.823993
 20
157.984032
 11
878.805497
 21
157.965535
  0
LINE
  8
OBRYS
 10
899.912937
 20
158.042558
 11
879.912937
 21
158.042558
  0
ARC
  8
OBRYS
 10
879.912937
 20
150.042558
 40
8.000000
 50
90.000000
 51
180.000000
  0
ARC
  8
OBRYS
 10
868.912937
 20
142.514694
 40
3.000000
 50
311.810315
 51
360.000000
  0
ARC
  8
OBRYS
 10
872.912937
 20
138.042558
 40
3.000000
 50
131.810315
 51
180.000000
  0
ARC
  8
OBRYS
 10
874.912937
 20
6.172957
 40
3.000000
 50
180.000000
 51
219.745666
  0
LINE
  8
OBRYS
 10
872.606266
 20
4.254815
 11
880.198771
 21
-4.875585
  0
LINE
  8
OBRYS
 62
     7
  6
DASHDOT
 10
898.959417
 20
123.042558
 11
899.912937
 21
123.042558
  0
LINE
  8
OBRYS
 62
     7
  6
DASHDOT
 10
874.912937
 20
123.042558
 11
892.060908
 21
123.042558
  0
LINE
  8
OBRYS
 62
     7
  6
DASHDOT
 10
861.912937
 20
61.042558
 11
899.912937
 21
61.042558
  0
LINE
  8
OBRYS
 10
899.912937
 20
-5.957442
 11
882.505442
 21
-5.957442
  0
ARC
  8
OBRYS
 10
882.505442
 20
-2.957442
 40
3.000000
 50
219.745666
 51
270.000000
  0
LINE
  8
OBRYS
 10
866.912937
 20
61.042558
 11
866.912937
 21
100.528873
  0
LINE
  8
OBRYS
 10
866.912937
 20
21.490299
 11
866.912937
 21
61.042558
  0
LINE
  8
OBRYS
 10
871.912937
 20
6.172957
 11
871.912937
 21
61.042558
  0
LINE
  8
OBRYS
 10
871.912937
 20
150.042558
 11
871.912937
 21
61.042558
  0
LINE
  8
OBRYS
 10
866.912937
 20
100.594816
 11
869.912937
 21
103.594816
  0
LINE
  8
OBRYS
 10
869.912937
 20
138.042558
 11
869.912937
 21
103.594816
  0
LINE
  8
OBRYS
 10
908.912937
 20
11.644566
 11
882.505442
 21
11.644566
  0
LINE
  8
OBRYS
 10
908.912937
 20
1.764780
 11
882.505442
 21
1.764780
  0
LINE
  8
OBRYS
 10
895.912937
 20
41.374647
 11
874.389965
 21
41.374647
  0
LINE
  8
OBRYS
 10
908.912937
 20
36.165872
 11
896.912937
 21
36.165872
  0
LINE
  8
OBRYS
 10
913.067664
 20
53.042558
 11
913.067664
 21
190.042558
  0
LINE
  8
OBRYS
 10
895.912937
 20
37.165872
 11
895.912937
 21
80.710468
  0
LINE
  8
OBRYS
 10
913.067664
 20
80.710468
 11
874.389965
 21
80.710468
  0
LINE
  8
OBRYS
 10
899.912937
 20
-5.957442
 11
899.912937
 21
158.042558
  0
LINE
  8
OBRYS
 10
913.067664
 20
98.023867
 11
874.389965
 21
98.023867
  0
LINE
  8
OBRYS
 10
894.912937
 20
154.924789
 11
875.809743
 21
154.924789
  0
LINE
  8
OBRYS
 10
895.912937
 20
99.023867
 11
895.912937
 21
153.924789
  0
ENDBLK
  8
OBRYS
  0
BLOCK
  8
TLUST_
  2
_10
 70
   64
 10
310.334159
 20
-126.502493
  0
LINE
  8
OBRYS
 10
255.179432
 20
-196.502493
 11
255.179432
 21
-56.502493
  0
LINE
  8
OBRYS
 10
262.179432
 20
-56.502493
 11
255.179432
 21
-56.502493
  0
ARC
  8
OBRYS
 10
262.179432
 20
-58.502493
 40
2.000000
 50
0.000000
 51
90.000000
  0
LINE
  8
OBRYS
 10
262.179432
 20
-196.502493
 11
255.179432
 21
-196.502493
  0
LINE
  8
OBRYS
 10
264.179432
 20
-194.502493
 11
264.179432
 21
-58.502493
  0
ARC
  8
OBRYS
 10
262.179432
 20
-194.502493
 40
2.000000
 50
270.000000
 51
360.000000
  0
ARC
  8
OBRYS
 10
282.334159
 20
-157.814765
 40
1.000000
 50
90.000000
 51
180.000000
  0
LINE
  8
OBRYS
 10
281.334159
 20
-125.502493
 11
281.334159
 21
-76.615754
  0
ARC
  8
OBRYS
 10
282.334159
 20
-125.502493
 40
1.000000
 50
180.000000
 51
270.000000
  0
LINE
  8
OBRYS
 10
282.334159
 20
-156.814765
 11
301.334159
 21
-156.814765
  0
LINE
  8
OBRYS
 10
282.334159
 20
-126.502493
 11
301.334159
 21
-126.502493
  0
LINE
  8
OBRYS
 10
264.179432
 20
-75.615754
 11
280.334159
 21
-75.615754
  0
ARC
  8
OBRYS
 10
266.179432
 20
-65.540969
 40
2.000000
 50
180.000000
 51
270.000000
  0
LINE
  8
OBRYS
 10
266.179432
 20
-67.540969
 11
301.334159
 21
-67.540969
  0
ARC
  8
OBRYS
 10
301.334159
 20
-71.540969
 40
4.000000
 50
0.000000
 51
90.000000
  0
ARC
  8
OBRYS
 10
294.185569
 20
-71.540969
 40
4.000000
 50
37.718185
 51
90.000000
  0
LINE
  8
OBRYS
 10
297.349687
 20
-69.093856
 11
304.498277
 21
-78.336986
  0
ARC
  8
OBRYS
 10
301.334159
 20
-80.784098
 40
4.000000
 50
0.000000
 51
37.718185
  0
LINE
  8
OBRYS
 10
282.334159
 20
-79.417782
 11
304.416058
 21
-79.417782
  0
LINE
  8
OBRYS
 10
305.334159
 20
-126.502493
 11
305.334159
 21
-71.540969
  0
LINE
  8
OBRYS
 10
277.334159
 20
-126.502493
 11
277.334159
 21
-67.540969
  0
ARC
  8
OBRYS
 10
307.334159
 20
-89.502493
 40
2.000000
 50
180.000000
 51
270.000000
  0
LINE
  8
OBRYS
 10
307.334159
 20
-91.502493
 11
310.334159
 21
-91.502493
  0
LINE
  8
OBRYS
 10
277.334159
 20
-126.502493
 11
277.334159
 21
-185.464017
  0
LINE
  8
OBRYS
 10
282.334159
 20
-173.587204
 11
304.416058
 21
-173.587204
  0
ARC
  8
OBRYS
 10
301.334159
 20
-172.220887
 40
4.000000
 50
322.281815
 51
360.000000
  0
LINE
  8
OBRYS
 10
297.349687
 20
-183.911130
 11
304.498277
 21
-174.668000
  0
ARC
  8
OBRYS
 10
294.185569
 20
-181.464017
 40
4.000000
 50
270.000000
 51
322.281815
  0
ARC
  8
OBRYS
 10
301.334159
 20
-181.464017
 40
4.000000
 50
270.000000
 51
360.000000
  0
LINE
  8
OBRYS
 10
266.179432
 20
-185.464017
 11
301.334159
 21
-185.464017
  0
ARC
  8
OBRYS
 10
266.179432
 20
-187.464017
 40
2.000000
 50
90.000000
 51
180.000000
  0
LINE
  8
OBRYS
 10
305.334159
 20
-126.502493
 11
305.334159
 21
-181.464017
  0
LINE
  8
OBRYS
 10
281.334159
 20
-176.389231
 11
281.334159
 21
-157.814765
  0
LINE
  8
OBRYS
 10
264.179432
 20
-177.389231
 11
280.334159
 21
-177.389231
  0
LINE
  8
OSA
 10
287.334159
 20
-144.002493
 11
297.334159
 21
-144.002493
  0
LINE
  8
OSA
 10
287.334159
 20
-144.002493
 11
277.334159
 21
-144.002493
  0
LINE
  8
OSA
 10
287.334159
 20
-144.002493
 11
287.334159
 21
-134.002493
  0
LINE
  8
OSA
 10
287.334159
 20
-144.002493
 11
287.334159
 21
-154.002493
  0
LINE
  8
SRAFY
 62
     2
 10
310.334159
 20
-91.502493
 11
310.334159
 21
-161.502493
  0
ARC
  8
OBRYS
 10
307.334159
 20
-163.502493
 40
2.000000
 50
90.000000
 51
180.000000
  0
LINE
  8
OBRYS
 10
307.334159
 20
-161.502493
 11
310.334159
 21
-161.502493
  0
LINE
  8
OSA
 10
245.179432
 20
-126.502493
 11
301.921784
 21
-126.502493
  0
ENDBLK
  8
TLUST_
  0
BLOCK
  8
OBRYS
  2
_11
 70
   64
 10
310.334159
 20
61.042558
  0
ARC
  8
OBRYS
 10
267.179432
 20
161.042558
 40
3.000000
 50
180.000000
 51
270.000000
  0
LINE
  8
OBRYS
 10
277.334159
 20
158.042558
 11
267.179432
 21
158.042558
  0
ARC
  8
OBRYS
 10
261.179432
 20
190.042558
 40
3.000000
 50
0.000000
 51
90.000000
  0
LINE
  8
OBRYS
 10
261.179432
 20
193.042558
 11
255.179432
 21
193.042558
  0
LINE
  8
OBRYS
 10
260.814002
 20
53.042558
 11
255.179432
 21
53.042558
  0
LINE
  8
OBRYS
 10
255.179432
 20
53.042558
 11
255.179432
 21
193.042558
  0
ARC
  8
OBRYS
 10
260.814002
 20
50.042558
 40
3.000000
 50
28.703409
 51
90.000000
  0
LINE
  8
OBRYS
 10
267.965512
 20
43.228314
 11
263.445354
 21
51.483385
  0
ARC
  8
OBRYS
 10
265.334159
 20
41.787487
 40
3.000000
 50
0.000000
 51
28.703409
  0
LINE
  8
OBRYS
 10
268.334159
 20
41.787487
 11
268.334159
 21
-2.957442
  0
ARC
  8
OBRYS
 10
271.334159
 20
-2.957442
 40
3.000000
 50
180.000000
 51
270.000000
  0
LINE
  8
OBRYS
 10
271.334159
 20
-5.957442
 11
277.334159
 21
-5.957442
  0
LINE
  8
OBRYS
 62
     7
  6
DASHDOT
 10
274.334159
 20
123.042558
 11
253.179432
 21
123.042558
  0
ARC
  8
OBRYS
 10
308.334159
 20
16.838296
 40
3.000000
 50
120.404895
 51
180.000000
  0
LINE
  8
OBRYS
 10
310.334159
 20
21.490299
 11
306.815837
 21
19.425707
  0
LINE
  8
OBRYS
 62
     7
 10
298.441599
 20
157.965535
 11
298.423103
 21
157.984032
  0
LINE
  8
OBRYS
 62
     7
 10
298.423103
 20
157.984032
 11
298.441599
 21
157.965535
  0
LINE
  8
OBRYS
 10
277.334159
 20
158.042558
 11
297.334159
 21
158.042558
  0
ARC
  8
OBRYS
 10
297.334159
 20
150.042558
 40
8.000000
 50
0.000000
 51
90.000000
  0
ARC
  8
OBRYS
 10
308.334159
 20
142.514694
 40
3.000000
 50
180.000000
 51
228.189685
  0
ARC
  8
OBRYS
 10
304.334159
 20
138.042558
 40
3.000000
 50
0.000000
 51
48.189685
  0
ARC
  8
OBRYS
 10
302.334159
 20
6.172957
 40
3.000000
 50
320.254334
 51
360.000000
  0
LINE
  8
OBRYS
 10
304.640830
 20
4.254815
 11
297.048324
 21
-4.875585
  0
LINE
  8
OBRYS
 62
     7
  6
DASHDOT
 10
278.287679
 20
123.042558
 11
277.334159
 21
123.042558
  0
LINE
  8
OBRYS
 62
     7
  6
DASHDOT
 10
302.334159
 20
123.042558
 11
285.186187
 21
123.042558
  0
LINE
  8
OBRYS
 62
     7
  6
DASHDOT
 10
315.334159
 20
61.042558
 11
277.334159
 21
61.042558
  0
LINE
  8
OBRYS
 10
277.334159
 20
-5.957442
 11
294.741654
 21
-5.957442
  0
ARC
  8
OBRYS
 10
294.741654
 20
-2.957442
 40
3.000000
 50
270.000000
 51
320.254334
  0
LINE
  8
OBRYS
 10
310.334159
 20
61.042558
 11
310.334159
 21
100.528873
  0
LINE
  8
OBRYS
 10
310.334159
 20
21.490299
 11
310.334159
 21
61.042558
  0
LINE
  8
OBRYS
 10
305.334159
 20
6.172957
 11
305.334159
 21
61.042558
  0
LINE
  8
OBRYS
 10
305.334159
 20
150.042558
 11
305.334159
 21
61.042558
  0
LINE
  8
OBRYS
 10
310.334159
 20
100.594816
 11
307.334159
 21
103.594816
  0
LINE
  8
OBRYS
 10
307.334159
 20
138.042558
 11
307.334159
 21
103.594816
  0
LINE
  8
OBRYS
 10
268.334159
 20
11.644566
 11
294.741654
 21
11.644566
  0
LINE
  8
OBRYS
 10
268.334159
 20
1.764780
 11
294.741654
 21
1.764780
  0
LINE
  8
OBRYS
 10
281.334159
 20
41.374647
 11
302.857131
 21
41.374647
  0
LINE
  8
OBRYS
 10
268.334159
 20
36.165872
 11
280.334159
 21
36.165872
  0
LINE
  8
OBRYS
 10
264.179432
 20
53.042558
 11
264.179432
 21
190.042558
  0
LINE
  8
OBRYS
 10
281.334159
 20
37.165872
 11
281.334159
 21
80.710468
  0
LINE
  8
OBRYS
 10
264.179432
 20
80.710468
 11
302.857131
 21
80.710468
  0
LINE
  8
OBRYS
 10
277.334159
 20
-5.957442
 11
277.334159
 21
158.042558
  0
LINE
  8
OBRYS
 10
264.179432
 20
98.023867
 11
302.857131
 21
98.023867
  0
LINE
  8
OBRYS
 10
282.334159
 20
154.924789
 11
301.437353
 21
154.924789
  0
LINE
  8
OBRYS
 10
281.334159
 20
99.023867
 11
281.334159
 21
153.924789
  0
ENDBLK
  8
OBRYS
  0
BLOCK
  8
TLUST_
  2
_12
 70
   64
 10
310.334159
 20
321.331947
  0
LINE
  8
OSA
 10
296.188112
 20
321.331947
 11
250.179432
 21
321.331947
  0
LINE
  8
NEVIDI
  6
HIDDEN2
 10
255.179432
 20
273.831947
 11
259.179432
 21
273.831947
  0
LINE
  8
NEVIDI
  6
HIDDEN2
 10
259.179432
 20
273.831947
 11
259.179432
 21
368.831947
  0
LINE
  8
NEVIDI
  6
HIDDEN2
 10
255.179432
 20
368.831947
 11
259.179432
 21
368.831947
  0
LINE
  8
OSA
 10
250.179432
 20
263.831947
 11
265.610097
 21
263.831947
  0
LINE
  8
OSA
 10
250.179432
 20
378.831947
 11
265.610097
 21
378.831947
  0
LINE
  8
OBRYS
 10
305.334159
 20
321.331947
 11
305.334159
 21
266.370422
  0
ARC
  8
OBRYS
 10
266.179432
 20
260.370422
 40
2.000000
 50
90.000000
 51
180.000000
  0
LINE
  8
OBRYS
 10
266.179432
 20
262.370422
 11
301.334159
 21
262.370422
  0
ARC
  8
OBRYS
 10
301.334159
 20
266.370422
 40
4.000000
 50
270.000000
 51
360.000000
  0
ARC
  8
OBRYS
 10
294.185569
 20
266.370422
 40
4.000000
 50
270.000000
 51
322.281815
  0
LINE
  8
OBRYS
 10
297.349687
 20
263.923310
 11
304.498277
 21
273.166440
  0
ARC
  8
OBRYS
 10
301.334159
 20
275.613552
 40
4.000000
 50
322.281815
 51
360.000000
  0
LINE
  8
OBRYS
 10
277.334159
 20
321.331947
 11
277.334159
 21
262.370422
  0
LINE
  8
OBRYS
 10
277.334159
 20
321.331947
 11
277.334159
 21
380.293471
  0
LINE
  8
OBRYS
 10
305.334159
 20
321.331947
 11
305.334159
 21
376.293471
  0
ARC
  8
OBRYS
 10
301.334159
 20
367.050341
 40
4.000000
 50
0.000000
 51
37.718185
  0
LINE
  8
OBRYS
 10
297.349687
 20
378.740583
 11
304.498277
 21
369.497454
  0
ARC
  8
OBRYS
 10
294.185569
 20
376.293471
 40
4.000000
 50
37.718185
 51
90.000000
  0
ARC
  8
OBRYS
 10
301.334159
 20
376.293471
 40
4.000000
 50
0.000000
 51
90.000000
  0
LINE
  8
OBRYS
 10
266.179432
 20
380.293471
 11
301.334159
 21
380.293471
  0
ARC
  8
OBRYS
 10
266.179432
 20
382.293471
 40
2.000000
 50
180.000000
 51
270.000000
  0
ARC
  8
OBRYS
 10
262.179432
 20
253.331947
 40
2.000000
 50
270.000000
 51
360.000000
  0
LINE
  8
OBRYS
 10
264.179432
 20
253.331947
 11
264.179432
 21
389.331947
  0
LINE
  8
OBRYS
 10
262.179432
 20
251.331947
 11
255.179432
 21
251.331947
  0
ARC
  8
OBRYS
 10
262.179432
 20
389.331947
 40
2.000000
 50
0.000000
 51
90.000000
  0
LINE
  8
OBRYS
 10
262.179432
 20
391.331947
 11
255.179432
 21
391.331947
  0
LINE
  8
OBRYS
 10
255.179432
 20
251.331947
 11
255.179432
 21
391.331947
  0
LINE
  8
OBRYS
 10
268.334159
 20
380.293471
 11
268.334159
 21
262.370422
  0
LINE
  8
OBRYS
 10
268.334159
 20
361.857196
 11
293.947890
 21
361.857196
  0
LINE
  8
OBRYS
 10
295.947890
 20
377.905461
 11
295.947890
 21
363.857196
  0
LINE
  8
OBRYS
 10
295.947890
 20
264.758432
 11
295.947890
 21
278.806697
  0
LINE
  8
OBRYS
 10
268.334159
 20
280.806697
 11
294.331488
 21
280.806697
  0
ARC
  8
OBRYS
 10
307.334159
 20
358.331947
 40
2.000000
 50
180.000000
 51
270.000000
  0
LINE
  8
OBRYS
 10
307.334159
 20
356.331947
 11
310.334159
 21
356.331947
  0
ARC
  8
OBRYS
 10
307.334159
 20
284.331947
 40
2.000000
 50
90.000000
 51
180.000000
  0
LINE
  8
OBRYS
 10
307.334159
 20
286.331947
 11
310.334159
 21
286.331947
  0
LINE
  8
SRAFY
 62
     2
 10
310.334159
 20
356.331947
 11
310.334159
 21
286.331947
  0
LINE
  8
OBRYS
 10
268.334159
 20
329.032513
 11
298.082923
 21
329.032513
  0
ARC
  8
OBRYS
 10
110.932274
 20
321.331947
 40
189.401885
 50
2.782366
 51
11.863194
  0
ARC
  8
OBRYS
 10
302.129733
 20
321.331947
 40
7.944164
 50
113.822528
 51
246.177472
  0
LINE
  8
OBRYS
 10
268.334159
 20
313.631380
 11
298.082923
 21
313.631380
  0
ARC
  8
OBRYS
 10
110.932274
 20
321.331947
 40
189.401885
 50
348.136806
 51
357.032847
  0
ARC
  8
OBRYS
 10
298.113235
 20
312.235016
 40
2.000000
 50
357.217634
 51
66.177472
  0
ARC
  8
OBRYS
 10
298.113235
 20
330.428877
 40
2.000000
 50
293.822528
 51
2.782366
  0
ENDBLK
  8
TLUST_
  0
BLOCK
  8
OSA
  2
_13
 70
   64
 10
150.017797
 20
121.042558
  0
ARC
  8
OSA
 62
     2
  6
CONTINUOUS
 10
159.017797
 20
186.870985
 40
2.000000
 50
180.000000
 51
225.000000
  0
ARC
  8
OSA
 62
     2
  6
CONTINUOUS
 10
159.017797
 20
169.749879
 40
2.000000
 50
180.000000
 51
241.454628
  0
ARC
  8
OSA
 62
     2
  6
CONTINUOUS
 10
159.017797
 20
166.286109
 40
2.000000
 50
180.000000
 51
228.111296
  0
ARC
  8
OSA
 62
     2
  6
CONTINUOUS
 10
155.017797
 20
188.783729
 40
2.000000
 50
0.000000
 51
88.000000
  0
ARC
  8
OSA
 62
     2
  6
CONTINUOUS
 10
159.017797
 20
186.870985
 40
2.000000
 50
180.000000
 51
225.000000
  0
LINE
  8
OSA
 62
     2
  6
CONTINUOUS
 10
150.900063
 20
191.042558
 11
155.087596
 21
190.782511
  0
LINE
  8
OSA
 62
     2
  6
CONTINUOUS
 10
157.017797
 20
188.783729
 11
157.017797
 21
121.042558
  0
LINE
  8
OSA
 62
     2
  6
CONTINUOUS
 10
150.017797
 20
121.042558
 11
150.017797
 21
191.042558
  0
LINE
  8
OSA
 10
145.017797
 20
121.042558
 11
177.017797
 21
121.042558
  0
LINE
  8
OSA
 62
     2
  6
CONTINUOUS
 10
150.017797
 20
51.125563
 11
150.017797
 21
121.042558
  0
LINE
  8
OSA
 62
     2
  6
CONTINUOUS
 10
157.017797
 20
118.802618
 11
158.017797
 21
118.562433
  0
LINE
  8
OSA
 62
     2
  6
CONTINUOUS
 10
157.017797
 20
123.282497
 11
158.017797
 21
123.522682
  0
LINE
  8
OSA
 62
     2
  6
CONTINUOUS
 10
158.017797
 20
164.496430
 11
157.682426
 21
164.797223
  0
LINE
  8
OSA
 62
     2
  6
CONTINUOUS
 10
158.017797
 20
185.042558
 11
157.603584
 21
185.456771
  0
LINE
  8
OSA
 62
     2
  6
CONTINUOUS
 10
157.017797
 20
92.167906
 11
157.017797
 21
121.042558
  0
ENDBLK
  8
OSA
  0
BLOCK
  8
OBRYS
  2
_14
 70
   64
 10
172.017797
 20
121.042558
  0
ARC
  8
OSA
 62
     2
  6
CONTINUOUS
 10
153.517797
 20
88.403974
 40
3.000000
 50
90.000000
 51
180.000000
  0
LINE
  8
OSA
 62
     2
  6
CONTINUOUS
 10
150.517797
 20
88.403974
 11
150.517797
 21
21.042558
  0
LINE
  8
OBRYS
 10
179.639118
 20
32.163878
 11
165.019185
 21
46.783811
  0
LINE
  8
OSA
 62
     2
  6
CONTINUOUS
 10
180.517797
 20
30.042558
 11
180.517797
 21
21.042558
  0
LINE
  8
OSA
 62
     2
  6
CONTINUOUS
 10
180.517797
 20
21.042558
 11
150.517797
 21
21.042558
  0
ARC
  8
OBRYS
 10
177.517797
 20
30.042558
 40
3.000000
 50
0.000000
 51
45.000000
  0
ARC
  8
OSA
 62
     2
  6
CONTINUOUS
 10
177.517797
 20
30.042558
 40
3.000000
 50
45.000000
 51
90.000000
  0
LINE
  8
OSA
 10
177.017797
 20
163.542558
 11
158.017797
 21
163.542558
  0
LINE
  8
OSA
 10
177.017797
 20
78.542558
 11
158.017797
 21
78.542558
  0
ARC
  8
OBRYS
 10
162.686259
 20
186.042558
 40
5.000000
 50
40.000000
 51
90.000000
  0
LINE
  8
OBRYS
 10
166.516481
 20
189.256496
 11
170.848020
 21
184.094369
  0
ARC
  8
OBRYS
 10
167.017797
 20
180.880431
 40
5.000000
 50
0.000000
 51
40.000000
  0
LINE
  8
OSA
 10
177.017797
 20
121.042558
 11
153.017797
 21
121.042558
  0
LINE
  8
NEVIDI
  6
HIDDEN2
 10
173.017797
 20
33.042558
 11
173.017797
 21
21.042558
  0
LINE
  8
OSA
 10
167.517797
 20
40.642558
 11
167.517797
 21
11.642558
  0
LINE
  8
NEVIDI
  6
HIDDEN2
 10
162.017797
 20
33.042558
 11
162.017797
 21
21.042558
  0
ARC
  8
OBRYS
 10
167.017797
 20
61.204684
 40
5.000000
 50
320.000000
 51
360.000000
  0
LINE
  8
OBRYS
 10
164.924282
 20
191.042558
 11
158.017797
 21
191.042558
  0
ARC
  8
OBRYS
 10
164.924282
 20
188.042558
 40
3.000000
 50
40.000000
 51
90.000000
  0
LINE
  8
OBRYS
 10
167.222415
 20
189.970920
 11
171.315931
 21
185.092458
  0
ARC
  8
OBRYS
 10
169.017797
 20
183.164096
 40
3.000000
 50
0.000000
 51
40.000000
  0
LINE
  8
OBRYS
 10
158.017797
 20
191.042558
 11
158.017797
 21
121.042558
  0
ARC
  8
OBRYS
 10
167.140505
 20
48.905131
 40
3.000000
 50
140.000000
 51
225.000000
  0
LINE
  8
OBRYS
 10
172.017797
 20
61.204682
 11
172.017797
 21
121.042558
  0
LINE
  8
OBRYS
 10
160.178329
 20
92.047608
 11
163.867072
 21
107.118692
  0
LINE
  8
OBRYS
 10
163.867072
 20
107.118692
 11
165.017797
 21
121.042558
  0
LINE
  8
OBRYS
 10
158.017797
 20
94.403974
 11
158.017797
 21
121.042558
  0
ARC
  8
OBRYS
 10
155.017797
 20
94.403974
 40
3.000000
 50
270.000000
 51
360.000000
  0
LINE
  8
OBRYS
 10
155.017797
 20
91.403974
 11
153.517797
 21
91.403974
  0
LINE
  8
OBRYS
 10
165.017797
 20
123.542558
 11
172.017797
 21
123.542558
  0
LINE
  8
OBRYS
 10
165.017797
 20
118.542558
 11
172.017797
 21
118.542558
  0
LINE
  8
OBRYS
 10
171.907953
 20
178.938983
 11
172.017797
 21
178.275116
  0
LINE
  8
OBRYS
 10
171.716260
 20
180.029547
 11
171.907953
 21
178.938983
  0
LINE
  8
OBRYS
 10
171.489269
 20
180.423944
 11
171.716260
 21
180.029547
  0
LINE
  8
OBRYS
 10
170.848020
 20
181.488721
 11
171.489269
 21
180.423944
  0
POLYLINE
  8
OBRYS
 66
    1
  0
VERTEX
  8
OBRYS
 10
165.259644
 20
55.800087
  0
VERTEX
  8
OBRYS
 10
165.734039
 20
55.944195
  0
VERTEX
  8
OBRYS
 10
166.422760
 20
56.370987
  0
VERTEX
  8
OBRYS
 10
167.299332
 20
57.064064
  0
VERTEX
  8
OBRYS
 10
168.330078
 20
57.996784
  0
VERTEX
  8
OBRYS
 10
169.475372
 20
59.133308
  0
VERTEX
  8
OBRYS
 10
170.691208
 20
60.429958
  0
VERTEX
  8
OBRYS
 10
170.848022
 20
60.607925
  0
VERTEX
  8
OBRYS
 10
171.593094
 20
61.836906
  0
VERTEX
  8
OBRYS
 10
171.716263
 20
62.052338
  0
VERTEX
  8
OBRYS
 10
171.934143
 20
63.300087
  0
VERTEX
  8
OBRYS
 10
172.017792
 20
63.808701
  0
VERTEX
  8
OBRYS
 10
172.017792
 20
64.763268
  0
VERTEX
  8
OBRYS
 10
172.017792
 20
66.170212
  0
VERTEX
  8
OBRYS
 10
172.017792
 20
67.466866
  0
VERTEX
  8
OBRYS
 10
172.017792
 20
68.603394
  0
VERTEX
  8
OBRYS
 10
172.017792
 20
69.536110
  0
VERTEX
  8
OBRYS
 10
172.017792
 20
70.229187
  0
VERTEX
  8
OBRYS
 10
172.017792
 20
70.655975
  0
VERTEX
  8
OBRYS
 10
172.017792
 20
70.800087
  0
SEQEND
  8
OBRYS
  0
POLYLINE
  8
OBRYS
 66
    1
  0
VERTEX
  8
OBRYS
 10
168.330078
 20
89.624847
  0
VERTEX
  8
OBRYS
 10
169.475372
 20
89.768959
  0
VERTEX
  8
OBRYS
 10
170.691208
 20
90.195747
  0
VERTEX
  8
OBRYS
 10
170.848022
 20
90.283417
  0
VERTEX
  8
OBRYS
 10
171.593094
 20
90.888824
  0
VERTEX
  8
OBRYS
 10
171.716263
 20
91.026154
  0
VERTEX
  8
OBRYS
 10
171.934143
 20
91.821541
  0
VERTEX
  8
OBRYS
 10
172.017792
 20
92.216614
  0
VERTEX
  8
OBRYS
 10
172.017792
 20
92.958069
  0
VERTEX
  8
OBRYS
 10
172.017792
 20
94.254723
  0
VERTEX
  8
OBRYS
 10
172.017792
 20
95.661667
  0
VERTEX
  8
OBRYS
 10
172.017792
 20
97.124847
  0
VERTEX
  8
OBRYS
 10
172.017792
 20
98.588020
  0
VERTEX
  8
OBRYS
 10
172.017792
 20
99.994972
  0
VERTEX
  8
OBRYS
 10
172.017792
 20
101.291618
  0
VERTEX
  8
OBRYS
 10
172.017792
 20
102.428146
  0
VERTEX
  8
OBRYS
 10
172.017792
 20
103.360870
  0
VERTEX
  8
OBRYS
 10
172.017792
 20
104.053940
  0
VERTEX
  8
OBRYS
 10
172.017792
 20
104.480736
  0
VERTEX
  8
OBRYS
 10
172.017792
 20
104.574753
  0
VERTEX
  8
OBRYS
 10
171.934143
 20
104.624847
  0
SEQEND
  8
OBRYS
  0
POLYLINE
  8
OBRYS
 66
    1
  0
VERTEX
  8
OBRYS
 10
172.017792
 20
68.927612
  0
VERTEX
  8
OBRYS
 10
171.934143
 20
68.603394
  0
VERTEX
  8
OBRYS
 10
171.716263
 20
67.634201
  0
VERTEX
  8
OBRYS
 10
171.593094
 20
67.466866
  0
VERTEX
  8
OBRYS
 10
170.848022
 20
66.334229
  0
VERTEX
  8
OBRYS
 10
170.691208
 20
66.170212
  0
VERTEX
  8
OBRYS
 10
169.475372
 20
64.763268
  0
VERTEX
  8
OBRYS
 10
168.330078
 20
63.300087
  0
VERTEX
  8
OBRYS
 10
167.299332
 20
61.836906
  0
VERTEX
  8
OBRYS
 10
166.422760
 20
60.429958
  0
VERTEX
  8
OBRYS
 10
165.734039
 20
59.133308
  0
VERTEX
  8
OBRYS
 10
165.259644
 20
57.996784
  0
VERTEX
  8
OBRYS
 10
165.017792
 20
57.064064
  0
VERTEX
  8
OBRYS
 10
165.017792
 20
56.370987
  0
VERTEX
  8
OBRYS
 10
165.017792
 20
55.944195
  0
VERTEX
  8
OBRYS
 10
165.259644
 20
55.800087
  0
SEQEND
  8
OBRYS
  0
POLYLINE
  8
OBRYS
 66
    1
  0
VERTEX
  8
OBRYS
 10
171.934143
 20
104.624847
  0
VERTEX
  8
OBRYS
 10
171.716263
 20
104.501953
  0
VERTEX
  8
OBRYS
 10
171.593094
 20
104.480736
  0
VERTEX
  8
OBRYS
 10
170.848022
 20
104.107925
  0
VERTEX
  8
OBRYS
 10
170.691208
 20
104.053940
  0
VERTEX
  8
OBRYS
 10
169.475372
 20
103.360870
  0
VERTEX
  8
OBRYS
 10
168.330078
 20
102.428146
  0
VERTEX
  8
OBRYS
 10
167.299332
 20
101.291618
  0
VERTEX
  8
OBRYS
 10
166.422760
 20
99.994972
  0
VERTEX
  8
OBRYS
 10
165.734039
 20
98.588020
  0
VERTEX
  8
OBRYS
 10
165.259644
 20
97.124847
  0
VERTEX
  8
OBRYS
 10
165.017792
 20
95.661667
  0
VERTEX
  8
OBRYS
 10
165.017792
 20
94.254723
  0
VERTEX
  8
OBRYS
 10
165.017792
 20
92.958069
  0
VERTEX
  8
OBRYS
 10
165.259644
 20
91.821541
  0
VERTEX
  8
OBRYS
 10
165.734039
 20
90.888824
  0
VERTEX
  8
OBRYS
 10
166.422760
 20
90.195747
  0
VERTEX
  8
OBRYS
 10
167.299332
 20
89.768959
  0
VERTEX
  8
OBRYS
 10
168.330078
 20
89.624847
  0
SEQEND
  8
OBRYS
  0
LINE
  8
OBRYS
 10
163.386785
 20
188.458231
 11
158.017797
 21
188.458231
  0
LINE
  8
OBRYS
 10
165.644212
 20
187.434091
 11
170.848020
 21
181.488721
  0
ARC
  8
OBRYS
 10
163.386785
 20
185.458231
 40
3.000000
 50
41.194706
 51
90.000000
  0
LINE
  8
OBRYS
 10
158.017797
 20
182.037932
 11
163.475954
 21
182.037932
  0
LINE
  8
OBRYS
 10
172.017797
 20
173.159613
 11
171.907953
 21
173.591707
  0
LINE
  8
OBRYS
 10
171.907953
 20
173.591707
 11
171.716260
 21
174.456160
  0
LINE
  8
OBRYS
 10
171.716260
 20
174.456160
 11
171.489269
 21
174.768786
  0
LINE
  8
OBRYS
 10
171.489269
 20
174.768786
 11
170.848020
 21
175.732160
  0
LINE
  8
OBRYS
 10
170.848020
 20
175.732160
 11
165.632128
 21
181.123816
  0
ARC
  8
OBRYS
 10
163.475954
 20
179.037932
 40
3.000000
 50
44.050707
 51
90.000000
  0
LINE
  8
OBRYS
 10
163.938311
 20
155.387344
 11
158.017797
 21
155.387344
  0
ARC
  8
OBRYS
 10
163.938311
 20
152.387344
 40
3.000000
 50
59.798611
 51
90.000000
  0
LINE
  8
OBRYS
 10
172.017797
 20
183.164096
 11
172.017797
 21
121.042558
  0
LINE
  8
OBRYS
 10
165.447434
 20
154.980131
 11
171.272359
 21
151.589755
  0
ARC
  8
OBRYS
 10
170.517797
 20
150.293361
 40
1.500000
 50
0.000000
 51
59.798611
  0
ARC
  8
OBRYS
 10
170.517797
 20
136.469994
 40
1.500000
 50
0.000000
 51
72.288290
  0
LINE
  8
OBRYS
 10
156.017797
 20
81.579881
 11
160.178329
 21
92.047608
  0
LINE
  8
OSA
 62
     2
  6
CONTINUOUS
 10
177.517797
 20
33.042558
 11
159.017797
 21
33.042558
  0
LINE
  8
OBRYS
 10
156.017797
 20
36.042558
 11
156.017797
 21
81.579881
  0
ARC
  8
OSA
 62
     2
  6
CONTINUOUS
 10
159.017797
 20
36.042558
 40
3.000000
 50
180.000000
 51
270.000000
  0
LINE
  8
OBRYS
 10
156.719664
 20
41.153227
 11
170.848020
 21
57.990746
  0
ARC
  8
OBRYS
 10
159.017797
 20
39.224865
 40
3.000000
 50
140.000000
 51
180.000000
  0
LINE
  8
OBRYS
 10
164.784088
 20
139.801145
 11
158.017797
 21
139.801145
  0
LINE
  8
OBRYS
 10
170.974139
 20
137.898893
 11
165.240429
 21
139.730044
  0
ARC
  8
OBRYS
 10
164.784088
 20
138.301145
 40
1.500000
 50
72.288290
 51
90.000000
  0
LINE
  8
OBRYS
 10
165.017797
 20
190.142958
 11
165.017797
 21
188.612058
  0
LINE
  8
OBRYS
 10
165.017797
 20
180.658847
 11
165.017797
 21
156.416943
  0
LINE
  8
OBRYS
 10
165.017797
 20
137.831550
 11
165.017797
 21
121.042558
  0
ENDBLK
  8
OBRYS
  0
BLOCK
  8
OSA
  2
_15
 70
   64
 10
112.017797
 20
61.042558
  0
LINE
  8
OSA
 62
     2
  6
CONTINUOUS
 10
77.017797
 20
51.042558
 11
73.517797
 21
51.042558
  0
ARC
  8
OSA
 62
     2
  6
CONTINUOUS
 10
65.017797
 20
186.870985
 40
2.000000
 50
315.000000
 51
360.000000
  0
ARC
  8
OSA
 62
     2
  6
CONTINUOUS
 10
65.017797
 20
169.749879
 40
2.000000
 50
298.545372
 51
360.000000
  0
ARC
  8
OSA
 62
     2
  6
CONTINUOUS
 10
65.017797
 20
166.286109
 40
2.000000
 50
311.888704
 51
360.000000
  0
LINE
  8
OSA
 62
     2
  6
CONTINUOUS
 10
67.017797
 20
92.167906
 11
67.017797
 21
121.042558
  0
ARC
  8
OSA
 62
     2
  6
CONTINUOUS
 10
69.017797
 20
188.783729
 40
2.000000
 50
92.000000
 51
180.000000
  0
LINE
  8
OSA
 62
     2
  6
CONTINUOUS
 10
67.017797
 20
188.783729
 11
67.017797
 21
121.042558
  0
LINE
  8
OSA
 62
     2
  6
CONTINUOUS
 10
77.017797
 20
191.064314
 11
68.947998
 21
190.782511
  0
ARC
  8
OSA
 62
     2
  6
CONTINUOUS
 10
141.017797
 20
77.785715
 40
6.000000
 50
0.000000
 51
60.000000
  0
LINE
  8
OSA
 62
     2
  6
CONTINUOUS
 10
147.017797
 20
77.785715
 11
147.017797
 21
44.299400
  0
LINE
  8
OSA
 62
     2
  6
CONTINUOUS
 10
144.017797
 20
82.981868
 11
115.017797
 21
99.725026
  0
ARC
  8
OSA
 62
     2
  6
CONTINUOUS
 10
83.017797
 20
44.299400
 40
6.000000
 50
180.000000
 51
240.000000
  0
LINE
  8
OSA
 62
     2
  6
CONTINUOUS
 10
77.017797
 20
44.299400
 11
77.017797
 21
77.785715
  0
LINE
  8
OSA
 62
     2
  6
CONTINUOUS
 10
80.017797
 20
39.103247
 11
109.017797
 21
22.360090
  0
ARC
  8
OSA
 62
     2
  6
CONTINUOUS
 10
112.017797
 20
94.528873
 40
6.000000
 50
60.000000
 51
120.000000
  0
LINE
  8
OSA
 62
     2
  6
CONTINUOUS
 10
80.017797
 20
82.981868
 11
109.017797
 21
99.725026
  0
ARC
  8
OSA
 62
     2
  6
CONTINUOUS
 10
83.017797
 20
77.785715
 40
6.000000
 50
120.000000
 51
180.000000
  0
ARC
  8
OSA
 62
     2
  6
CONTINUOUS
 10
141.017797
 20
44.299400
 40
6.000000
 50
300.000000
 51
360.000000
  0
LINE
  8
OSA
 62
     2
  6
CONTINUOUS
 10
144.017797
 20
39.103247
 11
115.017797
 21
22.360090
  0
ARC
  8
OSA
 62
     2
  6
CONTINUOUS
 10
112.017797
 20
27.556242
 40
6.000000
 50
240.000000
 51
300.000000
  0
LINE
  8
OSA
 62
     2
  6
CONTINUOUS
 10
150.017797
 20
51.042558
 11
147.017797
 21
51.042558
  0
LINE
  8
OSA
 62
     2
  6
CONTINUOUS
 10
142.017797
 20
84.136568
 11
142.017797
 21
121.042558
  0
LINE
  8
OSA
 62
     2
  6
CONTINUOUS
 10
125.263741
 20
93.809525
 11
125.064339
 21
97.164780
  0
LINE
  8
OSA
 62
     2
  6
CONTINUOUS
 10
82.017797
 20
84.136568
 11
82.017797
 21
121.042558
  0
INSERT
  8
OSA
  2
Vnitrni_metricky_zavit_M1__10
  6
CONTINUOUS
 10
112.017797
 20
121.042558
  0
CIRCLE
  8
OSA
 62
     2
  6
CONTINUOUS
 10
112.017797
 20
121.042558
 40
9.000000
  0
ARC
  8
OSA
 62
     2
  6
CONTINUOUS
 10
140.017797
 20
107.653859
 40
2.000000
 50
270.000000
 51
360.000000
  0
LINE
  8
OSA
 62
     2
  6
CONTINUOUS
 10
129.017797
 20
105.653859
 11
140.017797
 21
105.653859
  0
LINE
  8
OSA
 10
154.017797
 20
121.042558
 11
38.829089
 21
121.042558
  0
LINE
  8
OSA
 10
112.017797
 20
64.042558
 11
112.017797
 21
22.542558
  0
LINE
  8
OSA
 10
112.017797
 20
61.042558
 11
75.017797
 21
61.042558
  0
LINE
  8
OSA
 10
112.017797
 20
61.042558
 11
149.017797
 21
61.042558
  0
ARC
  8
OSA
 62
     2
  6
CONTINUOUS
 10
101.017797
 20
183.042558
 40
2.000000
 50
270.000000
 51
360.000000
  0
ARC
  8
OSA
 62
     2
  6
CONTINUOUS
 10
123.017797
 20
183.042558
 40
2.000000
 50
180.000000
 51
270.000000
  0
LINE
  8
OSA
 62
     2
  6
CONTINUOUS
 10
103.017797
 20
183.042558
 11
121.017797
 21
183.042558
  0
ARC
  8
OSA
 62
     2
  6
CONTINUOUS
 10
79.017797
 20
188.042558
 40
3.000000
 50
0.000000
 51
90.000000
  0
ARC
  8
OSA
 62
     2
  6
CONTINUOUS
 10
85.017797
 20
184.042558
 40
3.000000
 50
180.000000
 51
270.000000
  0
LINE
  8
OSA
 62
     2
  6
CONTINUOUS
 10
150.017797
 20
191.042558
 11
145.017797
 21
191.042558
  0
ARC
  8
OSA
 62
     2
  6
CONTINUOUS
 10
145.017797
 20
188.042558
 40
3.000000
 50
90.000000
 51
180.000000
  0
LINE
  8
OSA
 62
     2
  6
CONTINUOUS
 10
139.017797
 20
184.785028
 11
129.017797
 21
184.785028
  0
ARC
  8
OSA
 62
     2
  6
CONTINUOUS
 10
139.017797
 20
187.785028
 40
3.000000
 50
270.000000
 51
360.000000
  0
LINE
  8
OSA
 62
     2
  6
CONTINUOUS
 10
150.017797
 20
51.042558
 11
150.017797
 21
121.042558
  0
LINE
  8
OSA
 62
     2
  6
CONTINUOUS
 10
150.017797
 20
121.042558
 11
150.017797
 21
191.042558
  0
LINE
  8
OSA
 62
     2
  6
CONTINUOUS
 10
142.017797
 20
121.042558
 11
142.017797
 21
188.042558
  0
LINE
  8
OSA
 62
     2
  6
CONTINUOUS
 10
82.017797
 20
121.042558
 11
82.017797
 21
188.042558
  0
LINE
  8
OSA
 10
112.017797
 20
61.042558
 11
112.017797
 21
191.042558
  0
POLYLINE
  8
OSA
 62
     2
  6
CONTINUOUS
 66
    1
  0
VERTEX
  8
OSA
 62
     2
  6
CONTINUOUS
 10
129.017761
 20
136.431244
  0
VERTEX
  8
OSA
 62
     2
  6
CONTINUOUS
 10
128.892578
 20
136.434906
  0
VERTEX
  8
OSA
 62
     2
  6
CONTINUOUS
 10
128.750183
 20
136.447723
  0
VERTEX
  8
OSA
 62
     2
  6
CONTINUOUS
 10
128.588928
 20
136.473724
  0
VERTEX
  8
OSA
 62
     2
  6
CONTINUOUS
 10
128.407166
 20
136.517548
  0
VERTEX
  8
OSA
 62
     2
  6
CONTINUOUS
 10
128.203796
 20
136.585419
  0
VERTEX
  8
OSA
 62
     2
  6
CONTINUOUS
 10
127.978401
 20
136.684296
  0
VERTEX
  8
OSA
 62
     2
  6
CONTINUOUS
 10
127.731697
 20
136.822479
  0
VERTEX
  8
OSA
 62
     2
  6
CONTINUOUS
 10
127.465828
 20
137.008514
  0
VERTEX
  8
OSA
 62
     2
  6
CONTINUOUS
 10
127.185005
 20
137.250214
  0
VERTEX
  8
OSA
 62
     2
  6
CONTINUOUS
 10
126.895393
 20
137.554047
  0
VERTEX
  8
OSA
 62
     2
  6
CONTINUOUS
 10
126.604744
 20
137.923065
  0
VERTEX
  8
OSA
 62
     2
  6
CONTINUOUS
 10
126.322029
 20
138.356049
  0
VERTEX
  8
OSA
 62
     2
  6
CONTINUOUS
 10
126.056160
 20
138.847015
  0
VERTEX
  8
OSA
 62
     2
  6
CONTINUOUS
 10
125.814766
 20
139.386200
  0
VERTEX
  8
OSA
 62
     2
  6
CONTINUOUS
 10
125.603340
 20
139.961395
  0
VERTEX
  8
OSA
 62
     2
  6
CONTINUOUS
 10
125.425056
 20
140.560272
  0
VERTEX
  8
OSA
 62
     2
  6
CONTINUOUS
 10
125.280708
 20
141.172455
  0
VERTEX
  8
OSA
 62
     2
  6
CONTINUOUS
 10
125.169441
 20
141.790253
  0
VERTEX
  8
OSA
 62
     2
  6
CONTINUOUS
 10
125.089607
 20
142.409637
  0
VERTEX
  8
OSA
 62
     2
  6
CONTINUOUS
 10
125.039680
 20
143.029877
  0
VERTEX
  8
OSA
 62
     2
  6
CONTINUOUS
 10
125.018562
 20
143.652924
  0
VERTEX
  8
OSA
 62
     2
  6
CONTINUOUS
 10
125.026375
 20
144.281830
  0
VERTEX
  8
OSA
 62
     2
  6
CONTINUOUS
 10
125.064339
 20
144.920380
  0
VERTEX
  8
OSA
 62
     2
  6
CONTINUOUS
 10
125.135017
 20
145.570526
  0
VERTEX
  8
OSA
 62
     2
  6
CONTINUOUS
 10
125.241951
 20
146.232025
  0
VERTEX
  8
OSA
 62
     2
  6
CONTINUOUS
 10
125.388985
 20
146.899628
  0
VERTEX
  8
OSA
 62
     2
  6
CONTINUOUS
 10
125.578804
 20
147.563080
  0
VERTEX
  8
OSA
 62
     2
  6
CONTINUOUS
 10
125.811897
 20
148.206390
  0
VERTEX
  8
OSA
 62
     2
  6
CONTINUOUS
 10
126.084846
 20
148.810272
  0
VERTEX
  8
OSA
 62
     2
  6
CONTINUOUS
 10
126.389839
 20
149.354950
  0
VERTEX
  8
OSA
 62
     2
  6
CONTINUOUS
 10
126.715340
 20
149.825287
  0
VERTEX
  8
OSA
 62
     2
  6
CONTINUOUS
 10
127.047859
 20
150.212860
  0
VERTEX
  8
OSA
 62
     2
  6
CONTINUOUS
 10
127.374397
 20
150.517670
  0
VERTEX
  8
OSA
 62
     2
  6
CONTINUOUS
 10
127.684273
 20
150.746796
  0
VERTEX
  8
OSA
 62
     2
  6
CONTINUOUS
 10
127.970222
 20
150.911102
  0
VERTEX
  8
OSA
 62
     2
  6
CONTINUOUS
 10
128.228333
 20
151.023407
  0
VERTEX
  8
OSA
 62
     2
  6
CONTINUOUS
 10
128.457520
 20
151.095673
  0
VERTEX
  8
OSA
 62
     2
  6
CONTINUOUS
 10
128.658447
 20
151.138519
  0
VERTEX
  8
OSA
 62
     2
  6
CONTINUOUS
 10
128.833130
 20
151.160492
  0
VERTEX
  8
OSA
 62
     2
  6
CONTINUOUS
 10
128.984131
 20
151.168060
  0
VERTEX
  8
OSA
 62
     2
  6
CONTINUOUS
 10
129.017761
 20
151.168304
  0
SEQEND
  8
OSA
  0
LINE
  8
OSA
 62
     2
  6
CONTINUOUS
 10
129.017800
 20
151.168348
 11
142.017797
 21
151.168348
  0
LINE
  8
OSA
 62
     2
  6
CONTINUOUS
 10
129.017800
 20
136.431256
 11
142.017797
 21
136.431256
  0
LINE
  8
OSA
 62
     2
  6
CONTINUOUS
 10
129.017797
 20
172.931254
 11
142.017797
 21
172.931254
  0
LINE
  8
OSA
 62
     2
  6
CONTINUOUS
 10
123.255285
 20
181.042558
 11
85.017797
 21
181.042558
  0
LINE
  8
OSA
 62
     2
  6
CONTINUOUS
 10
129.017797
 20
172.931254
 11
128.917063
 21
172.933133
  0
LINE
  8
OSA
 62
     2
  6
CONTINUOUS
 10
128.917063
 20
172.933133
 11
128.802396
 21
172.939853
  0
LINE
  8
OSA
 62
     2
  6
CONTINUOUS
 10
128.802396
 20
172.939853
 11
128.672143
 21
172.953424
  0
LINE
  8
OSA
 62
     2
  6
CONTINUOUS
 10
128.672143
 20
172.953424
 11
128.524625
 21
172.976474
  0
LINE
  8
OSA
 62
     2
  6
CONTINUOUS
 10
128.524625
 20
172.976474
 11
128.358242
 21
173.012380
  0
LINE
  8
OSA
 62
     2
  6
CONTINUOUS
 10
128.358242
 20
173.012380
 11
128.171632
 21
173.065385
  0
LINE
  8
OSA
 62
     2
  6
CONTINUOUS
 10
128.171632
 20
173.065385
 11
127.963903
 21
173.140671
  0
LINE
  8
OSA
 62
     2
  6
CONTINUOUS
 10
127.963903
 20
173.140671
 11
127.734937
 21
173.244337
  0
LINE
  8
OSA
 62
     2
  6
CONTINUOUS
 10
127.734937
 20
173.244337
 11
127.485755
 21
173.383214
  0
LINE
  8
OSA
 62
     2
  6
CONTINUOUS
 10
127.485755
 20
173.383214
 11
127.218895
 21
173.564442
  0
LINE
  8
OSA
 62
     2
  6
CONTINUOUS
 10
127.218895
 20
173.564442
 11
126.938712
 21
173.794769
  0
LINE
  8
OSA
 62
     2
  6
CONTINUOUS
 10
126.938712
 20
173.794769
 11
126.651477
 21
174.079611
  0
LINE
  8
OSA
 62
     2
  6
CONTINUOUS
 10
126.651477
 20
174.079611
 11
126.365131
 21
174.422032
  0
LINE
  8
OSA
 62
     2
  6
CONTINUOUS
 10
126.365131
 20
174.422032
 11
126.088662
 21
174.821934
  0
LINE
  8
OSA
 62
     2
  6
CONTINUOUS
 10
126.088662
 20
174.821934
 11
125.831150
 21
175.275781
  0
LINE
  8
OSA
 62
     2
  6
CONTINUOUS
 10
125.831150
 20
175.275781
 11
125.600759
 21
175.777068
  0
LINE
  8
OSA
 62
     2
  6
CONTINUOUS
 10
125.600759
 20
175.777068
 11
125.403959
 21
176.317443
  0
LINE
  8
OSA
 62
     2
  6
CONTINUOUS
 10
125.403959
 20
176.317443
 11
125.245219
 21
176.888147
  0
LINE
  8
OSA
 62
     2
  6
CONTINUOUS
 10
125.245219
 20
176.888147
 11
125.127227
 21
177.481287
  0
LINE
  8
OSA
 62
     2
  6
CONTINUOUS
 10
125.127227
 20
177.481287
 11
125.051484
 21
178.090562
  0
LINE
  8
OSA
 62
     2
  6
CONTINUOUS
 10
125.051484
 20
178.090562
 11
125.019026
 21
178.711273
  0
LINE
  8
OSA
 62
     2
  6
CONTINUOUS
 10
125.019026
 20
178.711273
 11
125.031019
 21
179.339648
  0
LINE
  8
OSA
 62
     2
  6
CONTINUOUS
 10
125.031019
 20
179.339648
 11
125.089026
 21
179.971661
  0
LINE
  8
OSA
 62
     2
  6
CONTINUOUS
 10
125.089026
 20
179.971661
 11
125.194784
 21
180.601648
  0
LINE
  8
OSA
 62
     2
  6
CONTINUOUS
 10
125.194784
 20
180.601648
 11
125.349454
 21
181.221132
  0
LINE
  8
OSA
 62
     2
  6
CONTINUOUS
 10
125.349454
 20
181.221132
 11
125.552452
 21
181.818389
  0
LINE
  8
OSA
 62
     2
  6
CONTINUOUS
 10
125.552452
 20
181.818389
 11
125.999472
 21
182.830355
  0
LINE
  8
OSA
 62
     2
  6
CONTINUOUS
 10
125.800187
 20
182.379214
 11
126.085300
 21
182.888985
  0
LINE
  8
OSA
 62
     2
  6
CONTINUOUS
 10
126.085300
 20
182.888985
 11
126.396887
 21
183.335499
  0
LINE
  8
OSA
 62
     2
  6
CONTINUOUS
 10
126.396887
 20
183.335499
 11
126.721864
 21
183.711473
  0
LINE
  8
OSA
 62
     2
  6
CONTINUOUS
 10
126.721864
 20
183.711473
 11
127.046984
 21
184.015703
  0
LINE
  8
OSA
 62
     2
  6
CONTINUOUS
 10
127.046984
 20
184.015703
 11
127.360768
 21
184.252555
  0
LINE
  8
OSA
 62
     2
  6
CONTINUOUS
 10
127.360768
 20
184.252555
 11
127.654691
 21
184.430270
  0
LINE
  8
OSA
 62
     2
  6
CONTINUOUS
 10
127.654691
 20
184.430270
 11
127.923491
 21
184.558919
  0
LINE
  8
OSA
 62
     2
  6
CONTINUOUS
 10
127.923491
 20
184.558919
 11
128.164790
 21
184.648694
  0
LINE
  8
OSA
 62
     2
  6
CONTINUOUS
 10
128.164790
 20
184.648694
 11
128.378395
 21
184.708816
  0
LINE
  8
OSA
 62
     2
  6
CONTINUOUS
 10
128.378395
 20
184.708816
 11
128.565556
 21
184.747026
  0
LINE
  8
OSA
 62
     2
  6
CONTINUOUS
 10
128.565556
 20
184.747026
 11
128.728350
 21
184.769491
  0
LINE
  8
OSA
 62
     2
  6
CONTINUOUS
 10
128.728350
 20
184.769491
 11
128.869230
 21
184.780939
  0
LINE
  8
OSA
 62
     2
  6
CONTINUOUS
 10
128.869230
 20
184.780939
 11
128.990723
 21
184.784893
  0
LINE
  8
OSA
 62
     2
  6
CONTINUOUS
 10
128.990723
 20
184.784893
 11
129.017797
 21
184.785028
  0
ARC
  8
OSA
 62
     2
  6
CONTINUOUS
 10
123.255285
 20
184.042558
 40
3.000000
 50
270.000000
 51
336.167287
  0
CIRCLE
  8
OSA
 62
     2
  6
CONTINUOUS
 10
112.017797
 20
61.042558
 40
26.000000
  0
LINE
  8
OSA
 62
     2
  6
CONTINUOUS
 10
67.017797
 20
118.802618
 11
66.017797
 21
118.562433
  0
LINE
  8
OSA
 62
     2
  6
CONTINUOUS
 10
67.017797
 20
123.282497
 11
66.017797
 21
123.522682
  0
POLYLINE
  8
OSA
 62
     2
  6
CONTINUOUS
 66
    1
  0
VERTEX
  8
OSA
 62
     2
  6
CONTINUOUS
 10
129.017761
 20
105.653915
  0
VERTEX
  8
OSA
 62
     2
  6
CONTINUOUS
 10
128.892578
 20
105.650253
  0
VERTEX
  8
OSA
 62
     2
  6
CONTINUOUS
 10
128.750183
 20
105.637314
  0
VERTEX
  8
OSA
 62
     2
  6
CONTINUOUS
 10
128.588928
 20
105.611435
  0
VERTEX
  8
OSA
 62
     2
  6
CONTINUOUS
 10
128.407166
 20
105.567490
  0
VERTEX
  8
OSA
 62
     2
  6
CONTINUOUS
 10
128.203796
 20
105.499741
  0
VERTEX
  8
OSA
 62
     2
  6
CONTINUOUS
 10
127.978401
 20
105.400742
  0
VERTEX
  8
OSA
 62
     2
  6
CONTINUOUS
 10
127.731697
 20
105.262558
  0
VERTEX
  8
OSA
 62
     2
  6
CONTINUOUS
 10
127.465828
 20
105.076645
  0
VERTEX
  8
OSA
 62
     2
  6
CONTINUOUS
 10
127.185005
 20
104.834946
  0
VERTEX
  8
OSA
 62
     2
  6
CONTINUOUS
 10
126.895393
 20
104.530991
  0
VERTEX
  8
OSA
 62
     2
  6
CONTINUOUS
 10
126.604744
 20
104.162094
  0
VERTEX
  8
OSA
 62
     2
  6
CONTINUOUS
 10
126.322029
 20
103.729111
  0
VERTEX
  8
OSA
 62
     2
  6
CONTINUOUS
 10
126.056160
 20
103.238144
  0
VERTEX
  8
OSA
 62
     2
  6
CONTINUOUS
 10
125.814766
 20
102.698959
  0
VERTEX
  8
OSA
 62
     2
  6
CONTINUOUS
 10
125.603340
 20
102.123764
  0
VERTEX
  8
OSA
 62
     2
  6
CONTINUOUS
 10
125.425056
 20
101.524765
  0
VERTEX
  8
OSA
 62
     2
  6
CONTINUOUS
 10
125.280708
 20
100.912704
  0
VERTEX
  8
OSA
 62
     2
  6
CONTINUOUS
 10
125.169441
 20
100.294907
  0
VERTEX
  8
OSA
 62
     2
  6
CONTINUOUS
 10
125.089607
 20
99.675522
  0
VERTEX
  8
OSA
 62
     2
  6
CONTINUOUS
 10
125.039680
 20
99.055161
  0
VERTEX
  8
OSA
 62
     2
  6
CONTINUOUS
 10
125.018562
 20
98.432236
  0
VERTEX
  8
OSA
 62
     2
  6
CONTINUOUS
 10
125.026375
 20
97.803207
  0
VERTEX
  8
OSA
 62
     2
  6
CONTINUOUS
 10
125.064339
 20
97.164780
  0
VERTEX
  8
OSA
 62
     2
  6
CONTINUOUS
 10
125.135017
 20
96.514511
  0
VERTEX
  8
OSA
 62
     2
  6
CONTINUOUS
 10
125.192329
 20
96.160141
  0
SEQEND
  8
OSA
  0
LINE
  8
OSA
 62
     2
  6
CONTINUOUS
 10
79.017797
 20
191.042558
 11
77.017797
 21
191.064314
  0
ENDBLK
  8
OSA
  0
BLOCK
  8
OSA
  2
Vnitrni_metricky_zavit_M1__10
 70
   66
 10
112.017797
 20
121.042558
  0
CIRCLE
  8
OSA
 62
     2
  6
CONTINUOUS
 10
112.017797
 20
121.042558
 40
4.458800
  0
ARC
  8
OSA
  6
CONTINUOUS
 10
112.017797
 20
121.042558
 40
5.000000
 50
85.000000
 51
5.000000
  0
ENDBLK
  8
OSA
  0
BLOCK
  8
OBRYS
  2
_16
 70
   64
 10
52.017797
 20
121.042558
  0
ARC
  8
OSA
 62
     2
  6
CONTINUOUS
 10
70.517797
 20
88.403974
 40
3.000000
 50
0.000000
 51
90.000000
  0
LINE
  8
OSA
 62
     2
  6
CONTINUOUS
 10
73.517797
 20
88.403974
 11
73.517797
 21
21.042558
  0
LINE
  8
OBRYS
 10
44.396477
 20
32.163878
 11
59.016410
 21
46.783811
  0
LINE
  8
OSA
 62
     2
  6
CONTINUOUS
 10
43.517797
 20
30.042558
 11
43.517797
 21
21.042558
  0
LINE
  8
OSA
 62
     2
  6
CONTINUOUS
 10
43.517797
 20
21.042558
 11
73.517797
 21
21.042558
  0
ARC
  8
OBRYS
 10
46.517797
 20
30.042558
 40
3.000000
 50
135.000000
 51
180.000000
  0
ARC
  8
OSA
 62
     2
  6
CONTINUOUS
 10
46.517797
 20
30.042558
 40
3.000000
 50
90.000000
 51
135.000000
  0
LINE
  8
OSA
 10
47.017797
 20
163.542558
 11
66.017797
 21
163.542558
  0
LINE
  8
OSA
 10
47.017797
 20
78.542558
 11
66.017797
 21
78.542558
  0
ARC
  8
OBRYS
 10
61.349336
 20
186.042558
 40
5.000000
 50
90.000000
 51
140.000000
  0
LINE
  8
OBRYS
 10
57.519113
 20
189.256496
 11
53.187575
 21
184.094369
  0
ARC
  8
OBRYS
 10
57.017797
 20
180.880431
 40
5.000000
 50
140.000000
 51
180.000000
  0
LINE
  8
OSA
 10
47.017797
 20
121.042558
 11
71.017797
 21
121.042558
  0
LINE
  8
NEVIDI
  6
HIDDEN2
 10
51.017797
 20
33.042558
 11
51.017797
 21
21.042558
  0
LINE
  8
OSA
 10
56.517797
 20
40.642558
 11
56.517797
 21
11.642558
  0
LINE
  8
NEVIDI
  6
HIDDEN2
 10
62.017797
 20
33.042558
 11
62.017797
 21
21.042558
  0
ARC
  8
OBRYS
 10
57.017797
 20
61.204684
 40
5.000000
 50
180.000000
 51
220.000000
  0
LINE
  8
OBRYS
 10
59.111313
 20
191.042558
 11
66.017797
 21
191.042558
  0
ARC
  8
OBRYS
 10
59.111313
 20
188.042558
 40
3.000000
 50
90.000000
 51
140.000000
  0
LINE
  8
OBRYS
 10
56.813180
 20
189.970920
 11
52.719664
 21
185.092458
  0
ARC
  8
OBRYS
 10
55.017797
 20
183.164096
 40
3.000000
 50
140.000000
 51
180.000000
  0
LINE
  8
OBRYS
 10
66.017797
 20
191.042558
 11
66.017797
 21
121.042558
  0
ARC
  8
OBRYS
 10
56.895089
 20
48.905131
 40
3.000000
 50
315.000000
 51
40.000000
  0
LINE
  8
OBRYS
 10
52.017797
 20
61.204682
 11
52.017797
 21
121.042558
  0
LINE
  8
OBRYS
 10
63.857266
 20
92.047608
 11
60.168523
 21
107.118692
  0
LINE
  8
OBRYS
 10
60.168523
 20
107.118692
 11
59.017797
 21
121.042558
  0
LINE
  8
OBRYS
 10
66.017797
 20
94.403974
 11
66.017797
 21
121.042558
  0
ARC
  8
OBRYS
 10
69.017797
 20
94.403974
 40
3.000000
 50
180.000000
 51
270.000000
  0
LINE
  8
OBRYS
 10
69.017797
 20
91.403974
 11
70.517797
 21
91.403974
  0
LINE
  8
OBRYS
 10
59.017797
 20
123.542558
 11
52.017797
 21
123.542558
  0
LINE
  8
OBRYS
 10
59.017797
 20
118.542558
 11
52.017797
 21
118.542558
  0
LINE
  8
OBRYS
 10
52.127641
 20
178.938983
 11
52.017797
 21
178.275116
  0
LINE
  8
OBRYS
 10
52.319334
 20
180.029547
 11
52.127641
 21
178.938983
  0
LINE
  8
OBRYS
 10
52.546326
 20
180.423944
 11
52.319334
 21
180.029547
  0
LINE
  8
OBRYS
 10
53.187575
 20
181.488721
 11
52.546326
 21
180.423944
  0
POLYLINE
  8
OBRYS
 66
    1
  0
VERTEX
  8
OBRYS
 10
58.775944
 20
55.800087
  0
VERTEX
  8
OBRYS
 10
58.301579
 20
55.944195
  0
VERTEX
  8
OBRYS
 10
57.612858
 20
56.370987
  0
VERTEX
  8
OBRYS
 10
56.736271
 20
57.064064
  0
VERTEX
  8
OBRYS
 10
55.705570
 20
57.996784
  0
VERTEX
  8
OBRYS
 10
54.560246
 20
59.133308
  0
VERTEX
  8
OBRYS
 10
53.344425
 20
60.429958
  0
VERTEX
  8
OBRYS
 10
53.187626
 20
60.607925
  0
VERTEX
  8
OBRYS
 10
52.442509
 20
61.836906
  0
VERTEX
  8
OBRYS
 10
52.319340
 20
62.052338
  0
VERTEX
  8
OBRYS
 10
52.101505
 20
63.300087
  0
VERTEX
  8
OBRYS
 10
52.017826
 20
63.808701
  0
VERTEX
  8
OBRYS
 10
52.017826
 20
64.763268
  0
VERTEX
  8
OBRYS
 10
52.017826
 20
66.170212
  0
VERTEX
  8
OBRYS
 10
52.017826
 20
67.466866
  0
VERTEX
  8
OBRYS
 10
52.017826
 20
68.603394
  0
VERTEX
  8
OBRYS
 10
52.017826
 20
69.536110
  0
VERTEX
  8
OBRYS
 10
52.017826
 20
70.229187
  0
VERTEX
  8
OBRYS
 10
52.017826
 20
70.655975
  0
VERTEX
  8
OBRYS
 10
52.017826
 20
70.800087
  0
SEQEND
  8
OBRYS
  0
POLYLINE
  8
OBRYS
 66
    1
  0
VERTEX
  8
OBRYS
 10
55.705570
 20
89.624847
  0
VERTEX
  8
OBRYS
 10
54.560246
 20
89.768959
  0
VERTEX
  8
OBRYS
 10
53.344425
 20
90.195747
  0
VERTEX
  8
OBRYS
 10
53.187626
 20
90.283417
  0
VERTEX
  8
OBRYS
 10
52.442509
 20
90.888824
  0
VERTEX
  8
OBRYS
 10
52.319340
 20
91.026154
  0
VERTEX
  8
OBRYS
 10
52.101505
 20
91.821541
  0
VERTEX
  8
OBRYS
 10
52.017826
 20
92.216614
  0
VERTEX
  8
OBRYS
 10
52.017826
 20
92.958069
  0
VERTEX
  8
OBRYS
 10
52.017826
 20
94.254723
  0
VERTEX
  8
OBRYS
 10
52.017826
 20
95.661667
  0
VERTEX
  8
OBRYS
 10
52.017826
 20
97.124847
  0
VERTEX
  8
OBRYS
 10
52.017826
 20
98.588020
  0
VERTEX
  8
OBRYS
 10
52.017826
 20
99.994972
  0
VERTEX
  8
OBRYS
 10
52.017826
 20
101.291618
  0
VERTEX
  8
OBRYS
 10
52.017826
 20
102.428146
  0
VERTEX
  8
OBRYS
 10
52.017826
 20
103.360870
  0
VERTEX
  8
OBRYS
 10
52.017826
 20
104.053940
  0
VERTEX
  8
OBRYS
 10
52.017826
 20
104.480736
  0
VERTEX
  8
OBRYS
 10
52.017826
 20
104.574753
  0
VERTEX
  8
OBRYS
 10
52.101505
 20
104.624847
  0
SEQEND
  8
OBRYS
  0
POLYLINE
  8
OBRYS
 66
    1
  0
VERTEX
  8
OBRYS
 10
52.017826
 20
68.927612
  0
VERTEX
  8
OBRYS
 10
52.101505
 20
68.603394
  0
VERTEX
  8
OBRYS
 10
52.319340
 20
67.634201
  0
VERTEX
  8
OBRYS
 10
52.442509
 20
67.466866
  0
VERTEX
  8
OBRYS
 10
53.187626
 20
66.334229
  0
VERTEX
  8
OBRYS
 10
53.344425
 20
66.170212
  0
VERTEX
  8
OBRYS
 10
54.560246
 20
64.763268
  0
VERTEX
  8
OBRYS
 10
55.705570
 20
63.300087
  0
VERTEX
  8
OBRYS
 10
56.736271
 20
61.836906
  0
VERTEX
  8
OBRYS
 10
57.612858
 20
60.429958
  0
VERTEX
  8
OBRYS
 10
58.301579
 20
59.133308
  0
VERTEX
  8
OBRYS
 10
58.775944
 20
57.996784
  0
VERTEX
  8
OBRYS
 10
59.017826
 20
57.064064
  0
VERTEX
  8
OBRYS
 10
59.017826
 20
56.370987
  0
VERTEX
  8
OBRYS
 10
59.017826
 20
55.944195
  0
VERTEX
  8
OBRYS
 10
58.775944
 20
55.800087
  0
SEQEND
  8
OBRYS
  0
POLYLINE
  8
OBRYS
 66
    1
  0
VERTEX
  8
OBRYS
 10
52.101505
 20
104.624847
  0
VERTEX
  8
OBRYS
 10
52.319340
 20
104.501953
  0
VERTEX
  8
OBRYS
 10
52.442509
 20
104.480736
  0
VERTEX
  8
OBRYS
 10
53.187626
 20
104.107925
  0
VERTEX
  8
OBRYS
 10
53.344425
 20
104.053940
  0
VERTEX
  8
OBRYS
 10
54.560246
 20
103.360870
  0
VERTEX
  8
OBRYS
 10
55.705570
 20
102.428146
  0
VERTEX
  8
OBRYS
 10
56.736271
 20
101.291618
  0
VERTEX
  8
OBRYS
 10
57.612858
 20
99.994972
  0
VERTEX
  8
OBRYS
 10
58.301579
 20
98.588020
  0
VERTEX
  8
OBRYS
 10
58.775944
 20
97.124847
  0
VERTEX
  8
OBRYS
 10
59.017826
 20
95.661667
  0
VERTEX
  8
OBRYS
 10
59.017826
 20
94.254723
  0
VERTEX
  8
OBRYS
 10
59.017826
 20
92.958069
  0
VERTEX
  8
OBRYS
 10
58.775944
 20
91.821541
  0
VERTEX
  8
OBRYS
 10
58.301579
 20
90.888824
  0
VERTEX
  8
OBRYS
 10
57.612858
 20
90.195747
  0
VERTEX
  8
OBRYS
 10
56.736271
 20
89.768959
  0
VERTEX
  8
OBRYS
 10
55.705570
 20
89.624847
  0
SEQEND
  8
OBRYS
  0
LINE
  8
OBRYS
 10
60.648810
 20
188.458231
 11
66.017797
 21
188.458231
  0
LINE
  8
OBRYS
 10
58.391383
 20
187.434091
 11
53.187575
 21
181.488721
  0
ARC
  8
OBRYS
 10
60.648810
 20
185.458231
 40
3.000000
 50
90.000000
 51
138.805294
  0
LINE
  8
OBRYS
 10
66.017797
 20
182.037932
 11
60.559641
 21
182.037932
  0
LINE
  8
OBRYS
 10
52.017797
 20
173.159613
 11
52.127641
 21
173.591707
  0
LINE
  8
OBRYS
 10
52.127641
 20
173.591707
 11
52.319334
 21
174.456160
  0
LINE
  8
OBRYS
 10
52.319334
 20
174.456160
 11
52.546326
 21
174.768786
  0
LINE
  8
OBRYS
 10
52.546326
 20
174.768786
 11
53.187575
 21
175.732160
  0
LINE
  8
OBRYS
 10
53.187575
 20
175.732160
 11
58.403467
 21
181.123816
  0
ARC
  8
OBRYS
 10
60.559641
 20
179.037932
 40
3.000000
 50
90.000000
 51
135.949293
  0
LINE
  8
OBRYS
 10
60.097284
 20
155.387344
 11
66.017797
 21
155.387344
  0
ARC
  8
OBRYS
 10
60.097284
 20
152.387344
 40
3.000000
 50
90.000000
 51
120.201389
  0
LINE
  8
OBRYS
 10
52.017797
 20
183.164096
 11
52.017797
 21
121.042558
  0
LINE
  8
OBRYS
 10
58.588161
 20
154.980131
 11
52.763236
 21
151.589755
  0
ARC
  8
OBRYS
 10
53.517797
 20
150.293361
 40
1.500000
 50
120.201389
 51
180.000000
  0
ARC
  8
OBRYS
 10
53.517797
 20
136.469994
 40
1.500000
 50
107.711710
 51
180.000000
  0
LINE
  8
OBRYS
 10
68.017797
 20
81.579881
 11
63.857266
 21
92.047608
  0
LINE
  8
OSA
 62
     2
  6
CONTINUOUS
 10
46.517797
 20
33.042558
 11
65.017797
 21
33.042558
  0
LINE
  8
OBRYS
 10
68.017797
 20
36.042558
 11
68.017797
 21
81.579881
  0
ARC
  8
OSA
 62
     2
  6
CONTINUOUS
 10
65.017797
 20
36.042558
 40
3.000000
 50
270.000000
 51
360.000000
  0
LINE
  8
OBRYS
 10
67.315931
 20
41.153227
 11
53.187575
 21
57.990746
  0
ARC
  8
OBRYS
 10
65.017797
 20
39.224865
 40
3.000000
 50
0.000000
 51
40.000000
  0
LINE
  8
OBRYS
 10
59.251507
 20
139.801145
 11
66.017797
 21
139.801145
  0
LINE
  8
OBRYS
 10
53.061456
 20
137.898893
 11
58.795166
 21
139.730044
  0
ARC
  8
OBRYS
 10
59.251507
 20
138.301145
 40
1.500000
 50
90.000000
 51
107.711710
  0
LINE
  8
OBRYS
 10
59.017797
 20
190.142958
 11
59.017797
 21
188.612058
  0
LINE
  8
OBRYS
 10
59.017797
 20
180.658847
 11
59.017797
 21
156.416943
  0
LINE
  8
OBRYS
 10
59.017797
 20
137.831550
 11
59.017797
 21
121.042558
  0
ENDBLK
  8
OBRYS
  0
BLOCK
  8
OBRYS
  2
M10x1_17
 70
   66
 10
112.017797
 20
183.042558
  0
LINE
  8
OBRYS
 62
     7
  6
DASHDOT
 10
112.017797
 20
173.713656
 11
112.017797
 21
187.487906
  0
LINE
  8
OBRYS
 10
105.017797
 20
183.042558
 11
119.017797
 21
183.042558
  0
LINE
  8
OBRYS
 10
119.017797
 20
183.042558
 11
119.017797
 21
185.042558
  0
LINE
  8
OBRYS
 10
105.017797
 20
183.042558
 11
105.017797
 21
185.042558
  0
ARC
  8
OBRYS
 10
118.017797
 20
185.042558
 40
1.000000
 50
0.000000
 51
90.000000
  0
LINE
  8
OBRYS
 10
106.017797
 20
186.042558
 11
118.017797
 21
186.042558
  0
ARC
  8
OBRYS
 10
106.017797
 20
185.042558
 40
1.000000
 50
90.000000
 51
180.000000
  0
ENDBLK
  8
OBRYS
  0
BLOCK
  8
OSA
  2
_18
 70
   64
 10
448.334159
 20
321.331947
  0
LINE
  8
OSA
 62
     2
  6
CONTINUOUS
 10
438.046458
 20
324.331947
 11
463.334159
 21
324.331947
  0
LINE
  8
OSA
 62
     2
  6
CONTINUOUS
 10
438.046458
 20
318.331947
 11
463.334159
 21
318.331947
  0
LINE
  8
OSA
 62
     2
  6
CONTINUOUS
 10
318.334159
 20
283.331947
 11
318.334159
 21
286.331947
  0
LINE
  8
OSA
 62
     2
  6
CONTINUOUS
 10
458.334159
 20
283.331947
 11
458.334159
 21
286.331947
  0
LINE
  8
OSA
 62
     2
  6
CONTINUOUS
 10
463.334159
 20
286.331947
 11
310.334159
 21
286.331947
  0
LINE
  8
OSA
 62
     2
  6
CONTINUOUS
 10
463.334159
 20
356.331947
 11
463.334159
 21
286.331947
  0
LINE
  8
OSA
 62
     2
  6
CONTINUOUS
 10
430.620563
 20
356.331947
 11
430.620563
 21
286.331947
  0
LINE
  8
OSA
 62
     2
  6
CONTINUOUS
 10
346.047755
 20
356.331947
 11
346.047755
 21
286.331947
  0
LINE
  8
OSA
 62
     2
  6
CONTINUOUS
 10
338.621854
 20
324.331947
 11
309.741326
 21
324.331947
  0
LINE
  8
OSA
 62
     2
  6
CONTINUOUS
 10
338.621854
 20
318.331947
 11
309.741326
 21
318.331947
  0
LINE
  8
OSA
 62
     2
  6
CONTINUOUS
 10
310.334159
 20
356.331947
 11
463.334159
 21
356.331947
  0
POLYLINE
  8
OSA
 62
     2
  6
CONTINUOUS
 66
    1
  0
VERTEX
  8
OSA
 62
     2
  6
CONTINUOUS
 10
338.046417
 20
356.346741
  0
VERTEX
  8
OSA
 62
     2
  6
CONTINUOUS
 10
338.046417
 20
356.346741
  0
VERTEX
  8
OSA
 62
     2
  6
CONTINUOUS
 10
338.746063
 20
355.601501
  0
VERTEX
  8
OSA
 62
     2
  6
CONTINUOUS
 10
338.892487
 20
355.331940
  0
VERTEX
  8
OSA
 62
     2
  6
CONTINUOUS
 10
343.787048
 20
348.417816
  0
VERTEX
  8
OSA
 62
     2
  6
CONTINUOUS
 10
345.910248
 20
341.932159
  0
VERTEX
  8
OSA
 62
     2
  6
CONTINUOUS
 10
345.494751
 20
335.613403
  0
VERTEX
  8
OSA
 62
     2
  6
CONTINUOUS
 10
342.456116
 20
328.954834
  0
VERTEX
  8
OSA
 62
     2
  6
CONTINUOUS
 10
338.621857
 20
324.331940
  0
VERTEX
  8
OSA
 62
     2
  6
CONTINUOUS
 10
337.933685
 20
323.186035
  0
VERTEX
  8
OSA
 62
     2
  6
CONTINUOUS
 10
337.691284
 20
321.959106
  0
VERTEX
  8
OSA
 62
     2
  6
CONTINUOUS
 10
337.798248
 20
321.331940
  0
VERTEX
  8
OSA
 62
     2
  6
CONTINUOUS
 10
337.691284
 20
320.704773
  0
VERTEX
  8
OSA
 62
     2
  6
CONTINUOUS
 10
337.933685
 20
319.477844
  0
VERTEX
  8
OSA
 62
     2
  6
CONTINUOUS
 10
338.621857
 20
318.331940
  0
VERTEX
  8
OSA
 62
     2
  6
CONTINUOUS
 10
342.456116
 20
313.709076
  0
VERTEX
  8
OSA
 62
     2
  6
CONTINUOUS
 10
345.494751
 20
307.050476
  0
VERTEX
  8
OSA
 62
     2
  6
CONTINUOUS
 10
345.910248
 20
300.731750
  0
VERTEX
  8
OSA
 62
     2
  6
CONTINUOUS
 10
343.787048
 20
294.246063
  0
VERTEX
  8
OSA
 62
     2
  6
CONTINUOUS
 10
338.892487
 20
287.331940
  0
VERTEX
  8
OSA
 62
     2
  6
CONTINUOUS
 10
338.746063
 20
287.062408
  0
VERTEX
  8
OSA
 62
     2
  6
CONTINUOUS
 10
338.046417
 20
286.317169
  0
SEQEND
  8
OSA
  0
POLYLINE
  8
OSA
 62
     2
  6
CONTINUOUS
 66
    1
  0
VERTEX
  8
OSA
 62
     2
  6
CONTINUOUS
 10
438.621918
 20
356.346741
  0
VERTEX
  8
OSA
 62
     2
  6
CONTINUOUS
 10
438.621918
 20
356.346741
  0
VERTEX
  8
OSA
 62
     2
  6
CONTINUOUS
 10
437.922272
 20
355.601501
  0
VERTEX
  8
OSA
 62
     2
  6
CONTINUOUS
 10
437.775848
 20
355.331940
  0
VERTEX
  8
OSA
 62
     2
  6
CONTINUOUS
 10
432.881287
 20
348.417816
  0
VERTEX
  8
OSA
 62
     2
  6
CONTINUOUS
 10
430.758087
 20
341.932159
  0
VERTEX
  8
OSA
 62
     2
  6
CONTINUOUS
 10
431.173553
 20
335.613403
  0
VERTEX
  8
OSA
 62
     2
  6
CONTINUOUS
 10
434.212219
 20
328.954834
  0
VERTEX
  8
OSA
 62
     2
  6
CONTINUOUS
 10
438.046478
 20
324.331940
  0
VERTEX
  8
OSA
 62
     2
  6
CONTINUOUS
 10
438.734650
 20
323.186035
  0
VERTEX
  8
OSA
 62
     2
  6
CONTINUOUS
 10
438.977051
 20
321.959106
  0
VERTEX
  8
OSA
 62
     2
  6
CONTINUOUS
 10
438.870056
 20
321.331940
  0
VERTEX
  8
OSA
 62
     2
  6
CONTINUOUS
 10
438.977051
 20
320.704773
  0
VERTEX
  8
OSA
 62
     2
  6
CONTINUOUS
 10
438.734650
 20
319.477844
  0
VERTEX
  8
OSA
 62
     2
  6
CONTINUOUS
 10
438.046478
 20
318.331940
  0
VERTEX
  8
OSA
 62
     2
  6
CONTINUOUS
 10
434.212219
 20
313.709076
  0
VERTEX
  8
OSA
 62
     2
  6
CONTINUOUS
 10
431.173553
 20
307.050476
  0
VERTEX
  8
OSA
 62
     2
  6
CONTINUOUS
 10
430.758087
 20
300.731750
  0
VERTEX
  8
OSA
 62
     2
  6
CONTINUOUS
 10
432.881287
 20
294.246063
  0
VERTEX
  8
OSA
 62
     2
  6
CONTINUOUS
 10
437.775848
 20
287.331940
  0
VERTEX
  8
OSA
 62
     2
  6
CONTINUOUS
 10
437.922272
 20
287.062408
  0
VERTEX
  8
OSA
 62
     2
  6
CONTINUOUS
 10
438.621918
 20
286.317169
  0
SEQEND
  8
OSA
  0
LINE
  8
OSA
 62
     2
  6
CONTINUOUS
 10
310.334159
 20
356.331947
 11
310.334159
 21
286.331947
  0
LINE
  8
OSA
 62
     2
  6
CONTINUOUS
 10
388.334159
 20
283.331947
 11
458.334159
 21
283.331947
  0
LINE
  8
OSA
 10
388.334159
 20
279.331947
 11
388.334159
 21
394.520655
  0
LINE
  8
OSA
 62
     2
  6
CONTINUOUS
 10
458.334159
 20
283.331947
 11
388.334159
 21
283.331947
  0
LINE
  8
OSA
 62
     2
  6
CONTINUOUS
 10
388.334159
 20
283.331947
 11
318.334159
 21
283.331947
  0
LINE
  8
OSA
 62
     2
  6
CONTINUOUS
 10
390.574099
 20
366.331947
 11
390.814284
 21
367.331947
  0
LINE
  8
OSA
 62
     2
  6
CONTINUOUS
 10
386.094219
 20
366.331947
 11
385.854034
 21
367.331947
  0
LINE
  8
OSA
 10
467.415987
 20
321.331947
 11
291.188112
 21
321.331947
  0
LINE
  8
OSA
 62
     2
  6
CONTINUOUS
 10
458.575249
 20
356.331947
 11
458.357898
 21
359.831947
  0
LINE
  8
OSA
 62
     2
  6
CONTINUOUS
 10
318.093069
 20
356.331947
 11
318.310420
 21
359.831947
  0
ENDBLK
  8
OSA
  0
BLOCK
  8
OBRYS
  2
_19
 70
   64
 10
388.334159
 20
381.331947
  0
ARC
  8
OBRYS
 10
454.334159
 20
385.831947
 40
4.000000
 50
0.000000
 51
90.000000
  0
LINE
  8
OBRYS
 10
458.334159
 20
359.831947
 11
458.334159
 21
385.831947
  0
LINE
  8
OBRYS
 10
454.334159
 20
389.831947
 11
416.334159
 21
389.831947
  0
ARC
  8
OBRYS
 10
416.334159
 20
385.831947
 40
4.000000
 50
90.000000
 51
180.000000
  0
LINE
  8
OBRYS
 10
412.334159
 20
385.831947
 11
412.334159
 21
359.831947
  0
CIRCLE
  8
OBRYS
 10
435.834159
 20
376.831947
 40
5.500000
  0
LINE
  8
OBRYS
 62
     7
  6
DASHDOT
 10
435.834159
 20
376.831947
 11
422.834163
 21
376.831947
  0
LINE
  8
OBRYS
 62
     7
  6
DASHDOT
 10
435.834159
 20
376.831947
 11
448.834155
 21
376.831947
  0
LINE
  8
OBRYS
 62
     7
  6
DASHDOT
 10
435.834159
 20
376.831947
 11
435.834159
 21
389.831943
  0
LINE
  8
OBRYS
 62
     7
  6
DASHDOT
 10
435.834159
 20
376.831947
 11
435.834159
 21
363.831950
  0
LINE
  8
OBRYS
 10
390.834159
 20
365.331947
 11
390.834159
 21
381.331947
  0
POLYLINE
  8
OBRYS
 66
    1
  0
VERTEX
  8
OBRYS
 10
412.334137
 20
378.831940
  0
VERTEX
  8
OBRYS
 10
411.938995
 20
378.835846
  0
VERTEX
  8
OBRYS
 10
411.532257
 20
378.848022
  0
VERTEX
  8
OBRYS
 10
411.106598
 20
378.869781
  0
VERTEX
  8
OBRYS
 10
410.655426
 20
378.903198
  0
VERTEX
  8
OBRYS
 10
410.173492
 20
378.951141
  0
VERTEX
  8
OBRYS
 10
409.658356
 20
379.017242
  0
VERTEX
  8
OBRYS
 10
409.111786
 20
379.105713
  0
VERTEX
  8
OBRYS
 10
408.541718
 20
379.220581
  0
VERTEX
  8
OBRYS
 10
407.963287
 20
379.364838
  0
VERTEX
  8
OBRYS
 10
407.398529
 20
379.539032
  0
VERTEX
  8
OBRYS
 10
406.873199
 20
379.740082
  0
VERTEX
  8
OBRYS
 10
406.411591
 20
379.961090
  0
VERTEX
  8
OBRYS
 10
406.030731
 20
380.192169
  0
VERTEX
  8
OBRYS
 10
405.737030
 20
380.422607
  0
VERTEX
  8
OBRYS
 10
405.526154
 20
380.642944
  0
VERTEX
  8
OBRYS
 10
405.386688
 20
380.846497
  0
VERTEX
  8
OBRYS
 10
405.303925
 20
381.029419
  0
VERTEX
  8
OBRYS
 10
405.263214
 20
381.190613
  0
VERTEX
  8
OBRYS
 10
405.251862
 20
381.330627
  0
VERTEX
  8
OBRYS
 10
405.251862
 20
381.331940
  0
SEQEND
  8
OBRYS
  0
LINE
  8
OBRYS
 10
412.334159
 20
381.331947
 11
388.334159
 21
381.331947
  0
LINE
  8
OBRYS
 10
412.334159
 20
365.331947
 11
388.334159
 21
365.331947
  0
LINE
  8
OBRYS
 10
458.334159
 20
359.831947
 11
388.334159
 21
359.831947
  0
LINE
  8
OBRYS
 10
318.334159
 20
359.831947
 11
388.334159
 21
359.831947
  0
LINE
  8
OBRYS
 10
364.334159
 20
365.331947
 11
388.334159
 21
365.331947
  0
LINE
  8
OBRYS
 10
364.334159
 20
381.331947
 11
388.334159
 21
381.331947
  0
POLYLINE
  8
OBRYS
 66
    1
  0
VERTEX
  8
OBRYS
 10
364.334198
 20
378.831940
  0
VERTEX
  8
OBRYS
 10
364.729340
 20
378.835846
  0
VERTEX
  8
OBRYS
 10
365.136078
 20
378.848022
  0
VERTEX
  8
OBRYS
 10
365.561737
 20
378.869781
  0
VERTEX
  8
OBRYS
 10
366.012909
 20
378.903198
  0
VERTEX
  8
OBRYS
 10
366.494843
 20
378.951141
  0
VERTEX
  8
OBRYS
 10
367.009979
 20
379.017242
  0
VERTEX
  8
OBRYS
 10
367.556549
 20
379.105713
  0
VERTEX
  8
OBRYS
 10
368.126617
 20
379.220581
  0
VERTEX
  8
OBRYS
 10
368.705048
 20
379.364838
  0
VERTEX
  8
OBRYS
 10
369.269806
 20
379.539032
  0
VERTEX
  8
OBRYS
 10
369.795135
 20
379.740082
  0
VERTEX
  8
OBRYS
 10
370.256744
 20
379.961090
  0
VERTEX
  8
OBRYS
 10
370.637604
 20
380.192169
  0
VERTEX
  8
OBRYS
 10
370.931305
 20
380.422607
  0
VERTEX
  8
OBRYS
 10
371.142181
 20
380.642944
  0
VERTEX
  8
OBRYS
 10
371.281647
 20
380.846497
  0
VERTEX
  8
OBRYS
 10
371.364410
 20
381.029419
  0
VERTEX
  8
OBRYS
 10
371.405121
 20
381.190613
  0
VERTEX
  8
OBRYS
 10
371.416473
 20
381.330627
  0
VERTEX
  8
OBRYS
 10
371.416473
 20
381.331940
  0
SEQEND
  8
OBRYS
  0
LINE
  8
OBRYS
 10
385.834159
 20
365.331947
 11
385.834159
 21
381.331947
  0
LINE
  8
OBRYS
 62
     7
  6
DASHDOT
 10
340.834159
 20
376.831947
 11
340.834159
 21
363.831950
  0
LINE
  8
OBRYS
 62
     7
  6
DASHDOT
 10
340.834159
 20
376.831947
 11
340.834159
 21
389.831943
  0
LINE
  8
OBRYS
 62
     7
  6
DASHDOT
 10
340.834159
 20
376.831947
 11
327.834163
 21
376.831947
  0
LINE
  8
OBRYS
 62
     7
  6
DASHDOT
 10
340.834159
 20
376.831947
 11
353.834155
 21
376.831947
  0
CIRCLE
  8
OBRYS
 10
340.834159
 20
376.831947
 40
5.500000
  0
LINE
  8
OBRYS
 62
     7
  6
DASHDOT
 10
388.334159
 20
352.331950
 11
388.334159
 21
397.331943
  0
LINE
  8
OBRYS
 10
364.334159
 20
385.831947
 11
364.334159
 21
359.831947
  0
ARC
  8
OBRYS
 10
360.334159
 20
385.831947
 40
4.000000
 50
0.000000
 51
90.000000
  0
LINE
  8
OBRYS
 10
322.334159
 20
389.831947
 11
360.334159
 21
389.831947
  0
LINE
  8
OBRYS
 10
318.334159
 20
359.831947
 11
318.334159
 21
385.831947
  0
ARC
  8
OBRYS
 10
322.334159
 20
385.831947
 40
4.000000
 50
90.000000
 51
180.000000
  0
LINE
  8
OBRYS
 10
458.334159
 20
359.831947
 11
458.334159
 21
359.331947
  0
LINE
  8
OBRYS
 10
318.334159
 20
359.331947
 11
318.334159
 21
359.831947
  0
ENDBLK
  8
OBRYS
  0
BLOCK
  8
OBRYS
  2
_20
 70
   64
 10
388.334159
 20
261.331947
  0
ARC
  8
OBRYS
 10
454.334159
 20
256.831947
 40
4.000000
 50
270.000000
 51
360.000000
  0
LINE
  8
OBRYS
 10
458.334159
 20
282.831947
 11
458.334159
 21
256.831947
  0
LINE
  8
OBRYS
 10
454.334159
 20
252.831947
 11
416.334159
 21
252.831947
  0
ARC
  8
OBRYS
 10
416.334159
 20
256.831947
 40
4.000000
 50
180.000000
 51
270.000000
  0
LINE
  8
OBRYS
 10
412.334159
 20
256.831947
 11
412.334159
 21
282.831947
  0
CIRCLE
  8
OBRYS
 10
435.834159
 20
265.831947
 40
5.500000
  0
LINE
  8
OBRYS
 62
     7
  6
DASHDOT
 10
435.834159
 20
265.831947
 11
422.834163
 21
265.831947
  0
LINE
  8
OBRYS
 62
     7
  6
DASHDOT
 10
435.834159
 20
265.831947
 11
448.834155
 21
265.831947
  0
LINE
  8
OBRYS
 62
     7
  6
DASHDOT
 10
435.834159
 20
265.831947
 11
435.834159
 21
252.831950
  0
LINE
  8
OBRYS
 62
     7
  6
DASHDOT
 10
435.834159
 20
265.831947
 11
435.834159
 21
278.831943
  0
LINE
  8
OBRYS
 10
390.834159
 20
277.331947
 11
390.834159
 21
261.331947
  0
POLYLINE
  8
OBRYS
 66
    1
  0
VERTEX
  8
OBRYS
 10
412.334137
 20
263.831970
  0
VERTEX
  8
OBRYS
 10
411.938995
 20
263.828064
  0
VERTEX
  8
OBRYS
 10
411.532257
 20
263.815887
  0
VERTEX
  8
OBRYS
 10
411.106598
 20
263.794128
  0
VERTEX
  8
OBRYS
 10
410.655426
 20
263.760712
  0
VERTEX
  8
OBRYS
 10
410.173492
 20
263.712769
  0
VERTEX
  8
OBRYS
 10
409.658356
 20
263.646667
  0
VERTEX
  8
OBRYS
 10
409.111786
 20
263.558197
  0
VERTEX
  8
OBRYS
 10
408.541718
 20
263.443329
  0
VERTEX
  8
OBRYS
 10
407.963287
 20
263.299072
  0
VERTEX
  8
OBRYS
 10
407.398529
 20
263.124878
  0
VERTEX
  8
OBRYS
 10
406.873199
 20
262.923828
  0
VERTEX
  8
OBRYS
 10
406.411591
 20
262.702820
  0
VERTEX
  8
OBRYS
 10
406.030731
 20
262.471741
  0
VERTEX
  8
OBRYS
 10
405.737030
 20
262.241302
  0
VERTEX
  8
OBRYS
 10
405.526154
 20
262.020966
  0
VERTEX
  8
OBRYS
 10
405.386688
 20
261.817413
  0
VERTEX
  8
OBRYS
 10
405.303925
 20
261.634491
  0
VERTEX
  8
OBRYS
 10
405.263214
 20
261.473297
  0
VERTEX
  8
OBRYS
 10
405.251862
 20
261.333282
  0
VERTEX
  8
OBRYS
 10
405.251862
 20
261.331970
  0
SEQEND
  8
OBRYS
  0
LINE
  8
OBRYS
 10
412.334159
 20
261.331947
 11
388.334159
 21
261.331947
  0
LINE
  8
OBRYS
 10
412.334159
 20
277.331947
 11
388.334159
 21
277.331947
  0
LINE
  8
OBRYS
 10
458.334159
 20
282.831947
 11
388.334159
 21
282.831947
  0
LINE
  8
OBRYS
 10
318.334159
 20
282.831947
 11
388.334159
 21
282.831947
  0
LINE
  8
OBRYS
 10
364.334159
 20
277.331947
 11
388.334159
 21
277.331947
  0
LINE
  8
OBRYS
 10
364.334159
 20
261.331947
 11
388.334159
 21
261.331947
  0
POLYLINE
  8
OBRYS
 66
    1
  0
VERTEX
  8
OBRYS
 10
364.334198
 20
263.831970
  0
VERTEX
  8
OBRYS
 10
364.729340
 20
263.828064
  0
VERTEX
  8
OBRYS
 10
365.136078
 20
263.815887
  0
VERTEX
  8
OBRYS
 10
365.561737
 20
263.794128
  0
VERTEX
  8
OBRYS
 10
366.012909
 20
263.760712
  0
VERTEX
  8
OBRYS
 10
366.494843
 20
263.712769
  0
VERTEX
  8
OBRYS
 10
367.009979
 20
263.646667
  0
VERTEX
  8
OBRYS
 10
367.556549
 20
263.558197
  0
VERTEX
  8
OBRYS
 10
368.126617
 20
263.443329
  0
VERTEX
  8
OBRYS
 10
368.705048
 20
263.299072
  0
VERTEX
  8
OBRYS
 10
369.269806
 20
263.124878
  0
VERTEX
  8
OBRYS
 10
369.795135
 20
262.923828
  0
VERTEX
  8
OBRYS
 10
370.256744
 20
262.702820
  0
VERTEX
  8
OBRYS
 10
370.637604
 20
262.471741
  0
VERTEX
  8
OBRYS
 10
370.931305
 20
262.241302
  0
VERTEX
  8
OBRYS
 10
371.142181
 20
262.020966
  0
VERTEX
  8
OBRYS
 10
371.281647
 20
261.817413
  0
VERTEX
  8
OBRYS
 10
371.364410
 20
261.634491
  0
VERTEX
  8
OBRYS
 10
371.405121
 20
261.473297
  0
VERTEX
  8
OBRYS
 10
371.416473
 20
261.333282
  0
VERTEX
  8
OBRYS
 10
371.416473
 20
261.331970
  0
SEQEND
  8
OBRYS
  0
LINE
  8
OBRYS
 10
385.834159
 20
277.331947
 11
385.834159
 21
261.331947
  0
LINE
  8
OBRYS
 62
     7
  6
DASHDOT
 10
340.834159
 20
265.831947
 11
340.834159
 21
278.831943
  0
LINE
  8
OBRYS
 62
     7
  6
DASHDOT
 10
340.834159
 20
265.831947
 11
340.834159
 21
252.831950
  0
LINE
  8
OBRYS
 62
     7
  6
DASHDOT
 10
340.834159
 20
265.831947
 11
327.834163
 21
265.831947
  0
LINE
  8
OBRYS
 62
     7
  6
DASHDOT
 10
340.834159
 20
265.831947
 11
353.834155
 21
265.831947
  0
CIRCLE
  8
OBRYS
 10
340.834159
 20
265.831947
 40
5.500000
  0
LINE
  8
OBRYS
 62
     7
  6
DASHDOT
 10
388.334159
 20
290.331943
 11
388.334159
 21
245.331950
  0
LINE
  8
OBRYS
 10
364.334159
 20
256.831947
 11
364.334159
 21
282.831947
  0
ARC
  8
OBRYS
 10
360.334159
 20
256.831947
 40
4.000000
 50
270.000000
 51
360.000000
  0
LINE
  8
OBRYS
 10
322.334159
 20
252.831947
 11
360.334159
 21
252.831947
  0
LINE
  8
OBRYS
 10
318.334159
 20
282.831947
 11
318.334159
 21
256.831947
  0
ARC
  8
OBRYS
 10
322.334159
 20
256.831947
 40
4.000000
 50
180.000000
 51
270.000000
  0
LINE
  8
OBRYS
 10
458.334159
 20
282.831947
 11
458.334159
 21
283.331947
  0
LINE
  8
OBRYS
 10
318.334159
 20
283.331947
 11
318.334159
 21
282.831947
  0
ENDBLK
  8
OBRYS
  0
BLOCK
  8
OSA
  2
_21
 70
   64
 10
448.334159
 20
-126.502493
  0
ARC
  8
OSA
 62
     2
  6
CONTINUOUS
 10
322.505732
 20
-173.502493
 40
2.000000
 50
45.000000
 51
90.000000
  0
ARC
  8
OSA
 62
     2
  6
CONTINUOUS
 10
339.626837
 20
-173.502493
 40
2.000000
 50
28.545372
 51
90.000000
  0
ARC
  8
OSA
 62
     2
  6
CONTINUOUS
 10
343.090608
 20
-173.502493
 40
2.000000
 50
41.888704
 51
90.000000
  0
LINE
  8
OSA
 62
     2
  6
CONTINUOUS
 10
458.334159
 20
-91.502493
 11
463.334159
 21
-91.502493
  0
LINE
  8
OSA
 62
     2
  6
CONTINUOUS
 10
310.334159
 20
-91.502493
 11
318.334159
 21
-91.502493
  0
LINE
  8
OSA
 62
     2
  6
CONTINUOUS
 10
458.334159
 20
-161.502493
 11
463.334159
 21
-161.502493
  0
LINE
  8
OSA
 62
     2
  6
CONTINUOUS
 10
310.334159
 20
-161.502493
 11
318.334159
 21
-161.502493
  0
ARC
  8
OSA
 62
     2
  6
CONTINUOUS
 10
451.334159
 20
-115.265006
 40
3.000000
 50
113.832713
 51
180.000000
  0
LINE
  8
OSA
 62
     2
  6
CONTINUOUS
 10
448.334159
 20
-115.265006
 11
448.334159
 21
-153.502493
  0
ARC
  8
OSA
 62
     2
  6
CONTINUOUS
 10
451.334159
 20
-153.502493
 40
3.000000
 50
180.000000
 51
270.000000
  0
LINE
  8
OSA
 62
     2
  6
CONTINUOUS
 10
449.670815
 20
-112.720103
 11
450.180586
 21
-112.434991
  0
LINE
  8
OSA
 62
     2
  6
CONTINUOUS
 10
450.180586
 20
-112.434991
 11
450.627100
 21
-112.123403
  0
LINE
  8
OSA
 62
     2
  6
CONTINUOUS
 10
450.627100
 20
-112.123403
 11
451.003074
 21
-111.798427
  0
LINE
  8
OSA
 62
     2
  6
CONTINUOUS
 10
451.003074
 20
-111.798427
 11
451.307304
 21
-111.473306
  0
LINE
  8
OSA
 62
     2
  6
CONTINUOUS
 10
451.307304
 20
-111.473306
 11
451.544157
 21
-111.159523
  0
LINE
  8
OSA
 62
     2
  6
CONTINUOUS
 10
451.544157
 20
-111.159523
 11
451.721872
 21
-110.865599
  0
LINE
  8
OSA
 62
     2
  6
CONTINUOUS
 10
451.721872
 20
-110.865599
 11
451.850520
 21
-110.596799
  0
LINE
  8
OSA
 62
     2
  6
CONTINUOUS
 10
451.850520
 20
-110.596799
 11
451.940295
 21
-110.355500
  0
LINE
  8
OSA
 62
     2
  6
CONTINUOUS
 10
451.940295
 20
-110.355500
 11
452.000417
 21
-110.141896
  0
LINE
  8
OSA
 62
     2
  6
CONTINUOUS
 10
452.000417
 20
-110.141896
 11
452.038627
 21
-109.954735
  0
LINE
  8
OSA
 62
     2
  6
CONTINUOUS
 10
452.038627
 20
-109.954735
 11
452.061092
 21
-109.791940
  0
LINE
  8
OSA
 62
     2
  6
CONTINUOUS
 10
452.061092
 20
-109.791940
 11
452.072540
 21
-109.651060
  0
LINE
  8
OSA
 62
     2
  6
CONTINUOUS
 10
452.072540
 20
-109.651060
 11
452.076494
 21
-109.529567
  0
LINE
  8
OSA
 62
     2
  6
CONTINUOUS
 10
452.076494
 20
-109.529567
 11
452.076630
 21
-109.502493
  0
LINE
  8
OSA
 62
     2
  6
CONTINUOUS
 10
440.222855
 20
-109.502493
 11
440.224735
 21
-109.603228
  0
LINE
  8
OSA
 62
     2
  6
CONTINUOUS
 10
440.224735
 20
-109.603228
 11
440.231455
 21
-109.717895
  0
LINE
  8
OSA
 62
     2
  6
CONTINUOUS
 10
440.231455
 20
-109.717895
 11
440.245025
 21
-109.848147
  0
LINE
  8
OSA
 62
     2
  6
CONTINUOUS
 10
440.245025
 20
-109.848147
 11
440.268075
 21
-109.995665
  0
LINE
  8
OSA
 62
     2
  6
CONTINUOUS
 10
440.268075
 20
-109.995665
 11
440.303981
 21
-110.162048
  0
LINE
  8
OSA
 62
     2
  6
CONTINUOUS
 10
440.303981
 20
-110.162048
 11
440.356986
 21
-110.348659
  0
LINE
  8
OSA
 62
     2
  6
CONTINUOUS
 10
440.356986
 20
-110.348659
 11
440.432272
 21
-110.556388
  0
LINE
  8
OSA
 62
     2
  6
CONTINUOUS
 10
440.432272
 20
-110.556388
 11
440.535938
 21
-110.785353
  0
LINE
  8
OSA
 62
     2
  6
CONTINUOUS
 10
440.535938
 20
-110.785353
 11
440.674816
 21
-111.034535
  0
LINE
  8
OSA
 62
     2
  6
CONTINUOUS
 10
440.674816
 20
-111.034535
 11
440.856043
 21
-111.301395
  0
LINE
  8
OSA
 62
     2
  6
CONTINUOUS
 10
440.856043
 20
-111.301395
 11
441.086370
 21
-111.581578
  0
LINE
  8
OSA
 62
     2
  6
CONTINUOUS
 10
441.086370
 20
-111.581578
 11
441.371212
 21
-111.868814
  0
LINE
  8
OSA
 62
     2
  6
CONTINUOUS
 10
441.371212
 20
-111.868814
 11
441.713634
 21
-112.155159
  0
LINE
  8
OSA
 62
     2
  6
CONTINUOUS
 10
441.713634
 20
-112.155159
 11
442.113535
 21
-112.431629
  0
LINE
  8
OSA
 62
     2
  6
CONTINUOUS
 10
442.113535
 20
-112.431629
 11
442.567382
 21
-112.689140
  0
LINE
  8
OSA
 62
     2
  6
CONTINUOUS
 10
442.567382
 20
-112.689140
 11
443.068669
 21
-112.919531
  0
LINE
  8
OSA
 62
     2
  6
CONTINUOUS
 10
443.068669
 20
-112.919531
 11
443.609044
 21
-113.116331
  0
LINE
  8
OSA
 62
     2
  6
CONTINUOUS
 10
443.609044
 20
-113.116331
 11
444.179749
 21
-113.275072
  0
LINE
  8
OSA
 62
     2
  6
CONTINUOUS
 10
444.179749
 20
-113.275072
 11
444.772888
 21
-113.393064
  0
LINE
  8
OSA
 62
     2
  6
CONTINUOUS
 10
444.772888
 20
-113.393064
 11
445.382163
 21
-113.468806
  0
LINE
  8
OSA
 62
     2
  6
CONTINUOUS
 10
445.382163
 20
-113.468806
 11
446.002874
 21
-113.501265
  0
LINE
  8
OSA
 62
     2
  6
CONTINUOUS
 10
446.002874
 20
-113.501265
 11
446.631250
 21
-113.489271
  0
LINE
  8
OSA
 62
     2
  6
CONTINUOUS
 10
446.631250
 20
-113.489271
 11
447.263263
 21
-113.431264
  0
LINE
  8
OSA
 62
     2
  6
CONTINUOUS
 10
447.263263
 20
-113.431264
 11
447.893249
 21
-113.325507
  0
LINE
  8
OSA
 62
     2
  6
CONTINUOUS
 10
447.893249
 20
-113.325507
 11
448.512733
 21
-113.170836
  0
LINE
  8
OSA
 62
     2
  6
CONTINUOUS
 10
448.512733
 20
-113.170836
 11
449.109991
 21
-112.967839
  0
LINE
  8
OSA
 62
     2
  6
CONTINUOUS
 10
449.109991
 20
-112.967839
 11
450.121956
 21
-112.520818
  0
LINE
  8
OSA
 62
     2
  6
CONTINUOUS
 10
440.222855
 20
-109.502493
 11
440.222855
 21
-96.502493
  0
LINE
  8
OSA
 62
     2
  6
CONTINUOUS
 10
403.722857
 20
-109.502490
 11
403.722857
 21
-96.502493
  0
LINE
  8
OSA
 62
     2
  6
CONTINUOUS
 10
418.459949
 20
-109.502490
 11
418.459949
 21
-96.502493
  0
POLYLINE
  8
OSA
 62
     2
  6
CONTINUOUS
 66
    1
  0
VERTEX
  8
OSA
 62
     2
  6
CONTINUOUS
 10
403.722870
 20
-109.502510
  0
VERTEX
  8
OSA
 62
     2
  6
CONTINUOUS
 10
403.726532
 20
-109.627724
  0
VERTEX
  8
OSA
 62
     2
  6
CONTINUOUS
 10
403.739349
 20
-109.770088
  0
VERTEX
  8
OSA
 62
     2
  6
CONTINUOUS
 10
403.765350
 20
-109.931374
  0
VERTEX
  8
OSA
 62
     2
  6
CONTINUOUS
 10
403.809174
 20
-110.113106
  0
VERTEX
  8
OSA
 62
     2
  6
CONTINUOUS
 10
403.877045
 20
-110.316475
  0
VERTEX
  8
OSA
 62
     2
  6
CONTINUOUS
 10
403.975922
 20
-110.541878
  0
VERTEX
  8
OSA
 62
     2
  6
CONTINUOUS
 10
404.114105
 20
-110.788612
  0
VERTEX
  8
OSA
 62
     2
  6
CONTINUOUS
 10
404.300140
 20
-111.054451
  0
VERTEX
  8
OSA
 62
     2
  6
CONTINUOUS
 10
404.541840
 20
-111.335274
  0
VERTEX
  8
OSA
 62
     2
  6
CONTINUOUS
 10
404.845673
 20
-111.624916
  0
VERTEX
  8
OSA
 62
     2
  6
CONTINUOUS
 10
405.214691
 20
-111.915565
  0
VERTEX
  8
OSA
 62
     2
  6
CONTINUOUS
 10
405.647675
 20
-112.198250
  0
VERTEX
  8
OSA
 62
     2
  6
CONTINUOUS
 10
406.138641
 20
-112.464149
  0
VERTEX
  8
OSA
 62
     2
  6
CONTINUOUS
 10
406.677826
 20
-112.705544
  0
VERTEX
  8
OSA
 62
     2
  6
CONTINUOUS
 10
407.253021
 20
-112.916939
  0
VERTEX
  8
OSA
 62
     2
  6
CONTINUOUS
 10
407.851898
 20
-113.095222
  0
VERTEX
  8
OSA
 62
     2
  6
CONTINUOUS
 10
408.464081
 20
-113.239601
  0
VERTEX
  8
OSA
 62
     2
  6
CONTINUOUS
 10
409.081879
 20
-113.350868
  0
VERTEX
  8
OSA
 62
     2
  6
CONTINUOUS
 10
409.701263
 20
-113.430672
  0
VERTEX
  8
OSA
 62
     2
  6
CONTINUOUS
 10
410.321503
 20
-113.480598
  0
VERTEX
  8
OSA
 62
     2
  6
CONTINUOUS
 10
410.944550
 20
-113.501717
  0
VERTEX
  8
OSA
 62
     2
  6
CONTINUOUS
 10
411.573456
 20
-113.493935
  0
VERTEX
  8
OSA
 62
     2
  6
CONTINUOUS
 10
412.212006
 20
-113.455971
  0
VERTEX
  8
OSA
 62
     2
  6
CONTINUOUS
 10
412.862152
 20
-113.385292
  0
VERTEX
  8
OSA
 62
     2
  6
CONTINUOUS
 10
413.523651
 20
-113.278328
  0
VERTEX
  8
OSA
 62
     2
  6
CONTINUOUS
 10
414.191254
 20
-113.131325
  0
VERTEX
  8
OSA
 62
     2
  6
CONTINUOUS
 10
414.854706
 20
-112.941475
  0
VERTEX
  8
OSA
 62
     2
  6
CONTINUOUS
 10
415.498016
 20
-112.708382
  0
VERTEX
  8
OSA
 62
     2
  6
CONTINUOUS
 10
416.101898
 20
-112.435463
  0
VERTEX
  8
OSA
 62
     2
  6
CONTINUOUS
 10
416.646576
 20
-112.130440
  0
VERTEX
  8
OSA
 62
     2
  6
CONTINUOUS
 10
417.116913
 20
-111.804939
  0
VERTEX
  8
OSA
 62
     2
  6
CONTINUOUS
 10
417.504486
 20
-111.472420
  0
VERTEX
  8
OSA
 62
     2
  6
CONTINUOUS
 10
417.809296
 20
-111.145912
  0
VERTEX
  8
OSA
 62
     2
  6
CONTINUOUS
 10
418.038422
 20
-110.836037
  0
VERTEX
  8
OSA
 62
     2
  6
CONTINUOUS
 10
418.202728
 20
-110.550087
  0
VERTEX
  8
OSA
 62
     2
  6
CONTINUOUS
 10
418.315033
 20
-110.291939
  0
VERTEX
  8
OSA
 62
     2
  6
CONTINUOUS
 10
418.387299
 20
-110.062782
  0
VERTEX
  8
OSA
 62
     2
  6
CONTINUOUS
 10
418.430145
 20
-109.861855
  0
VERTEX
  8
OSA
 62
     2
  6
CONTINUOUS
 10
418.452118
 20
-109.687141
  0
VERTEX
  8
OSA
 62
     2
  6
CONTINUOUS
 10
418.459686
 20
-109.536171
  0
VERTEX
  8
OSA
 62
     2
  6
CONTINUOUS
 10
418.459930
 20
-109.502510
  0
SEQEND
  8
OSA
  0
LINE
  8
OSA
 62
     2
  6
CONTINUOUS
 10
388.334159
 20
-96.502493
 11
455.334159
 21
-96.502493
  0
LINE
  8
OSA
 62
     2
  6
CONTINUOUS
 10
388.334159
 20
-88.502493
 11
458.334159
 21
-88.502493
  0
ARC
  8
OSA
 62
     2
  6
CONTINUOUS
 10
455.076630
 20
-99.502493
 40
3.000000
 50
90.000000
 51
180.000000
  0
LINE
  8
OSA
 62
     2
  6
CONTINUOUS
 10
452.076630
 20
-99.502493
 11
452.076630
 21
-109.502493
  0
ARC
  8
OSA
 62
     2
  6
CONTINUOUS
 10
455.334159
 20
-93.502493
 40
3.000000
 50
270.000000
 51
360.000000
  0
LINE
  8
OSA
 62
     2
  6
CONTINUOUS
 10
458.334159
 20
-88.502493
 11
458.334159
 21
-93.502493
  0
LINE
  8
OSA
 62
     2
  6
CONTINUOUS
 10
318.334159
 20
-159.502493
 11
318.334159
 21
-165.384758
  0
ARC
  8
OSA
 62
     2
  6
CONTINUOUS
 10
321.334159
 20
-159.502493
 40
3.000000
 50
90.000000
 51
180.000000
  0
ARC
  8
OSA
 62
     2
  6
CONTINUOUS
 10
320.592988
 20
-169.502493
 40
2.000000
 50
182.000000
 51
270.000000
  0
LINE
  8
OSA
 62
     2
  6
CONTINUOUS
 10
318.334159
 20
-165.384758
 11
318.594206
 21
-169.572292
  0
LINE
  8
OSA
 62
     2
  6
CONTINUOUS
 10
388.334159
 20
-156.502493
 11
321.334159
 21
-156.502493
  0
LINE
  8
OSA
 62
     2
  6
CONTINUOUS
 10
320.592988
 20
-171.502493
 11
388.334159
 21
-171.502493
  0
LINE
  8
OSA
 62
     2
  6
CONTINUOUS
 10
456.075330
 20
-171.502493
 11
388.334159
 21
-171.502493
  0
LINE
  8
OSA
 62
     2
  6
CONTINUOUS
 10
388.334159
 20
-156.502493
 11
455.334159
 21
-156.502493
  0
LINE
  8
OSA
 62
     2
  6
CONTINUOUS
 10
458.334159
 20
-165.384758
 11
458.074112
 21
-169.572292
  0
ARC
  8
OSA
 62
     2
  6
CONTINUOUS
 10
456.075330
 20
-169.502493
 40
2.000000
 50
270.000000
 51
358.000000
  0
ARC
  8
OSA
 62
     2
  6
CONTINUOUS
 10
455.334159
 20
-159.502493
 40
3.000000
 50
0.000000
 51
90.000000
  0
LINE
  8
OSA
 62
     2
  6
CONTINUOUS
 10
458.334159
 20
-159.502493
 11
458.334159
 21
-165.384758
  0
ARC
  8
OSA
 62
     2
  6
CONTINUOUS
 10
433.577710
 20
-173.502493
 40
2.000000
 50
90.000000
 51
138.111296
  0
ARC
  8
OSA
 62
     2
  6
CONTINUOUS
 10
437.041481
 20
-173.502493
 40
2.000000
 50
90.000000
 51
151.454628
  0
LINE
  8
OSA
 10
388.334159
 20
-84.502493
 11
388.334159
 21
-199.691201
  0
LINE
  8
OSA
 62
     2
  6
CONTINUOUS
 10
458.334159
 20
-88.502493
 11
458.334159
 21
-91.502493
  0
ARC
  8
OSA
 62
     2
  6
CONTINUOUS
 10
454.162586
 20
-173.502493
 40
2.000000
 50
90.000000
 51
135.000000
  0
LINE
  8
OSA
 10
445.334159
 20
-126.502493
 11
486.834159
 21
-126.502493
  0
ARC
  8
OSA
 62
     2
  6
CONTINUOUS
 10
325.334159
 20
-153.502493
 40
3.000000
 50
270.000000
 51
360.000000
  0
LINE
  8
OSA
 62
     2
  6
CONTINUOUS
 10
318.334159
 20
-88.502493
 11
318.334159
 21
-93.502493
  0
ARC
  8
OSA
 62
     2
  6
CONTINUOUS
 10
321.334159
 20
-93.502493
 40
3.000000
 50
180.000000
 51
270.000000
  0
LINE
  8
OSA
 62
     2
  6
CONTINUOUS
 10
324.591688
 20
-99.502493
 11
324.591688
 21
-109.502493
  0
ARC
  8
OSA
 62
     2
  6
CONTINUOUS
 10
321.591688
 20
-99.502493
 40
3.000000
 50
0.000000
 51
90.000000
  0
LINE
  8
OSA
 62
     2
  6
CONTINUOUS
 10
458.334159
 20
-88.502493
 11
388.334159
 21
-88.502493
  0
LINE
  8
OSA
 62
     2
  6
CONTINUOUS
 10
388.334159
 20
-88.502493
 11
318.334159
 21
-88.502493
  0
LINE
  8
OSA
 62
     2
  6
CONTINUOUS
 10
388.334159
 20
-96.502493
 11
321.334159
 21
-96.502493
  0
LINE
  8
OSA
 10
448.334159
 20
-126.502493
 11
318.334159
 21
-126.502493
  0
POLYLINE
  8
OSA
 62
     2
  6
CONTINUOUS
 66
    1
  0
VERTEX
  8
OSA
 62
     2
  6
CONTINUOUS
 10
372.945465
 20
-109.502510
  0
VERTEX
  8
OSA
 62
     2
  6
CONTINUOUS
 10
372.941803
 20
-109.627724
  0
VERTEX
  8
OSA
 62
     2
  6
CONTINUOUS
 10
372.928986
 20
-109.770088
  0
VERTEX
  8
OSA
 62
     2
  6
CONTINUOUS
 10
372.902985
 20
-109.931374
  0
VERTEX
  8
OSA
 62
     2
  6
CONTINUOUS
 10
372.859161
 20
-110.113106
  0
VERTEX
  8
OSA
 62
     2
  6
CONTINUOUS
 10
372.791290
 20
-110.316475
  0
VERTEX
  8
OSA
 62
     2
  6
CONTINUOUS
 10
372.692413
 20
-110.541878
  0
VERTEX
  8
OSA
 62
     2
  6
CONTINUOUS
 10
372.554230
 20
-110.788612
  0
VERTEX
  8
OSA
 62
     2
  6
CONTINUOUS
 10
372.368195
 20
-111.054451
  0
VERTEX
  8
OSA
 62
     2
  6
CONTINUOUS
 10
372.126495
 20
-111.335274
  0
VERTEX
  8
OSA
 62
     2
  6
CONTINUOUS
 10
371.822662
 20
-111.624916
  0
VERTEX
  8
OSA
 62
     2
  6
CONTINUOUS
 10
371.453644
 20
-111.915565
  0
VERTEX
  8
OSA
 62
     2
  6
CONTINUOUS
 10
371.020660
 20
-112.198250
  0
VERTEX
  8
OSA
 62
     2
  6
CONTINUOUS
 10
370.529694
 20
-112.464149
  0
VERTEX
  8
OSA
 62
     2
  6
CONTINUOUS
 10
369.990509
 20
-112.705544
  0
VERTEX
  8
OSA
 62
     2
  6
CONTINUOUS
 10
369.415314
 20
-112.916939
  0
VERTEX
  8
OSA
 62
     2
  6
CONTINUOUS
 10
368.816437
 20
-113.095222
  0
VERTEX
  8
OSA
 62
     2
  6
CONTINUOUS
 10
368.204254
 20
-113.239601
  0
VERTEX
  8
OSA
 62
     2
  6
CONTINUOUS
 10
367.586456
 20
-113.350868
  0
VERTEX
  8
OSA
 62
     2
  6
CONTINUOUS
 10
366.967072
 20
-113.430672
  0
VERTEX
  8
OSA
 62
     2
  6
CONTINUOUS
 10
366.346832
 20
-113.480598
  0
VERTEX
  8
OSA
 62
     2
  6
CONTINUOUS
 10
365.723785
 20
-113.501717
  0
VERTEX
  8
OSA
 62
     2
  6
CONTINUOUS
 10
365.094879
 20
-113.493935
  0
VERTEX
  8
OSA
 62
     2
  6
CONTINUOUS
 10
364.456329
 20
-113.455971
  0
VERTEX
  8
OSA
 62
     2
  6
CONTINUOUS
 10
363.806183
 20
-113.385292
  0
VERTEX
  8
OSA
 62
     2
  6
CONTINUOUS
 10
363.144684
 20
-113.278328
  0
VERTEX
  8
OSA
 62
     2
  6
CONTINUOUS
 10
362.477081
 20
-113.131325
  0
VERTEX
  8
OSA
 62
     2
  6
CONTINUOUS
 10
361.813629
 20
-112.941475
  0
VERTEX
  8
OSA
 62
     2
  6
CONTINUOUS
 10
361.170319
 20
-112.708382
  0
VERTEX
  8
OSA
 62
     2
  6
CONTINUOUS
 10
360.566437
 20
-112.435463
  0
VERTEX
  8
OSA
 62
     2
  6
CONTINUOUS
 10
360.021759
 20
-112.130440
  0
VERTEX
  8
OSA
 62
     2
  6
CONTINUOUS
 10
359.551422
 20
-111.804939
  0
VERTEX
  8
OSA
 62
     2
  6
CONTINUOUS
 10
359.163849
 20
-111.472420
  0
VERTEX
  8
OSA
 62
     2
  6
CONTINUOUS
 10
358.859039
 20
-111.145912
  0
VERTEX
  8
OSA
 62
     2
  6
CONTINUOUS
 10
358.629913
 20
-110.836037
  0
VERTEX
  8
OSA
 62
     2
  6
CONTINUOUS
 10
358.465607
 20
-110.550087
  0
VERTEX
  8
OSA
 62
     2
  6
CONTINUOUS
 10
358.353302
 20
-110.291939
  0
VERTEX
  8
OSA
 62
     2
  6
CONTINUOUS
 10
358.281036
 20
-110.062782
  0
VERTEX
  8
OSA
 62
     2
  6
CONTINUOUS
 10
358.238190
 20
-109.861855
  0
VERTEX
  8
OSA
 62
     2
  6
CONTINUOUS
 10
358.216217
 20
-109.687141
  0
VERTEX
  8
OSA
 62
     2
  6
CONTINUOUS
 10
358.208649
 20
-109.536171
  0
VERTEX
  8
OSA
 62
     2
  6
CONTINUOUS
 10
358.208405
 20
-109.502510
  0
SEQEND
  8
OSA
  0
LINE
  8
OSA
 62
     2
  6
CONTINUOUS
 10
358.208369
 20
-109.502490
 11
358.208369
 21
-96.502493
  0
LINE
  8
OSA
 62
     2
  6
CONTINUOUS
 10
372.945461
 20
-109.502490
 11
372.945461
 21
-96.502493
  0
LINE
  8
OSA
 62
     2
  6
CONTINUOUS
 10
336.445463
 20
-109.502493
 11
336.445463
 21
-96.502493
  0
LINE
  8
OSA
 62
     2
  6
CONTINUOUS
 10
328.334159
 20
-115.265006
 11
328.334159
 21
-153.502493
  0
LINE
  8
OSA
 62
     2
  6
CONTINUOUS
 10
336.445463
 20
-109.502493
 11
336.443583
 21
-109.603228
  0
LINE
  8
OSA
 62
     2
  6
CONTINUOUS
 10
336.443583
 20
-109.603228
 11
336.436863
 21
-109.717895
  0
LINE
  8
OSA
 62
     2
  6
CONTINUOUS
 10
336.436863
 20
-109.717895
 11
336.423293
 21
-109.848147
  0
LINE
  8
OSA
 62
     2
  6
CONTINUOUS
 10
336.423293
 20
-109.848147
 11
336.400243
 21
-109.995665
  0
LINE
  8
OSA
 62
     2
  6
CONTINUOUS
 10
336.400243
 20
-109.995665
 11
336.364337
 21
-110.162048
  0
LINE
  8
OSA
 62
     2
  6
CONTINUOUS
 10
336.364337
 20
-110.162048
 11
336.311332
 21
-110.348659
  0
LINE
  8
OSA
 62
     2
  6
CONTINUOUS
 10
336.311332
 20
-110.348659
 11
336.236046
 21
-110.556388
  0
LINE
  8
OSA
 62
     2
  6
CONTINUOUS
 10
336.236046
 20
-110.556388
 11
336.132379
 21
-110.785353
  0
LINE
  8
OSA
 62
     2
  6
CONTINUOUS
 10
336.132379
 20
-110.785353
 11
335.993502
 21
-111.034535
  0
LINE
  8
OSA
 62
     2
  6
CONTINUOUS
 10
335.993502
 20
-111.034535
 11
335.812275
 21
-111.301395
  0
LINE
  8
OSA
 62
     2
  6
CONTINUOUS
 10
335.812275
 20
-111.301395
 11
335.581948
 21
-111.581578
  0
LINE
  8
OSA
 62
     2
  6
CONTINUOUS
 10
335.581948
 20
-111.581578
 11
335.297106
 21
-111.868814
  0
LINE
  8
OSA
 62
     2
  6
CONTINUOUS
 10
335.297106
 20
-111.868814
 11
334.954684
 21
-112.155159
  0
LINE
  8
OSA
 62
     2
  6
CONTINUOUS
 10
334.954684
 20
-112.155159
 11
334.554783
 21
-112.431629
  0
LINE
  8
OSA
 62
     2
  6
CONTINUOUS
 10
334.554783
 20
-112.431629
 11
334.100936
 21
-112.689140
  0
LINE
  8
OSA
 62
     2
  6
CONTINUOUS
 10
334.100936
 20
-112.689140
 11
333.599649
 21
-112.919531
  0
LINE
  8
OSA
 62
     2
  6
CONTINUOUS
 10
333.599649
 20
-112.919531
 11
333.059274
 21
-113.116331
  0
LINE
  8
OSA
 62
     2
  6
CONTINUOUS
 10
333.059274
 20
-113.116331
 11
332.488569
 21
-113.275072
  0
LINE
  8
OSA
 62
     2
  6
CONTINUOUS
 10
332.488569
 20
-113.275072
 11
331.895430
 21
-113.393064
  0
LINE
  8
OSA
 62
     2
  6
CONTINUOUS
 10
331.895430
 20
-113.393064
 11
331.286155
 21
-113.468806
  0
LINE
  8
OSA
 62
     2
  6
CONTINUOUS
 10
331.286155
 20
-113.468806
 11
330.665444
 21
-113.501265
  0
LINE
  8
OSA
 62
     2
  6
CONTINUOUS
 10
330.665444
 20
-113.501265
 11
330.037068
 21
-113.489271
  0
LINE
  8
OSA
 62
     2
  6
CONTINUOUS
 10
330.037068
 20
-113.489271
 11
329.405055
 21
-113.431264
  0
LINE
  8
OSA
 62
     2
  6
CONTINUOUS
 10
329.405055
 20
-113.431264
 11
328.775069
 21
-113.325507
  0
LINE
  8
OSA
 62
     2
  6
CONTINUOUS
 10
328.775069
 20
-113.325507
 11
328.155585
 21
-113.170836
  0
LINE
  8
OSA
 62
     2
  6
CONTINUOUS
 10
328.155585
 20
-113.170836
 11
327.558327
 21
-112.967839
  0
LINE
  8
OSA
 62
     2
  6
CONTINUOUS
 10
327.558327
 20
-112.967839
 11
326.546362
 21
-112.520818
  0
LINE
  8
OSA
 62
     2
  6
CONTINUOUS
 10
326.997503
 20
-112.720103
 11
326.487732
 21
-112.434991
  0
LINE
  8
OSA
 62
     2
  6
CONTINUOUS
 10
326.487732
 20
-112.434991
 11
326.041218
 21
-112.123403
  0
LINE
  8
OSA
 62
     2
  6
CONTINUOUS
 10
326.041218
 20
-112.123403
 11
325.665244
 21
-111.798427
  0
LINE
  8
OSA
 62
     2
  6
CONTINUOUS
 10
325.665244
 20
-111.798427
 11
325.361014
 21
-111.473306
  0
LINE
  8
OSA
 62
     2
  6
CONTINUOUS
 10
325.361014
 20
-111.473306
 11
325.124161
 21
-111.159523
  0
LINE
  8
OSA
 62
     2
  6
CONTINUOUS
 10
325.124161
 20
-111.159523
 11
324.946446
 21
-110.865599
  0
LINE
  8
OSA
 62
     2
  6
CONTINUOUS
 10
324.946446
 20
-110.865599
 11
324.817798
 21
-110.596799
  0
LINE
  8
OSA
 62
     2
  6
CONTINUOUS
 10
324.817798
 20
-110.596799
 11
324.728023
 21
-110.355500
  0
LINE
  8
OSA
 62
     2
  6
CONTINUOUS
 10
324.728023
 20
-110.355500
 11
324.667901
 21
-110.141896
  0
LINE
  8
OSA
 62
     2
  6
CONTINUOUS
 10
324.667901
 20
-110.141896
 11
324.629691
 21
-109.954735
  0
LINE
  8
OSA
 62
     2
  6
CONTINUOUS
 10
324.629691
 20
-109.954735
 11
324.607226
 21
-109.791940
  0
LINE
  8
OSA
 62
     2
  6
CONTINUOUS
 10
324.607226
 20
-109.791940
 11
324.595778
 21
-109.651060
  0
LINE
  8
OSA
 62
     2
  6
CONTINUOUS
 10
324.595778
 20
-109.651060
 11
324.591824
 21
-109.529567
  0
LINE
  8
OSA
 62
     2
  6
CONTINUOUS
 10
324.591824
 20
-109.529567
 11
324.591688
 21
-109.502493
  0
ARC
  8
OSA
 62
     2
  6
CONTINUOUS
 10
325.334159
 20
-115.265006
 40
3.000000
 50
0.000000
 51
66.167287
  0
CIRCLE
  8
OSA
 62
     2
  6
CONTINUOUS
 10
388.334159
 20
-126.502493
 40
9.000000
  0
INSERT
  8
OSA
  2
Sroub_M10x16__12
  6
CONTINUOUS
 10
388.334159
 20
-126.502493
  0
LINE
  8
OSA
 62
     2
  6
CONTINUOUS
 10
310.334159
 20
-123.502493
 11
328.334159
 21
-123.502493
  0
LINE
  8
OSA
 62
     2
  6
CONTINUOUS
 10
310.334159
 20
-129.502493
 11
328.334159
 21
-129.502493
  0
LINE
  8
OSA
 62
     2
  6
CONTINUOUS
 10
310.334159
 20
-161.502493
 11
310.334159
 21
-91.502493
  0
LINE
  8
OSA
 62
     2
  6
CONTINUOUS
 10
463.334159
 20
-161.502493
 11
463.334159
 21
-91.502493
  0
ARC
  8
OSA
 62
     2
  6
CONTINUOUS
 10
450.334159
 20
-115.502493
 40
2.000000
 50
180.000000
 51
270.000000
  0
ARC
  8
OSA
 62
     2
  6
CONTINUOUS
 10
450.334159
 20
-137.502493
 40
2.000000
 50
90.000000
 51
180.000000
  0
LINE
  8
OSA
 62
     2
  6
CONTINUOUS
 10
450.334159
 20
-117.502493
 11
450.334159
 21
-135.502493
  0
INSERT
  8
OSA
  2
M10x1__13
  6
CONTINUOUS
 10
450.334159
 20
-126.502493
  0
LINE
  8
OSA
 62
     2
  6
CONTINUOUS
 10
453.334159
 20
-129.502493
 11
463.334159
 21
-129.502493
  0
LINE
  8
OSA
 62
     2
  6
CONTINUOUS
 10
453.334159
 20
-123.502493
 11
463.334159
 21
-123.502493
  0
LINE
  8
OSA
 62
     2
  6
CONTINUOUS
 10
452.334159
 20
-172.502493
 11
452.748373
 21
-172.088279
  0
LINE
  8
OSA
 62
     2
  6
CONTINUOUS
 10
390.574099
 20
-171.502493
 11
390.814284
 21
-172.502493
  0
LINE
  8
OSA
 62
     2
  6
CONTINUOUS
 10
386.094219
 20
-171.502493
 11
385.854034
 21
-172.502493
  0
LINE
  8
OSA
 62
     2
  6
CONTINUOUS
 10
431.788032
 20
-172.502493
 11
432.088824
 21
-172.167121
  0
LINE
  8
OSA
 62
     2
  6
CONTINUOUS
 10
344.880286
 20
-172.502493
 11
344.579494
 21
-172.167121
  0
LINE
  8
OSA
 62
     2
  6
CONTINUOUS
 10
324.334159
 20
-172.502493
 11
323.919945
 21
-172.088279
  0
ENDBLK
  8
OSA
  0
BLOCK
  8
OSA
  2
Sroub_M10x16__12
 70
   66
 10
388.334159
 20
-126.502493
  0
LINE
  8
OSA
 62
     2
  6
CONTINUOUS
 10
384.334159
 20
-124.193077
 11
384.334159
 21
-128.811908
  0
LINE
  8
OSA
 62
     2
  6
CONTINUOUS
 10
384.334159
 20
-128.811908
 11
388.334159
 21
-131.121324
  0
LINE
  8
OSA
 62
     2
  6
CONTINUOUS
 10
388.334159
 20
-131.121324
 11
392.334159
 21
-128.811908
  0
LINE
  8
OSA
 62
     2
  6
CONTINUOUS
 10
392.334159
 20
-128.811908
 11
392.334159
 21
-124.193077
  0
LINE
  8
OSA
 62
     2
  6
CONTINUOUS
 10
392.334159
 20
-124.193077
 11
388.334159
 21
-121.883662
  0
LINE
  8
OSA
 62
     2
  6
CONTINUOUS
 10
388.334159
 20
-121.883662
 11
384.334159
 21
-124.193077
  0
CIRCLE
  8
OSA
 62
     2
  6
CONTINUOUS
 10
388.334159
 20
-126.502493
 40
4.618831
  0
CIRCLE
  8
OSA
 62
     2
  6
CONTINUOUS
 10
388.334159
 20
-126.502493
 40
8.000000
  0
ENDBLK
  8
OSA
  0
BLOCK
  8
OSA
  2
M10x1__13
 70
   66
 10
450.334159
 20
-126.502493
  0
LINE
  8
OSA
 10
441.005257
 20
-126.502493
 11
454.779507
 21
-126.502493
  0
LINE
  8
OSA
 62
     2
  6
CONTINUOUS
 10
450.334159
 20
-119.502493
 11
450.334159
 21
-133.502493
  0
LINE
  8
OSA
 62
     2
  6
CONTINUOUS
 10
450.334159
 20
-133.502493
 11
452.334159
 21
-133.502493
  0
LINE
  8
OSA
 62
     2
  6
CONTINUOUS
 10
450.334159
 20
-119.502493
 11
452.334159
 21
-119.502493
  0
ARC
  8
OSA
 62
     2
  6
CONTINUOUS
 10
452.334159
 20
-132.502493
 40
1.000000
 50
270.000000
 51
360.000000
  0
LINE
  8
OSA
 62
     2
  6
CONTINUOUS
 10
453.334159
 20
-120.502493
 11
453.334159
 21
-132.502493
  0
ARC
  8
OSA
 62
     2
  6
CONTINUOUS
 10
452.334159
 20
-120.502493
 40
1.000000
 50
0.000000
 51
90.000000
  0
ENDBLK
  8
OSA
  0
BLOCK
  8
OBRYS
  2
_22
 70
   64
 10
388.334159
 20
-172.502493
  0
LINE
  8
OBRYS
 10
371.545167
 20
-179.502493
 11
388.334159
 21
-179.502493
  0
LINE
  8
OBRYS
 10
328.717870
 20
-179.502493
 11
352.959774
 21
-179.502493
  0
LINE
  8
OBRYS
 10
319.233758
 20
-179.502493
 11
320.764658
 21
-179.502493
  0
ARC
  8
OBRYS
 10
371.075571
 20
-179.268783
 40
1.500000
 50
180.000000
 51
197.711710
  0
LINE
  8
OBRYS
 10
371.477824
 20
-185.458835
 11
369.646672
 21
-179.725125
  0
LINE
  8
OBRYS
 10
369.575571
 20
-179.268783
 11
369.575571
 21
-172.502493
  0
ARC
  8
OBRYS
 10
372.906723
 20
-185.002493
 40
1.500000
 50
197.711710
 51
270.000000
  0
ARC
  8
OBRYS
 10
359.083356
 20
-185.002493
 40
1.500000
 50
210.201389
 51
270.000000
  0
LINE
  8
OBRYS
 10
354.396585
 20
-179.932129
 11
357.786962
 21
-185.757054
  0
LINE
  8
OBRYS
 10
326.212621
 20
-186.502493
 11
388.334159
 21
-186.502493
  0
ARC
  8
OBRYS
 10
356.989373
 20
-178.423006
 40
3.000000
 50
180.000000
 51
210.201389
  0
LINE
  8
OBRYS
 10
353.989373
 20
-178.423006
 11
353.989373
 21
-172.502493
  0
ARC
  8
OBRYS
 10
330.338785
 20
-177.960649
 40
3.000000
 50
180.000000
 51
225.949293
  0
LINE
  8
OBRYS
 10
336.217104
 20
-186.502493
 11
335.785009
 21
-186.392649
  0
LINE
  8
OBRYS
 10
335.785009
 20
-186.392649
 11
334.920556
 21
-186.200956
  0
LINE
  8
OBRYS
 10
334.920556
 20
-186.200956
 11
334.607930
 21
-185.973964
  0
LINE
  8
OBRYS
 10
334.607930
 20
-185.973964
 11
333.644557
 21
-185.332715
  0
LINE
  8
OBRYS
 10
333.644557
 20
-185.332715
 11
328.252901
 21
-180.116824
  0
LINE
  8
OBRYS
 10
327.338785
 20
-172.502493
 11
327.338785
 21
-177.960649
  0
ARC
  8
OBRYS
 10
323.918485
 20
-177.871480
 40
3.000000
 50
180.000000
 51
228.805294
  0
LINE
  8
OBRYS
 10
321.942625
 20
-180.128907
 11
327.887995
 21
-185.332715
  0
LINE
  8
OBRYS
 10
320.918485
 20
-177.871480
 11
320.918485
 21
-172.502493
  0
LINE
  8
OBRYS
 10
327.887995
 20
-185.332715
 11
328.952772
 21
-185.973964
  0
LINE
  8
OBRYS
 10
328.952772
 20
-185.973964
 11
329.347170
 21
-186.200956
  0
LINE
  8
OBRYS
 10
329.347170
 20
-186.200956
 11
330.437734
 21
-186.392649
  0
LINE
  8
OBRYS
 10
330.437734
 20
-186.392649
 11
331.101601
 21
-186.502493
  0
LINE
  8
OBRYS
 10
385.834159
 20
-179.502493
 11
385.834159
 21
-186.502493
  0
ARC
  8
OBRYS
 10
326.212621
 20
-183.502493
 40
3.000000
 50
230.000000
 51
270.000000
  0
LINE
  8
OBRYS
 10
319.405796
 20
-181.707111
 11
324.284258
 21
-185.800626
  0
ARC
  8
OBRYS
 10
321.334159
 20
-179.408977
 40
3.000000
 50
180.000000
 51
230.000000
  0
ARC
  8
OBRYS
 10
328.496285
 20
-181.502493
 40
5.000000
 50
230.000000
 51
270.000000
  0
LINE
  8
OBRYS
 10
320.120221
 20
-181.001177
 11
325.282347
 21
-185.332715
  0
ARC
  8
OBRYS
 10
323.334159
 20
-177.170955
 40
5.000000
 50
180.000000
 51
230.000000
  0
ARC
  8
OBRYS
 10
453.334159
 20
-177.170955
 40
5.000000
 50
310.000000
 51
360.000000
  0
LINE
  8
OBRYS
 10
456.548097
 20
-181.001177
 11
451.385971
 21
-185.332715
  0
ARC
  8
OBRYS
 10
448.172033
 20
-181.502493
 40
5.000000
 50
270.000000
 51
310.000000
  0
LINE
  8
OSA
 10
388.334159
 20
-191.502493
 11
388.334159
 21
-167.502493
  0
ARC
  8
OBRYS
 10
455.334159
 20
-179.408977
 40
3.000000
 50
310.000000
 51
360.000000
  0
LINE
  8
OBRYS
 10
457.262522
 20
-181.707111
 11
452.384060
 21
-185.800626
  0
ARC
  8
OBRYS
 10
450.455697
 20
-183.502493
 40
3.000000
 50
270.000000
 51
310.000000
  0
LINE
  8
OBRYS
 10
390.834159
 20
-179.502493
 11
390.834159
 21
-186.502493
  0
LINE
  8
OBRYS
 10
446.230584
 20
-186.392649
 11
445.566717
 21
-186.502493
  0
LINE
  8
OBRYS
 10
447.321148
 20
-186.200956
 11
446.230584
 21
-186.392649
  0
LINE
  8
OBRYS
 10
447.715546
 20
-185.973964
 11
447.321148
 21
-186.200956
  0
LINE
  8
OBRYS
 10
448.780323
 20
-185.332715
 11
447.715546
 21
-185.973964
  0
LINE
  8
OBRYS
 10
455.749833
 20
-177.871480
 11
455.749833
 21
-172.502493
  0
LINE
  8
OBRYS
 10
454.725693
 20
-180.128907
 11
448.780323
 21
-185.332715
  0
ARC
  8
OBRYS
 10
452.749833
 20
-177.871480
 40
3.000000
 50
311.194706
 51
360.000000
  0
LINE
  8
OBRYS
 10
449.329533
 20
-172.502493
 11
449.329533
 21
-177.960649
  0
LINE
  8
OBRYS
 10
440.451214
 20
-186.502493
 11
440.883309
 21
-186.392649
  0
LINE
  8
OBRYS
 10
440.883309
 20
-186.392649
 11
441.747762
 21
-186.200956
  0
LINE
  8
OBRYS
 10
441.747762
 20
-186.200956
 11
442.060388
 21
-185.973964
  0
LINE
  8
OBRYS
 10
442.060388
 20
-185.973964
 11
443.023761
 21
-185.332715
  0
LINE
  8
OBRYS
 10
443.023761
 20
-185.332715
 11
448.415417
 21
-180.116824
  0
ARC
  8
OBRYS
 10
446.329533
 20
-177.960649
 40
3.000000
 50
314.050707
 51
360.000000
  0
LINE
  8
OBRYS
 10
422.678945
 20
-178.423006
 11
422.678945
 21
-172.502493
  0
ARC
  8
OBRYS
 10
419.678945
 20
-178.423006
 40
3.000000
 50
329.798611
 51
360.000000
  0
LINE
  8
OBRYS
 10
450.455697
 20
-186.502493
 11
388.334159
 21
-186.502493
  0
LINE
  8
OBRYS
 10
422.271733
 20
-179.932129
 11
418.881356
 21
-185.757054
  0
ARC
  8
OBRYS
 10
417.584962
 20
-185.002493
 40
1.500000
 50
270.000000
 51
329.798611
  0
ARC
  8
OBRYS
 10
403.761595
 20
-185.002493
 40
1.500000
 50
270.000000
 51
342.288290
  0
LINE
  8
OBRYS
 10
407.092747
 20
-179.268783
 11
407.092747
 21
-172.502493
  0
LINE
  8
OBRYS
 10
405.190494
 20
-185.458835
 11
407.021646
 21
-179.725125
  0
ARC
  8
OBRYS
 10
405.592747
 20
-179.268783
 40
1.500000
 50
342.288290
 51
360.000000
  0
LINE
  8
OBRYS
 10
457.434559
 20
-179.502493
 11
455.903660
 21
-179.502493
  0
LINE
  8
OBRYS
 10
447.950448
 20
-179.502493
 11
423.708544
 21
-179.502493
  0
LINE
  8
OBRYS
 10
405.123151
 20
-179.502493
 11
388.334159
 21
-179.502493
  0
ARC
  8
OBRYS
 10
454.334159
 20
-191.002493
 40
4.000000
 50
270.000000
 51
360.000000
  0
LINE
  8
OBRYS
 10
454.334159
 20
-195.002493
 11
416.334159
 21
-195.002493
  0
ARC
  8
OBRYS
 10
416.334159
 20
-191.002493
 40
4.000000
 50
180.000000
 51
270.000000
  0
CIRCLE
  8
NEVIDI
 10
435.834159
 20
-182.002493
 40
5.500000
  0
LINE
  8
OSA
 10
435.834159
 20
-182.002493
 11
422.834163
 21
-182.002493
  0
LINE
  8
OSA
 10
435.834159
 20
-182.002493
 11
448.834155
 21
-182.002493
  0
LINE
  8
OSA
 10
435.834159
 20
-182.002493
 11
435.834159
 21
-195.002489
  0
LINE
  8
OSA
 10
435.834159
 20
-182.002493
 11
435.834159
 21
-169.002497
  0
LINE
  8
OSA
 10
340.834159
 20
-182.002493
 11
340.834159
 21
-169.002497
  0
LINE
  8
OSA
 10
340.834159
 20
-182.002493
 11
340.834159
 21
-195.002489
  0
LINE
  8
OSA
 10
340.834159
 20
-182.002493
 11
327.834163
 21
-182.002493
  0
LINE
  8
OSA
 10
340.834159
 20
-182.002493
 11
353.834155
 21
-182.002493
  0
CIRCLE
  8
NEVIDI
 10
340.834159
 20
-182.002493
 40
5.500000
  0
ARC
  8
OBRYS
 10
360.334159
 20
-191.002493
 40
4.000000
 50
270.000000
 51
360.000000
  0
LINE
  8
OBRYS
 10
322.334159
 20
-195.002493
 11
360.334159
 21
-195.002493
  0
ARC
  8
OBRYS
 10
322.334159
 20
-191.002493
 40
4.000000
 50
180.000000
 51
270.000000
  0
LINE
  8
OBRYS
 10
364.334159
 20
-191.002493
 11
364.334159
 21
-186.502493
  0
LINE
  8
OBRYS
 10
412.334159
 20
-191.002493
 11
412.334159
 21
-186.502493
  0
LINE
  8
OBRYS
 10
318.334159
 20
-172.502493
 11
388.334159
 21
-172.502493
  0
LINE
  8
OBRYS
 10
318.334159
 20
-172.502493
 11
318.334159
 21
-191.002493
  0
LINE
  8
OBRYS
 10
458.334159
 20
-172.502493
 11
388.334159
 21
-172.502493
  0
LINE
  8
OBRYS
 10
458.334159
 20
-172.502493
 11
458.334159
 21
-191.002493
  0
LINE
  8
OBRYS
 10
417.334159
 20
-192.002493
 11
417.334159
 21
-186.502493
  0
LINE
  8
OBRYS
 10
359.334159
 20
-192.002493
 11
359.334159
 21
-186.502493
  0
ENDBLK
  8
OBRYS
  0
BLOCK
  8
OBRYS
  2
_23
 70
   64
 10
388.334159
 20
-80.502493
  0
LINE
  8
OBRYS
 10
371.545167
 20
-73.502493
 11
388.334159
 21
-73.502493
  0
LINE
  8
OBRYS
 10
328.717870
 20
-73.502493
 11
352.959774
 21
-73.502493
  0
LINE
  8
OBRYS
 10
319.233758
 20
-73.502493
 11
320.764658
 21
-73.502493
  0
ARC
  8
OBRYS
 10
371.075571
 20
-73.736203
 40
1.500000
 50
162.288290
 51
180.000000
  0
LINE
  8
OBRYS
 10
371.477824
 20
-67.546151
 11
369.646672
 21
-73.279861
  0
LINE
  8
OBRYS
 10
369.575571
 20
-73.736203
 11
369.575571
 21
-80.502493
  0
ARC
  8
OBRYS
 10
372.906723
 20
-68.002493
 40
1.500000
 50
90.000000
 51
162.288290
  0
ARC
  8
OBRYS
 10
359.083356
 20
-68.002493
 40
1.500000
 50
90.000000
 51
149.798611
  0
LINE
  8
OBRYS
 10
354.396585
 20
-73.072857
 11
357.786962
 21
-67.247932
  0
LINE
  8
OBRYS
 10
326.212621
 20
-66.502493
 11
388.334159
 21
-66.502493
  0
ARC
  8
OBRYS
 10
356.989373
 20
-74.581979
 40
3.000000
 50
149.798611
 51
180.000000
  0
LINE
  8
OBRYS
 10
353.989373
 20
-74.581979
 11
353.989373
 21
-80.502493
  0
ARC
  8
OBRYS
 10
330.338785
 20
-75.044336
 40
3.000000
 50
134.050707
 51
180.000000
  0
LINE
  8
OBRYS
 10
336.217104
 20
-66.502493
 11
335.785009
 21
-66.612337
  0
LINE
  8
OBRYS
 10
335.785009
 20
-66.612337
 11
334.920556
 21
-66.804030
  0
LINE
  8
OBRYS
 10
334.920556
 20
-66.804030
 11
334.607930
 21
-67.031021
  0
LINE
  8
OBRYS
 10
334.607930
 20
-67.031021
 11
333.644557
 21
-67.672271
  0
LINE
  8
OBRYS
 10
333.644557
 20
-67.672271
 11
328.252901
 21
-72.888162
  0
LINE
  8
OBRYS
 10
327.338785
 20
-80.502493
 11
327.338785
 21
-75.044336
  0
ARC
  8
OBRYS
 10
323.918485
 20
-75.133506
 40
3.000000
 50
131.194706
 51
180.000000
  0
LINE
  8
OBRYS
 10
321.942625
 20
-72.876078
 11
327.887995
 21
-67.672271
  0
LINE
  8
OBRYS
 10
320.918485
 20
-75.133506
 11
320.918485
 21
-80.502493
  0
LINE
  8
OBRYS
 10
327.887995
 20
-67.672271
 11
328.952772
 21
-67.031021
  0
LINE
  8
OBRYS
 10
328.952772
 20
-67.031021
 11
329.347170
 21
-66.804030
  0
LINE
  8
OBRYS
 10
329.347170
 20
-66.804030
 11
330.437734
 21
-66.612337
  0
LINE
  8
OBRYS
 10
330.437734
 20
-66.612337
 11
331.101601
 21
-66.502493
  0
LINE
  8
OBRYS
 10
385.834159
 20
-73.502493
 11
385.834159
 21
-66.502493
  0
ARC
  8
OBRYS
 10
326.212621
 20
-69.502493
 40
3.000000
 50
90.000000
 51
130.000000
  0
LINE
  8
OBRYS
 10
319.405796
 20
-71.297875
 11
324.284258
 21
-67.204360
  0
ARC
  8
OBRYS
 10
321.334159
 20
-73.596009
 40
3.000000
 50
130.000000
 51
180.000000
  0
ARC
  8
OBRYS
 10
328.496285
 20
-71.502493
 40
5.000000
 50
90.000000
 51
130.000000
  0
LINE
  8
OBRYS
 10
320.120221
 20
-72.003809
 11
325.282347
 21
-67.672271
  0
ARC
  8
OBRYS
 10
323.334159
 20
-75.834031
 40
5.000000
 50
130.000000
 51
180.000000
  0
ARC
  8
OBRYS
 10
453.334159
 20
-75.834031
 40
5.000000
 50
0.000000
 51
50.000000
  0
LINE
  8
OBRYS
 10
456.548097
 20
-72.003809
 11
451.385971
 21
-67.672271
  0
ARC
  8
OBRYS
 10
448.172033
 20
-71.502493
 40
5.000000
 50
50.000000
 51
90.000000
  0
LINE
  8
OSA
 10
388.334159
 20
-61.502493
 11
388.334159
 21
-85.502493
  0
ARC
  8
OBRYS
 10
455.334159
 20
-73.596009
 40
3.000000
 50
0.000000
 51
50.000000
  0
LINE
  8
OBRYS
 10
457.262522
 20
-71.297875
 11
452.384060
 21
-67.204360
  0
ARC
  8
OBRYS
 10
450.455697
 20
-69.502493
 40
3.000000
 50
50.000000
 51
90.000000
  0
LINE
  8
OBRYS
 10
390.834159
 20
-73.502493
 11
390.834159
 21
-66.502493
  0
LINE
  8
OBRYS
 10
446.230584
 20
-66.612337
 11
445.566717
 21
-66.502493
  0
LINE
  8
OBRYS
 10
447.321148
 20
-66.804030
 11
446.230584
 21
-66.612337
  0
LINE
  8
OBRYS
 10
447.715546
 20
-67.031021
 11
447.321148
 21
-66.804030
  0
LINE
  8
OBRYS
 10
448.780323
 20
-67.672271
 11
447.715546
 21
-67.031021
  0
LINE
  8
OBRYS
 10
455.749833
 20
-75.133506
 11
455.749833
 21
-80.502493
  0
LINE
  8
OBRYS
 10
454.725693
 20
-72.876078
 11
448.780323
 21
-67.672271
  0
ARC
  8
OBRYS
 10
452.749833
 20
-75.133506
 40
3.000000
 50
0.000000
 51
48.805294
  0
LINE
  8
OBRYS
 10
449.329533
 20
-80.502493
 11
449.329533
 21
-75.044336
  0
LINE
  8
OBRYS
 10
440.451214
 20
-66.502493
 11
440.883309
 21
-66.612337
  0
LINE
  8
OBRYS
 10
440.883309
 20
-66.612337
 11
441.747762
 21
-66.804030
  0
LINE
  8
OBRYS
 10
441.747762
 20
-66.804030
 11
442.060388
 21
-67.031021
  0
LINE
  8
OBRYS
 10
442.060388
 20
-67.031021
 11
443.023761
 21
-67.672271
  0
LINE
  8
OBRYS
 10
443.023761
 20
-67.672271
 11
448.415417
 21
-72.888162
  0
ARC
  8
OBRYS
 10
446.329533
 20
-75.044336
 40
3.000000
 50
0.000000
 51
45.949293
  0
LINE
  8
OBRYS
 10
422.678945
 20
-74.581979
 11
422.678945
 21
-80.502493
  0
ARC
  8
OBRYS
 10
419.678945
 20
-74.581979
 40
3.000000
 50
0.000000
 51
30.201389
  0
LINE
  8
OBRYS
 10
450.455697
 20
-66.502493
 11
388.334159
 21
-66.502493
  0
LINE
  8
OBRYS
 10
422.271733
 20
-73.072857
 11
418.881356
 21
-67.247932
  0
ARC
  8
OBRYS
 10
417.584962
 20
-68.002493
 40
1.500000
 50
30.201389
 51
90.000000
  0
ARC
  8
OBRYS
 10
403.761595
 20
-68.002493
 40
1.500000
 50
17.711710
 51
90.000000
  0
LINE
  8
OBRYS
 10
407.092747
 20
-73.736203
 11
407.092747
 21
-80.502493
  0
LINE
  8
OBRYS
 10
405.190494
 20
-67.546151
 11
407.021646
 21
-73.279861
  0
ARC
  8
OBRYS
 10
405.592747
 20
-73.736203
 40
1.500000
 50
0.000000
 51
17.711710
  0
LINE
  8
OBRYS
 10
457.434559
 20
-73.502493
 11
455.903660
 21
-73.502493
  0
LINE
  8
OBRYS
 10
447.950448
 20
-73.502493
 11
423.708544
 21
-73.502493
  0
LINE
  8
OBRYS
 10
405.123151
 20
-73.502493
 11
388.334159
 21
-73.502493
  0
ARC
  8
OBRYS
 10
454.334159
 20
-62.002493
 40
4.000000
 50
0.000000
 51
90.000000
  0
LINE
  8
OBRYS
 10
454.334159
 20
-58.002493
 11
416.334159
 21
-58.002493
  0
ARC
  8
OBRYS
 10
416.334159
 20
-62.002493
 40
4.000000
 50
90.000000
 51
180.000000
  0
CIRCLE
  8
NEVIDI
 10
435.834159
 20
-71.002493
 40
5.500000
  0
LINE
  8
OSA
 10
435.834159
 20
-71.002493
 11
422.834163
 21
-71.002493
  0
LINE
  8
OSA
 10
435.834159
 20
-71.002493
 11
448.834155
 21
-71.002493
  0
LINE
  8
OSA
 10
435.834159
 20
-71.002493
 11
435.834159
 21
-58.002497
  0
LINE
  8
OSA
 10
435.834159
 20
-71.002493
 11
435.834159
 21
-84.002489
  0
LINE
  8
OSA
 10
340.834159
 20
-71.002493
 11
340.834159
 21
-84.002489
  0
LINE
  8
OSA
 10
340.834159
 20
-71.002493
 11
340.834159
 21
-58.002497
  0
LINE
  8
OSA
 10
340.834159
 20
-71.002493
 11
327.834163
 21
-71.002493
  0
LINE
  8
OSA
 10
340.834159
 20
-71.002493
 11
353.834155
 21
-71.002493
  0
CIRCLE
  8
NEVIDI
 10
340.834159
 20
-71.002493
 40
5.500000
  0
ARC
  8
OBRYS
 10
360.334159
 20
-62.002493
 40
4.000000
 50
0.000000
 51
90.000000
  0
LINE
  8
OBRYS
 10
322.334159
 20
-58.002493
 11
360.334159
 21
-58.002493
  0
ARC
  8
OBRYS
 10
322.334159
 20
-62.002493
 40
4.000000
 50
90.000000
 51
180.000000
  0
LINE
  8
OBRYS
 10
364.334159
 20
-62.002493
 11
364.334159
 21
-66.502493
  0
LINE
  8
OBRYS
 10
412.334159
 20
-62.002493
 11
412.334159
 21
-66.502493
  0
LINE
  8
OBRYS
 10
318.334159
 20
-80.502493
 11
388.334159
 21
-80.502493
  0
LINE
  8
OBRYS
 10
318.334159
 20
-80.502493
 11
318.334159
 21
-62.002493
  0
LINE
  8
OBRYS
 10
458.334159
 20
-80.502493
 11
388.334159
 21
-80.502493
  0
LINE
  8
OBRYS
 10
458.334159
 20
-80.502493
 11
458.334159
 21
-62.002493
  0
LINE
  8
OBRYS
 10
417.334159
 20
-61.002493
 11
417.334159
 21
-66.502493
  0
LINE
  8
OBRYS
 10
359.334159
 20
-61.002493
 11
359.334159
 21
-66.502493
  0
ENDBLK
  8
OBRYS
  0
BLOCK
  8
OSA
  2
_24
 70
   64
 10
388.334159
 20
-88.502493
  0
ARC
  8
OSA
 62
     2
  6
CONTINUOUS
 10
322.505732
 20
-79.502493
 40
2.000000
 50
270.000000
 51
315.000000
  0
ARC
  8
OSA
 62
     2
  6
CONTINUOUS
 10
339.626837
 20
-79.502493
 40
2.000000
 50
270.000000
 51
331.454628
  0
ARC
  8
OSA
 62
     2
  6
CONTINUOUS
 10
343.090608
 20
-79.502493
 40
2.000000
 50
270.000000
 51
318.111296
  0
ARC
  8
OSA
 62
     2
  6
CONTINUOUS
 10
433.577710
 20
-79.502493
 40
2.000000
 50
221.888704
 51
270.000000
  0
ARC
  8
OSA
 62
     2
  6
CONTINUOUS
 10
437.041481
 20
-79.502493
 40
2.000000
 50
208.545372
 51
270.000000
  0
LINE
  8
OSA
 62
     2
  6
CONTINUOUS
 10
456.075330
 20
-81.502493
 11
388.334159
 21
-81.502493
  0
ARC
  8
OSA
 62
     2
  6
CONTINUOUS
 10
456.075330
 20
-83.502493
 40
2.000000
 50
2.000000
 51
90.000000
  0
ARC
  8
OSA
 62
     2
  6
CONTINUOUS
 10
454.162586
 20
-79.502493
 40
2.000000
 50
225.000000
 51
270.000000
  0
ARC
  8
OSA
 62
     2
  6
CONTINUOUS
 10
320.592988
 20
-83.502493
 40
2.000000
 50
90.000000
 51
178.000000
  0
LINE
  8
OSA
 62
     2
  6
CONTINUOUS
 10
318.334159
 20
-87.620228
 11
318.594206
 21
-83.432694
  0
LINE
  8
OSA
 62
     2
  6
CONTINUOUS
 10
320.592988
 20
-81.502493
 11
388.334159
 21
-81.502493
  0
LINE
  8
OSA
 62
     2
  6
CONTINUOUS
 10
388.334159
 20
-88.502493
 11
318.334159
 21
-88.502493
  0
LINE
  8
OSA
 10
388.334159
 20
-93.502493
 11
388.334159
 21
-61.502493
  0
LINE
  8
OSA
 62
     2
  6
CONTINUOUS
 10
458.251153
 20
-88.502493
 11
458.074112
 21
-83.432694
  0
LINE
  8
OSA
 62
     2
  6
CONTINUOUS
 10
458.251153
 20
-88.502493
 11
388.334159
 21
-88.502493
  0
LINE
  8
OSA
 62
     2
  6
CONTINUOUS
 10
386.094219
 20
-81.502493
 11
385.854034
 21
-80.502493
  0
LINE
  8
OSA
 62
     2
  6
CONTINUOUS
 10
390.574099
 20
-81.502493
 11
390.814284
 21
-80.502493
  0
ENDBLK
  8
OSA
  0
BLOCK
  8
OBRYS
  2
_25
 70
   64
 10
788.912937
 20
121.042558
  0
ARC
  8
OBRYS
 10
788.912937
 20
121.042558
 40
70.000000
 50
0.000000
 51
180.000000
  0
INSERT
  8
OBRYS
  2
Srouby_s_valcovou_hlavou___15
 62
     7
 10
1131.749244
 20
97.124843
  0
INSERT
  8
OBRYS
  2
Srouby_s_valcovou_hlavou___16
 62
     7
 10
1165.574000
 20
63.300087
  0
INSERT
  8
OBRYS
  2
Srouby_s_valcovou_hlavou___17
 62
     7
 10
1213.409429
 20
63.300087
  0
INSERT
  8
OBRYS
  2
Srouby_s_valcovou_hlavou___18
 62
     7
 10
1247.234185
 20
97.124843
  0
INSERT
  8
OBRYS
  2
Srouby_s_valcovou_hlavou___19
 62
     7
 10
1247.234185
 20
144.960272
  0
INSERT
  8
OBRYS
  2
Srouby_s_valcovou_hlavou___20
 62
     7
 10
1213.409429
 20
178.785028
  0
INSERT
  8
OBRYS
  2
Srouby_s_valcovou_hlavou___21
 62
     7
 10
1165.574000
 20
178.785028
  0
INSERT
  8
OBRYS
  2
Srouby_s_valcovou_hlavou___22
 62
     7
 10
1131.749244
 20
144.960272
  0
ARC
  8
OBRYS
 10
683.912937
 20
121.042558
 40
70.000000
 50
353.678944
 51
6.321056
  0
ARC
  8
OBRYS
 10
788.912937
 20
226.042558
 40
70.000000
 50
263.678944
 51
276.321056
  0
ARC
  8
OBRYS
 10
893.912937
 20
121.042558
 40
70.000000
 50
173.678944
 51
186.321056
  0
ARC
  8
OBRYS
 10
788.912937
 20
16.042558
 40
70.000000
 50
83.678944
 51
96.321056
  0
ARC
  8
OBRYS
 10
788.912937
 20
121.042558
 40
35.000000
 50
196.040442
 51
253.959558
  0
ARC
  8
OBRYS
 10
788.912937
 20
121.042558
 40
35.000000
 50
106.040442
 51
163.959558
  0
ARC
  8
OBRYS
 10
788.912937
 20
121.042558
 40
35.000000
 50
16.040442
 51
73.959558
  0
ARC
  8
OBRYS
 10
788.912937
 20
121.042558
 40
35.000000
 50
286.040442
 51
343.959558
  0
ARC
  8
OBRYS
 10
788.912937
 20
121.042558
 40
70.000000
 50
166.068055
 51
180.000000
  0
ARC
  8
OBRYS
 10
788.912937
 20
121.042558
 40
70.000000
 50
121.068055
 51
148.931945
  0
ARC
  8
OBRYS
 10
788.912937
 20
121.042558
 40
70.000000
 50
76.068055
 51
103.931945
  0
ARC
  8
OBRYS
 10
788.912937
 20
121.042558
 40
70.000000
 50
31.068055
 51
58.931945
  0
LINE
  8
OBRYS
 62
     7
  6
DASHDOT
 10
723.502266
 20
148.136545
 11
738.838666
 21
141.784000
  0
ARC
  8
OBRYS
 10
731.170466
 20
144.960272
 40
7.500000
 50
257.377756
 51
57.622244
  0
ARC
  8
OBRYS
 10
730.667201
 20
156.134355
 40
2.000000
 50
148.931945
 51
240.617358
  0
LINE
  8
OBRYS
 10
735.186708
 20
151.294291
 11
729.685921
 21
154.391630
  0
LINE
  8
OBRYS
 10
729.531550
 20
137.641532
 11
723.451757
 21
139.341026
  0
ARC
  8
OBRYS
 10
722.913334
 20
137.414864
 40
2.000000
 50
74.382642
 51
166.068055
  0
ARC
  8
OBRYS
 10
772.540630
 20
187.042160
 40
2.000000
 50
103.931945
 51
195.617358
  0
LINE
  8
OBRYS
 10
772.313962
 20
180.423944
 11
770.614468
 21
186.503737
  0
LINE
  8
OBRYS
 10
758.661203
 20
174.768786
 11
755.563864
 21
180.269573
  0
ARC
  8
OBRYS
 10
753.821139
 20
179.288293
 40
2.000000
 50
29.382642
 51
121.068055
  0
ARC
  8
OBRYS
 10
764.995222
 20
178.785028
 40
7.500000
 50
212.377756
 51
12.622244
  0
LINE
  8
OBRYS
 62
     7
  6
DASHDOT
 10
761.818950
 20
186.453229
 11
768.171495
 21
171.116828
  0
LINE
  8
OBRYS
 62
     7
  6
DASHDOT
 10
816.006924
 20
186.453229
 11
809.654379
 21
171.116828
  0
ARC
  8
OBRYS
 10
812.830651
 20
178.785028
 40
7.500000
 50
167.377756
 51
327.622244
  0
ARC
  8
OBRYS
 10
824.004734
 20
179.288293
 40
2.000000
 50
58.931945
 51
150.617358
  0
LINE
  8
OBRYS
 10
819.164670
 20
174.768786
 11
822.262009
 21
180.269573
  0
LINE
  8
OBRYS
 10
805.511911
 20
180.423944
 11
807.211406
 21
186.503737
  0
ARC
  8
OBRYS
 10
805.285243
 20
187.042160
 40
2.000000
 50
344.382642
 51
76.068055
  0
ARC
  8
OBRYS
 10
854.912540
 20
137.414864
 40
2.000000
 50
13.931945
 51
105.617358
  0
LINE
  8
OBRYS
 10
848.294323
 20
137.641532
 11
854.374116
 21
139.341026
  0
LINE
  8
OBRYS
 10
842.639165
 20
151.294291
 11
848.139952
 21
154.391630
  0
ARC
  8
OBRYS
 10
847.158673
 20
156.134355
 40
2.000000
 50
299.382642
 51
31.068055
  0
ARC
  8
OBRYS
 10
846.655407
 20
144.960272
 40
7.500000
 50
122.377756
 51
282.622244
  0
ARC
  8
OBRYS
 10
788.912937
 20
121.042558
 40
61.657725
 50
344.382642
 51
15.617358
  0
ARC
  8
OBRYS
 10
788.912937
 20
121.042558
 40
61.657725
 50
29.382642
 51
61.082778
  0
ARC
  8
OBRYS
 10
788.912937
 20
121.042558
 40
61.657725
 50
299.382642
 51
330.617358
  0
ARC
  8
OBRYS
 10
788.912937
 20
121.042558
 40
61.657725
 50
254.382642
 51
285.617358
  0
ARC
  8
OBRYS
 10
788.912937
 20
121.042558
 40
61.657725
 50
209.382642
 51
240.617358
  0
CIRCLE
  8
OBRYS
 10
846.655407
 20
97.124843
 40
7.500000
  0
CIRCLE
  8
OBRYS
 10
812.830651
 20
63.300087
 40
7.500000
  0
CIRCLE
  8
OBRYS
 10
764.995222
 20
63.300087
 40
7.500000
  0
ARC
  8
OBRYS
 10
788.912937
 20
121.042558
 40
61.657725
 50
163.917222
 51
195.617358
  0
CIRCLE
  8
OBRYS
 10
731.170466
 20
97.124843
 40
7.500000
  0
INSERT
  8
OBRYS
  2
__23
 62
     7
 10
788.912937
 20
38.529145
  0
LINE
  8
OBRYS
 62
     7
  6
DASHDOT
 10
830.350760
 20
45.042557
 11
849.975110
 21
45.042557
  0
LINE
  8
OBRYS
 62
     7
  6
DASHDOT
 10
749.703715
 20
43.942558
 11
729.312937
 21
43.942556
  0
ARC
  8
OBRYS
 10
788.912937
 20
121.042558
 40
70.000000
 50
0.000000
 51
14.394101
  0
LINE
  8
OBRYS
 10
842.475114
 20
45.042557
 11
842.475114
 21
33.042558
  0
LINE
  8
OBRYS
 10
830.350760
 20
45.042557
 11
830.350760
 21
33.042558
  0
ARC
  8
OBRYS
 10
836.412937
 20
45.042557
 40
6.062177
 50
0.000000
 51
179.999995
  0
LINE
  8
OBRYS
 62
     7
  6
DASHDOT
 10
854.323608
 20
148.136545
 11
838.987207
 21
141.784000
  0
CIRCLE
  8
OBRYS
 62
     7
  6
DASHDOT
 10
788.912937
 20
121.042558
 40
42.500000
  0
CIRCLE
  8
OBRYS
 62
     7
  6
DASHDOT
 10
788.912937
 20
121.042558
 40
62.500000
  0
LINE
  8
OBRYS
 62
     7
  6
DASHDOT
 10
723.502266
 20
93.948571
 11
738.838666
 21
100.301116
  0
LINE
  8
OBRYS
 62
     7
  6
DASHDOT
 10
761.818950
 20
55.631887
 11
768.171495
 21
70.968287
  0
LINE
  8
OBRYS
 62
     7
  6
DASHDOT
 10
816.006924
 20
55.631887
 11
809.654379
 21
70.968287
  0
LINE
  8
OBRYS
 62
     7
  6
DASHDOT
 10
854.323608
 20
93.948571
 11
838.987207
 21
100.301116
  0
LINE
  8
OBRYS
 10
718.912937
 20
21.042558
 11
764.912937
 21
21.042558
  0
LINE
  8
OBRYS
 10
764.912937
 20
23.042558
 11
788.912937
 21
23.042558
  0
LINE
  8
OBRYS
 62
     4
  6
DASHED
 10
735.912937
 20
33.042558
 11
735.912937
 21
21.042558
  0
LINE
  8
OBRYS
 62
     4
  6
DASHED
 10
746.912937
 20
33.042558
 11
746.912937
 21
21.042558
  0
LINE
  8
OBRYS
 10
812.912937
 20
23.042558
 11
788.912937
 21
23.042558
  0
LINE
  8
OBRYS
 10
858.912937
 20
21.042558
 11
812.912937
 21
21.042558
  0
LINE
  8
OBRYS
 62
     4
  6
DASHED
 10
830.912937
 20
33.042558
 11
830.912937
 21
21.042558
  0
LINE
  8
OBRYS
 62
     4
  6
DASHED
 10
841.912937
 20
33.042558
 11
841.912937
 21
21.042558
  0
LINE
  8
OBRYS
 10
858.912937
 20
121.042558
 11
858.912937
 21
21.042558
  0
LINE
  8
OBRYS
 10
718.912937
 20
121.042558
 11
718.912937
 21
21.042558
  0
LINE
  8
OBRYS
 62
     7
  6
DASHDOT
 10
788.912937
 20
121.042558
 11
788.912937
 21
21.042558
  0
LINE
  8
OBRYS
 62
     7
  6
DASHDOT
 10
788.912937
 20
121.042558
 11
788.912937
 21
196.042558
  0
LINE
  8
OBRYS
 62
     7
  6
DASHDOT
 10
788.912937
 20
121.042558
 11
713.912937
 21
121.042558
  0
LINE
  8
OBRYS
 62
     7
  6
DASHDOT
 10
788.912937
 20
121.042558
 11
863.912937
 21
121.042558
  0
ARC
  8
OBRYS
 10
746.412937
 20
121.042558
 40
7.500000
 50
90.000000
 51
270.000000
  0
LINE
  8
OBRYS
 10
746.412937
 20
128.542558
 11
752.392395
 21
128.542558
  0
ARC
  8
OBRYS
 10
752.392395
 20
131.542558
 40
3.000000
 50
270.000000
 51
343.959558
  0
LINE
  8
OBRYS
 10
746.412937
 20
113.542558
 11
752.392395
 21
113.542558
  0
ARC
  8
OBRYS
 10
752.392395
 20
110.542558
 40
3.000000
 50
16.040442
 51
90.000000
  0
ARC
  8
OBRYS
 10
778.412937
 20
157.563100
 40
3.000000
 50
286.040442
 51
360.000000
  0
ARC
  8
OBRYS
 10
825.433479
 20
131.542558
 40
3.000000
 50
196.040442
 51
270.000000
  0
ARC
  8
OBRYS
 10
799.412937
 20
84.522015
 40
3.000000
 50
106.040442
 51
180.000000
  0
LINE
  8
OBRYS
 10
781.412937
 20
163.542558
 11
781.412937
 21
157.563100
  0
LINE
  8
OBRYS
 10
831.412937
 20
128.542558
 11
825.433479
 21
128.542558
  0
LINE
  8
OBRYS
 10
796.412937
 20
78.542558
 11
796.412937
 21
84.522015
  0
ARC
  8
OBRYS
 10
799.412937
 20
157.563100
 40
3.000000
 50
180.000000
 51
253.959558
  0
ARC
  8
OBRYS
 10
825.433479
 20
110.542558
 40
3.000000
 50
90.000000
 51
163.959558
  0
ARC
  8
OBRYS
 10
778.412937
 20
84.522015
 40
3.000000
 50
0.000000
 51
73.959558
  0
LINE
  8
OBRYS
 10
796.412937
 20
163.542558
 11
796.412937
 21
157.563100
  0
LINE
  8
OBRYS
 10
831.412937
 20
113.542558
 11
825.433479
 21
113.542558
  0
LINE
  8
OBRYS
 10
781.412937
 20
78.542558
 11
781.412937
 21
84.522015
  0
ARC
  8
OBRYS
 10
788.912937
 20
163.542558
 40
7.500000
 50
0.000000
 51
180.000000
  0
ARC
  8
OBRYS
 10
831.412937
 20
121.042558
 40
7.500000
 50
270.000000
 51
90.000000
  0
ARC
  8
OBRYS
 10
788.912937
 20
78.542558
 40
7.500000
 50
180.000000
 51
360.000000
  0
ARC
  8
OBRYS
 10
821.912937
 20
37.042558
 40
4.000000
 50
180.000000
 51
270.000000
  0
ARC
  8
OBRYS
 10
755.912937
 20
37.042558
 40
4.000000
 50
270.000000
 51
360.000000
  0
LINE
  8
OBRYS
 10
812.912937
 20
27.042558
 11
788.912937
 21
27.042558
  0
LINE
  8
OBRYS
 10
764.912937
 20
27.042558
 11
788.912937
 21
27.042558
  0
ARC
  8
OBRYS
 10
788.912937
 20
121.042558
 40
61.657725
 50
118.917222
 51
151.082778
  0
ARC
  8
OBRYS
 10
788.912937
 20
121.042558
 40
61.657725
 50
73.917222
 51
106.082778
  0
LINE
  8
OBRYS
 10
856.912937
 20
33.042558
 11
821.912937
 21
33.042558
  0
ARC
  8
OBRYS
 10
856.912937
 20
31.042558
 40
2.000000
 50
0.000000
 51
90.000000
  0
LINE
  8
OBRYS
 10
720.912937
 20
33.042558
 11
755.912937
 21
33.042558
  0
ARC
  8
OBRYS
 10
720.912937
 20
31.042558
 40
2.000000
 50
90.000000
 51
180.000000
  0
LINE
  8
OBRYS
 62
     7
  6
DASHDOT
 10
836.412937
 20
21.042558
 11
836.412937
 21
53.143034
  0
LINE
  8
OBRYS
 10
759.912937
 20
33.042558
 11
763.513303
 21
33.042558
  0
LINE
  8
OBRYS
 10
817.912937
 20
33.042558
 11
814.312570
 21
33.042558
  0
ARC
  8
OBRYS
 10
756.912937
 20
52.659446
 40
3.000000
 50
0.000000
 51
64.922672
  0
LINE
  8
OBRYS
 10
764.912937
 20
21.042558
 11
764.912937
 21
48.521871
  0
ARC
  8
OBRYS
 10
767.912937
 20
48.521871
 40
3.000000
 50
73.850435
 51
180.000000
  0
ARC
  8
OBRYS
 10
809.912937
 20
48.521871
 40
3.000000
 50
0.000000
 51
106.149565
  0
LINE
  8
OBRYS
 10
812.912937
 20
21.042558
 11
812.912937
 21
48.521871
  0
ARC
  8
OBRYS
 10
820.912937
 20
52.659446
 40
3.000000
 50
115.077328
 51
180.000000
  0
LINE
  8
OBRYS
 10
817.912937
 20
52.659446
 11
817.912937
 21
37.042558
  0
LINE
  8
OBRYS
 10
759.912937
 20
52.659446
 11
759.912937
 21
37.042558
  0
ARC
  8
OBRYS
 10
788.912937
 20
121.042558
 40
74.278193
 50
247.842415
 51
250.754515
  0
ARC
  8
OBRYS
 10
788.912937
 20
121.042558
 40
74.278193
 50
289.245485
 51
292.157585
  0
LINE
  8
OBRYS
 10
791.412937
 20
182.649579
 11
791.412937
 21
190.997901
  0
LINE
  8
OBRYS
 10
786.412937
 20
182.649579
 11
786.412937
 21
190.997901
  0
LINE
  8
OBRYS
 10
743.582427
 20
162.837533
 11
737.679272
 21
168.740688
  0
LINE
  8
OBRYS
 10
747.117961
 20
166.373067
 11
741.214806
 21
172.276222
  0
LINE
  8
OBRYS
 10
727.305916
 20
118.542558
 11
718.957594
 21
118.542558
  0
LINE
  8
OBRYS
 10
727.305916
 20
123.542558
 11
718.957594
 21
123.542558
  0
LINE
  8
OBRYS
 10
850.519958
 20
123.542558
 11
858.868280
 21
123.542558
  0
LINE
  8
OBRYS
 10
850.519958
 20
118.542558
 11
858.868280
 21
118.542558
  0
LINE
  8
OBRYS
 10
830.707912
 20
166.373067
 11
836.611067
 21
172.276222
  0
LINE
  8
OBRYS
 10
834.243446
 20
162.837533
 11
840.146601
 21
168.740688
  0
LINE
  8
OBRYS
 10
747.117961
 20
75.712048
 11
735.633007
 21
64.227094
  0
LINE
  8
OBRYS
 10
743.582427
 20
79.247582
 11
732.097473
 21
67.762628
  0
LINE
  8
OBRYS
 10
830.707912
 20
75.712048
 11
842.192866
 21
64.227094
  0
LINE
  8
OBRYS
 10
834.243446
 20
79.247582
 11
845.728400
 21
67.762628
  0
ARC
  8
OBRYS
 10
788.912937
 20
121.042558
 40
82.513413
 50
211.967675
 51
249.423480
  0
LINE
  8
OBRYS
 62
     7
  6
DASHDOT
 10
741.412937
 20
21.042558
 11
741.412937
 21
53.043034
  0
LINE
  8
OBRYS
 10
748.512937
 20
43.942560
 11
748.512937
 21
33.042558
  0
LINE
  8
OBRYS
 10
734.312937
 20
43.942559
 11
734.312937
 21
33.042558
  0
ARC
  8
OBRYS
 10
741.412937
 20
43.942558
 40
7.100000
 50
0.000000
 51
180.000000
  0
INSERT
  8
OBRYS
  2
Srouby_s_valcovou_hlavou___24
 62
     7
 10
788.912937
 20
163.542558
  0
INSERT
  8
OBRYS
  2
Srouby_s_valcovou_hlavou___25
 62
     7
 10
746.412937
 20
121.042558
  0
INSERT
  8
OBRYS
  2
Srouby_s_valcovou_hlavou___26
 62
     7
 10
788.912937
 20
78.542558
  0
INSERT
  8
OBRYS
  2
Srouby_s_valcovou_hlavou___27
 62
     7
 10
831.412937
 20
121.042558
  0
LINE
  8
OBRYS
 10
788.912937
 20
136.842558
 11
792.912937
 21
136.842558
  0
ARC
  8
OBRYS
 10
788.912937
 20
121.042558
 40
12.500000
 50
108.662925
 51
71.337075
  0
LINE
  8
OBRYS
 10
792.912937
 20
136.842558
 11
792.912937
 21
132.885277
  0
LINE
  8
OBRYS
 10
788.912937
 20
136.842558
 11
784.912937
 21
136.842558
  0
LINE
  8
OBRYS
 10
784.912937
 20
136.842558
 11
784.912937
 21
132.885277
  0
CIRCLE
  8
OBRYS
 10
788.912937
 20
121.042558
 40
20.000000
  0
CIRCLE
  8
OBRYS
 10
788.912937
 20
121.042558
 40
27.500000
  0
ARC
  8
OBRYS
 10
788.912937
 20
219.042558
 40
65.000000
 50
261.620667
 51
278.379333
  0
ARC
  8
OBRYS
 10
690.912937
 20
121.042558
 40
65.000000
 50
351.620667
 51
8.379333
  0
ARC
  8
OBRYS
 10
788.912937
 20
23.042558
 40
65.000000
 50
81.620667
 51
98.379333
  0
ARC
  8
OBRYS
 10
886.912937
 20
121.042558
 40
65.000000
 50
171.620667
 51
188.379333
  0
ARC
  8
OBRYS
 10
788.912937
 20
121.042558
 40
82.513413
 50
253.090442
 51
286.909558
  0
ARC
  8
OBRYS
 10
788.912937
 20
121.042558
 40
82.513413
 50
290.576520
 51
328.032325
  0
ENDBLK
  8
OBRYS
  0
BLOCK
  8
OBRYS
  2
Srouby_s_valcovou_hlavou___15
 70
   66
 10
1131.749244
 20
97.124843
  0
LINE
  8
OBRYS
 10
728.670466
 20
95.681458
 11
728.670466
 21
98.568228
  0
LINE
  8
OBRYS
 10
728.670466
 20
98.568228
 11
731.170466
 21
100.011612
  0
LINE
  8
OBRYS
 10
731.170466
 20
100.011612
 11
733.670466
 21
98.568228
  0
LINE
  8
OBRYS
 10
733.670466
 20
98.568228
 11
733.670466
 21
95.681458
  0
LINE
  8
OBRYS
 10
733.670466
 20
95.681458
 11
731.170466
 21
94.238074
  0
LINE
  8
OBRYS
 10
731.170466
 20
94.238074
 11
728.670466
 21
95.681458
  0
CIRCLE
  8
OBRYS
 10
731.170466
 20
97.124843
 40
2.886769
  0
CIRCLE
  8
OBRYS
 10
731.170466
 20
97.124843
 40
5.000000
  0
ENDBLK
  8
OBRYS
  0
BLOCK
  8
OBRYS
  2
Srouby_s_valcovou_hlavou___16
 70
   66
 10
1165.574000
 20
63.300087
  0
LINE
  8
OBRYS
 10
762.495222
 20
61.856702
 11
762.495222
 21
64.743472
  0
LINE
  8
OBRYS
 10
762.495222
 20
64.743472
 11
764.995222
 21
66.186856
  0
LINE
  8
OBRYS
 10
764.995222
 20
66.186856
 11
767.495222
 21
64.743472
  0
LINE
  8
OBRYS
 10
767.495222
 20
64.743472
 11
767.495222
 21
61.856702
  0
LINE
  8
OBRYS
 10
767.495222
 20
61.856702
 11
764.995222
 21
60.413317
  0
LINE
  8
OBRYS
 10
764.995222
 20
60.413317
 11
762.495222
 21
61.856702
  0
CIRCLE
  8
OBRYS
 10
764.995222
 20
63.300087
 40
2.886769
  0
CIRCLE
  8
OBRYS
 10
764.995222
 20
63.300087
 40
5.000000
  0
ENDBLK
  8
OBRYS
  0
BLOCK
  8
OBRYS
  2
Srouby_s_valcovou_hlavou___17
 70
   66
 10
1213.409429
 20
63.300087
  0
LINE
  8
OBRYS
 10
810.330651
 20
61.856702
 11
810.330651
 21
64.743472
  0
LINE
  8
OBRYS
 10
810.330651
 20
64.743472
 11
812.830651
 21
66.186856
  0
LINE
  8
OBRYS
 10
812.830651
 20
66.186856
 11
815.330651
 21
64.743472
  0
LINE
  8
OBRYS
 10
815.330651
 20
64.743472
 11
815.330651
 21
61.856702
  0
LINE
  8
OBRYS
 10
815.330651
 20
61.856702
 11
812.830651
 21
60.413317
  0
LINE
  8
OBRYS
 10
812.830651
 20
60.413317
 11
810.330651
 21
61.856702
  0
CIRCLE
  8
OBRYS
 10
812.830651
 20
63.300087
 40
2.886769
  0
CIRCLE
  8
OBRYS
 10
812.830651
 20
63.300087
 40
5.000000
  0
ENDBLK
  8
OBRYS
  0
BLOCK
  8
OBRYS
  2
Srouby_s_valcovou_hlavou___18
 70
   66
 10
1247.234185
 20
97.124843
  0
LINE
  8
OBRYS
 10
844.155407
 20
95.681458
 11
844.155407
 21
98.568228
  0
LINE
  8
OBRYS
 10
844.155407
 20
98.568228
 11
846.655407
 21
100.011612
  0
LINE
  8
OBRYS
 10
846.655407
 20
100.011612
 11
849.155407
 21
98.568228
  0
LINE
  8
OBRYS
 10
849.155407
 20
98.568228
 11
849.155407
 21
95.681458
  0
LINE
  8
OBRYS
 10
849.155407
 20
95.681458
 11
846.655407
 21
94.238074
  0
LINE
  8
OBRYS
 10
846.655407
 20
94.238074
 11
844.155407
 21
95.681458
  0
CIRCLE
  8
OBRYS
 10
846.655407
 20
97.124843
 40
2.886769
  0
CIRCLE
  8
OBRYS
 10
846.655407
 20
97.124843
 40
5.000000
  0
ENDBLK
  8
OBRYS
  0
BLOCK
  8
OBRYS
  2
Srouby_s_valcovou_hlavou___19
 70
   66
 10
1247.234185
 20
144.960272
  0
LINE
  8
OBRYS
 10
844.155407
 20
143.516887
 11
844.155407
 21
146.403657
  0
LINE
  8
OBRYS
 10
844.155407
 20
146.403657
 11
846.655407
 21
147.847042
  0
LINE
  8
OBRYS
 10
846.655407
 20
147.847042
 11
849.155407
 21
146.403657
  0
LINE
  8
OBRYS
 10
849.155407
 20
146.403657
 11
849.155407
 21
143.516887
  0
LINE
  8
OBRYS
 10
849.155407
 20
143.516887
 11
846.655407
 21
142.073503
  0
LINE
  8
OBRYS
 10
846.655407
 20
142.073503
 11
844.155407
 21
143.516887
  0
CIRCLE
  8
OBRYS
 10
846.655407
 20
144.960272
 40
2.886769
  0
CIRCLE
  8
OBRYS
 10
846.655407
 20
144.960272
 40
5.000000
  0
ENDBLK
  8
OBRYS
  0
BLOCK
  8
OBRYS
  2
Srouby_s_valcovou_hlavou___20
 70
   66
 10
1213.409429
 20
178.785028
  0
LINE
  8
OBRYS
 10
810.330651
 20
177.341644
 11
810.330651
 21
180.228413
  0
LINE
  8
OBRYS
 10
810.330651
 20
180.228413
 11
812.830651
 21
181.671798
  0
LINE
  8
OBRYS
 10
812.830651
 20
181.671798
 11
815.330651
 21
180.228413
  0
LINE
  8
OBRYS
 10
815.330651
 20
180.228413
 11
815.330651
 21
177.341644
  0
LINE
  8
OBRYS
 10
815.330651
 20
177.341644
 11
812.830651
 21
175.898259
  0
LINE
  8
OBRYS
 10
812.830651
 20
175.898259
 11
810.330651
 21
177.341644
  0
CIRCLE
  8
OBRYS
 10
812.830651
 20
178.785028
 40
2.886769
  0
CIRCLE
  8
OBRYS
 10
812.830651
 20
178.785028
 40
5.000000
  0
ENDBLK
  8
OBRYS
  0
BLOCK
  8
OBRYS
  2
Srouby_s_valcovou_hlavou___21
 70
   66
 10
1165.574000
 20
178.785028
  0
LINE
  8
OBRYS
 10
762.495222
 20
177.341644
 11
762.495222
 21
180.228413
  0
LINE
  8
OBRYS
 10
762.495222
 20
180.228413
 11
764.995222
 21
181.671798
  0
LINE
  8
OBRYS
 10
764.995222
 20
181.671798
 11
767.495222
 21
180.228413
  0
LINE
  8
OBRYS
 10
767.495222
 20
180.228413
 11
767.495222
 21
177.341644
  0
LINE
  8
OBRYS
 10
767.495222
 20
177.341644
 11
764.995222
 21
175.898259
  0
LINE
  8
OBRYS
 10
764.995222
 20
175.898259
 11
762.495222
 21
177.341644
  0
CIRCLE
  8
OBRYS
 10
764.995222
 20
178.785028
 40
2.886769
  0
CIRCLE
  8
OBRYS
 10
764.995222
 20
178.785028
 40
5.000000
  0
ENDBLK
  8
OBRYS
  0
BLOCK
  8
OBRYS
  2
Srouby_s_valcovou_hlavou___22
 70
   66
 10
1131.749244
 20
144.960272
  0
LINE
  8
OBRYS
 10
728.670466
 20
143.516887
 11
728.670466
 21
146.403657
  0
LINE
  8
OBRYS
 10
728.670466
 20
146.403657
 11
731.170466
 21
147.847042
  0
LINE
  8
OBRYS
 10
731.170466
 20
147.847042
 11
733.670466
 21
146.403657
  0
LINE
  8
OBRYS
 10
733.670466
 20
146.403657
 11
733.670466
 21
143.516887
  0
LINE
  8
OBRYS
 10
733.670466
 20
143.516887
 11
731.170466
 21
142.073503
  0
LINE
  8
OBRYS
 10
731.170466
 20
142.073503
 11
728.670466
 21
143.516887
  0
CIRCLE
  8
OBRYS
 10
731.170466
 20
144.960272
 40
2.886769
  0
CIRCLE
  8
OBRYS
 10
731.170466
 20
144.960272
 40
5.000000
  0
ENDBLK
  8
OBRYS
  0
BLOCK
  8
OBRYS
  2
__23
 70
   64
 10
788.912937
 20
38.529145
  0
INSERT
  8
OBRYS
  2
*X__28
 10
0.000000
 20
0.000000
  0
INSERT
  8
OBRYS
  2
*X__29
 10
0.000000
 20
0.000000
  0
LINE
  8
OBRYS
 10
793.904880
 20
42.529145
 11
793.904880
 21
52.529145
  0
LINE
  8
OBRYS
 10
793.135650
 20
52.529145
 11
793.135650
 21
42.529145
  0
ARC
  8
OBRYS
 10
793.135650
 20
49.452222
 40
3.076923
 50
90.000000
 51
180.000000
  0
LINE
  8
OBRYS
 10
790.058727
 20
49.452222
 11
790.058727
 21
45.606068
  0
ARC
  8
OBRYS
 10
793.135650
 20
45.606068
 40
3.076923
 50
180.000000
 51
270.000000
  0
ARC
  8
OBRYS
 10
793.904880
 20
49.452222
 40
3.076923
 50
0.000000
 51
90.000000
  0
LINE
  8
OBRYS
 10
796.981804
 20
45.606068
 11
796.981804
 21
49.452222
  0
ARC
  8
OBRYS
 10
793.904880
 20
45.606068
 40
3.076923
 50
270.000000
 51
360.000000
  0
LINE
  8
OBRYS
 10
784.674111
 20
46.375299
 11
784.674111
 21
43.298376
  0
ARC
  8
OBRYS
 10
784.674111
 20
45.606068
 40
3.076923
 50
0.000000
 51
90.000000
  0
LINE
  8
OBRYS
 10
784.674124
 20
42.529145
 11
784.674111
 21
48.682991
  0
ARC
  8
OBRYS
 10
784.674111
 20
45.606068
 40
3.076923
 50
270.000247
 51
360.000000
  0
CIRCLE
  8
OBRYS
 10
786.020264
 20
51.182989
 40
1.346156
  0
ARC
  8
OBRYS
 10
783.904913
 20
45.606090
 40
3.076945
 50
180.000000
 51
270.000000
  0
LINE
  8
OBRYS
 10
783.904913
 20
42.529145
 11
783.904913
 21
51.182989
  0
LINE
  8
OBRYS
 10
784.388524
 20
52.529145
 11
783.904913
 21
52.529145
  0
ARC
  8
OBRYS
 10
786.020264
 20
51.182989
 40
2.115351
 50
140.477989
 51
180.000000
  0
ARC
  8
OBRYS
 10
783.904945
 20
49.452232
 40
3.076945
 50
90.000000
 51
180.000000
  0
LINE
  8
OBRYS
 10
780.828000
 20
45.591979
 11
780.828000
 21
49.452232
  0
INSERT
  8
OBRYS
  2
*X__30
 10
0.000000
 20
0.000000
  0
INSERT
  8
OBRYS
  2
*X__31
 10
0.000000
 20
0.000000
  0
INSERT
  8
OBRYS
  2
*X__32
 10
0.000000
 20
0.000000
  0
ENDBLK
  8
OBRYS
  0
BLOCK
  8
OBRYS
  2
Srouby_s_valcovou_hlavou___24
 70
   66
 10
788.912937
 20
163.542558
  0
LINE
  8
OBRYS
 10
785.912937
 20
161.810496
 11
785.912937
 21
165.274619
  0
LINE
  8
OBRYS
 10
785.912937
 20
165.274619
 11
788.912937
 21
167.006681
  0
LINE
  8
OBRYS
 10
788.912937
 20
167.006681
 11
791.912937
 21
165.274619
  0
LINE
  8
OBRYS
 10
791.912937
 20
165.274619
 11
791.912937
 21
161.810496
  0
LINE
  8
OBRYS
 10
791.912937
 20
161.810496
 11
788.912937
 21
160.078434
  0
LINE
  8
OBRYS
 10
788.912937
 20
160.078434
 11
785.912937
 21
161.810496
  0
CIRCLE
  8
OBRYS
 10
788.912937
 20
163.542558
 40
3.464123
  0
CIRCLE
  8
OBRYS
 10
788.912937
 20
163.542558
 40
6.500000
  0
ENDBLK
  8
OBRYS
  0
BLOCK
  8
OBRYS
  2
Srouby_s_valcovou_hlavou___25
 70
   66
 10
746.412937
 20
121.042558
  0
LINE
  8
OBRYS
 10
743.412937
 20
119.310496
 11
743.412937
 21
122.774619
  0
LINE
  8
OBRYS
 10
743.412937
 20
122.774619
 11
746.412937
 21
124.506681
  0
LINE
  8
OBRYS
 10
746.412937
 20
124.506681
 11
749.412937
 21
122.774619
  0
LINE
  8
OBRYS
 10
749.412937
 20
122.774619
 11
749.412937
 21
119.310496
  0
LINE
  8
OBRYS
 10
749.412937
 20
119.310496
 11
746.412937
 21
117.578434
  0
LINE
  8
OBRYS
 10
746.412937
 20
117.578434
 11
743.412937
 21
119.310496
  0
CIRCLE
  8
OBRYS
 10
746.412937
 20
121.042558
 40
3.464123
  0
CIRCLE
  8
OBRYS
 10
746.412937
 20
121.042558
 40
6.500000
  0
ENDBLK
  8
OBRYS
  0
BLOCK
  8
OBRYS
  2
Srouby_s_valcovou_hlavou___26
 70
   66
 10
788.912937
 20
78.542558
  0
LINE
  8
OBRYS
 10
785.912937
 20
76.810496
 11
785.912937
 21
80.274619
  0
LINE
  8
OBRYS
 10
785.912937
 20
80.274619
 11
788.912937
 21
82.006681
  0
LINE
  8
OBRYS
 10
788.912937
 20
82.006681
 11
791.912937
 21
80.274619
  0
LINE
  8
OBRYS
 10
791.912937
 20
80.274619
 11
791.912937
 21
76.810496
  0
LINE
  8
OBRYS
 10
791.912937
 20
76.810496
 11
788.912937
 21
75.078434
  0
LINE
  8
OBRYS
 10
788.912937
 20
75.078434
 11
785.912937
 21
76.810496
  0
CIRCLE
  8
OBRYS
 10
788.912937
 20
78.542558
 40
3.464123
  0
CIRCLE
  8
OBRYS
 10
788.912937
 20
78.542558
 40
6.500000
  0
ENDBLK
  8
OBRYS
  0
BLOCK
  8
OBRYS
  2
Srouby_s_valcovou_hlavou___27
 70
   66
 10
831.412937
 20
121.042558
  0
LINE
  8
OBRYS
 10
828.412937
 20
119.310496
 11
828.412937
 21
122.774619
  0
LINE
  8
OBRYS
 10
828.412937
 20
122.774619
 11
831.412937
 21
124.506681
  0
LINE
  8
OBRYS
 10
831.412937
 20
124.506681
 11
834.412937
 21
122.774619
  0
LINE
  8
OBRYS
 10
834.412937
 20
122.774619
 11
834.412937
 21
119.310496
  0
LINE
  8
OBRYS
 10
834.412937
 20
119.310496
 11
831.412937
 21
117.578434
  0
LINE
  8
OBRYS
 10
831.412937
 20
117.578434
 11
828.412937
 21
119.310496
  0
CIRCLE
  8
OBRYS
 10
831.412937
 20
121.042558
 40
3.464123
  0
CIRCLE
  8
OBRYS
 10
831.412937
 20
121.042558
 40
6.500000
  0
ENDBLK
  8
OBRYS
  0
BLOCK
  8
OBRYS
  2
*X__28
 70
   65
 10
0.0
 20
0.0
  0
LINE
  8
OBRYS
 62
     0
 10
793.134888
 20
42.649609
 11
793.016052
 21
42.530834
  0
LINE
  8
OBRYS
 62
     0
 10
792.740295
 20
42.554882
 11
793.133423
 21
42.948040
  0
LINE
  8
OBRYS
 62
     0
 10
793.134888
 20
43.246410
 11
792.485718
 21
42.597332
  0
LINE
  8
OBRYS
 62
     0
 10
792.248169
 20
42.659542
 11
793.133423
 21
43.544842
  0
LINE
  8
OBRYS
 62
     0
 10
793.134888
 20
43.843212
 11
792.026123
 21
42.734493
  0
LINE
  8
OBRYS
 62
     0
 10
791.816833
 20
42.824993
 11
793.133423
 21
44.141644
  0
LINE
  8
OBRYS
 62
     0
 10
793.134888
 20
44.440029
 11
791.621643
 21
42.926800
  0
LINE
  8
OBRYS
 62
     0
 10
791.434998
 20
43.039959
 11
793.134888
 21
44.739834
  0
LINE
  8
OBRYS
 62
     0
 10
793.133423
 20
45.038250
 11
791.261047
 21
43.165813
  0
LINE
  8
OBRYS
 62
     0
 10
791.098389
 20
43.300167
 11
793.134888
 21
45.336636
  0
LINE
  8
OBRYS
 62
     0
 10
793.133423
 20
45.635052
 11
790.944275
 21
43.445843
  0
LINE
  8
OBRYS
 62
     0
 10
790.801392
 20
43.600018
 11
793.134888
 21
45.933437
  0
LINE
  8
OBRYS
 62
     0
 10
793.133423
 20
46.231853
 11
790.668457
 21
43.766888
  0
LINE
  8
OBRYS
 62
     0
 10
790.546875
 20
43.942211
 11
793.134888
 21
46.530239
  0
LINE
  8
OBRYS
 62
     0
 10
793.133423
 20
46.828655
 11
790.435120
 21
44.130291
  0
LINE
  8
OBRYS
 62
     0
 10
790.336121
 20
44.328289
 11
793.134888
 21
47.127041
  0
LINE
  8
OBRYS
 62
     0
 10
793.134888
 20
47.426846
 11
790.248474
 21
44.540447
  0
LINE
  8
OBRYS
 62
     0
 10
790.173523
 20
44.765301
 11
793.133423
 21
47.725262
  0
LINE
  8
OBRYS
 62
     0
 10
793.134888
 20
48.023647
 11
790.116943
 21
45.005703
  0
LINE
  8
OBRYS
 62
     0
 10
790.075928
 20
45.264523
 11
793.133423
 21
48.322063
  0
LINE
  8
OBRYS
 62
     0
 10
793.134888
 20
48.620449
 11
790.057556
 21
45.543133
  0
LINE
  8
OBRYS
 62
     0
 10
790.057556
 20
45.842937
 11
793.133423
 21
48.918865
  0
LINE
  8
OBRYS
 62
     0
 10
793.134888
 20
49.217251
 11
790.057556
 21
46.139935
  0
LINE
  8
OBRYS
 62
     0
 10
790.057556
 20
46.439739
 11
793.133423
 21
49.515667
  0
LINE
  8
OBRYS
 62
     0
 10
793.134888
 20
49.814053
 11
790.057556
 21
46.736736
  0
LINE
  8
OBRYS
 62
     0
 10
790.057556
 20
47.036541
 11
793.133423
 21
50.112469
  0
LINE
  8
OBRYS
 62
     0
 10
793.134888
 20
50.410854
 11
790.057556
 21
47.333538
  0
LINE
  8
OBRYS
 62
     0
 10
790.057556
 20
47.633343
 11
793.134888
 21
50.710659
  0
LINE
  8
OBRYS
 62
     0
 10
793.133423
 20
51.009075
 11
790.056152
 21
47.931728
  0
LINE
  8
OBRYS
 62
     0
 10
790.057556
 20
48.230145
 11
793.134888
 21
51.307461
  0
LINE
  8
OBRYS
 62
     0
 10
793.133423
 20
51.605877
 11
790.057556
 21
48.529949
  0
LINE
  8
OBRYS
 62
     0
 10
790.057556
 20
48.826946
 11
793.134888
 21
51.904263
  0
LINE
  8
OBRYS
 62
     0
 10
793.133423
 20
52.202679
 11
790.057556
 21
49.126751
  0
LINE
  8
OBRYS
 62
     0
 10
790.057556
 20
49.423748
 11
793.134888
 21
52.501064
  0
LINE
  8
OBRYS
 62
     0
 10
792.850586
 20
52.516598
 11
790.070313
 21
49.736248
  0
LINE
  8
OBRYS
 62
     0
 10
790.124023
 20
50.087002
 11
792.498474
 21
52.461468
  0
LINE
  8
OBRYS
 62
     0
 10
792.079834
 20
52.342648
 11
790.244202
 21
50.507000
  0
LINE
  8
OBRYS
 62
     0
 10
790.529907
 20
51.092495
 11
791.492981
 21
52.055584
  0
LINE
  8
OBRYS
 62
     0
 10
791.229919
 20
43.188427
 11
790.716553
 21
43.701824
  0
LINE
  8
OBRYS
 62
     0
 10
790.293701
 20
44.424480
 11
791.952576
 21
42.765575
  0
LINE
  8
OBRYS
 62
     0
 10
792.396667
 20
42.618526
 11
790.146606
 21
44.868526
  0
LINE
  8
OBRYS
 62
     0
 10
790.080139
 20
45.234829
 11
792.762939
 21
42.552044
  0
LINE
  8
OBRYS
 62
     0
 10
793.083984
 20
42.530834
 11
790.058960
 21
45.555828
  0
LINE
  8
OBRYS
 62
     0
 10
790.057556
 20
45.854244
 11
793.133423
 21
42.778316
  0
LINE
  8
OBRYS
 62
     0
 10
793.134888
 20
43.076702
 11
790.057556
 21
46.154049
  0
LINE
  8
OBRYS
 62
     0
 10
790.057556
 20
46.451046
 11
793.133423
 21
43.375118
  0
LINE
  8
OBRYS
 62
     0
 10
793.134888
 20
43.673504
 11
790.057556
 21
46.750851
  0
LINE
  8
OBRYS
 62
     0
 10
790.057556
 20
47.047848
 11
793.133423
 21
43.971920
  0
LINE
  8
OBRYS
 62
     0
 10
793.134888
 20
44.270306
 11
790.057556
 21
47.347652
  0
LINE
  8
OBRYS
 62
     0
 10
790.056152
 20
47.646038
 11
793.133423
 21
44.568722
  0
LINE
  8
OBRYS
 62
     0
 10
793.134888
 20
44.867107
 11
790.057556
 21
47.944454
  0
LINE
  8
OBRYS
 62
     0
 10
790.056152
 20
48.242840
 11
793.133423
 21
45.165524
  0
LINE
  8
OBRYS
 62
     0
 10
793.133423
 20
45.465328
 11
790.057556
 21
48.541256
  0
LINE
  8
OBRYS
 62
     0
 10
790.057556
 20
48.841061
 11
793.134888
 21
45.763714
  0
LINE
  8
OBRYS
 62
     0
 10
793.133423
 20
46.062130
 11
790.057556
 21
49.138058
  0
LINE
  8
OBRYS
 62
     0
 10
790.057556
 20
49.437862
 11
793.134888
 21
46.360516
  0
LINE
  8
OBRYS
 62
     0
 10
793.133423
 20
46.658932
 11
790.068909
 21
49.723553
  0
LINE
  8
OBRYS
 62
     0
 10
790.104187
 20
49.988003
 11
793.134888
 21
46.957317
  0
LINE
  8
OBRYS
 62
     0
 10
793.133423
 20
47.255733
 11
790.157959
 21
50.231243
  0
LINE
  8
OBRYS
 62
     0
 10
790.227234
 20
50.461758
 11
793.134888
 21
47.554119
  0
LINE
  8
OBRYS
 62
     0
 10
793.133423
 20
47.852535
 11
790.310669
 21
50.675289
  0
LINE
  8
OBRYS
 62
     0
 10
790.408264
 20
50.877529
 11
793.134888
 21
48.150921
  0
LINE
  8
OBRYS
 62
     0
 10
793.134888
 20
48.450726
 11
790.517151
 21
51.068447
  0
LINE
  8
OBRYS
 62
     0
 10
790.634521
 20
51.248043
 11
793.133423
 21
48.749142
  0
LINE
  8
OBRYS
 62
     0
 10
793.134888
 20
49.047527
 11
790.766052
 21
51.416348
  0
LINE
  8
OBRYS
 62
     0
 10
790.906067
 20
51.573330
 11
793.133423
 21
49.345943
  0
LINE
  8
OBRYS
 62
     0
 10
793.134888
 20
49.644329
 11
791.057373
 21
51.721844
  0
LINE
  8
OBRYS
 62
     0
 10
791.217224
 20
51.859005
 11
793.133423
 21
49.942745
  0
LINE
  8
OBRYS
 62
     0
 10
793.134888
 20
50.241131
 11
791.389709
 21
51.986248
  0
LINE
  8
OBRYS
 62
     0
 10
791.570740
 20
52.102215
 11
793.133423
 21
50.539547
  0
LINE
  8
OBRYS
 62
     0
 10
793.134888
 20
50.837933
 11
791.764465
 21
52.208294
  0
LINE
  8
OBRYS
 62
     0
 10
791.970947
 20
52.301632
 11
793.134888
 21
51.137737
  0
LINE
  8
OBRYS
 62
     0
 10
793.133423
 20
51.436153
 11
792.188782
 21
52.380856
  0
LINE
  8
OBRYS
 62
     0
 10
792.423523
 20
52.445889
 11
793.134888
 21
51.734539
  0
LINE
  8
OBRYS
 62
     0
 10
793.133423
 20
52.032955
 11
792.672424
 21
52.493984
  0
LINE
  8
OBRYS
 62
     0
 10
792.942505
 20
52.523678
 11
793.134888
 21
52.331341
  0
ENDBLK
  8
OBRYS
  0
BLOCK
  8
OBRYS
  2
*X__29
 70
   65
 10
0.0
 20
0.0
  0
LINE
  8
OBRYS
 62
     0
 10
796.442688
 20
43.867260
 11
795.642273
 21
43.066814
  0
LINE
  8
OBRYS
 62
     0
 10
795.011536
 20
42.735882
 11
796.773621
 21
44.498013
  0
LINE
  8
OBRYS
 62
     0
 10
796.905151
 20
44.926510
 11
794.583008
 21
42.604412
  0
LINE
  8
OBRYS
 62
     0
 10
794.225220
 20
42.546429
 11
796.963135
 21
45.284344
  0
LINE
  8
OBRYS
 62
     0
 10
796.981506
 20
45.599697
 11
793.909851
 21
42.527996
  0
LINE
  8
OBRYS
 62
     0
 10
793.902771
 20
42.820751
 11
796.980103
 21
45.898113
  0
LINE
  8
OBRYS
 62
     0
 10
796.980103
 20
46.197918
 11
793.902771
 21
43.120556
  0
LINE
  8
OBRYS
 62
     0
 10
793.904175
 20
43.418987
 11
796.980103
 21
46.494869
  0
LINE
  8
OBRYS
 62
     0
 10
796.980103
 20
46.794720
 11
793.902771
 21
43.717358
  0
LINE
  8
OBRYS
 62
     0
 10
793.904175
 20
44.015789
 11
796.980103
 21
47.091671
  0
LINE
  8
OBRYS
 62
     0
 10
796.980103
 20
47.391521
 11
793.902771
 21
44.314159
  0
LINE
  8
OBRYS
 62
     0
 10
793.904175
 20
44.612591
 11
796.981506
 21
47.689907
  0
LINE
  8
OBRYS
 62
     0
 10
796.980103
 20
47.988323
 11
793.902771
 21
44.910976
  0
LINE
  8
OBRYS
 62
     0
 10
793.904175
 20
45.209393
 11
796.981506
 21
48.286663
  0
LINE
  8
OBRYS
 62
     0
 10
796.980103
 20
48.585079
 11
793.902771
 21
45.507778
  0
LINE
  8
OBRYS
 62
     0
 10
793.902771
 20
45.807583
 11
796.980103
 21
48.884930
  0
LINE
  8
OBRYS
 62
     0
 10
796.980103
 20
49.181881
 11
793.904175
 21
46.105999
  0
LINE
  8
OBRYS
 62
     0
 10
793.902771
 20
46.404385
 11
796.980103
 21
49.481731
  0
LINE
  8
OBRYS
 62
     0
 10
796.964539
 20
49.763103
 11
793.904175
 21
46.702801
  0
LINE
  8
OBRYS
 62
     0
 10
793.902771
 20
47.001186
 11
796.926392
 21
50.024776
  0
LINE
  8
OBRYS
 62
     0
 10
796.871216
 20
50.266598
 11
793.904175
 21
47.299557
  0
LINE
  8
OBRYS
 62
     0
 10
793.902771
 20
47.597942
 11
796.799072
 21
50.494305
  0
LINE
  8
OBRYS
 62
     0
 10
796.714233
 20
50.706417
 11
793.904175
 21
47.896358
  0
LINE
  8
OBRYS
 62
     0
 10
793.902771
 20
48.194744
 11
796.615234
 21
50.907223
  0
LINE
  8
OBRYS
 62
     0
 10
796.503540
 20
51.095333
 11
793.902771
 21
48.494595
  0
LINE
  8
OBRYS
 62
     0
 10
793.904175
 20
48.793011
 11
796.383301
 21
51.272091
  0
LINE
  8
OBRYS
 62
     0
 10
796.251770
 20
51.440395
 11
793.902771
 21
49.091351
  0
LINE
  8
OBRYS
 62
     0
 10
793.904175
 20
49.389767
 11
796.110352
 21
51.595943
  0
LINE
  8
OBRYS
 62
     0
 10
795.957642
 20
51.743038
 11
793.902771
 21
49.688152
  0
LINE
  8
OBRYS
 62
     0
 10
793.904175
 20
49.986568
 11
795.796387
 21
51.878780
  0
LINE
  8
OBRYS
 62
     0
 10
795.622498
 20
52.004681
 11
793.902771
 21
50.284954
  0
LINE
  8
OBRYS
 62
     0
 10
793.904175
 20
50.583370
 11
795.438599
 21
52.117794
  0
LINE
  8
OBRYS
 62
     0
 10
795.243469
 20
52.222454
 11
793.902771
 21
50.881756
  0
LINE
  8
OBRYS
 62
     0
 10
793.904175
 20
51.180172
 11
795.036987
 21
52.312954
  0
LINE
  8
OBRYS
 62
     0
 10
794.814941
 20
52.390743
 11
793.904175
 21
51.479977
  0
LINE
  8
OBRYS
 62
     0
 10
793.902771
 20
51.778362
 11
794.578796
 21
52.454388
  0
LINE
  8
OBRYS
 62
     0
 10
794.327026
 20
52.499630
 11
793.904175
 21
52.076778
  0
LINE
  8
OBRYS
 62
     0
 10
793.902771
 20
52.375164
 11
794.054077
 21
52.526531
  0
LINE
  8
OBRYS
 62
     0
 10
793.979126
 20
42.529415
 11
793.902771
 21
42.605785
  0
LINE
  8
OBRYS
 62
     0
 10
793.904175
 20
42.904217
 11
794.257751
 21
42.550655
  0
LINE
  8
OBRYS
 62
     0
 10
794.515137
 20
42.590252
 11
793.902771
 21
43.202587
  0
LINE
  8
OBRYS
 62
     0
 10
793.904175
 20
43.501019
 11
794.755554
 21
42.649609
  0
LINE
  8
OBRYS
 62
     0
 10
794.979004
 20
42.723186
 11
793.902771
 21
43.799389
  0
LINE
  8
OBRYS
 62
     0
 10
793.904175
 20
44.097820
 11
795.191162
 21
42.810833
  0
LINE
  8
OBRYS
 62
     0
 10
795.387695
 20
42.911297
 11
793.902771
 21
44.396206
  0
LINE
  8
OBRYS
 62
     0
 10
793.902771
 20
44.696011
 11
795.575806
 21
43.022991
  0
LINE
  8
OBRYS
 62
     0
 10
795.752563
 20
43.146038
 11
793.904175
 21
44.994427
  0
LINE
  8
OBRYS
 62
     0
 10
793.902771
 20
45.292812
 11
795.916626
 21
43.278973
  0
LINE
  8
OBRYS
 62
     0
 10
796.072205
 20
43.423214
 11
793.904175
 21
45.591228
  0
LINE
  8
OBRYS
 62
     0
 10
793.902771
 20
45.889614
 11
796.216431
 21
43.575970
  0
LINE
  8
OBRYS
 62
     0
 10
796.350769
 20
43.741405
 11
793.904175
 21
46.188030
  0
LINE
  8
OBRYS
 62
     0
 10
793.902771
 20
46.486370
 11
796.473816
 21
43.915356
  0
LINE
  8
OBRYS
 62
     0
 10
796.586975
 20
44.102047
 11
793.904175
 21
46.784786
  0
LINE
  8
OBRYS
 62
     0
 10
793.902771
 20
47.083172
 11
796.688782
 21
44.297192
  0
LINE
  8
OBRYS
 62
     0
 10
796.777893
 20
44.507900
 11
793.902771
 21
47.383022
  0
LINE
  8
OBRYS
 62
     0
 10
793.904175
 20
47.681438
 11
796.854248
 21
44.731365
  0
LINE
  8
OBRYS
 62
     0
 10
796.913635
 20
44.968960
 11
793.902771
 21
47.979778
  0
LINE
  8
OBRYS
 62
     0
 10
793.904175
 20
48.278194
 11
796.957458
 21
45.224895
  0
LINE
  8
OBRYS
 62
     0
 10
796.978699
 20
45.500698
 11
793.902771
 21
48.576580
  0
LINE
  8
OBRYS
 62
     0
 10
793.904175
 20
48.874996
 11
796.980103
 21
45.799114
  0
LINE
  8
OBRYS
 62
     0
 10
796.980103
 20
46.096066
 11
793.902771
 21
49.173382
  0
LINE
  8
OBRYS
 62
     0
 10
793.904175
 20
49.471798
 11
796.980103
 21
46.395916
  0
LINE
  8
OBRYS
 62
     0
 10
796.980103
 20
46.692867
 11
793.902771
 21
49.770184
  0
LINE
  8
OBRYS
 62
     0
 10
793.902771
 20
50.069988
 11
796.980103
 21
46.992718
  0
LINE
  8
OBRYS
 62
     0
 10
796.981506
 20
47.291058
 11
793.904175
 21
50.368404
  0
LINE
  8
OBRYS
 62
     0
 10
793.902771
 20
50.666790
 11
796.980103
 21
47.589474
  0
LINE
  8
OBRYS
 62
     0
 10
796.981506
 20
47.887859
 11
793.904175
 21
50.965206
  0
LINE
  8
OBRYS
 62
     0
 10
793.902771
 20
51.263592
 11
796.980103
 21
48.186275
  0
LINE
  8
OBRYS
 62
     0
 10
796.980103
 20
48.486126
 11
793.904175
 21
51.562008
  0
LINE
  8
OBRYS
 62
     0
 10
793.902771
 20
51.860394
 11
796.980103
 21
48.783077
  0
LINE
  8
OBRYS
 62
     0
 10
796.980103
 20
49.082882
 11
793.904175
 21
52.158810
  0
LINE
  8
OBRYS
 62
     0
 10
793.902771
 20
52.457195
 11
796.980103
 21
49.379879
  0
LINE
  8
OBRYS
 62
     0
 10
796.971619
 20
49.688152
 11
794.140381
 21
52.519451
  0
LINE
  8
OBRYS
 62
     0
 10
794.485413
 20
52.474163
 11
796.924988
 21
50.034664
  0
LINE
  8
OBRYS
 62
     0
 10
796.817505
 20
50.439129
 11
794.889893
 21
52.366695
  0
LINE
  8
OBRYS
 62
     0
 10
795.434387
 20
52.122036
 11
796.572815
 21
50.983608
  0
ENDBLK
  8
OBRYS
  0
BLOCK
  8
OBRYS
  2
*X__30
 70
   65
 10
0.0
 20
0.0
  0
LINE
  8
OBRYS
 62
     0
 10
787.304077
 20
50.783566
 11
786.418762
 21
49.898266
  0
LINE
  8
OBRYS
 62
     0
 10
786.060974
 20
49.837444
 11
787.364868
 21
51.141354
  0
LINE
  8
OBRYS
 62
     0
 10
787.343628
 20
51.419949
 11
785.782349
 21
49.858669
  0
LINE
  8
OBRYS
 62
     0
 10
785.547607
 20
49.920895
 11
787.280029
 21
51.653301
  0
LINE
  8
OBRYS
 62
     0
 10
787.183838
 20
51.856945
 11
785.345337
 21
50.018475
  0
LINE
  8
OBRYS
 62
     0
 10
785.168579
 20
50.138683
 11
787.062195
 21
52.032314
  0
LINE
  8
OBRYS
 62
     0
 10
786.916565
 20
52.186459
 11
785.015869
 21
50.285763
  0
LINE
  8
OBRYS
 62
     0
 10
784.885742
 20
50.455456
 11
786.746826
 21
52.316570
  0
LINE
  8
OBRYS
 62
     0
 10
786.551697
 20
52.418392
 11
784.782532
 21
50.649212
  0
LINE
  8
OBRYS
 62
     0
 10
784.707581
 20
50.874065
 11
786.326843
 21
52.493343
  0
LINE
  8
OBRYS
 62
     0
 10
786.065186
 20
52.528698
 11
784.673645
 21
51.137112
  0
LINE
  8
OBRYS
 62
     0
 10
784.701904
 20
51.465206
 11
785.735718
 21
52.499004
  0
LINE
  8
OBRYS
 62
     0
 10
785.150208
 20
52.210506
 11
784.991821
 21
52.052105
  0
LINE
  8
OBRYS
 62
     0
 10
785.305786
 20
50.041103
 11
784.877258
 21
50.469601
  0
LINE
  8
OBRYS
 62
     0
 10
784.693420
 20
50.953259
 11
785.789429
 21
49.857250
  0
LINE
  8
OBRYS
 62
     0
 10
786.104797
 20
49.838863
 11
784.675049
 21
51.268642
  0
LINE
  8
OBRYS
 62
     0
 10
784.717468
 20
51.526028
 11
786.362183
 21
49.881298
  0
LINE
  8
OBRYS
 62
     0
 10
786.581360
 20
49.959072
 11
784.795227
 21
51.745220
  0
LINE
  8
OBRYS
 62
     0
 10
784.904114
 20
51.936138
 11
786.772278
 21
50.067974
  0
LINE
  8
OBRYS
 62
     0
 10
786.937744
 20
50.199490
 11
785.035645
 21
52.101604
  0
LINE
  8
OBRYS
 62
     0
 10
785.191223
 20
52.245861
 11
787.080627
 21
50.356472
  0
LINE
  8
OBRYS
 62
     0
 10
787.197998
 20
50.536068
 11
785.370850
 21
52.363232
  0
LINE
  8
OBRYS
 62
     0
 10
785.578735
 20
52.455166
 11
787.291321
 21
50.742550
  0
LINE
  8
OBRYS
 62
     0
 10
787.350708
 20
50.982967
 11
785.819153
 21
52.514553
  0
LINE
  8
OBRYS
 62
     0
 10
786.104797
 20
52.525875
 11
787.362061
 21
51.268642
  0
LINE
  8
OBRYS
 62
     0
 10
787.282837
 20
51.647640
 11
786.483826
 21
52.446682
  0
ENDBLK
  8
OBRYS
  0
BLOCK
  8
OBRYS
  2
*X__31
 70
   65
 10
0.0
 20
0.0
  0
LINE
  8
OBRYS
 62
     0
 10
783.902893
 20
42.605160
 11
783.827942
 21
42.530209
  0
LINE
  8
OBRYS
 62
     0
 10
783.549316
 20
42.548595
 11
783.904297
 21
42.903561
  0
LINE
  8
OBRYS
 62
     0
 10
783.902893
 20
43.201962
 11
783.291931
 21
42.591015
  0
LINE
  8
OBRYS
 62
     0
 10
783.051514
 20
42.650417
 11
783.902893
 21
43.501781
  0
LINE
  8
OBRYS
 62
     0
 10
783.904297
 20
43.800167
 11
782.828064
 21
42.723949
  0
LINE
  8
OBRYS
 62
     0
 10
782.615906
 20
42.811642
 11
783.902893
 21
44.098568
  0
LINE
  8
OBRYS
 62
     0
 10
783.904297
 20
44.396969
 11
782.417969
 21
42.910625
  0
LINE
  8
OBRYS
 62
     0
 10
782.231262
 20
43.023769
 11
783.902893
 21
44.695370
  0
LINE
  8
OBRYS
 62
     0
 10
783.904297
 20
44.993771
 11
782.055908
 21
43.145397
  0
LINE
  8
OBRYS
 62
     0
 10
781.890442
 20
43.279736
 11
783.902893
 21
45.292171
  0
LINE
  8
OBRYS
 62
     0
 10
783.904297
 20
45.590572
 11
781.736267
 21
43.422573
  0
LINE
  8
OBRYS
 62
     0
 10
781.590637
 20
43.576733
 11
783.902893
 21
45.888973
  0
LINE
  8
OBRYS
 62
     0
 10
783.902893
 20
46.188778
 11
781.456299
 21
43.742184
  0
LINE
  8
OBRYS
 62
     0
 10
781.333252
 20
43.916134
 11
783.904297
 21
46.487179
  0
LINE
  8
OBRYS
 62
     0
 10
783.902893
 20
46.785580
 11
781.218689
 21
44.101406
  0
LINE
  8
OBRYS
 62
     0
 10
781.118286
 20
44.297970
 11
783.904297
 21
47.083981
  0
LINE
  8
OBRYS
 62
     0
 10
783.902893
 20
47.382381
 11
781.029175
 21
44.508694
  0
LINE
  8
OBRYS
 62
     0
 10
780.954224
 20
44.730724
 11
783.904297
 21
47.680782
  0
LINE
  8
OBRYS
 62
     0
 10
783.902893
 20
47.979168
 11
780.893433
 21
44.969723
  0
LINE
  8
OBRYS
 62
     0
 10
780.851013
 20
45.224285
 11
783.904297
 21
48.277569
  0
LINE
  8
OBRYS
 62
     0
 10
783.902893
 20
48.575970
 11
780.828369
 21
45.501476
  0
LINE
  8
OBRYS
 62
     0
 10
780.826965
 20
45.797039
 11
783.904297
 21
48.874371
  0
LINE
  8
OBRYS
 62
     0
 10
783.902893
 20
49.172771
 11
780.826965
 21
46.096859
  0
LINE
  8
OBRYS
 62
     0
 10
780.825562
 20
46.395260
 11
783.902893
 21
49.472591
  0
LINE
  8
OBRYS
 62
     0
 10
783.904297
 20
49.770977
 11
780.826965
 21
46.693661
  0
LINE
  8
OBRYS
 62
     0
 10
780.825562
 20
46.992046
 11
783.902893
 21
50.069378
  0
LINE
  8
OBRYS
 62
     0
 10
783.904297
 20
50.367779
 11
780.826965
 21
47.290447
  0
LINE
  8
OBRYS
 62
     0
 10
780.826965
 20
47.590267
 11
783.902893
 21
50.666180
  0
LINE
  8
OBRYS
 62
     0
 10
783.904297
 20
50.964581
 11
780.826965
 21
47.887249
  0
LINE
  8
OBRYS
 62
     0
 10
780.826965
 20
48.187069
 11
783.904297
 21
51.264385
  0
LINE
  8
OBRYS
 62
     0
 10
783.946716
 20
51.603802
 11
780.826965
 21
48.484051
  0
LINE
  8
OBRYS
 62
     0
 10
780.826965
 20
48.783855
 11
784.086731
 21
52.043621
  0
LINE
  8
OBRYS
 62
     0
 10
784.273376
 20
52.530117
 11
780.825562
 21
49.082256
  0
LINE
  8
OBRYS
 62
     0
 10
780.826965
 20
49.380657
 11
783.974976
 21
52.528698
  0
LINE
  8
OBRYS
 62
     0
 10
783.666687
 20
52.520214
 11
780.835449
 21
49.688961
  0
LINE
  8
OBRYS
 62
     0
 10
780.882080
 20
50.032619
 11
783.323059
 21
52.473553
  0
LINE
  8
OBRYS
 62
     0
 10
782.917175
 20
52.367474
 11
780.988159
 21
50.438488
  0
LINE
  8
OBRYS
 62
     0
 10
781.234253
 20
50.981548
 11
782.374084
 21
52.121410
  0
LINE
  8
OBRYS
 62
     0
 10
782.034668
 20
43.160946
 11
781.459106
 21
43.736538
  0
LINE
  8
OBRYS
 62
     0
 10
781.057495
 20
44.437984
 11
782.736145
 21
42.759319
  0
LINE
  8
OBRYS
 62
     0
 10
783.177368
 20
42.615063
 11
780.913208
 21
44.879223
  0
LINE
  8
OBRYS
 62
     0
 10
780.848145
 20
45.244091
 11
783.542236
 21
42.550014
  0
LINE
  8
OBRYS
 62
     0
 10
783.860413
 20
42.528790
 11
780.825562
 21
45.563702
  0
LINE
  8
OBRYS
 62
     0
 10
780.826965
 20
45.862103
 11
783.902893
 21
42.786175
  0
LINE
  8
OBRYS
 62
     0
 10
783.904297
 20
43.084576
 11
780.826965
 21
46.161907
  0
LINE
  8
OBRYS
 62
     0
 10
780.826965
 20
46.458889
 11
783.902893
 21
43.382977
  0
LINE
  8
OBRYS
 62
     0
 10
783.904297
 20
43.681377
 11
780.826965
 21
46.758709
  0
LINE
  8
OBRYS
 62
     0
 10
780.825562
 20
47.057110
 11
783.902893
 21
43.979778
  0
LINE
  8
OBRYS
 62
     0
 10
783.904297
 20
44.278179
 11
780.826965
 21
47.355511
  0
LINE
  8
OBRYS
 62
     0
 10
780.825562
 20
47.653912
 11
783.902893
 21
44.576580
  0
LINE
  8
OBRYS
 62
     0
 10
783.904297
 20
44.874981
 11
780.826965
 21
47.952297
  0
LINE
  8
OBRYS
 62
     0
 10
780.825562
 20
48.250698
 11
783.902893
 21
45.173382
  0
LINE
  8
OBRYS
 62
     0
 10
783.902893
 20
45.473186
 11
780.826965
 21
48.549099
  0
LINE
  8
OBRYS
 62
     0
 10
780.826965
 20
48.848919
 11
783.904297
 21
45.771587
  0
LINE
  8
OBRYS
 62
     0
 10
783.902893
 20
46.069988
 11
780.826965
 21
49.145901
  0
LINE
  8
OBRYS
 62
     0
 10
780.826965
 20
49.445721
 11
783.904297
 21
46.368389
  0
LINE
  8
OBRYS
 62
     0
 10
783.902893
 20
46.666790
 11
780.838257
 21
49.731380
  0
LINE
  8
OBRYS
 62
     0
 10
780.875061
 20
49.994427
 11
783.904297
 21
46.965191
  0
LINE
  8
OBRYS
 62
     0
 10
783.902893
 20
47.263577
 11
780.928772
 21
50.237667
  0
LINE
  8
OBRYS
 62
     0
 10
780.999512
 20
50.466778
 11
783.904297
 21
47.561977
  0
LINE
  8
OBRYS
 62
     0
 10
783.902893
 20
47.860378
 11
781.082947
 21
50.680325
  0
LINE
  8
OBRYS
 62
     0
 10
781.179077
 20
50.883968
 11
783.902893
 21
48.160198
  0
LINE
  8
OBRYS
 62
     0
 10
783.904297
 20
48.458599
 11
781.289429
 21
51.073467
  0
LINE
  8
OBRYS
 62
     0
 10
781.408203
 20
51.251659
 11
783.902893
 21
48.756985
  0
LINE
  8
OBRYS
 62
     0
 10
783.904297
 20
49.055386
 11
781.538330
 21
51.421368
  0
LINE
  8
OBRYS
 62
     0
 10
781.678284
 20
51.578350
 11
783.902893
 21
49.353786
  0
LINE
  8
OBRYS
 62
     0
 10
783.904297
 20
49.652187
 11
781.831055
 21
51.725430
  0
LINE
  8
OBRYS
 62
     0
 10
781.990845
 20
51.862606
 11
783.902893
 21
49.950588
  0
LINE
  8
OBRYS
 62
     0
 10
783.904297
 20
50.248989
 11
782.163391
 21
51.989880
  0
LINE
  8
OBRYS
 62
     0
 10
782.345825
 20
52.104443
 11
783.902893
 21
50.547390
  0
LINE
  8
OBRYS
 62
     0
 10
783.902893
 20
50.847195
 11
782.539551
 21
52.210506
  0
LINE
  8
OBRYS
 62
     0
 10
782.746033
 20
52.303844
 11
783.904297
 21
51.145596
  0
LINE
  8
OBRYS
 62
     0
 10
783.918396
 20
51.428448
 11
782.965271
 21
52.381618
  0
LINE
  8
OBRYS
 62
     0
 10
783.198608
 20
52.448086
 11
783.963684
 21
51.682995
  0
LINE
  8
OBRYS
 62
     0
 10
784.032959
 20
51.910686
 11
783.448914
 21
52.494762
  0
LINE
  8
OBRYS
 62
     0
 10
783.718994
 20
52.524456
 11
784.123474
 21
52.119991
  0
LINE
  8
OBRYS
 62
     0
 10
784.229553
 20
52.310909
 11
784.011780
 21
52.528698
  0
LINE
  8
OBRYS
 62
     0
 10
784.311584
 20
52.528698
 11
784.352600
 21
52.487682
  0
ENDBLK
  8
OBRYS
  0
BLOCK
  8
OBRYS
  2
*X__32
 70
   65
 10
0.0
 20
0.0
  0
LINE
  8
OBRYS
 62
     0
 10
787.089111
 20
43.701183
 11
786.577148
 21
43.189236
  0
LINE
  8
OBRYS
 62
     0
 10
785.854492
 20
42.766384
 11
787.513367
 21
44.425259
  0
LINE
  8
OBRYS
 62
     0
 10
787.660461
 20
44.869320
 11
785.408997
 21
42.617886
  0
LINE
  8
OBRYS
 62
     0
 10
785.042725
 20
42.551418
 11
787.726929
 21
45.235607
  0
LINE
  8
OBRYS
 62
     0
 10
787.749512
 20
45.555218
 11
784.723083
 21
42.528790
  0
LINE
  8
OBRYS
 62
     0
 10
784.672180
 20
42.777691
 11
787.739624
 21
45.845119
  0
LINE
  8
OBRYS
 62
     0
 10
787.708496
 20
46.111004
 11
784.673645
 21
43.076092
  0
LINE
  8
OBRYS
 62
     0
 10
784.672180
 20
43.374493
 11
787.656189
 21
46.358486
  0
LINE
  8
OBRYS
 62
     0
 10
787.589722
 20
46.589001
 11
784.673645
 21
43.672894
  0
LINE
  8
OBRYS
 62
     0
 10
784.672180
 20
43.971294
 11
787.506287
 21
46.805370
  0
LINE
  8
OBRYS
 62
     0
 10
787.410095
 20
47.009029
 11
784.672180
 21
44.271099
  0
LINE
  8
OBRYS
 62
     0
 10
784.672180
 20
44.568096
 11
787.304077
 21
47.199947
  0
LINE
  8
OBRYS
 62
     0
 10
787.185242
 20
47.380962
 11
784.672180
 21
44.867901
  0
LINE
  8
OBRYS
 62
     0
 10
784.673645
 20
45.166302
 11
787.057983
 21
47.550671
  0
LINE
  8
OBRYS
 62
     0
 10
786.917969
 20
47.710476
 11
784.672180
 21
45.464703
  0
LINE
  8
OBRYS
 62
     0
 10
784.673645
 20
45.763103
 11
786.769470
 21
47.858959
  0
LINE
  8
OBRYS
 62
     0
 10
786.608276
 20
47.997555
 11
784.672180
 21
46.061504
  0
LINE
  8
OBRYS
 62
     0
 10
784.673645
 20
46.359905
 11
786.438538
 21
48.124844
  0
LINE
  8
OBRYS
 62
     0
 10
786.257507
 20
48.243633
 11
784.672180
 21
46.658306
  0
LINE
  8
OBRYS
 62
     0
 10
784.672180
 20
46.958111
 11
786.065186
 21
48.351116
  0
LINE
  8
OBRYS
 62
     0
 10
785.861572
 20
48.444454
 11
784.672180
 21
47.255093
  0
LINE
  8
OBRYS
 62
     0
 10
784.672180
 20
47.554913
 11
785.643738
 21
48.526470
  0
LINE
  8
OBRYS
 62
     0
 10
785.413269
 20
48.592937
 11
784.673645
 21
47.853313
  0
LINE
  8
OBRYS
 62
     0
 10
784.672180
 20
48.151714
 11
785.164368
 21
48.643856
  0
LINE
  8
OBRYS
 62
     0
 10
784.898499
 20
48.674969
 11
784.673645
 21
48.450115
  0
LINE
  8
OBRYS
 62
     0
 10
784.755615
 20
42.530209
 11
784.672180
 21
42.613644
  0
LINE
  8
OBRYS
 62
     0
 10
784.673645
 20
42.912045
 11
785.034241
 21
42.551418
  0
LINE
  8
OBRYS
 62
     0
 10
785.291626
 20
42.591015
 11
784.672180
 21
43.210445
  0
LINE
  8
OBRYS
 62
     0
 10
784.673645
 20
43.508846
 11
785.530640
 21
42.651836
  0
LINE
  8
OBRYS
 62
     0
 10
785.754089
 20
42.725368
 11
784.672180
 21
43.807247
  0
LINE
  8
OBRYS
 62
     0
 10
784.672180
 20
44.107052
 11
785.964783
 21
42.814465
  0
LINE
  8
OBRYS
 62
     0
 10
786.162781
 20
42.913464
 11
784.672180
 21
44.404049
  0
LINE
  8
OBRYS
 62
     0
 10
784.672180
 20
44.703854
 11
786.349487
 21
43.026592
  0
LINE
  8
OBRYS
 62
     0
 10
786.526245
 20
43.149639
 11
784.673645
 21
45.002254
  0
LINE
  8
OBRYS
 62
     0
 10
784.672180
 20
45.300655
 11
786.690308
 21
43.282574
  0
LINE
  8
OBRYS
 62
     0
 10
786.845825
 20
43.426815
 11
784.673645
 21
45.599056
  0
LINE
  8
OBRYS
 62
     0
 10
784.672180
 20
45.897457
 11
786.988708
 21
43.580975
  0
LINE
  8
OBRYS
 62
     0
 10
787.123047
 20
43.746441
 11
784.673645
 21
46.195858
  0
LINE
  8
OBRYS
 62
     0
 10
784.672180
 20
46.494244
 11
787.246094
 21
43.920376
  0
LINE
  8
OBRYS
 62
     0
 10
787.359192
 20
44.107052
 11
784.672180
 21
46.794064
  0
LINE
  8
OBRYS
 62
     0
 10
784.672180
 20
47.091045
 11
787.459595
 21
44.303631
  0
LINE
  8
OBRYS
 62
     0
 10
787.548706
 20
44.514355
 11
784.672180
 21
47.390865
  0
LINE
  8
OBRYS
 62
     0
 10
784.673645
 20
47.689266
 11
787.625061
 21
44.737804
  0
LINE
  8
OBRYS
 62
     0
 10
787.684448
 20
44.975384
 11
784.672180
 21
47.987667
  0
LINE
  8
OBRYS
 62
     0
 10
784.673645
 20
48.286053
 11
787.726929
 21
45.232769
  0
LINE
  8
OBRYS
 62
     0
 10
787.748108
 20
45.508541
 11
784.672180
 21
48.584454
  0
LINE
  8
OBRYS
 62
     0
 10
784.880066
 20
48.676388
 11
787.742432
 21
45.814007
  0
LINE
  8
OBRYS
 62
     0
 10
787.700012
 20
46.153423
 11
785.219482
 21
48.633953
  0
LINE
  8
OBRYS
 62
     0
 10
785.619751
 20
48.533550
 11
787.601013
 21
46.552227
  0
LINE
  8
OBRYS
 62
     0
 10
787.376160
 20
47.074078
 11
786.141541
 21
48.308681
  0
ENDBLK
  8
OBRYS
  0
BLOCK
  8
OBRYS
  2
_26
 70
   64
 10
388.334159
 20
121.042558
  0
ARC
  8
OBRYS
 10
283.334159
 20
121.042558
 40
70.000000
 50
353.678944
 51
6.321056
  0
ARC
  8
OBRYS
 10
388.334159
 20
226.042558
 40
70.000000
 50
263.678944
 51
276.321056
  0
ARC
  8
OBRYS
 10
493.334159
 20
121.042558
 40
70.000000
 50
173.678944
 51
186.321056
  0
ARC
  8
OBRYS
 10
388.334159
 20
16.042558
 40
70.000000
 50
83.678944
 51
96.321056
  0
ARC
  8
OBRYS
 10
388.334159
 20
121.042558
 40
35.000000
 50
196.040442
 51
253.959558
  0
ARC
  8
OBRYS
 10
388.334159
 20
121.042558
 40
35.000000
 50
106.040442
 51
163.959558
  0
ARC
  8
OBRYS
 10
388.334159
 20
121.042558
 40
35.000000
 50
16.040442
 51
73.959558
  0
ARC
  8
OBRYS
 10
388.334159
 20
121.042558
 40
35.000000
 50
286.040442
 51
343.959558
  0
ARC
  8
OBRYS
 10
388.334159
 20
121.042558
 40
70.000000
 50
166.068055
 51
180.000000
  0
ARC
  8
OBRYS
 10
388.334159
 20
121.042558
 40
70.000000
 50
121.068055
 51
148.931945
  0
ARC
  8
OBRYS
 10
388.334159
 20
121.042558
 40
70.000000
 50
76.068055
 51
103.931945
  0
ARC
  8
OBRYS
 10
388.334159
 20
121.042558
 40
70.000000
 50
31.068055
 51
58.931945
  0
LINE
  8
OSA
 10
322.923488
 20
148.136545
 11
338.259888
 21
141.784000
  0
ARC
  8
OBRYS
 10
330.591688
 20
144.960272
 40
7.500000
 50
257.377756
 51
57.622244
  0
ARC
  8
OBRYS
 10
330.088423
 20
156.134355
 40
2.000000
 50
148.931945
 51
240.617358
  0
LINE
  8
OBRYS
 10
334.607930
 20
151.294291
 11
329.107144
 21
154.391630
  0
LINE
  8
OBRYS
 10
328.952772
 20
137.641532
 11
322.872979
 21
139.341026
  0
ARC
  8
OBRYS
 10
322.334556
 20
137.414864
 40
2.000000
 50
74.382642
 51
166.068055
  0
ARC
  8
OBRYS
 10
371.961852
 20
187.042160
 40
2.000000
 50
103.931945
 51
195.617358
  0
LINE
  8
OBRYS
 10
371.735184
 20
180.423944
 11
370.035690
 21
186.503737
  0
LINE
  8
OBRYS
 10
358.082425
 20
174.768786
 11
354.985086
 21
180.269573
  0
ARC
  8
OBRYS
 10
353.242361
 20
179.288293
 40
2.000000
 50
29.382642
 51
121.068055
  0
ARC
  8
OBRYS
 10
364.416444
 20
178.785028
 40
7.500000
 50
212.377756
 51
12.622244
  0
LINE
  8
OSA
 10
361.240172
 20
186.453229
 11
367.592717
 21
171.116828
  0
LINE
  8
OSA
 10
415.428146
 20
186.453229
 11
409.075601
 21
171.116828
  0
ARC
  8
OBRYS
 10
412.251873
 20
178.785028
 40
7.500000
 50
167.377756
 51
327.622244
  0
ARC
  8
OBRYS
 10
423.425957
 20
179.288293
 40
2.000000
 50
58.931945
 51
150.617358
  0
LINE
  8
OBRYS
 10
418.585893
 20
174.768786
 11
421.683232
 21
180.269573
  0
LINE
  8
OBRYS
 10
404.933133
 20
180.423944
 11
406.632628
 21
186.503737
  0
ARC
  8
OBRYS
 10
404.706466
 20
187.042160
 40
2.000000
 50
344.382642
 51
76.068055
  0
ARC
  8
OBRYS
 10
454.333762
 20
137.414864
 40
2.000000
 50
13.931945
 51
105.617358
  0
LINE
  8
OBRYS
 10
447.715546
 20
137.641532
 11
453.795339
 21
139.341026
  0
LINE
  8
OBRYS
 10
442.060388
 20
151.294291
 11
447.561174
 21
154.391630
  0
ARC
  8
OBRYS
 10
446.579895
 20
156.134355
 40
2.000000
 50
299.382642
 51
31.068055
  0
ARC
  8
OBRYS
 10
446.076630
 20
144.960272
 40
7.500000
 50
122.377756
 51
282.622244
  0
ARC
  8
OBRYS
 10
388.334159
 20
121.042558
 40
61.657725
 50
344.382642
 51
15.617358
  0
ARC
  8
OBRYS
 10
388.334159
 20
121.042558
 40
61.657725
 50
29.382642
 51
61.082778
  0
ARC
  8
OBRYS
 10
388.334159
 20
121.042558
 40
61.657725
 50
299.382642
 51
330.617358
  0
ARC
  8
OBRYS
 10
388.334159
 20
121.042558
 40
61.657725
 50
254.382642
 51
285.617358
  0
ARC
  8
OBRYS
 10
388.334159
 20
121.042558
 40
61.657725
 50
209.382642
 51
240.617358
  0
CIRCLE
  8
OBRYS
 10
446.076630
 20
97.124843
 40
7.500000
  0
CIRCLE
  8
OBRYS
 10
412.251873
 20
63.300087
 40
7.500000
  0
CIRCLE
  8
OBRYS
 10
364.416444
 20
63.300087
 40
7.500000
  0
ARC
  8
OBRYS
 10
388.334159
 20
121.042558
 40
61.657725
 50
163.917222
 51
195.617358
  0
CIRCLE
  8
OBRYS
 10
330.591688
 20
97.124843
 40
7.500000
  0
INSERT
  8
OBRYS
  2
__34
 62
     7
 10
388.334159
 20
38.529145
  0
LINE
  8
OSA
 10
429.771982
 20
45.042557
 11
449.396332
 21
45.042557
  0
LINE
  8
OSA
 10
349.124937
 20
43.942558
 11
328.734159
 21
43.942556
  0
ARC
  8
OBRYS
 10
388.334159
 20
121.042558
 40
70.000000
 50
0.000000
 51
14.394101
  0
LINE
  8
OBRYS
 10
441.896336
 20
45.042557
 11
441.896336
 21
33.042558
  0
LINE
  8
OBRYS
 10
429.771982
 20
45.042557
 11
429.771982
 21
33.042558
  0
ARC
  8
OBRYS
 10
435.834159
 20
45.042557
 40
6.062177
 50
0.000000
 51
179.999995
  0
LINE
  8
OSA
 10
453.744830
 20
148.136545
 11
438.408430
 21
141.784000
  0
CIRCLE
  8
OSA
 10
388.334159
 20
121.042558
 40
42.500000
  0
CIRCLE
  8
OSA
 10
388.334159
 20
121.042558
 40
62.500000
  0
LINE
  8
OSA
 10
322.923488
 20
93.948571
 11
338.259888
 21
100.301116
  0
LINE
  8
OSA
 10
361.240172
 20
55.631887
 11
367.592717
 21
70.968287
  0
LINE
  8
OSA
 10
415.428146
 20
55.631887
 11
409.075601
 21
70.968287
  0
LINE
  8
OSA
 10
453.744830
 20
93.948571
 11
438.408430
 21
100.301116
  0
LINE
  8
KOTA
 62
     2
 10
318.334159
 20
21.042558
 11
364.334159
 21
21.042558
  0
LINE
  8
KOTA
 62
     2
 10
364.334159
 20
23.042558
 11
388.334159
 21
23.042558
  0
LINE
  8
NEVIDI
 10
335.334159
 20
33.042558
 11
335.334159
 21
21.042558
  0
LINE
  8
NEVIDI
 10
346.334159
 20
33.042558
 11
346.334159
 21
21.042558
  0
LINE
  8
KOTA
 62
     2
 10
412.334159
 20
23.042558
 11
388.334159
 21
23.042558
  0
LINE
  8
KOTA
 62
     2
 10
458.334159
 20
21.042558
 11
412.334159
 21
21.042558
  0
LINE
  8
NEVIDI
 10
430.334159
 20
33.042558
 11
430.334159
 21
21.042558
  0
LINE
  8
NEVIDI
 10
441.334159
 20
33.042558
 11
441.334159
 21
21.042558
  0
LINE
  8
OBRYS
 10
458.334159
 20
121.042558
 11
458.334159
 21
21.042558
  0
LINE
  8
OBRYS
 10
318.334159
 20
121.042558
 11
318.334159
 21
21.042558
  0
LINE
  8
OSA
 10
388.334159
 20
121.042558
 11
388.334159
 21
21.042558
  0
LINE
  8
OSA
 10
388.334159
 20
121.042558
 11
388.334159
 21
196.042558
  0
LINE
  8
OSA
 10
388.334159
 20
121.042558
 11
313.334159
 21
121.042558
  0
LINE
  8
OSA
 10
388.334159
 20
121.042558
 11
463.334159
 21
121.042558
  0
ARC
  8
OBRYS
 10
345.834159
 20
121.042558
 40
7.500000
 50
90.000000
 51
270.000000
  0
LINE
  8
OBRYS
 10
345.834159
 20
128.542558
 11
351.813617
 21
128.542558
  0
ARC
  8
OBRYS
 10
351.813617
 20
131.542558
 40
3.000000
 50
270.000000
 51
343.959558
  0
LINE
  8
OBRYS
 10
345.834159
 20
113.542558
 11
351.813617
 21
113.542558
  0
ARC
  8
OBRYS
 10
351.813617
 20
110.542558
 40
3.000000
 50
16.040442
 51
90.000000
  0
ARC
  8
OBRYS
 10
377.834159
 20
157.563100
 40
3.000000
 50
286.040442
 51
360.000000
  0
ARC
  8
OBRYS
 10
424.854701
 20
131.542558
 40
3.000000
 50
196.040442
 51
270.000000
  0
ARC
  8
OBRYS
 10
398.834159
 20
84.522015
 40
3.000000
 50
106.040442
 51
180.000000
  0
LINE
  8
OBRYS
 10
380.834159
 20
163.542558
 11
380.834159
 21
157.563100
  0
LINE
  8
OBRYS
 10
430.834159
 20
128.542558
 11
424.854701
 21
128.542558
  0
LINE
  8
OBRYS
 10
395.834159
 20
78.542558
 11
395.834159
 21
84.522015
  0
ARC
  8
OBRYS
 10
398.834159
 20
157.563100
 40
3.000000
 50
180.000000
 51
253.959558
  0
ARC
  8
OBRYS
 10
424.854701
 20
110.542558
 40
3.000000
 50
90.000000
 51
163.959558
  0
ARC
  8
OBRYS
 10
377.834159
 20
84.522015
 40
3.000000
 50
0.000000
 51
73.959558
  0
LINE
  8
OBRYS
 10
395.834159
 20
163.542558
 11
395.834159
 21
157.563100
  0
LINE
  8
OBRYS
 10
430.834159
 20
113.542558
 11
424.854701
 21
113.542558
  0
LINE
  8
OBRYS
 10
380.834159
 20
78.542558
 11
380.834159
 21
84.522015
  0
ARC
  8
OBRYS
 10
388.334159
 20
163.542558
 40
7.500000
 50
0.000000
 51
180.000000
  0
ARC
  8
OBRYS
 10
430.834159
 20
121.042558
 40
7.500000
 50
270.000000
 51
90.000000
  0
ARC
  8
OBRYS
 10
388.334159
 20
78.542558
 40
7.500000
 50
180.000000
 51
360.000000
  0
ARC
  8
KOTA
 62
     2
 10
421.334159
 20
37.042558
 40
4.000000
 50
180.000000
 51
270.000000
  0
ARC
  8
KOTA
 62
     2
 10
355.334159
 20
37.042558
 40
4.000000
 50
270.000000
 51
360.000000
  0
LINE
  8
KOTA
 62
     2
 10
412.334159
 20
27.042558
 11
388.334159
 21
27.042558
  0
LINE
  8
KOTA
 62
     2
 10
364.334159
 20
27.042558
 11
388.334159
 21
27.042558
  0
ARC
  8
OBRYS
 10
388.334159
 20
121.042558
 40
61.657725
 50
118.917222
 51
151.082778
  0
ARC
  8
OBRYS
 10
388.334159
 20
121.042558
 40
61.657725
 50
73.917222
 51
106.082778
  0
LINE
  8
KOTA
 62
     2
 10
456.334159
 20
33.042558
 11
421.334159
 21
33.042558
  0
ARC
  8
KOTA
 62
     2
 10
456.334159
 20
31.042558
 40
2.000000
 50
0.000000
 51
90.000000
  0
LINE
  8
KOTA
 62
     2
 10
320.334159
 20
33.042558
 11
355.334159
 21
33.042558
  0
ARC
  8
KOTA
 62
     2
 10
320.334159
 20
31.042558
 40
2.000000
 50
90.000000
 51
180.000000
  0
LINE
  8
OSA
 10
435.834159
 20
21.042558
 11
435.834159
 21
53.143034
  0
LINE
  8
OBRYS
 10
359.334159
 20
33.042558
 11
362.934525
 21
33.042558
  0
LINE
  8
OBRYS
 10
417.334159
 20
33.042558
 11
413.733793
 21
33.042558
  0
ARC
  8
KOTA
 62
     2
 10
356.334159
 20
52.659446
 40
3.000000
 50
0.000000
 51
64.922672
  0
LINE
  8
OBRYS
 10
364.334159
 20
21.042558
 11
364.334159
 21
48.521871
  0
ARC
  8
OBRYS
 10
367.334159
 20
48.521871
 40
3.000000
 50
73.850435
 51
180.000000
  0
ARC
  8
OBRYS
 10
409.334159
 20
48.521871
 40
3.000000
 50
0.000000
 51
106.149565
  0
LINE
  8
OBRYS
 10
412.334159
 20
21.042558
 11
412.334159
 21
48.521871
  0
ARC
  8
KOTA
 62
     2
 10
420.334159
 20
52.659446
 40
3.000000
 50
115.077328
 51
180.000000
  0
LINE
  8
KOTA
 62
     2
 10
417.334159
 20
52.659446
 11
417.334159
 21
37.042558
  0
LINE
  8
KOTA
 62
     2
 10
359.334159
 20
52.659446
 11
359.334159
 21
37.042558
  0
ARC
  8
OBRYS
 10
388.334159
 20
121.042558
 40
74.278193
 50
247.842415
 51
250.754515
  0
ARC
  8
OBRYS
 10
388.334159
 20
121.042558
 40
74.278193
 50
289.245485
 51
292.157585
  0
LINE
  8
OBRYS
 10
390.834159
 20
182.649579
 11
390.834159
 21
190.997901
  0
LINE
  8
OBRYS
 10
385.834159
 20
182.649579
 11
385.834159
 21
190.997901
  0
LINE
  8
OBRYS
 10
343.003650
 20
162.837533
 11
337.100495
 21
168.740688
  0
LINE
  8
OBRYS
 10
346.539184
 20
166.373067
 11
340.636029
 21
172.276222
  0
LINE
  8
OBRYS
 10
326.727138
 20
118.542558
 11
318.378816
 21
118.542558
  0
LINE
  8
OBRYS
 10
326.727138
 20
123.542558
 11
318.378816
 21
123.542558
  0
LINE
  8
OBRYS
 10
449.941180
 20
123.542558
 11
458.289502
 21
123.542558
  0
LINE
  8
OBRYS
 10
449.941180
 20
118.542558
 11
458.289502
 21
118.542558
  0
LINE
  8
OBRYS
 10
430.129134
 20
166.373067
 11
436.032289
 21
172.276222
  0
LINE
  8
OBRYS
 10
433.664668
 20
162.837533
 11
439.567823
 21
168.740688
  0
LINE
  8
OBRYS
 10
346.539184
 20
75.712048
 11
335.054229
 21
64.227094
  0
LINE
  8
OBRYS
 10
343.003650
 20
79.247582
 11
331.518696
 21
67.762628
  0
LINE
  8
OBRYS
 10
430.129134
 20
75.712048
 11
441.614088
 21
64.227094
  0
LINE
  8
OBRYS
 10
433.664668
 20
79.247582
 11
445.149622
 21
67.762628
  0
ARC
  8
OBRYS
 10
388.334159
 20
121.042558
 40
82.513413
 50
211.967675
 51
249.423480
  0
LINE
  8
OSA
 10
340.834159
 20
21.042558
 11
340.834159
 21
53.043034
  0
LINE
  8
KOTA
 62
     2
 10
347.934159
 20
43.942560
 11
347.934159
 21
33.042558
  0
LINE
  8
KOTA
 62
     2
 10
333.734159
 20
43.942559
 11
333.734159
 21
33.042558
  0
ARC
  8
KOTA
 62
     2
 10
340.834159
 20
43.942558
 40
7.100000
 50
0.000000
 51
180.000000
  0
INSERT
  8
OBRYS
  2
Srouby_s_valcovou_hlavou___35
 62
     7
 10
388.334159
 20
163.542558
  0
INSERT
  8
OBRYS
  2
Srouby_s_valcovou_hlavou___36
 62
     7
 10
345.834159
 20
121.042558
  0
INSERT
  8
OBRYS
  2
Srouby_s_valcovou_hlavou___37
 62
     7
 10
388.334159
 20
78.542558
  0
INSERT
  8
OBRYS
  2
Srouby_s_valcovou_hlavou___38
 62
     7
 10
430.834159
 20
121.042558
  0
LINE
  8
OBRYS
 10
388.334159
 20
136.842558
 11
392.334159
 21
136.842558
  0
ARC
  8
OBRYS
 10
388.334159
 20
121.042558
 40
12.500000
 50
108.662925
 51
71.337075
  0
LINE
  8
OBRYS
 10
392.334159
 20
136.842558
 11
392.334159
 21
132.885277
  0
LINE
  8
OBRYS
 10
388.334159
 20
136.842558
 11
384.334159
 21
136.842558
  0
LINE
  8
OBRYS
 10
384.334159
 20
136.842558
 11
384.334159
 21
132.885277
  0
CIRCLE
  8
OBRYS
 10
388.334159
 20
121.042558
 40
20.000000
  0
CIRCLE
  8
OBRYS
 10
388.334159
 20
121.042558
 40
27.500000
  0
ARC
  8
OBRYS
 10
388.334159
 20
219.042558
 40
65.000000
 50
261.620667
 51
278.379333
  0
ARC
  8
OBRYS
 10
290.334159
 20
121.042558
 40
65.000000
 50
351.620667
 51
8.379333
  0
ARC
  8
OBRYS
 10
388.334159
 20
23.042558
 40
65.000000
 50
81.620667
 51
98.379333
  0
ARC
  8
OBRYS
 10
486.334159
 20
121.042558
 40
65.000000
 50
171.620667
 51
188.379333
  0
ARC
  8
OBRYS
 10
388.334159
 20
121.042558
 40
70.000000
 50
0.000000
 51
180.000000
  0
ARC
  8
OBRYS
 10
388.334159
 20
121.042558
 40
65.000000
 50
60.617358
 51
74.382642
  0
ARC
  8
OBRYS
 10
388.334159
 20
121.042558
 40
65.000000
 50
105.617358
 51
119.382642
  0
ARC
  8
OBRYS
 10
388.334159
 20
121.042558
 40
65.000000
 50
150.617358
 51
164.382642
  0
ARC
  8
OBRYS
 10
388.334159
 20
121.042558
 40
65.000000
 50
15.617358
 51
29.382642
  0
ARC
  8
OBRYS
 10
388.334159
 20
121.042558
 40
65.000000
 50
331.140340
 51
343.859660
  0
ARC
  8
OBRYS
 10
388.334159
 20
121.042558
 40
65.000000
 50
286.140340
 51
298.859660
  0
ARC
  8
OBRYS
 10
388.334159
 20
121.042558
 40
65.000000
 50
241.140340
 51
253.859660
  0
ARC
  8
OBRYS
 10
388.334159
 20
121.042558
 40
65.000000
 50
196.140340
 51
208.859660
  0
ARC
  8
OBRYS
 10
388.334159
 20
121.042558
 40
82.513413
 50
253.090442
 51
286.909558
  0
ARC
  8
OBRYS
 10
388.334159
 20
121.042558
 40
82.513413
 50
290.576520
 51
328.032325
  0
ENDBLK
  8
OBRYS
  0
BLOCK
  8
OBRYS
  2
__34
 70
   64
 10
388.334159
 20
38.529145
  0
INSERT
  8
OBRYS
  2
*X__39
 10
0.000000
 20
0.000000
  0
INSERT
  8
OBRYS
  2
*X__40
 10
0.000000
 20
0.000000
  0
LINE
  8
OBRYS
 10
393.326103
 20
42.529145
 11
393.326103
 21
52.529145
  0
LINE
  8
OBRYS
 10
392.556872
 20
52.529145
 11
392.556872
 21
42.529145
  0
ARC
  8
OBRYS
 10
392.556872
 20
49.452222
 40
3.076923
 50
90.000000
 51
180.000000
  0
LINE
  8
OBRYS
 10
389.479949
 20
49.452222
 11
389.479949
 21
45.606068
  0
ARC
  8
OBRYS
 10
392.556872
 20
45.606068
 40
3.076923
 50
180.000000
 51
270.000000
  0
ARC
  8
OBRYS
 10
393.326103
 20
49.452222
 40
3.076923
 50
0.000000
 51
90.000000
  0
LINE
  8
OBRYS
 10
396.403026
 20
45.606068
 11
396.403026
 21
49.452222
  0
ARC
  8
OBRYS
 10
393.326103
 20
45.606068
 40
3.076923
 50
270.000000
 51
360.000000
  0
LINE
  8
OBRYS
 10
384.095333
 20
46.375299
 11
384.095333
 21
43.298376
  0
ARC
  8
OBRYS
 10
384.095333
 20
45.606068
 40
3.076923
 50
0.000000
 51
90.000000
  0
LINE
  8
OBRYS
 10
384.095347
 20
42.529145
 11
384.095333
 21
48.682991
  0
ARC
  8
OBRYS
 10
384.095333
 20
45.606068
 40
3.076923
 50
270.000247
 51
360.000000
  0
CIRCLE
  8
OBRYS
 10
385.441486
 20
51.182989
 40
1.346156
  0
ARC
  8
OBRYS
 10
383.326135
 20
45.606090
 40
3.076945
 50
180.000000
 51
270.000000
  0
LINE
  8
OBRYS
 10
383.326135
 20
42.529145
 11
383.326135
 21
51.182989
  0
LINE
  8
OBRYS
 10
383.809746
 20
52.529145
 11
383.326135
 21
52.529145
  0
ARC
  8
OBRYS
 10
385.441486
 20
51.182989
 40
2.115351
 50
140.477989
 51
180.000000
  0
ARC
  8
OBRYS
 10
383.326167
 20
49.452232
 40
3.076945
 50
90.000000
 51
180.000000
  0
LINE
  8
OBRYS
 10
380.249222
 20
45.591979
 11
380.249222
 21
49.452232
  0
INSERT
  8
OBRYS
  2
*X__41
 10
0.000000
 20
0.000000
  0
INSERT
  8
OBRYS
  2
*X__42
 10
0.000000
 20
0.000000
  0
INSERT
  8
OBRYS
  2
*X__43
 10
0.000000
 20
0.000000
  0
ENDBLK
  8
OBRYS
  0
BLOCK
  8
OBRYS
  2
Srouby_s_valcovou_hlavou___35
 70
   66
 10
388.334159
 20
163.542558
  0
LINE
  8
OBRYS
 10
385.334159
 20
161.810496
 11
385.334159
 21
165.274619
  0
LINE
  8
OBRYS
 10
385.334159
 20
165.274619
 11
388.334159
 21
167.006681
  0
LINE
  8
OBRYS
 10
388.334159
 20
167.006681
 11
391.334159
 21
165.274619
  0
LINE
  8
OBRYS
 10
391.334159
 20
165.274619
 11
391.334159
 21
161.810496
  0
LINE
  8
OBRYS
 10
391.334159
 20
161.810496
 11
388.334159
 21
160.078434
  0
LINE
  8
OBRYS
 10
388.334159
 20
160.078434
 11
385.334159
 21
161.810496
  0
CIRCLE
  8
OBRYS
 10
388.334159
 20
163.542558
 40
3.464123
  0
CIRCLE
  8
OBRYS
 10
388.334159
 20
163.542558
 40
6.500000
  0
ENDBLK
  8
OBRYS
  0
BLOCK
  8
OBRYS
  2
Srouby_s_valcovou_hlavou___36
 70
   66
 10
345.834159
 20
121.042558
  0
LINE
  8
OBRYS
 10
342.834159
 20
119.310496
 11
342.834159
 21
122.774619
  0
LINE
  8
OBRYS
 10
342.834159
 20
122.774619
 11
345.834159
 21
124.506681
  0
LINE
  8
OBRYS
 10
345.834159
 20
124.506681
 11
348.834159
 21
122.774619
  0
LINE
  8
OBRYS
 10
348.834159
 20
122.774619
 11
348.834159
 21
119.310496
  0
LINE
  8
OBRYS
 10
348.834159
 20
119.310496
 11
345.834159
 21
117.578434
  0
LINE
  8
OBRYS
 10
345.834159
 20
117.578434
 11
342.834159
 21
119.310496
  0
CIRCLE
  8
OBRYS
 10
345.834159
 20
121.042558
 40
3.464123
  0
CIRCLE
  8
OBRYS
 10
345.834159
 20
121.042558
 40
6.500000
  0
ENDBLK
  8
OBRYS
  0
BLOCK
  8
OBRYS
  2
Srouby_s_valcovou_hlavou___37
 70
   66
 10
388.334159
 20
78.542558
  0
LINE
  8
OBRYS
 10
385.334159
 20
76.810496
 11
385.334159
 21
80.274619
  0
LINE
  8
OBRYS
 10
385.334159
 20
80.274619
 11
388.334159
 21
82.006681
  0
LINE
  8
OBRYS
 10
388.334159
 20
82.006681
 11
391.334159
 21
80.274619
  0
LINE
  8
OBRYS
 10
391.334159
 20
80.274619
 11
391.334159
 21
76.810496
  0
LINE
  8
OBRYS
 10
391.334159
 20
76.810496
 11
388.334159
 21
75.078434
  0
LINE
  8
OBRYS
 10
388.334159
 20
75.078434
 11
385.334159
 21
76.810496
  0
CIRCLE
  8
OBRYS
 10
388.334159
 20
78.542558
 40
3.464123
  0
CIRCLE
  8
OBRYS
 10
388.334159
 20
78.542558
 40
6.500000
  0
ENDBLK
  8
OBRYS
  0
BLOCK
  8
OBRYS
  2
Srouby_s_valcovou_hlavou___38
 70
   66
 10
430.834159
 20
121.042558
  0
LINE
  8
OBRYS
 10
427.834159
 20
119.310496
 11
427.834159
 21
122.774619
  0
LINE
  8
OBRYS
 10
427.834159
 20
122.774619
 11
430.834159
 21
124.506681
  0
LINE
  8
OBRYS
 10
430.834159
 20
124.506681
 11
433.834159
 21
122.774619
  0
LINE
  8
OBRYS
 10
433.834159
 20
122.774619
 11
433.834159
 21
119.310496
  0
LINE
  8
OBRYS
 10
433.834159
 20
119.310496
 11
430.834159
 21
117.578434
  0
LINE
  8
OBRYS
 10
430.834159
 20
117.578434
 11
427.834159
 21
119.310496
  0
CIRCLE
  8
OBRYS
 10
430.834159
 20
121.042558
 40
3.464123
  0
CIRCLE
  8
OBRYS
 10
430.834159
 20
121.042558
 40
6.500000
  0
ENDBLK
  8
OBRYS
  0
BLOCK
  8
OBRYS
  2
*X__39
 70
   65
 10
0.0
 20
0.0
  0
LINE
  8
OBRYS
 62
     0
 10
392.556061
 20
42.649609
 11
392.437286
 21
42.530834
  0
LINE
  8
OBRYS
 62
     0
 10
392.161530
 20
42.554882
 11
392.554657
 21
42.948040
  0
LINE
  8
OBRYS
 62
     0
 10
392.556061
 20
43.246410
 11
391.906952
 21
42.597332
  0
LINE
  8
OBRYS
 62
     0
 10
391.669342
 20
42.659542
 11
392.554657
 21
43.544842
  0
LINE
  8
OBRYS
 62
     0
 10
392.556061
 20
43.843212
 11
391.447357
 21
42.734493
  0
LINE
  8
OBRYS
 62
     0
 10
391.238007
 20
42.824993
 11
392.554657
 21
44.141644
  0
LINE
  8
OBRYS
 62
     0
 10
392.556061
 20
44.440029
 11
391.042877
 21
42.926800
  0
LINE
  8
OBRYS
 62
     0
 10
390.856171
 20
43.039959
 11
392.556061
 21
44.739834
  0
LINE
  8
OBRYS
 62
     0
 10
392.554657
 20
45.038250
 11
390.682220
 21
43.165813
  0
LINE
  8
OBRYS
 62
     0
 10
390.519623
 20
43.300167
 11
392.556061
 21
45.336636
  0
LINE
  8
OBRYS
 62
     0
 10
392.554657
 20
45.635052
 11
390.365448
 21
43.445843
  0
LINE
  8
OBRYS
 62
     0
 10
390.222626
 20
43.600018
 11
392.556061
 21
45.933437
  0
LINE
  8
OBRYS
 62
     0
 10
392.554657
 20
46.231853
 11
390.089691
 21
43.766888
  0
LINE
  8
OBRYS
 62
     0
 10
389.968048
 20
43.942211
 11
392.556061
 21
46.530239
  0
LINE
  8
OBRYS
 62
     0
 10
392.554657
 20
46.828655
 11
389.856354
 21
44.130291
  0
LINE
  8
OBRYS
 62
     0
 10
389.757355
 20
44.328289
 11
392.556061
 21
47.127041
  0
LINE
  8
OBRYS
 62
     0
 10
392.556061
 20
47.426846
 11
389.669647
 21
44.540447
  0
LINE
  8
OBRYS
 62
     0
 10
389.594696
 20
44.765301
 11
392.554657
 21
47.725262
  0
LINE
  8
OBRYS
 62
     0
 10
392.556061
 20
48.023647
 11
389.538116
 21
45.005703
  0
LINE
  8
OBRYS
 62
     0
 10
389.497101
 20
45.264523
 11
392.554657
 21
48.322063
  0
LINE
  8
OBRYS
 62
     0
 10
392.556061
 20
48.620449
 11
389.478729
 21
45.543133
  0
LINE
  8
OBRYS
 62
     0
 10
389.478729
 20
45.842937
 11
392.554657
 21
48.918865
  0
LINE
  8
OBRYS
 62
     0
 10
392.556061
 20
49.217251
 11
389.478729
 21
46.139935
  0
LINE
  8
OBRYS
 62
     0
 10
389.478729
 20
46.439739
 11
392.554657
 21
49.515667
  0
LINE
  8
OBRYS
 62
     0
 10
392.556061
 20
49.814053
 11
389.478729
 21
46.736736
  0
LINE
  8
OBRYS
 62
     0
 10
389.478729
 20
47.036541
 11
392.554657
 21
50.112469
  0
LINE
  8
OBRYS
 62
     0
 10
392.556061
 20
50.410854
 11
389.478729
 21
47.333538
  0
LINE
  8
OBRYS
 62
     0
 10
389.478729
 20
47.633343
 11
392.556061
 21
50.710659
  0
LINE
  8
OBRYS
 62
     0
 10
392.554657
 20
51.009075
 11
389.477325
 21
47.931728
  0
LINE
  8
OBRYS
 62
     0
 10
389.478729
 20
48.230145
 11
392.556061
 21
51.307461
  0
LINE
  8
OBRYS
 62
     0
 10
392.554657
 20
51.605877
 11
389.478729
 21
48.529949
  0
LINE
  8
OBRYS
 62
     0
 10
389.478729
 20
48.826946
 11
392.556061
 21
51.904263
  0
LINE
  8
OBRYS
 62
     0
 10
392.554657
 20
52.202679
 11
389.478729
 21
49.126751
  0
LINE
  8
OBRYS
 62
     0
 10
389.478729
 20
49.423748
 11
392.556061
 21
52.501064
  0
LINE
  8
OBRYS
 62
     0
 10
392.271820
 20
52.516598
 11
389.491486
 21
49.736248
  0
LINE
  8
OBRYS
 62
     0
 10
389.545197
 20
50.087002
 11
391.919647
 21
52.461468
  0
LINE
  8
OBRYS
 62
     0
 10
391.501068
 20
52.342648
 11
389.665436
 21
50.507000
  0
LINE
  8
OBRYS
 62
     0
 10
389.951080
 20
51.092495
 11
390.914154
 21
52.055584
  0
LINE
  8
OBRYS
 62
     0
 10
390.651154
 20
43.188427
 11
390.137787
 21
43.701824
  0
LINE
  8
OBRYS
 62
     0
 10
389.714935
 20
44.424480
 11
391.373810
 21
42.765575
  0
LINE
  8
OBRYS
 62
     0
 10
391.817841
 20
42.618526
 11
389.567841
 21
44.868526
  0
LINE
  8
OBRYS
 62
     0
 10
389.501373
 20
45.234829
 11
392.184113
 21
42.552044
  0
LINE
  8
OBRYS
 62
     0
 10
392.505157
 20
42.530834
 11
389.480133
 21
45.555828
  0
LINE
  8
OBRYS
 62
     0
 10
389.478729
 20
45.854244
 11
392.554657
 21
42.778316
  0
LINE
  8
OBRYS
 62
     0
 10
392.556061
 20
43.076702
 11
389.478729
 21
46.154049
  0
LINE
  8
OBRYS
 62
     0
 10
389.478729
 20
46.451046
 11
392.554657
 21
43.375118
  0
LINE
  8
OBRYS
 62
     0
 10
392.556061
 20
43.673504
 11
389.478729
 21
46.750851
  0
LINE
  8
OBRYS
 62
     0
 10
389.478729
 20
47.047848
 11
392.554657
 21
43.971920
  0
LINE
  8
OBRYS
 62
     0
 10
392.556061
 20
44.270306
 11
389.478729
 21
47.347652
  0
LINE
  8
OBRYS
 62
     0
 10
389.477325
 20
47.646038
 11
392.554657
 21
44.568722
  0
LINE
  8
OBRYS
 62
     0
 10
392.556061
 20
44.867107
 11
389.478729
 21
47.944454
  0
LINE
  8
OBRYS
 62
     0
 10
389.477325
 20
48.242840
 11
392.554657
 21
45.165524
  0
LINE
  8
OBRYS
 62
     0
 10
392.554657
 20
45.465328
 11
389.478729
 21
48.541256
  0
LINE
  8
OBRYS
 62
     0
 10
389.478729
 20
48.841061
 11
392.556061
 21
45.763714
  0
LINE
  8
OBRYS
 62
     0
 10
392.554657
 20
46.062130
 11
389.478729
 21
49.138058
  0
LINE
  8
OBRYS
 62
     0
 10
389.478729
 20
49.437862
 11
392.556061
 21
46.360516
  0
LINE
  8
OBRYS
 62
     0
 10
392.554657
 20
46.658932
 11
389.490082
 21
49.723553
  0
LINE
  8
OBRYS
 62
     0
 10
389.525421
 20
49.988003
 11
392.556061
 21
46.957317
  0
LINE
  8
OBRYS
 62
     0
 10
392.554657
 20
47.255733
 11
389.579132
 21
50.231243
  0
LINE
  8
OBRYS
 62
     0
 10
389.648468
 20
50.461758
 11
392.556061
 21
47.554119
  0
LINE
  8
OBRYS
 62
     0
 10
392.554657
 20
47.852535
 11
389.731903
 21
50.675289
  0
LINE
  8
OBRYS
 62
     0
 10
389.829437
 20
50.877529
 11
392.556061
 21
48.150921
  0
LINE
  8
OBRYS
 62
     0
 10
392.556061
 20
48.450726
 11
389.938385
 21
51.068447
  0
LINE
  8
OBRYS
 62
     0
 10
390.055756
 20
51.248043
 11
392.554657
 21
48.749142
  0
LINE
  8
OBRYS
 62
     0
 10
392.556061
 20
49.047527
 11
390.187286
 21
51.416348
  0
LINE
  8
OBRYS
 62
     0
 10
390.327240
 20
51.573330
 11
392.554657
 21
49.345943
  0
LINE
  8
OBRYS
 62
     0
 10
392.556061
 20
49.644329
 11
390.478607
 21
51.721844
  0
LINE
  8
OBRYS
 62
     0
 10
390.638397
 20
51.859005
 11
392.554657
 21
49.942745
  0
LINE
  8
OBRYS
 62
     0
 10
392.556061
 20
50.241131
 11
390.810944
 21
51.986248
  0
LINE
  8
OBRYS
 62
     0
 10
390.991974
 20
52.102215
 11
392.554657
 21
50.539547
  0
LINE
  8
OBRYS
 62
     0
 10
392.556061
 20
50.837933
 11
391.185699
 21
52.208294
  0
LINE
  8
OBRYS
 62
     0
 10
391.392181
 20
52.301632
 11
392.556061
 21
51.137737
  0
LINE
  8
OBRYS
 62
     0
 10
392.554657
 20
51.436153
 11
391.609955
 21
52.380856
  0
LINE
  8
OBRYS
 62
     0
 10
391.844696
 20
52.445889
 11
392.556061
 21
51.734539
  0
LINE
  8
OBRYS
 62
     0
 10
392.554657
 20
52.032955
 11
392.093597
 21
52.493984
  0
LINE
  8
OBRYS
 62
     0
 10
392.363739
 20
52.523678
 11
392.556061
 21
52.331341
  0
ENDBLK
  8
OBRYS
  0
BLOCK
  8
OBRYS
  2
*X__40
 70
   65
 10
0.0
 20
0.0
  0
LINE
  8
OBRYS
 62
     0
 10
395.863922
 20
43.867260
 11
395.063446
 21
43.066814
  0
LINE
  8
OBRYS
 62
     0
 10
394.432709
 20
42.735882
 11
396.194855
 21
44.498013
  0
LINE
  8
OBRYS
 62
     0
 10
396.326385
 20
44.926510
 11
394.004242
 21
42.604412
  0
LINE
  8
OBRYS
 62
     0
 10
393.646454
 20
42.546429
 11
396.384369
 21
45.284344
  0
LINE
  8
OBRYS
 62
     0
 10
396.402740
 20
45.599697
 11
393.331085
 21
42.527996
  0
LINE
  8
OBRYS
 62
     0
 10
393.324005
 20
42.820751
 11
396.401337
 21
45.898113
  0
LINE
  8
OBRYS
 62
     0
 10
396.401337
 20
46.197918
 11
393.324005
 21
43.120556
  0
LINE
  8
OBRYS
 62
     0
 10
393.325409
 20
43.418987
 11
396.401337
 21
46.494869
  0
LINE
  8
OBRYS
 62
     0
 10
396.401337
 20
46.794720
 11
393.324005
 21
43.717358
  0
LINE
  8
OBRYS
 62
     0
 10
393.325409
 20
44.015789
 11
396.401337
 21
47.091671
  0
LINE
  8
OBRYS
 62
     0
 10
396.401337
 20
47.391521
 11
393.324005
 21
44.314159
  0
LINE
  8
OBRYS
 62
     0
 10
393.325409
 20
44.612591
 11
396.402740
 21
47.689907
  0
LINE
  8
OBRYS
 62
     0
 10
396.401337
 20
47.988323
 11
393.324005
 21
44.910976
  0
LINE
  8
OBRYS
 62
     0
 10
393.325409
 20
45.209393
 11
396.402740
 21
48.286663
  0
LINE
  8
OBRYS
 62
     0
 10
396.401337
 20
48.585079
 11
393.324005
 21
45.507778
  0
LINE
  8
OBRYS
 62
     0
 10
393.324005
 20
45.807583
 11
396.401337
 21
48.884930
  0
LINE
  8
OBRYS
 62
     0
 10
396.401337
 20
49.181881
 11
393.325409
 21
46.105999
  0
LINE
  8
OBRYS
 62
     0
 10
393.324005
 20
46.404385
 11
396.401337
 21
49.481731
  0
LINE
  8
OBRYS
 62
     0
 10
396.385773
 20
49.763103
 11
393.325409
 21
46.702801
  0
LINE
  8
OBRYS
 62
     0
 10
393.324005
 20
47.001186
 11
396.347565
 21
50.024776
  0
LINE
  8
OBRYS
 62
     0
 10
396.292450
 20
50.266598
 11
393.325409
 21
47.299557
  0
LINE
  8
OBRYS
 62
     0
 10
393.324005
 20
47.597942
 11
396.220306
 21
50.494305
  0
LINE
  8
OBRYS
 62
     0
 10
396.135468
 20
50.706417
 11
393.325409
 21
47.896358
  0
LINE
  8
OBRYS
 62
     0
 10
393.324005
 20
48.194744
 11
396.036469
 21
50.907223
  0
LINE
  8
OBRYS
 62
     0
 10
395.924713
 20
51.095333
 11
393.324005
 21
48.494595
  0
LINE
  8
OBRYS
 62
     0
 10
393.325409
 20
48.793011
 11
395.804535
 21
51.272091
  0
LINE
  8
OBRYS
 62
     0
 10
395.673004
 20
51.440395
 11
393.324005
 21
49.091351
  0
LINE
  8
OBRYS
 62
     0
 10
393.325409
 20
49.389767
 11
395.531586
 21
51.595943
  0
LINE
  8
OBRYS
 62
     0
 10
395.378815
 20
51.743038
 11
393.324005
 21
49.688152
  0
LINE
  8
OBRYS
 62
     0
 10
393.325409
 20
49.986568
 11
395.217621
 21
51.878780
  0
LINE
  8
OBRYS
 62
     0
 10
395.043671
 20
52.004681
 11
393.324005
 21
50.284954
  0
LINE
  8
OBRYS
 62
     0
 10
393.325409
 20
50.583370
 11
394.859833
 21
52.117794
  0
LINE
  8
OBRYS
 62
     0
 10
394.664642
 20
52.222454
 11
393.324005
 21
50.881756
  0
LINE
  8
OBRYS
 62
     0
 10
393.325409
 20
51.180172
 11
394.458160
 21
52.312954
  0
LINE
  8
OBRYS
 62
     0
 10
394.236176
 20
52.390743
 11
393.325409
 21
51.479977
  0
LINE
  8
OBRYS
 62
     0
 10
393.324005
 20
51.778362
 11
393.999969
 21
52.454388
  0
LINE
  8
OBRYS
 62
     0
 10
393.748260
 20
52.499630
 11
393.325409
 21
52.076778
  0
LINE
  8
OBRYS
 62
     0
 10
393.324005
 20
52.375164
 11
393.475311
 21
52.526531
  0
LINE
  8
OBRYS
 62
     0
 10
393.400360
 20
42.529415
 11
393.324005
 21
42.605785
  0
LINE
  8
OBRYS
 62
     0
 10
393.325409
 20
42.904217
 11
393.678986
 21
42.550655
  0
LINE
  8
OBRYS
 62
     0
 10
393.936371
 20
42.590252
 11
393.324005
 21
43.202587
  0
LINE
  8
OBRYS
 62
     0
 10
393.325409
 20
43.501019
 11
394.176788
 21
42.649609
  0
LINE
  8
OBRYS
 62
     0
 10
394.400177
 20
42.723186
 11
393.324005
 21
43.799389
  0
LINE
  8
OBRYS
 62
     0
 10
393.325409
 20
44.097820
 11
394.612335
 21
42.810833
  0
LINE
  8
OBRYS
 62
     0
 10
394.808929
 20
42.911297
 11
393.324005
 21
44.396206
  0
LINE
  8
OBRYS
 62
     0
 10
393.324005
 20
44.696011
 11
394.996979
 21
43.022991
  0
LINE
  8
OBRYS
 62
     0
 10
395.173798
 20
43.146038
 11
393.325409
 21
44.994427
  0
LINE
  8
OBRYS
 62
     0
 10
393.324005
 20
45.292812
 11
395.337799
 21
43.278973
  0
LINE
  8
OBRYS
 62
     0
 10
395.493378
 20
43.423214
 11
393.325409
 21
45.591228
  0
LINE
  8
OBRYS
 62
     0
 10
393.324005
 20
45.889614
 11
395.637665
 21
43.575970
  0
LINE
  8
OBRYS
 62
     0
 10
395.772003
 20
43.741405
 11
393.325409
 21
46.188030
  0
LINE
  8
OBRYS
 62
     0
 10
393.324005
 20
46.486370
 11
395.895050
 21
43.915356
  0
LINE
  8
OBRYS
 62
     0
 10
396.008148
 20
44.102047
 11
393.325409
 21
46.784786
  0
LINE
  8
OBRYS
 62
     0
 10
393.324005
 20
47.083172
 11
396.110016
 21
44.297192
  0
LINE
  8
OBRYS
 62
     0
 10
396.199066
 20
44.507900
 11
393.324005
 21
47.383022
  0
LINE
  8
OBRYS
 62
     0
 10
393.325409
 20
47.681438
 11
396.275482
 21
44.731365
  0
LINE
  8
OBRYS
 62
     0
 10
396.334869
 20
44.968960
 11
393.324005
 21
47.979778
  0
LINE
  8
OBRYS
 62
     0
 10
393.325409
 20
48.278194
 11
396.378693
 21
45.224895
  0
LINE
  8
OBRYS
 62
     0
 10
396.399933
 20
45.500698
 11
393.324005
 21
48.576580
  0
LINE
  8
OBRYS
 62
     0
 10
393.325409
 20
48.874996
 11
396.401337
 21
45.799114
  0
LINE
  8
OBRYS
 62
     0
 10
396.401337
 20
46.096066
 11
393.324005
 21
49.173382
  0
LINE
  8
OBRYS
 62
     0
 10
393.325409
 20
49.471798
 11
396.401337
 21
46.395916
  0
LINE
  8
OBRYS
 62
     0
 10
396.401337
 20
46.692867
 11
393.324005
 21
49.770184
  0
LINE
  8
OBRYS
 62
     0
 10
393.324005
 20
50.069988
 11
396.401337
 21
46.992718
  0
LINE
  8
OBRYS
 62
     0
 10
396.402740
 20
47.291058
 11
393.325409
 21
50.368404
  0
LINE
  8
OBRYS
 62
     0
 10
393.324005
 20
50.666790
 11
396.401337
 21
47.589474
  0
LINE
  8
OBRYS
 62
     0
 10
396.402740
 20
47.887859
 11
393.325409
 21
50.965206
  0
LINE
  8
OBRYS
 62
     0
 10
393.324005
 20
51.263592
 11
396.401337
 21
48.186275
  0
LINE
  8
OBRYS
 62
     0
 10
396.401337
 20
48.486126
 11
393.325409
 21
51.562008
  0
LINE
  8
OBRYS
 62
     0
 10
393.324005
 20
51.860394
 11
396.401337
 21
48.783077
  0
LINE
  8
OBRYS
 62
     0
 10
396.401337
 20
49.082882
 11
393.325409
 21
52.158810
  0
LINE
  8
OBRYS
 62
     0
 10
393.324005
 20
52.457195
 11
396.401337
 21
49.379879
  0
LINE
  8
OBRYS
 62
     0
 10
396.392853
 20
49.688152
 11
393.561554
 21
52.519451
  0
LINE
  8
OBRYS
 62
     0
 10
393.906647
 20
52.474163
 11
396.346161
 21
50.034664
  0
LINE
  8
OBRYS
 62
     0
 10
396.238678
 20
50.439129
 11
394.311127
 21
52.366695
  0
LINE
  8
OBRYS
 62
     0
 10
394.855560
 20
52.122036
 11
395.994049
 21
50.983608
  0
ENDBLK
  8
OBRYS
  0
BLOCK
  8
OBRYS
  2
*X__41
 70
   65
 10
0.0
 20
0.0
  0
LINE
  8
OBRYS
 62
     0
 10
386.725250
 20
50.783566
 11
385.839935
 21
49.898266
  0
LINE
  8
OBRYS
 62
     0
 10
385.482147
 20
49.837444
 11
386.786041
 21
51.141354
  0
LINE
  8
OBRYS
 62
     0
 10
386.764862
 20
51.419949
 11
385.203583
 21
49.858669
  0
LINE
  8
OBRYS
 62
     0
 10
384.968781
 20
49.920895
 11
386.701202
 21
51.653301
  0
LINE
  8
OBRYS
 62
     0
 10
386.605072
 20
51.856945
 11
384.766571
 21
50.018475
  0
LINE
  8
OBRYS
 62
     0
 10
384.589813
 20
50.138683
 11
386.483429
 21
52.032314
  0
LINE
  8
OBRYS
 62
     0
 10
386.337738
 20
52.186459
 11
384.437042
 21
50.285763
  0
LINE
  8
OBRYS
 62
     0
 10
384.306976
 20
50.455456
 11
386.168060
 21
52.316570
  0
LINE
  8
OBRYS
 62
     0
 10
385.972870
 20
52.418392
 11
384.203705
 21
50.649212
  0
LINE
  8
OBRYS
 62
     0
 10
384.128754
 20
50.874065
 11
385.748016
 21
52.493343
  0
LINE
  8
OBRYS
 62
     0
 10
385.486420
 20
52.528698
 11
384.094818
 21
51.137112
  0
LINE
  8
OBRYS
 62
     0
 10
384.123077
 20
51.465206
 11
385.156891
 21
52.499004
  0
LINE
  8
OBRYS
 62
     0
 10
384.571381
 20
52.210506
 11
384.412994
 21
52.052105
  0
LINE
  8
OBRYS
 62
     0
 10
384.726959
 20
50.041103
 11
384.298492
 21
50.469601
  0
LINE
  8
OBRYS
 62
     0
 10
384.114594
 20
50.953259
 11
385.210663
 21
49.857250
  0
LINE
  8
OBRYS
 62
     0
 10
385.526031
 20
49.838863
 11
384.096222
 21
51.268642
  0
LINE
  8
OBRYS
 62
     0
 10
384.138641
 20
51.526028
 11
385.783417
 21
49.881298
  0
LINE
  8
OBRYS
 62
     0
 10
386.002594
 20
49.959072
 11
384.216461
 21
51.745220
  0
LINE
  8
OBRYS
 62
     0
 10
384.325348
 20
51.936138
 11
386.193512
 21
50.067974
  0
LINE
  8
OBRYS
 62
     0
 10
386.358978
 20
50.199490
 11
384.456879
 21
52.101604
  0
LINE
  8
OBRYS
 62
     0
 10
384.612396
 20
52.245861
 11
386.501801
 21
50.356472
  0
LINE
  8
OBRYS
 62
     0
 10
386.619171
 20
50.536068
 11
384.792023
 21
52.363232
  0
LINE
  8
OBRYS
 62
     0
 10
384.999908
 20
52.455166
 11
386.712555
 21
50.742550
  0
LINE
  8
OBRYS
 62
     0
 10
386.771942
 20
50.982967
 11
385.240326
 21
52.514553
  0
LINE
  8
OBRYS
 62
     0
 10
385.526031
 20
52.525875
 11
386.783234
 21
51.268642
  0
LINE
  8
OBRYS
 62
     0
 10
386.704071
 20
51.647640
 11
385.904999
 21
52.446682
  0
ENDBLK
  8
OBRYS
  0
BLOCK
  8
OBRYS
  2
*X__42
 70
   65
 10
0.0
 20
0.0
  0
LINE
  8
OBRYS
 62
     0
 10
383.324066
 20
42.605160
 11
383.249115
 21
42.530209
  0
LINE
  8
OBRYS
 62
     0
 10
382.970490
 20
42.548595
 11
383.325470
 21
42.903561
  0
LINE
  8
OBRYS
 62
     0
 10
383.324066
 20
43.201962
 11
382.713104
 21
42.591015
  0
LINE
  8
OBRYS
 62
     0
 10
382.472687
 20
42.650417
 11
383.324066
 21
43.501781
  0
LINE
  8
OBRYS
 62
     0
 10
383.325470
 20
43.800167
 11
382.249298
 21
42.723949
  0
LINE
  8
OBRYS
 62
     0
 10
382.037140
 20
42.811642
 11
383.324066
 21
44.098568
  0
LINE
  8
OBRYS
 62
     0
 10
383.325470
 20
44.396969
 11
381.839142
 21
42.910625
  0
LINE
  8
OBRYS
 62
     0
 10
381.652496
 20
43.023769
 11
383.324066
 21
44.695370
  0
LINE
  8
OBRYS
 62
     0
 10
383.325470
 20
44.993771
 11
381.477081
 21
43.145397
  0
LINE
  8
OBRYS
 62
     0
 10
381.311676
 20
43.279736
 11
383.324066
 21
45.292171
  0
LINE
  8
OBRYS
 62
     0
 10
383.325470
 20
45.590572
 11
381.157501
 21
43.422573
  0
LINE
  8
OBRYS
 62
     0
 10
381.011810
 20
43.576733
 11
383.324066
 21
45.888973
  0
LINE
  8
OBRYS
 62
     0
 10
383.324066
 20
46.188778
 11
380.877472
 21
43.742184
  0
LINE
  8
OBRYS
 62
     0
 10
380.754425
 20
43.916134
 11
383.325470
 21
46.487179
  0
LINE
  8
OBRYS
 62
     0
 10
383.324066
 20
46.785580
 11
380.639923
 21
44.101406
  0
LINE
  8
OBRYS
 62
     0
 10
380.539459
 20
44.297970
 11
383.325470
 21
47.083981
  0
LINE
  8
OBRYS
 62
     0
 10
383.324066
 20
47.382381
 11
380.450409
 21
44.508694
  0
LINE
  8
OBRYS
 62
     0
 10
380.375458
 20
44.730724
 11
383.325470
 21
47.680782
  0
LINE
  8
OBRYS
 62
     0
 10
383.324066
 20
47.979168
 11
380.314606
 21
44.969723
  0
LINE
  8
OBRYS
 62
     0
 10
380.272186
 20
45.224285
 11
383.325470
 21
48.277569
  0
LINE
  8
OBRYS
 62
     0
 10
383.324066
 20
48.575970
 11
380.249542
 21
45.501476
  0
LINE
  8
OBRYS
 62
     0
 10
380.248138
 20
45.797039
 11
383.325470
 21
48.874371
  0
LINE
  8
OBRYS
 62
     0
 10
383.324066
 20
49.172771
 11
380.248138
 21
46.096859
  0
LINE
  8
OBRYS
 62
     0
 10
380.246735
 20
46.395260
 11
383.324066
 21
49.472591
  0
LINE
  8
OBRYS
 62
     0
 10
383.325470
 20
49.770977
 11
380.248138
 21
46.693661
  0
LINE
  8
OBRYS
 62
     0
 10
380.246735
 20
46.992046
 11
383.324066
 21
50.069378
  0
LINE
  8
OBRYS
 62
     0
 10
383.325470
 20
50.367779
 11
380.248138
 21
47.290447
  0
LINE
  8
OBRYS
 62
     0
 10
380.248138
 20
47.590267
 11
383.324066
 21
50.666180
  0
LINE
  8
OBRYS
 62
     0
 10
383.325470
 20
50.964581
 11
380.248138
 21
47.887249
  0
LINE
  8
OBRYS
 62
     0
 10
380.248138
 20
48.187069
 11
383.325470
 21
51.264385
  0
LINE
  8
OBRYS
 62
     0
 10
383.367889
 20
51.603802
 11
380.248138
 21
48.484051
  0
LINE
  8
OBRYS
 62
     0
 10
380.248138
 20
48.783855
 11
383.507904
 21
52.043621
  0
LINE
  8
OBRYS
 62
     0
 10
383.694611
 20
52.530117
 11
380.246735
 21
49.082256
  0
LINE
  8
OBRYS
 62
     0
 10
380.248138
 20
49.380657
 11
383.396210
 21
52.528698
  0
LINE
  8
OBRYS
 62
     0
 10
383.087921
 20
52.520214
 11
380.256622
 21
49.688961
  0
LINE
  8
OBRYS
 62
     0
 10
380.303314
 20
50.032619
 11
382.744232
 21
52.473553
  0
LINE
  8
OBRYS
 62
     0
 10
382.338348
 20
52.367474
 11
380.409393
 21
50.438488
  0
LINE
  8
OBRYS
 62
     0
 10
380.655426
 20
50.981548
 11
381.795319
 21
52.121410
  0
LINE
  8
OBRYS
 62
     0
 10
381.455902
 20
43.160946
 11
380.880341
 21
43.736538
  0
LINE
  8
OBRYS
 62
     0
 10
380.478668
 20
44.437984
 11
382.157318
 21
42.759319
  0
LINE
  8
OBRYS
 62
     0
 10
382.598602
 20
42.615063
 11
380.334442
 21
44.879223
  0
LINE
  8
OBRYS
 62
     0
 10
380.269379
 20
45.244091
 11
382.963470
 21
42.550014
  0
LINE
  8
OBRYS
 62
     0
 10
383.281647
 20
42.528790
 11
380.246735
 21
45.563702
  0
LINE
  8
OBRYS
 62
     0
 10
380.248138
 20
45.862103
 11
383.324066
 21
42.786175
  0
LINE
  8
OBRYS
 62
     0
 10
383.325470
 20
43.084576
 11
380.248138
 21
46.161907
  0
LINE
  8
OBRYS
 62
     0
 10
380.248138
 20
46.458889
 11
383.324066
 21
43.382977
  0
LINE
  8
OBRYS
 62
     0
 10
383.325470
 20
43.681377
 11
380.248138
 21
46.758709
  0
LINE
  8
OBRYS
 62
     0
 10
380.246735
 20
47.057110
 11
383.324066
 21
43.979778
  0
LINE
  8
OBRYS
 62
     0
 10
383.325470
 20
44.278179
 11
380.248138
 21
47.355511
  0
LINE
  8
OBRYS
 62
     0
 10
380.246735
 20
47.653912
 11
383.324066
 21
44.576580
  0
LINE
  8
OBRYS
 62
     0
 10
383.325470
 20
44.874981
 11
380.248138
 21
47.952297
  0
LINE
  8
OBRYS
 62
     0
 10
380.246735
 20
48.250698
 11
383.324066
 21
45.173382
  0
LINE
  8
OBRYS
 62
     0
 10
383.324066
 20
45.473186
 11
380.248138
 21
48.549099
  0
LINE
  8
OBRYS
 62
     0
 10
380.248138
 20
48.848919
 11
383.325470
 21
45.771587
  0
LINE
  8
OBRYS
 62
     0
 10
383.324066
 20
46.069988
 11
380.248138
 21
49.145901
  0
LINE
  8
OBRYS
 62
     0
 10
380.248138
 20
49.445721
 11
383.325470
 21
46.368389
  0
LINE
  8
OBRYS
 62
     0
 10
383.324066
 20
46.666790
 11
380.259491
 21
49.731380
  0
LINE
  8
OBRYS
 62
     0
 10
380.296234
 20
49.994427
 11
383.325470
 21
46.965191
  0
LINE
  8
OBRYS
 62
     0
 10
383.324066
 20
47.263577
 11
380.350006
 21
50.237667
  0
LINE
  8
OBRYS
 62
     0
 10
380.420685
 20
50.466778
 11
383.325470
 21
47.561977
  0
LINE
  8
OBRYS
 62
     0
 10
383.324066
 20
47.860378
 11
380.504120
 21
50.680325
  0
LINE
  8
OBRYS
 62
     0
 10
380.600311
 20
50.883968
 11
383.324066
 21
48.160198
  0
LINE
  8
OBRYS
 62
     0
 10
383.325470
 20
48.458599
 11
380.710602
 21
51.073467
  0
LINE
  8
OBRYS
 62
     0
 10
380.829376
 20
51.251659
 11
383.324066
 21
48.756985
  0
LINE
  8
OBRYS
 62
     0
 10
383.325470
 20
49.055386
 11
380.959503
 21
51.421368
  0
LINE
  8
OBRYS
 62
     0
 10
381.099518
 20
51.578350
 11
383.324066
 21
49.353786
  0
LINE
  8
OBRYS
 62
     0
 10
383.325470
 20
49.652187
 11
381.252228
 21
51.725430
  0
LINE
  8
OBRYS
 62
     0
 10
381.412079
 20
51.862606
 11
383.324066
 21
49.950588
  0
LINE
  8
OBRYS
 62
     0
 10
383.325470
 20
50.248989
 11
381.584564
 21
51.989880
  0
LINE
  8
OBRYS
 62
     0
 10
381.766998
 20
52.104443
 11
383.324066
 21
50.547390
  0
LINE
  8
OBRYS
 62
     0
 10
383.324066
 20
50.847195
 11
381.960785
 21
52.210506
  0
LINE
  8
OBRYS
 62
     0
 10
382.167267
 20
52.303844
 11
383.325470
 21
51.145596
  0
LINE
  8
OBRYS
 62
     0
 10
383.339630
 20
51.428448
 11
382.386444
 21
52.381618
  0
LINE
  8
OBRYS
 62
     0
 10
382.619781
 20
52.448086
 11
383.384857
 21
51.682995
  0
LINE
  8
OBRYS
 62
     0
 10
383.454193
 20
51.910686
 11
382.870087
 21
52.494762
  0
LINE
  8
OBRYS
 62
     0
 10
383.140228
 20
52.524456
 11
383.544708
 21
52.119991
  0
LINE
  8
OBRYS
 62
     0
 10
383.650726
 20
52.310909
 11
383.432953
 21
52.528698
  0
LINE
  8
OBRYS
 62
     0
 10
383.732758
 20
52.528698
 11
383.773773
 21
52.487682
  0
ENDBLK
  8
OBRYS
  0
BLOCK
  8
OBRYS
  2
*X__43
 70
   65
 10
0.0
 20
0.0
  0
LINE
  8
OBRYS
 62
     0
 10
386.510284
 20
43.701183
 11
385.998322
 21
43.189236
  0
LINE
  8
OBRYS
 62
     0
 10
385.275665
 20
42.766384
 11
386.934540
 21
44.425259
  0
LINE
  8
OBRYS
 62
     0
 10
387.081635
 20
44.869320
 11
384.830231
 21
42.617886
  0
LINE
  8
OBRYS
 62
     0
 10
384.463959
 20
42.551418
 11
387.148102
 21
45.235607
  0
LINE
  8
OBRYS
 62
     0
 10
387.170746
 20
45.555218
 11
384.144318
 21
42.528790
  0
LINE
  8
OBRYS
 62
     0
 10
384.093414
 20
42.777691
 11
387.160858
 21
45.845119
  0
LINE
  8
OBRYS
 62
     0
 10
387.129730
 20
46.111004
 11
384.094818
 21
43.076092
  0
LINE
  8
OBRYS
 62
     0
 10
384.093414
 20
43.374493
 11
387.077423
 21
46.358486
  0
LINE
  8
OBRYS
 62
     0
 10
387.010956
 20
46.589001
 11
384.094818
 21
43.672894
  0
LINE
  8
OBRYS
 62
     0
 10
384.093414
 20
43.971294
 11
386.927460
 21
46.805370
  0
LINE
  8
OBRYS
 62
     0
 10
386.831329
 20
47.009029
 11
384.093414
 21
44.271099
  0
LINE
  8
OBRYS
 62
     0
 10
384.093414
 20
44.568096
 11
386.725250
 21
47.199947
  0
LINE
  8
OBRYS
 62
     0
 10
386.606476
 20
47.380962
 11
384.093414
 21
44.867901
  0
LINE
  8
OBRYS
 62
     0
 10
384.094818
 20
45.166302
 11
386.479156
 21
47.550671
  0
LINE
  8
OBRYS
 62
     0
 10
386.339203
 20
47.710476
 11
384.093414
 21
45.464703
  0
LINE
  8
OBRYS
 62
     0
 10
384.094818
 20
45.763103
 11
386.190704
 21
47.858959
  0
LINE
  8
OBRYS
 62
     0
 10
386.029449
 20
47.997555
 11
384.093414
 21
46.061504
  0
LINE
  8
OBRYS
 62
     0
 10
384.094818
 20
46.359905
 11
385.859772
 21
48.124844
  0
LINE
  8
OBRYS
 62
     0
 10
385.678741
 20
48.243633
 11
384.093414
 21
46.658306
  0
LINE
  8
OBRYS
 62
     0
 10
384.093414
 20
46.958111
 11
385.486420
 21
48.351116
  0
LINE
  8
OBRYS
 62
     0
 10
385.282745
 20
48.444454
 11
384.093414
 21
47.255093
  0
LINE
  8
OBRYS
 62
     0
 10
384.093414
 20
47.554913
 11
385.064972
 21
48.526470
  0
LINE
  8
OBRYS
 62
     0
 10
384.834442
 20
48.592937
 11
384.094818
 21
47.853313
  0
LINE
  8
OBRYS
 62
     0
 10
384.093414
 20
48.151714
 11
384.585541
 21
48.643856
  0
LINE
  8
OBRYS
 62
     0
 10
384.319672
 20
48.674969
 11
384.094818
 21
48.450115
  0
LINE
  8
OBRYS
 62
     0
 10
384.176849
 20
42.530209
 11
384.093414
 21
42.613644
  0
LINE
  8
OBRYS
 62
     0
 10
384.094818
 20
42.912045
 11
384.455414
 21
42.551418
  0
LINE
  8
OBRYS
 62
     0
 10
384.712860
 20
42.591015
 11
384.093414
 21
43.210445
  0
LINE
  8
OBRYS
 62
     0
 10
384.094818
 20
43.508846
 11
384.951813
 21
42.651836
  0
LINE
  8
OBRYS
 62
     0
 10
385.175262
 20
42.725368
 11
384.093414
 21
43.807247
  0
LINE
  8
OBRYS
 62
     0
 10
384.093414
 20
44.107052
 11
385.386017
 21
42.814465
  0
LINE
  8
OBRYS
 62
     0
 10
385.584015
 20
42.913464
 11
384.093414
 21
44.404049
  0
LINE
  8
OBRYS
 62
     0
 10
384.093414
 20
44.703854
 11
385.770660
 21
43.026592
  0
LINE
  8
OBRYS
 62
     0
 10
385.947418
 20
43.149639
 11
384.094818
 21
45.002254
  0
LINE
  8
OBRYS
 62
     0
 10
384.093414
 20
45.300655
 11
386.111481
 21
43.282574
  0
LINE
  8
OBRYS
 62
     0
 10
386.267059
 20
43.426815
 11
384.094818
 21
45.599056
  0
LINE
  8
OBRYS
 62
     0
 10
384.093414
 20
45.897457
 11
386.409882
 21
43.580975
  0
LINE
  8
OBRYS
 62
     0
 10
386.544220
 20
43.746441
 11
384.094818
 21
46.195858
  0
LINE
  8
OBRYS
 62
     0
 10
384.093414
 20
46.494244
 11
386.667267
 21
43.920376
  0
LINE
  8
OBRYS
 62
     0
 10
386.780426
 20
44.107052
 11
384.093414
 21
46.794064
  0
LINE
  8
OBRYS
 62
     0
 10
384.093414
 20
47.091045
 11
386.880829
 21
44.303631
  0
LINE
  8
OBRYS
 62
     0
 10
386.969940
 20
44.514355
 11
384.093414
 21
47.390865
  0
LINE
  8
OBRYS
 62
     0
 10
384.094818
 20
47.689266
 11
387.046295
 21
44.737804
  0
LINE
  8
OBRYS
 62
     0
 10
387.105682
 20
44.975384
 11
384.093414
 21
47.987667
  0
LINE
  8
OBRYS
 62
     0
 10
384.094818
 20
48.286053
 11
387.148102
 21
45.232769
  0
LINE
  8
OBRYS
 62
     0
 10
387.169342
 20
45.508541
 11
384.093414
 21
48.584454
  0
LINE
  8
OBRYS
 62
     0
 10
384.301300
 20
48.676388
 11
387.163666
 21
45.814007
  0
LINE
  8
OBRYS
 62
     0
 10
387.121246
 20
46.153423
 11
384.640717
 21
48.633953
  0
LINE
  8
OBRYS
 62
     0
 10
385.040924
 20
48.533550
 11
387.022247
 21
46.552227
  0
LINE
  8
OBRYS
 62
     0
 10
386.797394
 20
47.074078
 11
385.562775
 21
48.308681
  0
ENDBLK
  8
OBRYS
  0
ENDSEC
  0
SECTION
  2
ENTITIES
  0
INSERT
  8
OBRYS
  2
_0
 62
     7
 10
588.623548
 20
61.042558
  0
INSERT
  8
OSA
  2
_1
  6
CONTINUOUS
 10
588.623548
 20
61.042558
  0
ARC
  8
OSA
 62
     2
  6
CONTINUOUS
 10
631.623548
 20
188.783729
 40
2.000000
 50
0.000000
 51
88.000000
  0
ARC
  8
OSA
 62
     2
  6
CONTINUOUS
 10
635.623548
 20
186.870985
 40
2.000000
 50
180.000000
 51
225.000000
  0
LINE
  8
OSA
 62
     2
  6
CONTINUOUS
 10
626.623548
 20
190.959552
 11
631.693347
 21
190.782511
  0
LINE
  8
OSA
 62
     2
  6
CONTINUOUS
 10
634.623548
 20
185.042558
 11
634.209334
 21
185.456771
  0
LINE
  8
OSA
 62
     2
  6
CONTINUOUS
 10
626.623548
 20
190.959552
 11
626.623548
 21
181.830311
  0
LINE
  8
OSA
 62
     2
  6
CONTINUOUS
 10
633.623548
 20
188.783729
 11
633.623548
 21
176.661584
  0
INSERT
  8
OSA
  2
_2
  6
CONTINUOUS
 10
550.623548
 20
121.042558
  0
INSERT
  8
OBRYS
  2
_3
 62
     7
 10
528.623548
 20
121.042558
  0
INSERT
  8
OBRYS
  2
_4
 62
     7
 10
648.623548
 20
121.042558
  0
LINE
  8
OSA
 10
624.685994
 20
326.707031
 11
644.484984
 21
306.908041
  0
LINE
  8
OSA
 10
552.561102
 20
326.707031
 11
532.762112
 21
306.908041
  0
LINE
  8
OSA
 10
552.561102
 20
398.831922
 11
532.762112
 21
418.630912
  0
LINE
  8
OSA
 10
624.685994
 20
398.831922
 11
644.484984
 21
418.630912
  0
LINE
  8
OSA
 10
588.623548
 20
405.269476
 11
588.623548
 21
382.769476
  0
LINE
  8
OSA
 10
588.623548
 20
362.769476
 11
588.623548
 21
340.269476
  0
LINE
  8
OSA
 10
588.623548
 20
362.769476
 11
588.623548
 21
385.269476
  0
LINE
  8
OSA
 10
588.623548
 20
362.769476
 11
566.123548
 21
362.769476
  0
LINE
  8
OSA
 10
588.623548
 20
362.769476
 11
611.123548
 21
362.769476
  0
CIRCLE
  8
OBRYS
 10
588.623548
 20
362.769476
 40
12.500000
  0
ARC
  8
OBRYS
 10
588.623548
 20
362.769476
 40
7.000000
 50
110.924832
 51
69.075168
  0
LINE
  8
OBRYS
 10
586.123548
 20
369.307825
 11
586.123548
 21
371.969476
  0
LINE
  8
OBRYS
 10
591.123548
 20
369.307825
 11
591.123548
 21
371.969476
  0
LINE
  8
OBRYS
 10
586.123548
 20
371.969476
 11
591.123548
 21
371.969476
  0
CIRCLE
  8
OBRYS
 10
588.623548
 20
362.769476
 40
80.000000
  0
CIRCLE
  8
OBRYS
 10
588.623548
 20
362.769476
 40
55.000000
  0
LINE
  8
OSA
 10
588.623548
 20
362.769476
 11
673.623548
 21
362.769476
  0
LINE
  8
OSA
 10
588.623548
 20
362.769476
 11
503.623548
 21
362.769476
  0
LINE
  8
OSA
 10
588.623548
 20
362.769476
 11
588.623548
 21
447.769476
  0
LINE
  8
OSA
 10
588.623548
 20
362.769476
 11
588.623548
 21
277.769476
  0
CIRCLE
  8
OSA
 10
588.623548
 20
362.769476
 40
65.000000
  0
INSERT
  8
OBRYS
 66
     1
  2
Vnitrni_metricky_zavit_M8_5
 62
     7
 10
542.661607
 20
316.807536
  0
ATTRIB
  8
OBRYS
 10
32.878487
 20
-3.083497
 40
25.000000
  1
CSN 02 1034
  2
norma roz.
 70
     1
  0
ATTRIB
  8
OBRYS
 10
32.878487
 20
-3.083497
 40
25.000000
  1
1.25
  2
roztec
 70
     1
  0
ATTRIB
  8
OBRYS
 10
32.878487
 20
-3.083497
 40
25.000000
  1
*NB
  2
puvod
 70
     1
  0
ATTRIB
  8
OBRYS
 10
32.878487
 20
-3.083497
 40
25.000000
  1
02 1034
  2
tridici znak
 70
     1
  0
SEQEND
  8
OBRYS
  0
INSERT
  8
OBRYS
 66
     1
  2
Vnitrni_metricky_zavit_M8_6
 62
     7
 10
634.585489
 20
316.807536
  0
ATTRIB
  8
OBRYS
 10
32.878487
 20
-3.083497
 40
25.000000
  1
CSN 02 1034
  2
norma roz.
 70
     1
  0
ATTRIB
  8
OBRYS
 10
32.878487
 20
-3.083497
 40
25.000000
  1
1.25
  2
roztec
 70
     1
  0
ATTRIB
  8
OBRYS
 10
32.878487
 20
-3.083497
 40
25.000000
  1
*NB
  2
puvod
 70
     1
  0
ATTRIB
  8
OBRYS
 10
32.878487
 20
-3.083497
 40
25.000000
  1
02 1034
  2
tridici znak
 70
     1
  0
SEQEND
  8
OBRYS
  0
INSERT
  8
OBRYS
 66
     1
  2
Vnitrni_metricky_zavit_M8_7
 62
     7
 10
634.585489
 20
408.731417
  0
ATTRIB
  8
OBRYS
 10
32.878487
 20
-3.083497
 40
25.000000
  1
CSN 02 1034
  2
norma roz.
 70
     1
  0
ATTRIB
  8
OBRYS
 10
32.878487
 20
-3.083497
 40
25.000000
  1
1.25
  2
roztec
 70
     1
  0
ATTRIB
  8
OBRYS
 10
32.878487
 20
-3.083497
 40
25.000000
  1
*NB
  2
puvod
 70
     1
  0
ATTRIB
  8
OBRYS
 10
32.878487
 20
-3.083497
 40
25.000000
  1
02 1034
  2
tridici znak
 70
     1
  0
SEQEND
  8
OBRYS
  0
INSERT
  8
OBRYS
 66
     1
  2
Vnitrni_metricky_zavit_M8_8
 62
     7
 10
542.661607
 20
408.731417
  0
ATTRIB
  8
OBRYS
 10
32.878487
 20
-3.083497
 40
25.000000
  1
CSN 02 1034
  2
norma roz.
 70
     1
  0
ATTRIB
  8
OBRYS
 10
32.878487
 20
-3.083497
 40
25.000000
  1
1.25
  2
roztec
 70
     1
  0
ATTRIB
  8
OBRYS
 10
32.878487
 20
-3.083497
 40
25.000000
  1
*NB
  2
puvod
 70
     1
  0
ATTRIB
  8
OBRYS
 10
32.878487
 20
-3.083497
 40
25.000000
  1
02 1034
  2
tridici znak
 70
     1
  0
SEQEND
  8
OBRYS
  0
LINE
  8
OBRYS
 10
586.123548
 20
-103.646363
 11
591.123548
 21
-103.646363
  0
LINE
  8
OBRYS
 10
591.123548
 20
-106.308015
 11
591.123548
 21
-103.646363
  0
LINE
  8
OBRYS
 10
586.123548
 20
-106.308015
 11
586.123548
 21
-103.646363
  0
ARC
  8
OBRYS
 10
588.623548
 20
-112.846363
 40
7.000000
 50
110.924832
 51
69.075168
  0
CIRCLE
  8
OBRYS
 10
588.623548
 20
-112.846363
 40
12.500000
  0
LINE
  8
OSA
 10
588.623548
 20
-112.846363
 11
611.123548
 21
-112.846363
  0
LINE
  8
OSA
 10
588.623548
 20
-112.846363
 11
566.123548
 21
-112.846363
  0
LINE
  8
OSA
 10
588.623548
 20
-112.846363
 11
588.623548
 21
-90.346363
  0
LINE
  8
OSA
 10
588.623548
 20
-112.846363
 11
588.623548
 21
-135.346363
  0
CIRCLE
  8
OBRYS
 10
588.623548
 20
-70.346363
 40
12.500000
  0
ARC
  8
OBRYS
 10
588.623548
 20
-70.346363
 40
5.500000
 50
110.654018
 51
68.003576
  0
LINE
  8
OBRYS
 10
590.683566
 20
-65.246724
 11
590.683566
 21
-63.157403
  0
LINE
  8
OBRYS
 10
586.683566
 20
-65.199863
 11
586.683566
 21
-63.157403
  0
LINE
  8
OBRYS
 10
586.683566
 20
-63.157403
 11
590.683566
 21
-63.157403
  0
LINE
  8
OSA
 10
588.623548
 20
-70.346363
 11
611.123548
 21
-70.346363
  0
LINE
  8
OSA
 10
588.623548
 20
-70.346363
 11
566.123548
 21
-70.346363
  0
LINE
  8
OSA
 10
588.623548
 20
-70.346363
 11
588.623548
 21
-47.846363
  0
LINE
  8
OSA
 10
588.623548
 20
-70.346363
 11
588.623548
 21
-92.846363
  0
ARC
  8
OBRYS
 10
112.017797
 20
61.042558
 40
60.000000
 50
180.000000
 51
197.832948
  0
ARC
  8
OBRYS
 10
112.017797
 20
61.042558
 40
60.000000
 50
342.167052
 51
360.000000
  0
LINE
  8
TLUST_
 62
     2
 10
60.804050
 20
21.042558
 11
70.707792
 21
12.295043
  0
LINE
  8
TLUST_
 62
     2
 10
163.231545
 20
21.042558
 11
153.327803
 21
12.295043
  0
ARC
  8
OBRYS
 10
112.017797
 20
123.042558
 40
70.000000
 50
328.997281
 51
31.002719
  0
ARC
  8
OBRYS
 10
112.017797
 20
123.042558
 40
70.000000
 50
148.997281
 51
211.002719
  0
ARC
  8
OBRYS
 10
112.017797
 20
1.042558
 40
7.000000
 50
192.953880
 51
347.046120
  0
ARC
  8
OBRYS
 10
102.272289
 20
-1.199109
 40
3.000000
 50
12.953880
 51
81.101147
  0
ARC
  8
OBRYS
 10
121.763306
 20
-1.199109
 40
3.000000
 50
98.898853
 51
167.046120
  0
ARC
  8
OBRYS
 10
74.017797
 20
16.042558
 40
5.000000
 50
228.547337
 51
250.783336
  0
ARC
  8
OBRYS
 10
112.017797
 20
61.042558
 40
60.000000
 50
250.783336
 51
261.101147
  0
LINE
  8
TLUST_
 62
     2
 10
92.269320
 20
4.385717
 11
72.372091
 21
11.321154
  0
LINE
  8
TLUST_
 62
     2
 10
131.766275
 20
4.385717
 11
151.663504
 21
11.321154
  0
ARC
  8
OBRYS
 10
112.017797
 20
61.042558
 40
60.000000
 50
278.898853
 51
289.216664
  0
ARC
  8
OBRYS
 10
150.017797
 20
16.042558
 40
5.000000
 50
289.216664
 51
311.452663
  0
INSERT
  8
OBRYS
  2
_9
 62
     7
 10
866.912937
 20
61.042558
  0
INSERT
  8
TLUST_
  2
_10
 62
     7
 10
310.334159
 20
-126.502493
  0
INSERT
  8
OBRYS
  2
_11
 62
     7
 10
310.334159
 20
61.042558
  0
INSERT
  8
TLUST_
  2
_12
 62
     7
 10
310.334159
 20
321.331947
  0
TEXT
  8
NEVIDI
 62
     2
  6
CONTINUOUS
 10
181.513107
 20
488.989288
 40
15.000000
  1
MRP 60A - FT + 2x adaptér
 50
0.00
 51
0.00
 41
0.80
  0
TEXT
  8
NEVIDI
 62
     2
  6
CONTINUOUS
 10
178.931290
 20
528.978821
 40
15.000000
  1
MRP 60A - B
 50
0.00
 51
0.00
 41
0.80
  0
INSERT
  8
OSA
  2
_13
  6
CONTINUOUS
 10
150.017797
 20
121.042558
  0
INSERT
  8
OBRYS
  2
_14
 62
     7
 10
172.017797
 20
121.042558
  0
ARC
  8
OBRYS
 10
112.017797
 20
61.042558
 40
60.000000
 50
181.656527
 51
197.832948
  0
INSERT
  8
OSA
  2
_15
  6
CONTINUOUS
 10
112.017797
 20
61.042558
  0
INSERT
  8
OBRYS
  2
_16
 62
     7
 10
52.017797
 20
121.042558
  0
INSERT
  8
OBRYS
 66
     1
  2
M10x1_17
 62
     7
 10
112.017797
 20
183.042558
  0
ATTRIB
  8
0
 62
     2
 10
0.000000
 20
0.000000
 40
3.749998
  1
DIN 908
  2
norma roz.
 70
     1
  0
SEQEND
  8
OBRYS
  0
INSERT
  8
OSA
  2
_18
  6
CONTINUOUS
 10
448.334159
 20
321.331947
  0
INSERT
  8
OBRYS
  2
_19
 62
     7
 10
388.334159
 20
381.331947
  0
INSERT
  8
OBRYS
  2
_20
 62
     7
 10
388.334159
 20
261.331947
  0
INSERT
  8
OSA
  2
_21
  6
CONTINUOUS
 10
448.334159
 20
-126.502493
  0
INSERT
  8
OBRYS
  2
_22
 62
     7
 10
388.334159
 20
-172.502493
  0
INSERT
  8
OBRYS
  2
_23
 62
     7
 10
388.334159
 20
-80.502493
  0
INSERT
  8
OSA
  2
_24
  6
CONTINUOUS
 10
388.334159
 20
-88.502493
  0
INSERT
  8
OBRYS
  2
_25
 62
     7
 10
788.912937
 20
121.042558
  0
INSERT
  8
OBRYS
  2
_26
 62
     7
 10
388.334159
 20
121.042558
  0
LINE
  8
OSA
 10
788.912937
 20
121.042558
 11
708.912937
 21
121.042558
  0
LINE
  8
OSA
 10
788.912937
 20
121.042558
 11
868.912937
 21
121.042558
  0
LINE
  8
OBRYS
 10
866.912937
 20
21.589111
 11
866.912937
 21
100.496005
  0
LINE
  8
OBRYS
 10
713.912937
 20
21.589111
 11
713.912937
 21
100.496005
  0
LINE
  8
OSA
 10
714.912937
 20
61.042558
 11
866.662937
 21
61.042558
  0
LINE
  8
OBRYS
 10
866.912937
 20
61.042558
 11
866.912937
 21
100.528873
  0
LINE
  8
OBRYS
 10
866.912937
 20
61.042558
 11
866.912937
 21
21.556242
  0
LINE
  8
0
 62
     2
 10
718.912937
 20
77.785715
 11
713.912937
 21
77.785715
  0
LINE
  8
0
 62
     2
 10
718.912937
 20
82.981868
 11
713.912937
 21
82.981868
  0
LINE
  8
0
 62
     2
 10
718.912937
 20
99.725026
 11
713.912937
 21
99.725026
  0
LINE
  8
0
 62
     2
 10
713.912937
 20
100.496005
 11
718.912937
 21
100.496005
  0
LINE
  8
0
 62
     2
 10
718.912937
 20
44.299400
 11
713.912937
 21
44.299400
  0
LINE
  8
0
 62
     2
 10
718.912937
 20
39.103247
 11
713.912937
 21
39.103247
  0
LINE
  8
0
 62
     2
 10
713.912937
 20
21.589111
 11
718.912937
 21
21.589111
  0
LINE
  8
0
 62
     2
 10
718.912937
 20
22.360090
 11
713.912937
 21
22.360090
  0
LINE
  8
0
 62
     2
 10
858.912937
 20
77.785715
 11
866.912937
 21
77.785715
  0
LINE
  8
0
 62
     2
 10
858.912937
 20
82.981868
 11
866.912937
 21
82.981868
  0
LINE
  8
0
 62
     2
 10
858.912937
 20
99.725026
 11
866.912937
 21
99.725026
  0
LINE
  8
0
 62
     2
 10
866.912937
 20
100.496005
 11
858.912937
 21
100.496005
  0
LINE
  8
0
 62
     2
 10
858.912937
 20
44.299400
 11
866.912937
 21
44.299400
  0
LINE
  8
0
 62
     2
 10
858.912937
 20
39.103247
 11
866.912937
 21
39.103247
  0
LINE
  8
0
 62
     2
 10
858.912937
 20
22.360090
 11
866.912937
 21
22.360090
  0
LINE
  8
0
 62
     2
 10
866.912937
 20
21.589111
 11
858.912937
 21
21.589111
  0
LINE
  8
OSA
 10
388.334159
 20
121.042558
 11
308.334159
 21
121.042558
  0
LINE
  8
OSA
 10
388.334159
 20
121.042558
 11
468.334159
 21
121.042558
  0
LINE
  8
OBRYS
 10
310.334159
 20
61.042558
 11
310.334159
 21
100.528873
  0
LINE
  8
OBRYS
 10
310.334159
 20
61.042558
 11
310.334159
 21
21.556242
  0
LINE
  8
OBRYS
 10
310.334159
 20
21.589111
 11
310.334159
 21
100.496005
  0
LINE
  8
OBRYS
 10
310.334159
 20
21.589111
 11
310.334159
 21
100.496005
  0
LINE
  8
OBRYS
 10
463.334159
 20
21.589111
 11
463.334159
 21
100.496005
  0
LINE
  8
OSA
 10
462.334159
 20
61.042558
 11
310.584159
 21
61.042558
  0
LINE
  8
0
 62
     2
 10
458.334159
 20
77.785715
 11
463.334159
 21
77.785715
  0
LINE
  8
0
 62
     2
 10
458.334159
 20
82.981868
 11
463.334159
 21
82.981868
  0
LINE
  8
0
 62
     2
 10
458.334159
 20
99.725026
 11
463.334159
 21
99.725026
  0
LINE
  8
0
 62
     2
 10
463.334159
 20
100.496005
 11
458.334159
 21
100.496005
  0
LINE
  8
0
 62
     2
 10
458.334159
 20
44.299400
 11
463.334159
 21
44.299400
  0
LINE
  8
0
 62
     2
 10
458.334159
 20
39.103247
 11
463.334159
 21
39.103247
  0
LINE
  8
0
 62
     2
 10
463.334159
 20
21.589111
 11
458.334159
 21
21.589111
  0
LINE
  8
0
 62
     2
 10
458.334159
 20
22.360090
 11
463.334159
 21
22.360090
  0
LINE
  8
0
 62
     2
 10
318.334159
 20
77.785715
 11
310.334159
 21
77.785715
  0
LINE
  8
0
 62
     2
 10
318.334159
 20
82.981868
 11
310.334159
 21
82.981868
  0
LINE
  8
0
 62
     2
 10
318.334159
 20
99.725026
 11
310.334159
 21
99.725026
  0
LINE
  8
0
 62
     2
 10
310.334159
 20
100.496005
 11
318.334159
 21
100.496005
  0
LINE
  8
0
 62
     2
 10
318.334159
 20
44.299400
 11
310.334159
 21
44.299400
  0
LINE
  8
0
 62
     2
 10
318.334159
 20
39.103247
 11
310.334159
 21
39.103247
  0
LINE
  8
0
 62
     2
 10
318.334159
 20
22.360090
 11
310.334159
 21
22.360090
  0
LINE
  8
0
 62
     2
 10
310.334159
 20
21.589111
 11
318.334159
 21
21.589111
  0
ENDSEC
  0
EOF

