  0
SECTION
  2
HEADER
  9
$ACADVER
  1
AC1009
  9
$INSBASE
 10
0.0
 20
0.0
 30
0.0
  9
$LIMMIN
 10
0.0
 20
0.0
  9
$LIMMAX
 10
430.0000
 20
307.0000
  9
$EXTMIN
 10
99999999999999998000000000000000000000.0000
 20
99999999999999998000000000000000000000.0000
  9
$EXTMAX
 10
99999999999999998000000000000000000000.0000
 20
99999999999999998000000000000000000000.0000
  9
$VIEWCTR
 10
497.1494
 20
209.5320
  9
$VIEWSIZE
 40
1028.0958
  9
$DIMLFAC
 40
0.5000
  9
$MEASUREMENT
 70
     1
  9
$DWGCODEPAGE
 3
ANSI_1250
  9
$CLAYER
  8
OBRYS
  9
$CELTYPE
  6
BYLAYER
  9
$CECOLOR
 62
  256
  9
$ORTHOMODE
 70
     0
  9
$REGENMODE
 70
     1
  9
$FILLMODE
 70
     1
  9
$QTEXTMODE
 70
     0
  9
$MIRRTEXT
 70
     1
  9
$DRAGMODE
 70
     2
  9
$LTSCALE
 40
1.0
  9
$OSMODE
 70
    37
  9
$ATTMODE
 70
     1
  9
$TEXTSIZE
 40
2.5
  9
$TRACEWID
 40
1.0
  9
$TEXTSTYLE
  7
STANDARD
  9
$CLAYER
  8
0
  9
$CELTYPE
  6
BYLAYER
  9
$CECOLOR
 62
   256
  9
$DIMSCALE
 40
1.0
  9
$DIMASZ
 40
2.5
  9
$DIMEXO
 40
0.625
  9
$DIMDLI
 40
3.75
  9
$DIMRND
 40
0.0
  9
$DIMDLE
 40
0.0
  9
$DIMEXE
 40
1.25
  9
$DIMTP
 40
0.0
  9
$DIMTM
 40
0.0
  9
$DIMTXT
 40
2.5
  9
$DIMCEN
 40
2.5
  9
$DIMTSZ
 40
0.0
  9
$DIMTOL
 70
     0
  9
$DIMLIM
 70
     0
  9
$DIMTIH
 70
     0
  9
$DIMTOH
 70
     0
  9
$DIMSE1
 70
     0
  9
$DIMSE2
 70
     0
  9
$DIMTAD
 70
     1
  9
$DIMZIN
 70
     8
  9
$DIMBLK
  1

  9
$DIMASO
 70
     1
  9
$DIMSHO
 70
     1
  9
$DIMPOST
  1

  9
$DIMAPOST
  1

  9
$DIMALT
 70
     0
  9
$DIMALTD
 70
     3
  9
$DIMALTF
 40
0.03937007874016
  9
$DIMTOFL
 70
     1
  9
$DIMTVP
 40
0.0
  9
$DIMTIX
 70
     0
  9
$DIMSOXD
 70
     0
  9
$DIMSAH
 70
     0
  9
$DIMBLK1
  1

  9
$DIMBLK2
  1

  9
$DIMSTYLE
  2
ISO-25
  9
$DIMCLRD
 70
     0
  9
$DIMCLRE
 70
     0
  9
$DIMCLRT
 70
     0
  9
$DIMTFAC
 40
1.0
  9
$DIMGAP
 40
0.625
  9
$LUNITS
 70
     2
  9
$LUPREC
 70
     4
  9
$SKETCHINC
 40
1.0
  9
$FILLETRAD
 40
10.0
  9
$AUNITS
 70
     0
  9
$AUPREC
 70
     0
  9
$MENU
  1
.
  9
$ELEVATION
 40
0.0
  9
$PELEVATION
 40
0.0
  9
$THICKNESS
 40
0.0
  9
$LIMCHECK
 70
     0
  9
$BLIPMODE
 70
     0
  9
$CHAMFERA
 40
10.0
  9
$CHAMFERB
 40
10.0
  9
$SKPOLY
 70
     0
  9
$TDCREATE
 40
2451579.5163292708
  9
$TDUPDATE
 40
2451579.6904035881
  9
$TDINDWG
 40
0.0082924769
  9
$TDUSRTIMER
 40
0.0082825116
  9
$USRTIMER
 70
     1
  9
$ANGBASE
 50
0.0
  9
$ANGDIR
 70
     0
  9
$PDMODE
 70
     0
  9
$PDSIZE
 40
0.0
  9
$PLINEWID
 40
0.0
  9
$COORDS
 70
     1
  9
$SPLFRAME
 70
     0
  9
$SPLINETYPE
 70
     6
  9
$SPLINESEGS
 70
     8
  9
$ATTDIA
 70
     0
  9
$ATTREQ
 70
     1
  9
$SURFTAB1
 70
     6
  9
$SURFTAB2
 70
     6
  9
$SURFTYPE
 70
     6
  9
$SURFU
 70
     6
  9
$SURFV
 70
     6
  9
$UCSNAME
  2

  9
$UCSORG
 10
0.0
 20
0.0
 30
0.0
  9
$UCSXDIR
 10
1.0
 20
0.0
 30
0.0
  9
$UCSYDIR
 10
0.0
 20
1.0
 30
0.0
  9
$PUCSNAME
  2

  9
$PUCSORG
 10
0.0
 20
0.0
 30
0.0
  9
$PUCSXDIR
 10
1.0
 20
0.0
 30
0.0
  9
$PUCSYDIR
 10
0.0
 20
1.0
 30
0.0
  9
$USERI1
 70
     0
  9
$USERI2
 70
     0
  9
$USERI3
 70
     0
  9
$USERI4
 70
     0
  9
$USERI5
 70
     0
  9
$USERR1
 40
0.0
  9
$USERR2
 40
0.0
  9
$USERR3
 40
0.0
  9
$USERR4
 40
0.0
  9
$USERR5
 40
0.0
  9
$WORLDVIEW
 70
     1
  9
$SHADEDGE
 70
     3
  9
$SHADEDIF
 70
    70
  9
$TILEMODE
 70
     1
  9
$MAXACTVP
 70
    64
  9
$PLIMCHECK
 70
     0
  9
$PEXTMIN
 10
1.0000000000000000E+020
 20
1.0000000000000000E+020
 30
1.0000000000000000E+020
  9
$PEXTMAX
 10
-1.0000000000000000E+020
 20
-1.0000000000000000E+020
 30
-1.0000000000000000E+020
  9
$PLIMMIN
 10
0.0
 20
0.0
  9
$PLIMMAX
 10
420.0
 20
297.0
  9
$UNITMODE
 70
     0
  9
$VISRETAIN
 70
     1
  9
$PLINEGEN
 70
     0
  9
$PSLTSCALE
 70
     1
  0
ENDSEC
  0
SECTION
  2
TABLES
  0
TABLE
  2
VPORT
 70
     2
  0
VPORT
  2
*ACTIVE
 70
     0
 10
0.0
 20
0.0
 11
1.0
 21
1.0
 12
497.1494
 22
209.5320
 13
0.0
 23
0.0
 14
10.0
 24
10.0
 15
10.0
 25
10.0
 16
0.0
 26
0.0
 36
1.0
 17
0.0
 27
0.0
 37
0.0
 40
1028.0958
 41
1.6916
 42
50.0
 43
0.0
 44
0.0
 50
0.0
 51
0.0
 71
     0
 72
   100
 73
     1
 74
     3
 75
     0
 76
     0
 77
     0
 78
     0
  0
ENDTAB
  0
TABLE
  2
LTYPE
 70
     7
  0
LTYPE
  2
CONTINUOUS
 70
     0
  3
Solid line
 72
    65
 73
     0
 40
0.0
  0
LTYPE
  2
HIDDEN2
 70
     0
  3
Hidden (.5x) _ _ _ _ _ _ _ _ _ _ _ _ _ _ _ _ _
 72
    65
 73
     2
 40
5.1
 49
3.5
 49
-1.6
  0
LTYPE
  2
DASHDOT
 70
     0
  3
Dash dot __ . __ . __ . __ . __ . __ . __ . __
 72
    65
 73
     4
 40
10.4
 49
6.2
 49
-2.1
 49
0.0
 49
-2.1
  0
LTYPE
  2
DOT
 70
     0
  3
Dot . . . . . . . . . . . . . . . . . . . . . .
 72
    65
 73
     2
 40
2.2
 49
1.1
 49
-1.1
  0
LTYPE
  2
DASHED
 70
     0
  3
Dashed __ __ __ __ __ __ __ __ __ __ __ __ __ _
 72
    65
 73
     2
 40
11.049999999999979
 49
8.699999999999999
 49
-2.3499999999999979
  0
LTYPE
  2
PHANTOM2
 70
     0
  3
Phantom (.5x) ___ _ _ ___ _ _ ___ _ _ ___ _ _
 72
    65
 73
     6
 40
18.3
 49
7.8
 49
-2.1
 49
2.1
 49
-2.1
 49
2.1
 49
-2.1
  0
LTYPE
  2
CENTER
 70
     0
  3
Center ____ _ ____ _ ____ _ ____ _ ____ _ ____
 72
    65
 73
     4
 40
14.1
 49
7.8
 49
-2.1
 49
2.1
 49
-2.1
  0
ENDTAB
  0
TABLE
  2
LAYER
 70
     8
  0
LAYER
  2
0
 70
    64
 62
     7
  6
CONTINUOUS
  0
LAYER
  2
OBRYS
 70
    64
 62
     2
  6
CONTINUOUS
  0
LAYER
  2
OSA
 70
    64
 62
     7
  6
DASHDOT
  0
LAYER
  2
KOTA
 70
    64
 62
     3
  6
CONTINUOUS
  0
LAYER
  2
SRAFY
 70
    64
 62
     7
  6
CONTINUOUS
  0
LAYER
  2
POMOC
 70
    64
 62
     5
  6
HIDDEN2
  0
LAYER
  2
NEVIDI
 70
    64
 62
     4
  6
DASHED
  0
LAYER
  2
TLUST_
 70
    64
 62
     1
  6
CONTINUOUS
  0
ENDTAB
  0
TABLE
  2
STYLE
 70
     1
  0
STYLE
  2
STANDARD
 70
     0
 40
0.0
 41
1.0
 50
0.0
 71
     0
 42
2.5
  3
txt
  4

  0
ENDTAB
  0
TABLE
  2
VIEW
 70
     0
  0
ENDTAB
  0
TABLE
  2
UCS
 70
     0
  0
ENDTAB
  0
TABLE
  2
APPID
 70
     1
  0
APPID
  2
ACAD
 70
     0
  0
ENDTAB
  0
TABLE
  2
DIMSTYLE
 70
     1
  0
DIMSTYLE
  2
ISO-25
 70
     0
  3

  4

  5

  6

  7

 40
1.0
 41
2.5
 42
0.625
 43
3.75
 44
1.25
 45
0.0
 46
0.0
 47
0.0
 48
0.0
140
2.5
141
2.5
142
0.0
143
0.03937007874016
144
1.0
145
0.0
146
1.0
147
0.625
 71
     0
 72
     0
 73
     0
 74
     0
 75
     0
 76
     0
 77
     1
 78
     8
170
     0
171
     3
172
     1
173
     0
174
     0
175
     0
176
     0
177
     0
178
     0
  0
ENDTAB
  0
ENDSEC
  0
SECTION
  2
BLOCKS
  0
BLOCK
  8
0
  2
$MODEL_SPACE
 70
     0
 10
0.0
 20
0.0
 30
0.0
  3
$MODEL_SPACE
  1

  0
ENDBLK
  8
0
  0
BLOCK
 67
     1
  8
0
  2
$PAPER_SPACE
 70
     0
 10
0.0
 20
0.0
 30
0.0
  3
$PAPER_SPACE
  1

  0
ENDBLK
 67
     1
  8
0
  0
BLOCK
  8
OBRYS
  2
Vnitrni_metricky_zavit_M8_0
 70
   66
 10
533.034751
 20
312.497670
  0
CIRCLE
  8
OBRYS
 10
533.034751
 20
312.497670
 40
3.323500
  0
ARC
  8
OBRYS
 62
     7
 10
533.034751
 20
312.497670
 40
4.000000
 50
355.000000
 51
275.000000
  0
ENDBLK
  8
OBRYS
  0
BLOCK
  8
OBRYS
  2
Vnitrni_metricky_zavit_M8_1
 70
   66
 10
624.958633
 20
312.497670
  0
CIRCLE
  8
OBRYS
 10
624.958633
 20
312.497670
 40
3.323500
  0
ARC
  8
OBRYS
 62
     7
 10
624.958633
 20
312.497670
 40
4.000000
 50
355.000000
 51
275.000000
  0
ENDBLK
  8
OBRYS
  0
BLOCK
  8
OBRYS
  2
Vnitrni_metricky_zavit_M8_2
 70
   66
 10
624.958633
 20
404.421552
  0
CIRCLE
  8
OBRYS
 10
624.958633
 20
404.421552
 40
3.323500
  0
ARC
  8
OBRYS
 62
     7
 10
624.958633
 20
404.421552
 40
4.000000
 50
355.000000
 51
275.000000
  0
ENDBLK
  8
OBRYS
  0
BLOCK
  8
OBRYS
  2
Vnitrni_metricky_zavit_M8_3
 70
   66
 10
533.034751
 20
404.421552
  0
CIRCLE
  8
OBRYS
 10
533.034751
 20
404.421552
 40
3.323500
  0
ARC
  8
OBRYS
 62
     7
 10
533.034751
 20
404.421552
 40
4.000000
 50
355.000000
 51
275.000000
  0
ENDBLK
  8
OBRYS
  0
BLOCK
  8
OBRYS
  2
_4
 70
   64
 10
629.996692
 20
116.732692
  0
LINE
  8
OBRYS
 10
638.606375
 20
183.565387
 11
670.576110
 21
215.825003
  0
LINE
  8
OBRYS
 10
638.993826
 20
177.319130
 11
668.343988
 21
182.494355
  0
ARC
  8
OBRYS
 10
668.996692
 20
113.232692
 40
1.000000
 50
0.000000
 51
90.000000
  0
ARC
  8
OBRYS
 10
668.996692
 20
120.232692
 40
1.000000
 50
270.000000
 51
360.000000
  0
LINE
  8
OBRYS
 10
630.576110
 20
58.003075
 11
670.576110
 21
17.640381
  0
LINE
  8
OBRYS
 10
669.996692
 20
116.732692
 11
669.996692
 21
19.048198
  0
LINE
  8
OBRYS
 10
669.996692
 20
116.732692
 11
669.996692
 21
214.417186
  0
LINE
  8
OBRYS
 10
680.996692
 20
116.732692
 11
680.996692
 21
16.732692
  0
LINE
  8
OBRYS
 10
680.996692
 20
116.732692
 11
680.996692
 21
216.732692
  0
LINE
  8
OBRYS
 10
680.996692
 20
216.732692
 11
671.926893
 21
216.415968
  0
ARC
  8
OBRYS
 10
671.996692
 20
214.417186
 40
2.000000
 50
92.000000
 51
180.000000
  0
LINE
  8
OBRYS
 62
     7
  6
DASHDOT
 10
662.496696
 20
199.232692
 11
688.496688
 21
199.232692
  0
LINE
  8
OBRYS
 62
     7
  6
DASHDOT
 10
622.496696
 20
116.732692
 11
688.496688
 21
116.732692
  0
ARC
  8
OBRYS
 10
667.996692
 20
184.463971
 40
2.000000
 50
280.000000
 51
360.000000
  0
ARC
  8
OBRYS
 10
667.996692
 20
49.001414
 40
2.000000
 50
0.000000
 51
80.000000
  0
LINE
  8
OBRYS
 62
     7
  6
DASHDOT
 10
662.496696
 20
34.232692
 11
688.496688
 21
34.232692
  0
ARC
  8
OBRYS
 10
671.996692
 20
19.048198
 40
2.000000
 50
180.000000
 51
268.000000
  0
LINE
  8
OBRYS
 10
680.996692
 20
16.732692
 11
671.926893
 21
17.049416
  0
LINE
  8
OBRYS
 10
631.649396
 20
57.441276
 11
668.343988
 21
50.971029
  0
ARC
  8
OBRYS
 10
631.996692
 20
59.410891
 40
2.000000
 50
180.000000
 51
260.000000
  0
ARC
  8
OBRYS
 10
679.496692
 20
124.732692
 40
2.000000
 50
90.000000
 51
180.000000
  0
LINE
  8
OBRYS
 10
677.496692
 20
108.732692
 11
677.496692
 21
124.732692
  0
ARC
  8
OBRYS
 10
679.496692
 20
108.732692
 40
2.000000
 50
180.000000
 51
270.000000
  0
LINE
  8
OBRYS
 10
679.496692
 20
126.732692
 11
680.996692
 21
126.732692
  0
LINE
  8
OBRYS
 10
679.496692
 20
106.732692
 11
680.996692
 21
106.732692
  0
ARC
  8
OBRYS
 10
635.996692
 20
71.395015
 40
1.000000
 50
264.291262
 51
360.000000
  0
LINE
  8
OBRYS
 10
633.374169
 20
70.652198
 11
635.897220
 21
70.399975
  0
LINE
  8
OBRYS
 10
629.996692
 20
66.784804
 11
629.996692
 21
59.410891
  0
LINE
  8
OBRYS
 10
636.996692
 20
75.540856
 11
636.996692
 21
71.395015
  0
LINE
  8
OBRYS
 10
668.996692
 20
119.232692
 11
648.851899
 21
119.232692
  0
LINE
  8
OBRYS
 10
668.996692
 20
114.232692
 11
648.994906
 21
114.232692
  0
ENDBLK
  8
OBRYS
  0
BLOCK
  8
OBRYS
  2
_5
 70
   64
 10
578.996692
 20
176.732692
  0
INSERT
  8
OBRYS
  2
Srouby_s_valcovou_hlavou___1
 62
     7
 10
578.996692
 20
236.732692
  0
INSERT
  8
OBRYS
  2
Srouby_s_valcovou_hlavou___2
 62
     7
 10
578.996692
 20
86.732692
  0
INSERT
  8
OBRYS
  2
Srouby_s_valcovou_hlavou___3
 62
     7
 10
630.958216
 20
146.732692
  0
INSERT
  8
OBRYS
  2
Srouby_s_valcovou_hlavou___4
 62
     7
 10
527.035168
 20
146.732692
  0
INSERT
  8
OBRYS
  2
Srouby_s_valcovou_hlavou___5
 62
     7
 10
527.035168
 20
206.732692
  0
INSERT
  8
OBRYS
  2
Srouby_s_valcovou_hlavou___6
 62
     7
 10
630.958216
 20
206.732692
  0
LINE
  8
OSA
 10
554.996692
 20
100.732692
 11
554.996692
 21
108.732692
  0
LINE
  8
OSA
 10
505.677818
 20
114.732692
 11
653.131792
 21
114.732692
  0
LINE
  8
OSA
 10
515.742936
 20
176.732692
 11
643.066675
 21
176.732692
  0
LINE
  8
OSA
 10
578.996692
 20
248.078745
 11
578.996692
 21
40.737321
  0
LINE
  8
OSA
 10
612.623523
 20
81.105861
 11
628.850192
 21
64.879192
  0
LINE
  8
OSA
 10
531.846807
 20
161.882577
 11
542.724025
 21
151.005359
  0
LINE
  8
OSA
 10
531.055404
 20
66.791404
 11
545.677238
 21
81.413238
  0
LINE
  8
OSA
 10
613.971901
 20
149.707901
 11
625.919009
 21
161.655009
  0
INSERT
  8
OBRYS
  2
Vnitrni_metricky_zavit_M8__7
 62
     7
 10
619.655332
 20
155.391332
  0
INSERT
  8
OBRYS
  2
Vnitrni_metricky_zavit_M8__8
 62
     7
 10
538.338052
 20
155.391332
  0
CIRCLE
  8
OBRYS
 10
538.338052
 20
74.074052
 40
4.500000
  0
CIRCLE
  8
OBRYS
 10
619.655332
 20
74.074052
 40
4.500000
  0
CIRCLE
  8
OSA
 10
578.996692
 20
114.732692
 40
57.500000
  0
CIRCLE
  8
OBRYS
 10
527.035168
 20
206.732692
 40
5.000000
  0
CIRCLE
  8
OBRYS
 10
578.996692
 20
236.732692
 40
5.000000
  0
CIRCLE
  8
OBRYS
 10
630.958216
 20
206.732692
 40
5.000000
  0
LINE
  8
OBRYS
 10
556.268617
 20
131.051224
 11
556.533884
 21
131.448621
  0
LINE
  8
OBRYS
 10
542.504159
 20
141.026607
 11
543.133384
 21
141.913994
  0
LINE
  8
OBRYS
 10
615.665968
 20
140.816484
 11
616.126661
 21
140.242918
  0
ARC
  8
OBRYS
 10
608.780384
 20
135.967148
 40
8.500000
 50
214.445674
 51
294.117511
  0
ARC
  8
OBRYS
 10
608.780384
 20
135.967148
 40
8.500000
 50
0.000000
 51
30.200786
  0
ARC
  8
OBRYS
 10
578.996692
 20
114.732692
 40
45.000000
 50
35.425214
 51
142.841004
  0
ARC
  8
OBRYS
 10
578.996692
 20
114.732692
 40
28.000000
 50
35.315423
 51
143.187187
  0
ARC
  8
OBRYS
 10
549.334377
 20
135.967148
 40
8.500000
 50
238.024118
 51
324.665849
  0
ARC
  8
OBRYS
 10
549.334377
 20
135.967148
 40
8.500000
 50
143.470940
 51
238.024118
  0
ARC
  8
OBRYS
 10
608.780384
 20
135.967148
 40
8.500000
 50
294.117511
 51
360.000000
  0
ARC
  8
OBRYS
 10
578.996692
 20
176.732692
 40
60.000000
 50
340.005162
 51
21.101147
  0
ARC
  8
OBRYS
 10
578.996692
 20
176.732692
 40
60.000000
 50
180.000000
 51
199.994838
  0
CIRCLE
  8
OBRYS
 10
527.035168
 20
146.732692
 40
5.000000
  0
CIRCLE
  8
OBRYS
 10
630.958216
 20
146.732692
 40
5.000000
  0
CIRCLE
  8
OBRYS
 10
578.996692
 20
114.732692
 40
47.500000
  0
CIRCLE
  8
OBRYS
 10
578.996694
 20
86.732692
 40
5.000000
  0
CIRCLE
  8
OBRYS
 10
578.996692
 20
114.732692
 40
70.000000
  0
ARC
  8
OBRYS
 10
527.035168
 20
206.732692
 40
7.000000
 50
122.047113
 51
180.000000
  0
LINE
  8
OSA
 10
578.996694
 20
86.732692
 11
578.996694
 21
79.082692
  0
LINE
  8
OSA
 10
578.996694
 20
86.732692
 11
578.996694
 21
94.382692
  0
LINE
  8
OSA
 10
578.996694
 20
86.732692
 11
586.646694
 21
86.732692
  0
LINE
  8
OSA
 10
578.996694
 20
86.732692
 11
571.346694
 21
86.732692
  0
LINE
  8
OSA
 10
578.996692
 20
236.732692
 11
578.996692
 21
229.082692
  0
LINE
  8
OSA
 10
578.996692
 20
236.732692
 11
578.996692
 21
244.382692
  0
LINE
  8
OSA
 10
578.996692
 20
236.732692
 11
586.646692
 21
236.732692
  0
LINE
  8
OSA
 10
578.996692
 20
236.732692
 11
571.346692
 21
236.732692
  0
LINE
  8
OSA
 10
630.958216
 20
206.732692
 11
630.958216
 21
199.082692
  0
LINE
  8
OSA
 10
630.958216
 20
206.732692
 11
630.958216
 21
214.382692
  0
LINE
  8
OSA
 10
630.958216
 20
206.732692
 11
638.608216
 21
206.732692
  0
LINE
  8
OSA
 10
630.958216
 20
206.732692
 11
623.308216
 21
206.732692
  0
LINE
  8
OSA
 10
630.958216
 20
146.732692
 11
630.958216
 21
139.082692
  0
LINE
  8
OSA
 10
630.958216
 20
146.732692
 11
630.958216
 21
154.382692
  0
LINE
  8
OSA
 10
630.958216
 20
146.732692
 11
638.608216
 21
146.732692
  0
LINE
  8
OSA
 10
630.958216
 20
146.732692
 11
623.308216
 21
146.732692
  0
LINE
  8
OSA
 10
527.035168
 20
146.732692
 11
527.035168
 21
139.082692
  0
LINE
  8
OSA
 10
527.035168
 20
146.732692
 11
527.035168
 21
154.382692
  0
LINE
  8
OSA
 10
527.035168
 20
146.732692
 11
534.685168
 21
146.732692
  0
LINE
  8
OSA
 10
527.035168
 20
146.732692
 11
519.385168
 21
146.732692
  0
LINE
  8
OSA
 10
527.035168
 20
206.732692
 11
527.035168
 21
199.082692
  0
LINE
  8
OSA
 10
527.035168
 20
206.732692
 11
527.035168
 21
214.382692
  0
LINE
  8
OSA
 10
527.035168
 20
206.732692
 11
534.685168
 21
206.732692
  0
LINE
  8
OSA
 10
527.035168
 20
206.732692
 11
519.385168
 21
206.732692
  0
ARC
  8
OBRYS
 10
578.996692
 20
236.732692
 40
7.000000
 50
12.953880
 51
167.046120
  0
ARC
  8
OBRYS
 10
578.996692
 20
176.732692
 40
60.000000
 50
158.898853
 51
180.000000
  0
ARC
  8
OBRYS
 10
520.221073
 20
199.413668
 40
3.000000
 50
338.898853
 51
47.046120
  0
ARC
  8
OBRYS
 10
637.772311
 20
199.413668
 40
3.000000
 50
132.953880
 51
201.101147
  0
ARC
  8
OBRYS
 10
588.742200
 20
238.974359
 40
3.000000
 50
192.953880
 51
261.101147
  0
ARC
  8
OBRYS
 10
569.251184
 20
238.974359
 40
3.000000
 50
278.898853
 51
347.046120
  0
ARC
  8
OBRYS
 10
578.996692
 20
114.732692
 40
21.000000
 50
239.612032
 51
180.000000
  0
ARC
  8
OBRYS
 10
578.996692
 20
114.732692
 40
21.000000
 50
180.000000
 51
239.612032
  0
ARC
  8
OBRYS
 10
578.996692
 20
114.732692
 40
81.000000
 50
42.650065
 51
137.349935
  0
LINE
  8
OSA
 10
616.996692
 20
221.732692
 11
616.996692
 21
213.732692
  0
LINE
  8
OSA
 10
616.996692
 20
221.732692
 11
616.996692
 21
229.732692
  0
LINE
  8
OSA
 10
616.996692
 20
221.732692
 11
624.996692
 21
221.732692
  0
LINE
  8
OSA
 10
616.996692
 20
221.732692
 11
608.996692
 21
221.732692
  0
ARC
  8
OBRYS
 10
616.996692
 20
221.732692
 40
5.000000
 50
48.547337
 51
70.783336
  0
ARC
  8
OBRYS
 10
578.996692
 20
176.732692
 40
60.000000
 50
70.783336
 51
81.101147
  0
LINE
  8
TLUST_
 62
     2
 10
598.745170
 20
233.389533
 11
618.642398
 21
226.454095
  0
LINE
  8
TLUST_
 62
     2
 10
635.592224
 20
211.979212
 11
620.306697
 21
225.480207
  0
CIRCLE
  8
OBRYS
 10
616.996692
 20
221.732692
 40
3.000000
  0
ARC
  8
OBRYS
 10
630.958216
 20
206.732692
 40
7.000000
 50
312.953878
 51
40.000000
  0
LINE
  8
OBRYS
 10
635.592224
 20
211.979212
 11
636.320527
 21
211.232205
  0
CIRCLE
  8
OBRYS
 10
554.996692
 20
100.732692
 40
3.000000
  0
LINE
  8
OSA
 10
554.996692
 20
100.732692
 11
546.996692
 21
100.732692
  0
LINE
  8
OSA
 10
554.996692
 20
100.732692
 11
562.996692
 21
100.732692
  0
LINE
  8
OSA
 10
554.996692
 20
100.732692
 11
554.996692
 21
92.732692
  0
LINE
  8
OBRYS
 10
522.401160
 20
211.979212
 11
521.672857
 21
211.232205
  0
ARC
  8
OBRYS
 10
527.035168
 20
206.732692
 40
7.000000
 50
140.000000
 51
227.046122
  0
LINE
  8
TLUST_
 62
     2
 10
522.401160
 20
211.979212
 11
537.686687
 21
225.480207
  0
LINE
  8
TLUST_
 62
     2
 10
559.248214
 20
233.389533
 11
539.350985
 21
226.454095
  0
ARC
  8
OBRYS
 10
578.996692
 20
176.732692
 40
60.000000
 50
98.898853
 51
109.216664
  0
ARC
  8
OBRYS
 10
540.996692
 20
221.732692
 40
5.000000
 50
109.216664
 51
131.452663
  0
CIRCLE
  8
OBRYS
 10
578.996692
 20
114.732692
 40
12.500000
  0
ARC
  8
OBRYS
 10
578.996692
 20
114.732692
 40
5.500000
 50
110.654018
 51
68.003576
  0
LINE
  8
OBRYS
 10
581.056710
 20
119.832332
 11
581.056710
 21
121.921653
  0
LINE
  8
OBRYS
 10
577.056710
 20
119.879193
 11
577.056710
 21
121.921653
  0
LINE
  8
OBRYS
 10
577.056710
 20
121.921653
 11
581.056710
 21
121.921653
  0
ARC
  8
OBRYS
 10
578.996692
 20
114.732692
 40
6.654700
 50
106.949013
 51
71.967383
  0
ENDBLK
  8
OBRYS
  0
BLOCK
  8
OBRYS
  2
Srouby_s_valcovou_hlavou___1
 70
   66
 10
578.996692
 20
236.732692
  0
LINE
  8
OBRYS
 10
576.996692
 20
235.577984
 11
576.996692
 21
237.887400
  0
LINE
  8
OBRYS
 10
576.996692
 20
237.887400
 11
578.996692
 21
239.042108
  0
LINE
  8
OBRYS
 10
578.996692
 20
239.042108
 11
580.996692
 21
237.887400
  0
LINE
  8
OBRYS
 10
580.996692
 20
237.887400
 11
580.996692
 21
235.577984
  0
LINE
  8
OBRYS
 10
580.996692
 20
235.577984
 11
578.996692
 21
234.423277
  0
LINE
  8
OBRYS
 10
578.996692
 20
234.423277
 11
576.996692
 21
235.577984
  0
CIRCLE
  8
OBRYS
 10
578.996692
 20
236.732692
 40
2.309415
  0
CIRCLE
  8
OBRYS
 10
578.996692
 20
236.732692
 40
4.250000
  0
ENDBLK
  8
OBRYS
  0
BLOCK
  8
OBRYS
  2
Srouby_s_valcovou_hlavou___2
 70
   66
 10
578.996692
 20
86.732692
  0
LINE
  8
OBRYS
 10
576.996692
 20
85.577984
 11
576.996692
 21
87.887400
  0
LINE
  8
OBRYS
 10
576.996692
 20
87.887400
 11
578.996692
 21
89.042108
  0
LINE
  8
OBRYS
 10
578.996692
 20
89.042108
 11
580.996692
 21
87.887400
  0
LINE
  8
OBRYS
 10
580.996692
 20
87.887400
 11
580.996692
 21
85.577984
  0
LINE
  8
OBRYS
 10
580.996692
 20
85.577984
 11
578.996692
 21
84.423277
  0
LINE
  8
OBRYS
 10
578.996692
 20
84.423277
 11
576.996692
 21
85.577984
  0
CIRCLE
  8
OBRYS
 10
578.996692
 20
86.732692
 40
2.309415
  0
CIRCLE
  8
OBRYS
 10
578.996692
 20
86.732692
 40
4.250000
  0
ENDBLK
  8
OBRYS
  0
BLOCK
  8
OBRYS
  2
Srouby_s_valcovou_hlavou___3
 70
   66
 10
630.958216
 20
146.732692
  0
LINE
  8
OBRYS
 10
628.958216
 20
145.577984
 11
628.958216
 21
147.887400
  0
LINE
  8
OBRYS
 10
628.958216
 20
147.887400
 11
630.958216
 21
149.042108
  0
LINE
  8
OBRYS
 10
630.958216
 20
149.042108
 11
632.958216
 21
147.887400
  0
LINE
  8
OBRYS
 10
632.958216
 20
147.887400
 11
632.958216
 21
145.577984
  0
LINE
  8
OBRYS
 10
632.958216
 20
145.577984
 11
630.958216
 21
144.423277
  0
LINE
  8
OBRYS
 10
630.958216
 20
144.423277
 11
628.958216
 21
145.577984
  0
CIRCLE
  8
OBRYS
 10
630.958216
 20
146.732692
 40
2.309415
  0
CIRCLE
  8
OBRYS
 10
630.958216
 20
146.732692
 40
4.250000
  0
ENDBLK
  8
OBRYS
  0
BLOCK
  8
OBRYS
  2
Srouby_s_valcovou_hlavou___4
 70
   66
 10
527.035168
 20
146.732692
  0
LINE
  8
OBRYS
 10
525.035168
 20
145.577984
 11
525.035168
 21
147.887400
  0
LINE
  8
OBRYS
 10
525.035168
 20
147.887400
 11
527.035168
 21
149.042108
  0
LINE
  8
OBRYS
 10
527.035168
 20
149.042108
 11
529.035168
 21
147.887400
  0
LINE
  8
OBRYS
 10
529.035168
 20
147.887400
 11
529.035168
 21
145.577984
  0
LINE
  8
OBRYS
 10
529.035168
 20
145.577984
 11
527.035168
 21
144.423277
  0
LINE
  8
OBRYS
 10
527.035168
 20
144.423277
 11
525.035168
 21
145.577984
  0
CIRCLE
  8
OBRYS
 10
527.035168
 20
146.732692
 40
2.309415
  0
CIRCLE
  8
OBRYS
 10
527.035168
 20
146.732692
 40
4.250000
  0
ENDBLK
  8
OBRYS
  0
BLOCK
  8
OBRYS
  2
Srouby_s_valcovou_hlavou___5
 70
   66
 10
527.035168
 20
206.732692
  0
LINE
  8
OBRYS
 10
525.035168
 20
205.577984
 11
525.035168
 21
207.887400
  0
LINE
  8
OBRYS
 10
525.035168
 20
207.887400
 11
527.035168
 21
209.042108
  0
LINE
  8
OBRYS
 10
527.035168
 20
209.042108
 11
529.035168
 21
207.887400
  0
LINE
  8
OBRYS
 10
529.035168
 20
207.887400
 11
529.035168
 21
205.577984
  0
LINE
  8
OBRYS
 10
529.035168
 20
205.577984
 11
527.035168
 21
204.423277
  0
LINE
  8
OBRYS
 10
527.035168
 20
204.423277
 11
525.035168
 21
205.577984
  0
CIRCLE
  8
OBRYS
 10
527.035168
 20
206.732692
 40
2.309415
  0
CIRCLE
  8
OBRYS
 10
527.035168
 20
206.732692
 40
4.250000
  0
ENDBLK
  8
OBRYS
  0
BLOCK
  8
OBRYS
  2
Srouby_s_valcovou_hlavou___6
 70
   66
 10
630.958216
 20
206.732692
  0
LINE
  8
OBRYS
 10
628.958216
 20
205.577984
 11
628.958216
 21
207.887400
  0
LINE
  8
OBRYS
 10
628.958216
 20
207.887400
 11
630.958216
 21
209.042108
  0
LINE
  8
OBRYS
 10
630.958216
 20
209.042108
 11
632.958216
 21
207.887400
  0
LINE
  8
OBRYS
 10
632.958216
 20
207.887400
 11
632.958216
 21
205.577984
  0
LINE
  8
OBRYS
 10
632.958216
 20
205.577984
 11
630.958216
 21
204.423277
  0
LINE
  8
OBRYS
 10
630.958216
 20
204.423277
 11
628.958216
 21
205.577984
  0
CIRCLE
  8
OBRYS
 10
630.958216
 20
206.732692
 40
2.309415
  0
CIRCLE
  8
OBRYS
 10
630.958216
 20
206.732692
 40
4.250000
  0
ENDBLK
  8
OBRYS
  0
BLOCK
  8
OBRYS
  2
Vnitrni_metricky_zavit_M8__7
 70
   66
 10
619.655332
 20
155.391332
  0
CIRCLE
  8
OBRYS
 10
619.655332
 20
155.391332
 40
3.323500
  0
ARC
  8
OBRYS
 62
     7
 10
619.655332
 20
155.391332
 40
4.000000
 50
355.000000
 51
275.000000
  0
ENDBLK
  8
OBRYS
  0
BLOCK
  8
OBRYS
  2
Vnitrni_metricky_zavit_M8__8
 70
   66
 10
538.338052
 20
155.391332
  0
CIRCLE
  8
OBRYS
 10
538.338052
 20
155.391332
 40
3.323500
  0
ARC
  8
OBRYS
 62
     7
 10
538.338052
 20
155.391332
 40
4.000000
 50
355.000000
 51
275.000000
  0
ENDBLK
  8
OBRYS
  0
BLOCK
  8
OSA
  2
_6
 70
   64
 10
578.996692
 20
176.732692
  0
LINE
  8
OSA
 62
     2
  6
CONTINUOUS
 10
616.996692
 20
55.944938
 11
616.996692
 21
46.732692
  0
LINE
  8
OSA
 62
     2
  6
CONTINUOUS
 10
545.996692
 20
44.677903
 11
540.114427
 21
44.677903
  0
ARC
  8
OSA
 62
     2
  6
CONTINUOUS
 10
545.996692
 20
47.677903
 40
3.000000
 50
270.000000
 51
360.000000
  0
LINE
  8
OSA
 62
     2
  6
CONTINUOUS
 10
616.996692
 20
44.677903
 11
611.996692
 21
44.677903
  0
ARC
  8
OSA
 62
     2
  6
CONTINUOUS
 10
611.996692
 20
47.677903
 40
3.000000
 50
180.000000
 51
270.000000
  0
LINE
  8
OSA
 10
578.996692
 20
176.732692
 11
578.996692
 21
46.732692
  0
LINE
  8
OSA
 62
     2
  6
CONTINUOUS
 10
548.996692
 20
51.487139
 11
548.996692
 21
47.677903
  0
LINE
  8
OSA
 62
     2
  6
CONTINUOUS
 10
608.996692
 20
51.487139
 11
608.996692
 21
47.677903
  0
ENDBLK
  8
OSA
  0
BLOCK
  8
OSA
  2
_7
 70
   64
 10
616.996692
 20
114.732692
  0
ARC
  8
OSA
 62
     2
  6
CONTINUOUS
 10
625.996692
 20
48.904265
 40
2.000000
 50
135.000000
 51
180.000000
  0
LINE
  8
OSA
 62
     2
  6
CONTINUOUS
 10
629.996692
 20
55.732692
 11
624.582478
 21
50.318478
  0
ARC
  8
OSA
 62
     2
  6
CONTINUOUS
 10
625.996692
 20
48.904265
 40
2.000000
 50
135.000000
 51
180.000000
  0
LINE
  8
OSA
 62
     2
  6
CONTINUOUS
 10
617.878957
 20
44.732692
 11
622.066491
 21
44.992739
  0
ARC
  8
OSA
 62
     2
  6
CONTINUOUS
 10
625.996692
 20
48.904265
 40
2.000000
 50
135.000000
 51
180.000000
  0
ARC
  8
OSA
 62
     2
  6
CONTINUOUS
 10
621.996692
 20
46.991521
 40
2.000000
 50
272.000000
 51
360.000000
  0
LINE
  8
OSA
 62
     2
  6
CONTINUOUS
 10
623.996692
 20
46.991521
 11
623.996692
 21
61.113666
  0
LINE
  8
OSA
 62
     2
  6
CONTINUOUS
 10
616.996692
 20
55.944938
 11
616.996692
 21
44.732692
  0
LINE
  8
OSA
 62
     2
  6
CONTINUOUS
 10
629.996692
 20
66.784804
 11
629.996692
 21
55.732692
  0
ENDBLK
  8
OSA
  0
BLOCK
  8
OSA
  2
_8
 70
   64
 10
540.996692
 20
114.732692
  0
LINE
  8
OSA
 62
     2
  6
CONTINUOUS
 10
527.996692
 20
66.784804
 11
527.996692
 21
55.732692
  0
LINE
  8
OSA
 62
     2
  6
CONTINUOUS
 10
533.996692
 20
46.991521
 11
533.996692
 21
61.113666
  0
ARC
  8
OSA
 62
     2
  6
CONTINUOUS
 10
535.996692
 20
46.991521
 40
2.000000
 50
180.000000
 51
268.000000
  0
ARC
  8
OSA
 62
     2
  6
CONTINUOUS
 10
531.996692
 20
48.904265
 40
2.000000
 50
0.000000
 51
45.000000
  0
LINE
  8
OSA
 62
     2
  6
CONTINUOUS
 10
540.114427
 20
44.732692
 11
535.926893
 21
44.992739
  0
ARC
  8
OSA
 62
     2
  6
CONTINUOUS
 10
531.996692
 20
48.904265
 40
2.000000
 50
0.000000
 51
45.000000
  0
LINE
  8
OSA
 62
     2
  6
CONTINUOUS
 10
527.996692
 20
55.732692
 11
533.410906
 21
50.318478
  0
ARC
  8
OSA
 62
     2
  6
CONTINUOUS
 10
531.996692
 20
48.904265
 40
2.000000
 50
0.000000
 51
45.000000
  0
ENDBLK
  8
OSA
  0
BLOCK
  8
OBRYS
  2
_9
 70
   64
 10
924.519696
 20
176.732692
  0
ARC
  8
OBRYS
 10
967.674424
 20
76.732692
 40
3.000000
 50
0.000000
 51
90.000000
  0
LINE
  8
OBRYS
 10
957.519696
 20
79.732692
 11
967.674424
 21
79.732692
  0
ARC
  8
OBRYS
 10
973.674424
 20
47.732692
 40
3.000000
 50
180.000000
 51
270.000000
  0
LINE
  8
OBRYS
 10
973.674424
 20
44.732692
 11
979.674424
 21
44.732692
  0
LINE
  8
OBRYS
 10
974.039854
 20
184.732692
 11
979.674424
 21
184.732692
  0
LINE
  8
OBRYS
 10
979.674424
 20
184.732692
 11
979.674424
 21
44.732692
  0
ARC
  8
OBRYS
 10
974.039854
 20
187.732692
 40
3.000000
 50
208.703409
 51
270.000000
  0
LINE
  8
OBRYS
 10
966.888344
 20
194.546935
 11
971.408501
 21
186.291865
  0
ARC
  8
OBRYS
 10
969.519696
 20
195.987762
 40
3.000000
 50
180.000000
 51
208.703409
  0
LINE
  8
OBRYS
 10
966.519696
 20
195.987762
 11
966.519696
 21
240.732692
  0
ARC
  8
OBRYS
 10
963.519696
 20
240.732692
 40
3.000000
 50
0.000000
 51
90.000000
  0
LINE
  8
OBRYS
 10
963.519696
 20
243.732692
 11
957.519696
 21
243.732692
  0
LINE
  8
OBRYS
 62
     7
  6
DASHDOT
 10
960.519696
 20
114.732692
 11
981.674424
 21
114.732692
  0
ARC
  8
OBRYS
 10
926.519696
 20
220.936954
 40
3.000000
 50
300.404895
 51
360.000000
  0
LINE
  8
OBRYS
 10
924.519696
 20
216.284951
 11
928.038019
 21
218.349542
  0
LINE
  8
OBRYS
 62
     7
 10
936.412256
 20
79.809714
 11
936.430753
 21
79.791218
  0
LINE
  8
OBRYS
 62
     7
 10
936.430753
 20
79.791218
 11
936.412256
 21
79.809714
  0
LINE
  8
OBRYS
 10
957.519696
 20
79.732692
 11
937.519696
 21
79.732692
  0
ARC
  8
OBRYS
 10
937.519696
 20
87.732692
 40
8.000000
 50
180.000000
 51
270.000000
  0
ARC
  8
OBRYS
 10
926.519696
 20
95.260556
 40
3.000000
 50
0.000000
 51
48.189685
  0
ARC
  8
OBRYS
 10
930.519696
 20
99.732692
 40
3.000000
 50
180.000000
 51
228.189685
  0
ARC
  8
OBRYS
 10
932.519696
 20
231.602292
 40
3.000000
 50
140.254334
 51
180.000000
  0
LINE
  8
OBRYS
 10
930.213026
 20
233.520435
 11
937.805531
 21
242.650835
  0
LINE
  8
OBRYS
 62
     7
  6
DASHDOT
 10
956.566176
 20
114.732692
 11
957.519696
 21
114.732692
  0
LINE
  8
OBRYS
 62
     7
  6
DASHDOT
 10
932.519696
 20
114.732692
 11
949.667668
 21
114.732692
  0
LINE
  8
OBRYS
 62
     7
  6
DASHDOT
 10
919.519696
 20
176.732692
 11
957.519696
 21
176.732692
  0
LINE
  8
OBRYS
 10
957.519696
 20
243.732692
 11
940.112201
 21
243.732692
  0
ARC
  8
OBRYS
 10
940.112201
 20
240.732692
 40
3.000000
 50
90.000000
 51
140.254334
  0
LINE
  8
OBRYS
 10
924.519696
 20
176.732692
 11
924.519696
 21
137.246376
  0
LINE
  8
OBRYS
 10
924.519696
 20
216.284951
 11
924.519696
 21
176.732692
  0
LINE
  8
OBRYS
 10
929.519696
 20
231.602292
 11
929.519696
 21
176.732692
  0
LINE
  8
OBRYS
 10
929.519696
 20
87.732692
 11
929.519696
 21
176.732692
  0
LINE
  8
OBRYS
 10
924.519696
 20
137.180433
 11
927.519696
 21
134.180433
  0
LINE
  8
OBRYS
 10
927.519696
 20
99.732692
 11
927.519696
 21
134.180433
  0
LINE
  8
OBRYS
 10
966.519696
 20
226.130684
 11
940.112201
 21
226.130684
  0
LINE
  8
OBRYS
 10
966.519696
 20
236.010469
 11
940.112201
 21
236.010469
  0
LINE
  8
OBRYS
 10
953.519696
 20
196.400603
 11
931.996725
 21
196.400603
  0
LINE
  8
OBRYS
 10
966.519696
 20
201.609377
 11
954.519696
 21
201.609377
  0
LINE
  8
OBRYS
 10
970.674424
 20
184.732692
 11
970.674424
 21
47.732692
  0
LINE
  8
OBRYS
 10
953.519696
 20
200.609377
 11
953.519696
 21
157.064782
  0
LINE
  8
OBRYS
 10
970.674424
 20
157.064782
 11
931.996725
 21
157.064782
  0
LINE
  8
OBRYS
 10
957.519696
 20
243.732692
 11
957.519696
 21
79.732692
  0
LINE
  8
OBRYS
 10
970.674424
 20
139.751383
 11
931.996725
 21
139.751383
  0
LINE
  8
OBRYS
 10
952.519696
 20
82.850461
 11
933.416502
 21
82.850461
  0
LINE
  8
OBRYS
 10
953.519696
 20
138.751383
 11
953.519696
 21
83.850461
  0
ENDBLK
  8
OBRYS
  0
BLOCK
  8
OBRYS
  2
_10
 70
   64
 10
846.519696
 20
116.732692
  0
LINE
  8
OBRYS
 10
924.519696
 20
176.732692
 11
924.519696
 21
137.246376
  0
LINE
  8
OBRYS
 10
924.519696
 20
176.732692
 11
924.519696
 21
216.219008
  0
LINE
  8
OBRYS
 62
     7
  6
DASHDOT
 10
846.519696
 20
116.732692
 11
809.918851
 21
153.333537
  0
LINE
  8
OBRYS
 62
     7
  6
DASHDOT
 10
846.519696
 20
116.732692
 11
810.173636
 21
80.386632
  0
LINE
  8
OBRYS
 62
     7
  6
DASHDOT
 10
846.519696
 20
116.732692
 11
881.873136
 21
81.379252
  0
LINE
  8
OBRYS
 62
     7
  6
DASHDOT
 10
846.519696
 20
116.732692
 11
883.116304
 21
153.329300
  0
CIRCLE
  8
OBRYS
 10
846.519696
 20
116.732692
 40
27.500000
  0
CIRCLE
  8
OBRYS
 10
846.519696
 20
116.732692
 40
20.000000
  0
LINE
  8
OBRYS
 10
842.519696
 20
132.532692
 11
842.519696
 21
128.575411
  0
LINE
  8
OBRYS
 10
846.519696
 20
132.532692
 11
842.519696
 21
132.532692
  0
LINE
  8
OBRYS
 10
850.519696
 20
132.532692
 11
850.519696
 21
128.575411
  0
ARC
  8
OBRYS
 10
846.519696
 20
116.732692
 40
12.500000
 50
108.662925
 51
71.337075
  0
LINE
  8
OBRYS
 10
846.519696
 20
132.532692
 11
850.519696
 21
132.532692
  0
LINE
  8
OBRYS
 10
924.519696
 20
216.186139
 11
896.626687
 21
216.186139
  0
LINE
  8
OBRYS
 10
895.696098
 20
215.415160
 11
924.519696
 21
215.415160
  0
LINE
  8
OBRYS
 10
895.459804
 20
198.672002
 11
924.519696
 21
198.672002
  0
LINE
  8
OBRYS
 10
895.643296
 20
193.475850
 11
924.519696
 21
193.475850
  0
LINE
  8
OBRYS
 10
888.806100
 20
211.732692
 11
804.233293
 21
211.732692
  0
LINE
  8
OBRYS
 10
888.806100
 20
172.516741
 11
888.806100
 21
211.732692
  0
LINE
  8
OBRYS
 10
888.806100
 20
211.732692
 11
896.519696
 21
216.186139
  0
POLYLINE
  8
OBRYS
 66
    1
  0
VERTEX
  8
OBRYS
 10
896.519714
 20
216.186127
  0
VERTEX
  8
OBRYS
 10
896.626648
 20
216.186127
  0
VERTEX
  8
OBRYS
 10
896.384277
 20
215.925354
  0
VERTEX
  8
OBRYS
 10
895.696106
 20
215.415161
  0
VERTEX
  8
OBRYS
 10
892.203613
 20
212.984039
  0
VERTEX
  8
OBRYS
 10
889.329163
 20
209.347504
  0
VERTEX
  8
OBRYS
 10
888.936157
 20
205.896576
  0
VERTEX
  8
OBRYS
 10
890.944580
 20
202.354462
  0
VERTEX
  8
OBRYS
 10
895.459778
 20
198.671997
  0
VERTEX
  8
OBRYS
 10
895.676941
 20
198.381531
  0
VERTEX
  8
OBRYS
 10
896.254333
 20
197.934723
  0
VERTEX
  8
OBRYS
 10
896.777832
 20
197.002563
  0
VERTEX
  8
OBRYS
 10
896.849304
 20
195.916260
  0
VERTEX
  8
OBRYS
 10
896.465515
 20
194.723328
  0
VERTEX
  8
OBRYS
 10
895.643311
 20
193.475861
  0
VERTEX
  8
OBRYS
 10
893.800842
 20
191.230164
  0
VERTEX
  8
OBRYS
 10
889.993713
 20
183.694641
  0
VERTEX
  8
OBRYS
 10
888.806091
 20
176.732697
  0
VERTEX
  8
OBRYS
 10
889.634033
 20
171.879333
  0
SEQEND
  8
OBRYS
  0
POLYLINE
  8
OBRYS
 66
    1
  0
VERTEX
  8
OBRYS
 10
796.519714
 20
216.186127
  0
VERTEX
  8
OBRYS
 10
796.412720
 20
216.186127
  0
VERTEX
  8
OBRYS
 10
796.655090
 20
215.925354
  0
VERTEX
  8
OBRYS
 10
797.343262
 20
215.415161
  0
VERTEX
  8
OBRYS
 10
800.835815
 20
212.984039
  0
VERTEX
  8
OBRYS
 10
803.710205
 20
209.347504
  0
VERTEX
  8
OBRYS
 10
804.103210
 20
205.896576
  0
VERTEX
  8
OBRYS
 10
802.094788
 20
202.354462
  0
VERTEX
  8
OBRYS
 10
797.579590
 20
198.671997
  0
VERTEX
  8
OBRYS
 10
797.362427
 20
198.381531
  0
VERTEX
  8
OBRYS
 10
796.785034
 20
197.934723
  0
VERTEX
  8
OBRYS
 10
796.261536
 20
197.002563
  0
VERTEX
  8
OBRYS
 10
796.190063
 20
195.916260
  0
VERTEX
  8
OBRYS
 10
796.573853
 20
194.723328
  0
VERTEX
  8
OBRYS
 10
797.396057
 20
193.475861
  0
VERTEX
  8
OBRYS
 10
799.238525
 20
191.230164
  0
VERTEX
  8
OBRYS
 10
803.045654
 20
183.694641
  0
VERTEX
  8
OBRYS
 10
804.233276
 20
176.732697
  0
VERTEX
  8
OBRYS
 10
803.405334
 20
171.879333
  0
SEQEND
  8
OBRYS
  0
LINE
  8
OBRYS
 10
804.233293
 20
172.516741
 11
804.233293
 21
211.732692
  0
LINE
  8
OBRYS
 10
797.343295
 20
215.415160
 11
771.519696
 21
215.415160
  0
LINE
  8
OBRYS
 10
771.519696
 20
216.186139
 11
796.412706
 21
216.186139
  0
LINE
  8
OBRYS
 10
797.579588
 20
198.672002
 11
771.519696
 21
198.672002
  0
LINE
  8
OBRYS
 10
797.396097
 20
193.475850
 11
771.519696
 21
193.475850
  0
LINE
  8
OBRYS
 10
804.233293
 20
211.732692
 11
796.519696
 21
216.186139
  0
LINE
  8
OBRYS
 10
924.519696
 20
137.279245
 11
913.436355
 21
137.279245
  0
LINE
  8
OBRYS
 10
924.519696
 20
216.186139
 11
924.519696
 21
137.279245
  0
LINE
  8
OBRYS
 10
913.194750
 20
138.050224
 11
924.519696
 21
138.050224
  0
LINE
  8
OBRYS
 10
905.268176
 20
154.793382
 11
924.519696
 21
154.793382
  0
LINE
  8
OBRYS
 10
901.554645
 20
159.989534
 11
924.519696
 21
159.989534
  0
LINE
  8
OBRYS
 10
771.519696
 20
137.279245
 11
779.603038
 21
137.279245
  0
LINE
  8
OBRYS
 10
771.519696
 20
216.186139
 11
771.519696
 21
137.279245
  0
LINE
  8
OBRYS
 10
779.844642
 20
138.050224
 11
771.519696
 21
138.050224
  0
LINE
  8
OBRYS
 10
787.771216
 20
154.793382
 11
771.519696
 21
154.793382
  0
LINE
  8
OBRYS
 10
791.484747
 20
159.989534
 11
771.519696
 21
159.989534
  0
ARC
  8
OBRYS
 10
846.519696
 20
116.732692
 40
59.000000
 50
266.667258
 51
273.332742
  0
ARC
  8
OBRYS
 10
846.519696
 20
116.732692
 40
59.000000
 50
176.667258
 51
183.332742
  0
ARC
  8
OBRYS
 10
846.519696
 20
116.732692
 40
59.000000
 50
86.667258
 51
93.332742
  0
ARC
  8
OBRYS
 10
846.519696
 20
116.732692
 40
59.000000
 50
356.667258
 51
3.332742
  0
ARC
  8
OBRYS
 10
846.519696
 20
18.732692
 40
65.000000
 50
73.017446
 51
106.982554
  0
ARC
  8
OBRYS
 10
748.519696
 20
116.732692
 40
65.000000
 50
343.017446
 51
16.982554
  0
ARC
  8
OBRYS
 10
846.519696
 20
214.732692
 40
65.000000
 50
253.017446
 51
286.982554
  0
ARC
  8
OBRYS
 10
846.519696
 20
8.732692
 40
75.000000
 50
106.982554
 51
123.262914
  0
ARC
  8
OBRYS
 10
846.519696
 20
8.732692
 40
75.000000
 50
56.737086
 51
73.017446
  0
ARC
  8
OBRYS
 10
738.519696
 20
116.732692
 40
75.000000
 50
16.982553
 51
33.262914
  0
ARC
  8
OBRYS
 10
738.519696
 20
116.732692
 40
75.000000
 50
326.737086
 51
343.017446
  0
ARC
  8
OBRYS
 10
846.519696
 20
224.732692
 40
75.000000
 50
286.982554
 51
303.262914
  0
ARC
  8
OBRYS
 10
846.519696
 20
224.732692
 40
75.000000
 50
236.737086
 51
253.017447
  0
ARC
  8
OBRYS
 10
954.519696
 20
116.732692
 40
75.000000
 50
196.982554
 51
213.262914
  0
ARC
  8
OBRYS
 10
954.519696
 20
116.732692
 40
75.000000
 50
146.737086
 51
163.017446
  0
ARC
  8
OBRYS
 10
944.519696
 20
116.732692
 40
65.000000
 50
163.017446
 51
196.982554
  0
ARC
  8
OBRYS
 10
846.519696
 20
116.732692
 40
52.500000
 50
129.140970
 51
140.859030
  0
LINE
  8
OBRYS
 62
     7
  6
DASHDOT
 10
846.519696
 20
229.232692
 11
846.519696
 21
42.789245
  0
ARC
  8
OBRYS
 10
846.519696
 20
116.732692
 40
65.000000
 50
43.025161
 51
46.974839
  0
ARC
  8
OBRYS
 10
846.519696
 20
116.732692
 40
65.000000
 50
358.025161
 51
1.974839
  0
ARC
  8
OBRYS
 10
846.519696
 20
116.732692
 40
65.000000
 50
313.025161
 51
316.974839
  0
ARC
  8
OBRYS
 10
846.519696
 20
116.732692
 40
65.000000
 50
268.025161
 51
271.974839
  0
ARC
  8
OBRYS
 10
846.519696
 20
116.732692
 40
65.000000
 50
223.025161
 51
226.974839
  0
ARC
  8
OBRYS
 10
846.519696
 20
116.732692
 40
65.000000
 50
178.025161
 51
181.974839
  0
ARC
  8
OBRYS
 10
846.519696
 20
116.732692
 40
65.000000
 50
133.025161
 51
136.974839
  0
ARC
  8
OBRYS
 10
846.519696
 20
116.732692
 40
65.000000
 50
95.435498
 51
129.564503
  0
ARC
  8
OBRYS
 10
846.519696
 20
116.732692
 40
65.000000
 50
88.025161
 51
91.974839
  0
ARC
  8
OBRYS
 10
846.519696
 20
116.732692
 40
65.000000
 50
50.435497
 51
84.564503
  0
INSERT
  8
OBRYS
  2
Vnitrni_metricky_zavit_M8__10
 62
     7
 10
889.019696
 20
116.732692
  0
INSERT
  8
OBRYS
  2
Vnitrni_metricky_zavit_M8__11
 62
     7
 10
846.519696
 20
74.232692
  0
INSERT
  8
OBRYS
  2
Vnitrni_metricky_zavit_M8__12
 62
     7
 10
804.019696
 20
116.732692
  0
INSERT
  8
OBRYS
  2
Vnitrni_metricky_zavit_M8__13
 62
     7
 10
846.519696
 20
159.232692
  0
ARC
  8
OBRYS
 10
894.315993
 20
156.223375
 40
3.000000
 50
39.564503
 51
146.737086
  0
ARC
  8
OBRYS
 10
846.519696
 20
116.732692
 40
65.000000
 50
5.435497
 51
39.564503
  0
ARC
  8
OBRYS
 10
908.240911
 20
122.605647
 40
3.000000
 50
258.262914
 51
5.435497
  0
ARC
  8
OBRYS
 10
922.887229
 20
193.100224
 40
75.000000
 50
241.982554
 51
258.262914
  0
ARC
  8
OBRYS
 10
908.240911
 20
110.859737
 40
3.000000
 50
354.564503
 51
101.737086
  0
ARC
  8
OBRYS
 10
846.519696
 20
116.732692
 40
65.000000
 50
320.435497
 51
354.564503
  0
ARC
  8
OBRYS
 10
922.887229
 20
40.365160
 40
75.000000
 50
101.737086
 51
118.017446
  0
ARC
  8
OBRYS
 10
894.315993
 20
77.242009
 40
3.000000
 50
213.262914
 51
320.435497
  0
ARC
  8
OBRYS
 10
886.010380
 20
68.936396
 40
3.000000
 50
309.564503
 51
56.737086
  0
ARC
  8
OBRYS
 10
846.519696
 20
116.732692
 40
65.000000
 50
275.435497
 51
309.564503
  0
ARC
  8
OBRYS
 10
852.392652
 20
55.011477
 40
3.000000
 50
168.262914
 51
275.435497
  0
ARC
  8
OBRYS
 10
922.887229
 20
40.365160
 40
75.000000
 50
151.982554
 51
168.262914
  0
ARC
  8
OBRYS
 10
840.646741
 20
55.011477
 40
3.000000
 50
264.564503
 51
11.737086
  0
ARC
  8
OBRYS
 10
846.519696
 20
116.732692
 40
65.000000
 50
230.435497
 51
264.564503
  0
ARC
  8
OBRYS
 10
770.152164
 20
40.365160
 40
75.000000
 50
11.737086
 51
28.017446
  0
ARC
  8
OBRYS
 10
807.029013
 20
68.936396
 40
3.000000
 50
123.262914
 51
230.435497
  0
ARC
  8
OBRYS
 10
798.723400
 20
77.242009
 40
3.000000
 50
219.564503
 51
326.737086
  0
ARC
  8
OBRYS
 10
846.519696
 20
116.732692
 40
65.000000
 50
185.435497
 51
219.564503
  0
ARC
  8
OBRYS
 10
784.798481
 20
110.859737
 40
3.000000
 50
78.262914
 51
185.435497
  0
ARC
  8
OBRYS
 10
770.152164
 20
40.365160
 40
75.000000
 50
61.982554
 51
78.262914
  0
ARC
  8
OBRYS
 10
784.798481
 20
122.605647
 40
3.000000
 50
174.564503
 51
281.737086
  0
ARC
  8
OBRYS
 10
846.519696
 20
116.732692
 40
65.000000
 50
140.435497
 51
174.564503
  0
ARC
  8
OBRYS
 10
770.152164
 20
193.100224
 40
75.000000
 50
281.737086
 51
298.017446
  0
ARC
  8
OBRYS
 10
798.723400
 20
156.223375
 40
3.000000
 50
33.262914
 51
140.435497
  0
ARC
  8
OBRYS
 10
886.010380
 20
164.528988
 40
3.000000
 50
303.262914
 51
50.435497
  0
ARC
  8
OBRYS
 10
852.392652
 20
178.453907
 40
3.000000
 50
84.564503
 51
191.737086
  0
ARC
  8
OBRYS
 10
922.887229
 20
193.100224
 40
75.000000
 50
191.737086
 51
208.017446
  0
ARC
  8
OBRYS
 10
840.646741
 20
178.453907
 40
3.000000
 50
348.262914
 51
95.435497
  0
ARC
  8
OBRYS
 10
770.152164
 20
193.100224
 40
75.000000
 50
331.982554
 51
348.262914
  0
ARC
  8
OBRYS
 10
807.029013
 20
164.528988
 40
3.000000
 50
129.564503
 51
236.737086
  0
LINE
  8
OBRYS
 62
     7
  6
DASHDOT
 10
772.519696
 20
176.732692
 11
924.269696
 21
176.732692
  0
LINE
  8
OBRYS
 62
     7
  6
DASHDOT
 10
846.519696
 20
116.732692
 11
926.519696
 21
116.732692
  0
LINE
  8
OBRYS
 62
     7
  6
DASHDOT
 10
846.519696
 20
116.732692
 11
766.519696
 21
116.732692
  0
CIRCLE
  8
OBRYS
 10
846.519696
 20
116.732692
 40
27.500000
  0
CIRCLE
  8
OBRYS
 62
     7
  6
DASHDOT
 10
846.519696
 20
116.732692
 40
42.500000
  0
CIRCLE
  8
OBRYS
 10
846.519696
 20
116.732692
 40
70.000000
  0
INSERT
  8
OBRYS
  2
Vnitrni_metricky_zavit_M8__14
 62
     7
 10
876.571735
 20
146.784730
  0
INSERT
  8
OBRYS
  2
Vnitrni_metricky_zavit_M8__15
 62
     7
 10
816.467658
 20
146.784730
  0
INSERT
  8
OBRYS
  2
Vnitrni_metricky_zavit_M8__16
 62
     7
 10
816.467658
 20
86.680654
  0
INSERT
  8
OBRYS
  2
Vnitrni_metricky_zavit_M8__17
 62
     7
 10
876.571735
 20
86.680654
  0
ARC
  8
OBRYS
 10
846.519696
 20
116.732692
 40
35.000000
 50
286.086067
 51
343.913933
  0
ARC
  8
OBRYS
 10
846.519696
 20
116.732692
 40
35.000000
 50
16.086067
 51
73.913933
  0
ARC
  8
OBRYS
 10
846.519696
 20
116.732692
 40
35.000000
 50
106.086067
 51
163.913933
  0
ARC
  8
OBRYS
 10
846.519696
 20
116.732692
 40
35.000000
 50
196.086067
 51
253.913933
  0
ARC
  8
OBRYS
 10
827.534463
 20
70.898285
 40
10.000000
 50
28.017446
 51
106.982554
  0
ARC
  8
OBRYS
 10
865.504929
 20
70.898285
 40
10.000000
 50
73.017446
 51
151.982554
  0
ARC
  8
OBRYS
 10
892.354104
 20
97.747459
 40
10.000000
 50
118.017446
 51
196.982554
  0
ARC
  8
OBRYS
 10
892.354104
 20
135.717925
 40
10.000000
 50
163.017446
 51
241.982554
  0
ARC
  8
OBRYS
 10
865.504929
 20
162.567099
 40
10.000000
 50
208.017446
 51
286.982554
  0
ARC
  8
OBRYS
 10
827.534463
 20
162.567099
 40
10.000000
 50
253.017446
 51
331.982554
  0
ARC
  8
OBRYS
 10
800.685289
 20
135.717925
 40
10.000000
 50
298.017446
 51
16.982554
  0
ARC
  8
OBRYS
 10
800.685289
 20
97.747459
 40
10.000000
 50
343.017446
 51
61.982554
  0
ARC
  8
OBRYS
 10
846.519696
 20
116.732692
 40
52.500000
 50
219.140970
 51
230.859030
  0
ARC
  8
OBRYS
 10
846.519696
 20
116.732692
 40
52.500000
 50
309.140970
 51
320.859030
  0
ARC
  8
OBRYS
 10
846.519696
 20
116.732692
 40
52.500000
 50
39.140970
 51
50.859030
  0
LINE
  8
OBRYS
 10
924.519696
 20
216.186139
 11
924.519696
 21
137.279245
  0
ENDBLK
  8
OBRYS
  0
BLOCK
  8
OBRYS
  2
Vnitrni_metricky_zavit_M8__10
 70
   66
 10
889.019696
 20
116.732692
  0
CIRCLE
  8
OBRYS
 10
889.019696
 20
116.732692
 40
3.323500
  0
ARC
  8
OBRYS
 62
     7
 10
889.019696
 20
116.732692
 40
4.000000
 50
130.000000
 51
50.000000
  0
ENDBLK
  8
OBRYS
  0
BLOCK
  8
OBRYS
  2
Vnitrni_metricky_zavit_M8__11
 70
   66
 10
846.519696
 20
74.232692
  0
CIRCLE
  8
OBRYS
 10
846.519696
 20
74.232692
 40
3.323500
  0
ARC
  8
OBRYS
 62
     7
 10
846.519696
 20
74.232692
 40
4.000000
 50
220.000000
 51
140.000000
  0
ENDBLK
  8
OBRYS
  0
BLOCK
  8
OBRYS
  2
Vnitrni_metricky_zavit_M8__12
 70
   66
 10
804.019696
 20
116.732692
  0
CIRCLE
  8
OBRYS
 10
804.019696
 20
116.732692
 40
3.323500
  0
ARC
  8
OBRYS
 62
     7
 10
804.019696
 20
116.732692
 40
4.000000
 50
310.000000
 51
230.000000
  0
ENDBLK
  8
OBRYS
  0
BLOCK
  8
OBRYS
  2
Vnitrni_metricky_zavit_M8__13
 70
   66
 10
846.519696
 20
159.232692
  0
CIRCLE
  8
OBRYS
 10
846.519696
 20
159.232692
 40
3.323500
  0
ARC
  8
OBRYS
 62
     7
 10
846.519696
 20
159.232692
 40
4.000000
 50
40.000000
 51
320.000000
  0
ENDBLK
  8
OBRYS
  0
BLOCK
  8
OBRYS
  2
Vnitrni_metricky_zavit_M8__14
 70
   66
 10
876.571735
 20
146.784730
  0
CIRCLE
  8
OBRYS
 10
876.571735
 20
146.784730
 40
3.323500
  0
ARC
  8
OBRYS
 62
     7
 10
876.571735
 20
146.784730
 40
4.000000
 50
355.000000
 51
275.000000
  0
ENDBLK
  8
OBRYS
  0
BLOCK
  8
OBRYS
  2
Vnitrni_metricky_zavit_M8__15
 70
   66
 10
816.467658
 20
146.784730
  0
CIRCLE
  8
OBRYS
 10
816.467658
 20
146.784730
 40
3.323500
  0
ARC
  8
OBRYS
 62
     7
 10
816.467658
 20
146.784730
 40
4.000000
 50
265.000000
 51
185.000000
  0
ENDBLK
  8
OBRYS
  0
BLOCK
  8
OBRYS
  2
Vnitrni_metricky_zavit_M8__16
 70
   66
 10
816.467658
 20
86.680654
  0
CIRCLE
  8
OBRYS
 10
816.467658
 20
86.680654
 40
3.323500
  0
ARC
  8
OBRYS
 62
     7
 10
816.467658
 20
86.680654
 40
4.000000
 50
175.000000
 51
95.000000
  0
ENDBLK
  8
OBRYS
  0
BLOCK
  8
OBRYS
  2
Vnitrni_metricky_zavit_M8__17
 70
   66
 10
876.571735
 20
86.680654
  0
CIRCLE
  8
OBRYS
 10
876.571735
 20
86.680654
 40
3.323500
  0
ARC
  8
OBRYS
 62
     7
 10
876.571735
 20
86.680654
 40
4.000000
 50
85.000000
 51
5.000000
  0
ENDBLK
  8
OBRYS
  0
BLOCK
  8
OBRYS
  2
_11
 70
   64
 10
300.707303
 20
176.732692
  0
LINE
  8
OBRYS
 10
271.707303
 20
138.751383
 11
271.707303
 21
83.850461
  0
LINE
  8
OBRYS
 10
267.707303
 20
243.732692
 11
267.707303
 21
79.732692
  0
LINE
  8
OBRYS
 10
271.707303
 20
200.609377
 11
271.707303
 21
157.064782
  0
LINE
  8
OBRYS
 10
254.552576
 20
184.732692
 11
254.552576
 21
47.732692
  0
LINE
  8
OBRYS
 10
258.707303
 20
201.609377
 11
270.707303
 21
201.609377
  0
LINE
  8
OBRYS
 10
271.707303
 20
196.400603
 11
293.230275
 21
196.400603
  0
LINE
  8
OBRYS
 10
258.707303
 20
236.010469
 11
285.114798
 21
236.010469
  0
LINE
  8
OBRYS
 10
258.707303
 20
226.130684
 11
285.114798
 21
226.130684
  0
LINE
  8
OBRYS
 10
295.707303
 20
231.602292
 11
295.707303
 21
176.732692
  0
ARC
  8
OBRYS
 10
285.114798
 20
240.732692
 40
3.000000
 50
39.745666
 51
90.000000
  0
LINE
  8
OBRYS
 10
267.707303
 20
243.732692
 11
285.114798
 21
243.732692
  0
LINE
  8
OBRYS
 62
     7
  6
DASHDOT
 10
305.707303
 20
176.732692
 11
267.707303
 21
176.732692
  0
LINE
  8
OBRYS
 62
     7
  6
DASHDOT
 10
292.707303
 20
114.732692
 11
275.559332
 21
114.732692
  0
LINE
  8
OBRYS
 62
     7
  6
DASHDOT
 10
268.660823
 20
114.732692
 11
267.707303
 21
114.732692
  0
LINE
  8
OBRYS
 10
295.013974
 20
233.520435
 11
287.421469
 21
242.650835
  0
ARC
  8
OBRYS
 10
292.707303
 20
231.602292
 40
3.000000
 50
0.000000
 51
39.745666
  0
LINE
  8
OBRYS
 62
     7
 10
288.796247
 20
79.791218
 11
288.814743
 21
79.809714
  0
LINE
  8
OBRYS
 62
     7
 10
288.814743
 20
79.809714
 11
288.796247
 21
79.791218
  0
LINE
  8
OBRYS
 10
300.707303
 20
216.284951
 11
297.188981
 21
218.349542
  0
ARC
  8
OBRYS
 10
298.707303
 20
220.936954
 40
3.000000
 50
180.000000
 51
239.595105
  0
LINE
  8
OBRYS
 62
     7
  6
DASHDOT
 10
264.707303
 20
114.732692
 11
243.552576
 21
114.732692
  0
LINE
  8
OBRYS
 10
261.707303
 20
243.732692
 11
267.707303
 21
243.732692
  0
ARC
  8
OBRYS
 10
261.707303
 20
240.732692
 40
3.000000
 50
90.000000
 51
180.000000
  0
LINE
  8
OBRYS
 10
258.707303
 20
195.987762
 11
258.707303
 21
240.732692
  0
ARC
  8
OBRYS
 10
255.707303
 20
195.987762
 40
3.000000
 50
331.296591
 51
360.000000
  0
LINE
  8
OBRYS
 10
258.338656
 20
194.546935
 11
253.818499
 21
186.291865
  0
ARC
  8
OBRYS
 10
251.187146
 20
187.732692
 40
3.000000
 50
270.000000
 51
331.296591
  0
LINE
  8
OBRYS
 10
245.552576
 20
184.732692
 11
245.552576
 21
44.732692
  0
LINE
  8
OBRYS
 10
251.187146
 20
184.732692
 11
245.552576
 21
184.732692
  0
LINE
  8
OBRYS
 10
251.552576
 20
44.732692
 11
245.552576
 21
44.732692
  0
ARC
  8
OBRYS
 10
251.552576
 20
47.732692
 40
3.000000
 50
270.000000
 51
360.000000
  0
LINE
  8
OBRYS
 10
267.707303
 20
79.732692
 11
257.552576
 21
79.732692
  0
ARC
  8
OBRYS
 10
257.552576
 20
76.732692
 40
3.000000
 50
90.000000
 51
180.000000
  0
LINE
  8
OBRYS
 10
267.707303
 20
79.732692
 11
285.804128
 21
79.732692
  0
LINE
  8
OBRYS
 10
295.707303
 20
172.509031
 11
295.707303
 21
176.732692
  0
LINE
  8
OBRYS
 10
254.552576
 20
157.064782
 11
287.201442
 21
157.064782
  0
LINE
  8
OBRYS
 10
254.552576
 20
139.751383
 11
281.392659
 21
139.751383
  0
LINE
  8
OBRYS
 10
272.707303
 20
82.850461
 11
284.622265
 21
82.850461
  0
LINE
  8
OBRYS
 10
300.707303
 20
216.284951
 11
300.707303
 21
179.310643
  0
ENDBLK
  8
OBRYS
  0
BLOCK
  8
OSA
  2
_12
 70
   64
 10
300.707303
 20
-83.556697
  0
ARC
  8
OBRYS
 10
288.486380
 20
-74.459766
 40
2.000000
 50
293.822528
 51
2.782366
  0
ARC
  8
OBRYS
 10
288.486380
 20
-92.653627
 40
2.000000
 50
357.217634
 51
66.177472
  0
ARC
  8
OBRYS
 10
101.305418
 20
-83.556697
 40
189.401885
 50
348.136806
 51
357.032847
  0
LINE
  8
OBRYS
 10
258.707303
 20
-91.257264
 11
288.456067
 21
-91.257264
  0
ARC
  8
OBRYS
 10
292.502877
 20
-83.556697
 40
7.944164
 50
113.822528
 51
246.177472
  0
ARC
  8
OBRYS
 10
101.305418
 20
-83.556697
 40
189.401885
 50
2.782366
 51
11.863194
  0
LINE
  8
OBRYS
 10
258.707303
 20
-75.856130
 11
288.456067
 21
-75.856130
  0
LINE
  8
SRAFY
 62
     2
 10
300.707303
 20
-48.556697
 11
300.707303
 21
-118.556697
  0
LINE
  8
OBRYS
 10
297.707303
 20
-118.556697
 11
300.707303
 21
-118.556697
  0
ARC
  8
OBRYS
 10
297.707303
 20
-120.556697
 40
2.000000
 50
90.000000
 51
180.000000
  0
LINE
  8
OBRYS
 10
297.707303
 20
-48.556697
 11
300.707303
 21
-48.556697
  0
ARC
  8
OBRYS
 10
297.707303
 20
-46.556697
 40
2.000000
 50
180.000000
 51
270.000000
  0
LINE
  8
OBRYS
 10
258.707303
 20
-124.081946
 11
284.704632
 21
-124.081946
  0
LINE
  8
OBRYS
 10
286.321034
 20
-140.130211
 11
286.321034
 21
-126.081946
  0
LINE
  8
OBRYS
 10
286.321034
 20
-26.983183
 11
286.321034
 21
-41.031447
  0
LINE
  8
OBRYS
 10
258.707303
 20
-43.031447
 11
284.321034
 21
-43.031447
  0
LINE
  8
OBRYS
 10
258.707303
 20
-24.595173
 11
258.707303
 21
-142.518221
  0
LINE
  8
OBRYS
 10
245.552576
 20
-153.556697
 11
245.552576
 21
-13.556697
  0
LINE
  8
OBRYS
 10
252.552576
 20
-13.556697
 11
245.552576
 21
-13.556697
  0
ARC
  8
OBRYS
 10
252.552576
 20
-15.556697
 40
2.000000
 50
0.000000
 51
90.000000
  0
LINE
  8
OBRYS
 10
252.552576
 20
-153.556697
 11
245.552576
 21
-153.556697
  0
LINE
  8
OBRYS
 10
254.552576
 20
-151.556697
 11
254.552576
 21
-15.556697
  0
ARC
  8
OBRYS
 10
252.552576
 20
-151.556697
 40
2.000000
 50
270.000000
 51
360.000000
  0
ARC
  8
OBRYS
 10
256.552576
 20
-22.595173
 40
2.000000
 50
180.000000
 51
270.000000
  0
LINE
  8
OBRYS
 10
256.552576
 20
-24.595173
 11
291.707303
 21
-24.595173
  0
ARC
  8
OBRYS
 10
291.707303
 20
-28.595173
 40
4.000000
 50
0.000000
 51
90.000000
  0
ARC
  8
OBRYS
 10
284.558713
 20
-28.595173
 40
4.000000
 50
37.718185
 51
90.000000
  0
LINE
  8
OBRYS
 10
287.722831
 20
-26.148060
 11
294.871421
 21
-35.391190
  0
ARC
  8
OBRYS
 10
291.707303
 20
-37.838302
 40
4.000000
 50
0.000000
 51
37.718185
  0
LINE
  8
OBRYS
 10
295.707303
 20
-83.556697
 11
295.707303
 21
-28.595173
  0
LINE
  8
OBRYS
 10
267.707303
 20
-83.556697
 11
267.707303
 21
-24.595173
  0
LINE
  8
OBRYS
 10
267.707303
 20
-83.556697
 11
267.707303
 21
-142.518221
  0
ARC
  8
OBRYS
 10
291.707303
 20
-129.275091
 40
4.000000
 50
322.281815
 51
360.000000
  0
LINE
  8
OBRYS
 10
287.722831
 20
-140.965334
 11
294.871421
 21
-131.722204
  0
ARC
  8
OBRYS
 10
284.558713
 20
-138.518221
 40
4.000000
 50
270.000000
 51
322.281815
  0
ARC
  8
OBRYS
 10
291.707303
 20
-138.518221
 40
4.000000
 50
270.000000
 51
360.000000
  0
LINE
  8
OBRYS
 10
256.552576
 20
-142.518221
 11
291.707303
 21
-142.518221
  0
ARC
  8
OBRYS
 10
256.552576
 20
-144.518221
 40
2.000000
 50
90.000000
 51
180.000000
  0
LINE
  8
OBRYS
 10
295.707303
 20
-83.556697
 11
295.707303
 21
-138.518221
  0
LINE
  8
OSA
 10
240.552576
 20
-26.056697
 11
255.983241
 21
-26.056697
  0
LINE
  8
OSA
 10
240.552576
 20
-141.056697
 11
255.983241
 21
-141.056697
  0
LINE
  8
NEVIDI
  6
HIDDEN2
 10
245.552576
 20
-36.056697
 11
249.552576
 21
-36.056697
  0
LINE
  8
NEVIDI
  6
HIDDEN2
 10
249.552576
 20
-131.056697
 11
249.552576
 21
-36.056697
  0
LINE
  8
NEVIDI
  6
HIDDEN2
 10
245.552576
 20
-131.056697
 11
249.552576
 21
-131.056697
  0
LINE
  8
OSA
 10
286.561257
 20
-83.556697
 11
240.552576
 21
-83.556697
  0
ENDBLK
  8
OSA
  0
BLOCK
  8
OSA
  2
_13
 70
   64
 10
300.707303
 20
373.417439
  0
LINE
  8
OSA
 10
235.552576
 20
373.417439
 11
292.294928
 21
373.417439
  0
LINE
  8
OBRYS
 10
297.707303
 20
338.417439
 11
300.707303
 21
338.417439
  0
ARC
  8
OBRYS
 10
297.707303
 20
336.417439
 40
2.000000
 50
90.000000
 51
180.000000
  0
LINE
  8
SRAFY
 62
     2
 10
300.707303
 20
408.417439
 11
300.707303
 21
338.417439
  0
LINE
  8
OSA
 10
277.707303
 20
355.917439
 11
277.707303
 21
345.917439
  0
LINE
  8
OSA
 10
277.707303
 20
355.917439
 11
277.707303
 21
365.917439
  0
LINE
  8
OSA
 10
277.707303
 20
355.917439
 11
267.707303
 21
355.917439
  0
LINE
  8
OSA
 10
277.707303
 20
355.917439
 11
287.707303
 21
355.917439
  0
LINE
  8
OBRYS
 10
254.552576
 20
322.530701
 11
270.707303
 21
322.530701
  0
LINE
  8
OBRYS
 10
271.707303
 20
323.530701
 11
271.707303
 21
342.105167
  0
LINE
  8
OBRYS
 10
295.707303
 20
373.417439
 11
295.707303
 21
318.455915
  0
ARC
  8
OBRYS
 10
256.552576
 20
312.455915
 40
2.000000
 50
90.000000
 51
180.000000
  0
LINE
  8
OBRYS
 10
256.552576
 20
314.455915
 11
291.707303
 21
314.455915
  0
ARC
  8
OBRYS
 10
291.707303
 20
318.455915
 40
4.000000
 50
270.000000
 51
360.000000
  0
ARC
  8
OBRYS
 10
284.558713
 20
318.455915
 40
4.000000
 50
270.000000
 51
322.281815
  0
LINE
  8
OBRYS
 10
287.722831
 20
316.008803
 11
294.871421
 21
325.251932
  0
ARC
  8
OBRYS
 10
291.707303
 20
327.699045
 40
4.000000
 50
322.281815
 51
360.000000
  0
LINE
  8
OBRYS
 10
272.707303
 20
326.332729
 11
294.789202
 21
326.332729
  0
LINE
  8
OBRYS
 10
267.707303
 20
373.417439
 11
267.707303
 21
314.455915
  0
LINE
  8
OBRYS
 10
297.707303
 20
408.417439
 11
300.707303
 21
408.417439
  0
ARC
  8
OBRYS
 10
297.707303
 20
410.417439
 40
2.000000
 50
180.000000
 51
270.000000
  0
LINE
  8
OBRYS
 10
267.707303
 20
373.417439
 11
267.707303
 21
432.378964
  0
LINE
  8
OBRYS
 10
295.707303
 20
373.417439
 11
295.707303
 21
428.378964
  0
LINE
  8
OBRYS
 10
272.707303
 20
420.502150
 11
294.789202
 21
420.502150
  0
ARC
  8
OBRYS
 10
291.707303
 20
419.135834
 40
4.000000
 50
0.000000
 51
37.718185
  0
LINE
  8
OBRYS
 10
287.722831
 20
430.826076
 11
294.871421
 21
421.582946
  0
ARC
  8
OBRYS
 10
284.558713
 20
428.378964
 40
4.000000
 50
37.718185
 51
90.000000
  0
ARC
  8
OBRYS
 10
291.707303
 20
428.378964
 40
4.000000
 50
0.000000
 51
90.000000
  0
LINE
  8
OBRYS
 10
256.552576
 20
432.378964
 11
291.707303
 21
432.378964
  0
ARC
  8
OBRYS
 10
256.552576
 20
434.378964
 40
2.000000
 50
180.000000
 51
270.000000
  0
LINE
  8
OBRYS
 10
254.552576
 20
424.304178
 11
270.707303
 21
424.304178
  0
LINE
  8
OBRYS
 10
272.707303
 20
373.417439
 11
291.707303
 21
373.417439
  0
LINE
  8
OBRYS
 10
272.707303
 20
343.105167
 11
291.707303
 21
343.105167
  0
ARC
  8
OBRYS
 10
272.707303
 20
374.417439
 40
1.000000
 50
180.000000
 51
270.000000
  0
LINE
  8
OBRYS
 10
271.707303
 20
374.417439
 11
271.707303
 21
423.304178
  0
ARC
  8
OBRYS
 10
272.707303
 20
342.105167
 40
1.000000
 50
90.000000
 51
180.000000
  0
ARC
  8
OBRYS
 10
252.552576
 20
305.417439
 40
2.000000
 50
270.000000
 51
360.000000
  0
LINE
  8
OBRYS
 10
254.552576
 20
305.417439
 11
254.552576
 21
441.417439
  0
LINE
  8
OBRYS
 10
252.552576
 20
303.417439
 11
245.552576
 21
303.417439
  0
ARC
  8
OBRYS
 10
252.552576
 20
441.417439
 40
2.000000
 50
0.000000
 51
90.000000
  0
LINE
  8
OBRYS
 10
252.552576
 20
443.417439
 11
245.552576
 21
443.417439
  0
LINE
  8
OBRYS
 10
245.552576
 20
303.417439
 11
245.552576
 21
443.417439
  0
ENDBLK
  8
OSA
  0
BLOCK
  8
KOTA
  2
_14
 70
   64
 10
378.707303
 20
116.732692
  0
TEXT
  8
OBRYS
 62
     1
 10
369.167725
 20
28.207207
 40
9.999990
  1
60
 50
0.00
 51
0.00
 41
1.00
  0
CIRCLE
  8
OBRYS
 10
378.707303
 20
116.732692
 40
55.509810
  0
LINE
  8
OBRYS
 10
279.208559
 20
126.732692
 11
284.183497
 21
126.232692
  0
LINE
  8
OBRYS
 10
279.208559
 20
106.732692
 11
284.183497
 21
107.232692
  0
LINE
  8
OBRYS
 10
478.206047
 20
106.732692
 11
473.231110
 21
107.232692
  0
LINE
  8
OBRYS
 10
478.206047
 20
126.732692
 11
473.231110
 21
126.232692
  0
LINE
  8
OSA
 10
378.707303
 20
116.732692
 11
378.707303
 21
224.232688
  0
CIRCLE
  8
OBRYS
 10
378.707303
 20
116.732692
 40
70.000000
  0
CIRCLE
  8
OSA
 10
378.707303
 20
116.732692
 40
42.500000
  0
CIRCLE
  8
OBRYS
 10
378.707303
 20
116.732692
 40
35.000000
  0
CIRCLE
  8
OBRYS
 10
437.043613
 20
58.396383
 40
5.500000
  0
ARC
  8
OBRYS
 10
336.480100
 20
58.415771
 40
2.000000
 50
54.091754
 51
142.500000
  0
LINE
  8
OBRYS
 10
334.893394
 20
59.633293
 11
322.105583
 21
42.967895
  0
ARC
  8
OBRYS
 10
323.692290
 20
41.750372
 40
2.000000
 50
142.500000
 51
233.732262
  0
ARC
  8
OBRYS
 10
303.724983
 20
61.717679
 40
2.000000
 50
216.267738
 51
307.500000
  0
LINE
  8
OBRYS
 10
321.607904
 20
72.918782
 11
304.942506
 21
60.130972
  0
ARC
  8
OBRYS
 10
320.390382
 20
74.505489
 40
2.000000
 50
307.500000
 51
35.908246
  0
ARC
  8
OBRYS
 10
437.024225
 20
74.505489
 40
2.000000
 50
144.091754
 51
232.500000
  0
LINE
  8
OBRYS
 10
435.806702
 20
72.918782
 11
452.472100
 21
60.130972
  0
ARC
  8
OBRYS
 10
453.689623
 20
61.717679
 40
2.000000
 50
232.500000
 51
323.732262
  0
ARC
  8
OBRYS
 10
433.722316
 20
41.750372
 40
2.000000
 50
306.267738
 51
37.500000
  0
LINE
  8
OBRYS
 10
422.521213
 20
59.633293
 11
435.309023
 21
42.967895
  0
ARC
  8
OBRYS
 10
420.934506
 20
58.415771
 40
2.000000
 50
37.500000
 51
125.908246
  0
CIRCLE
  8
OBRYS
 10
437.043613
 20
175.069001
 40
5.500000
  0
ARC
  8
OBRYS
 10
420.934506
 20
175.049614
 40
2.000000
 50
234.091754
 51
322.500000
  0
LINE
  8
OBRYS
 10
422.521213
 20
173.832091
 11
435.309023
 21
190.497489
  0
ARC
  8
OBRYS
 10
433.722316
 20
191.715012
 40
2.000000
 50
322.500000
 51
53.732262
  0
ARC
  8
OBRYS
 10
453.689623
 20
171.747705
 40
2.000000
 50
36.267738
 51
127.500000
  0
LINE
  8
OBRYS
 10
435.806702
 20
160.546602
 11
452.472100
 21
173.334412
  0
ARC
  8
OBRYS
 10
437.024225
 20
158.959895
 40
2.000000
 50
127.500000
 51
215.908246
  0
ARC
  8
OBRYS
 10
320.390382
 20
158.959895
 40
2.000000
 50
324.091754
 51
52.500000
  0
LINE
  8
OBRYS
 10
321.607904
 20
160.546602
 11
304.942506
 21
173.334412
  0
ARC
  8
OBRYS
 10
303.724983
 20
171.747705
 40
2.000000
 50
52.500000
 51
143.732262
  0
ARC
  8
OBRYS
 10
323.692290
 20
191.715012
 40
2.000000
 50
126.267738
 51
217.500000
  0
LINE
  8
OBRYS
 10
334.893394
 20
173.832091
 11
322.105583
 21
190.497489
  0
ARC
  8
OBRYS
 10
336.480100
 20
175.049614
 40
2.000000
 50
217.500000
 51
305.908246
  0
CIRCLE
  8
OBRYS
 10
437.043613
 20
175.069001
 40
5.500000
  0
CIRCLE
  8
OBRYS
 10
437.043613
 20
58.396383
 40
5.500000
  0
CIRCLE
  8
OBRYS
 10
320.370994
 20
58.396383
 40
5.500000
  0
CIRCLE
  8
OBRYS
 10
320.370994
 20
175.069001
 40
5.500000
  0
CIRCLE
  8
OSA
 10
378.707303
 20
116.732692
 40
82.500000
  0
CIRCLE
  8
OBRYS
 10
378.707303
 20
116.732692
 40
95.000000
  0
CIRCLE
  8
OBRYS
 10
378.707303
 20
116.732692
 40
65.000000
  0
LINE
  8
OSA
 10
378.707303
 20
116.732692
 11
378.707303
 21
9.232696
  0
LINE
  8
OSA
 10
378.707303
 20
116.732692
 11
486.207299
 21
116.732692
  0
CIRCLE
  8
OBRYS
 10
378.707303
 20
116.732692
 40
100.000000
  0
LINE
  8
OSA
 10
309.410839
 20
186.029157
 11
331.331149
 21
164.108846
  0
LINE
  8
OSA
 10
378.707303
 20
116.732692
 11
271.207307
 21
116.732692
  0
LINE
  8
OSA
 10
309.410839
 20
47.436227
 11
331.331149
 21
69.356538
  0
LINE
  8
OSA
 10
448.003768
 20
47.436227
 11
426.083457
 21
69.356538
  0
LINE
  8
OSA
 10
448.003768
 20
186.029157
 11
426.083457
 21
164.108846
  0
INSERT
  8
KOTA
  2
Srouby_s_valcovou_hlavou___19
 62
     7
 10
378.707303
 20
159.232692
  0
INSERT
  8
KOTA
  2
Srouby_s_valcovou_hlavou___20
 62
     7
 10
336.207303
 20
116.732692
  0
INSERT
  8
KOTA
  2
Srouby_s_valcovou_hlavou___21
 62
     7
 10
378.707303
 20
74.232692
  0
INSERT
  8
KOTA
  2
Srouby_s_valcovou_hlavou___22
 62
     7
 10
421.207303
 20
116.732692
  0
LINE
  8
OBRYS
 10
378.707303
 20
132.532692
 11
382.707303
 21
132.532692
  0
ARC
  8
OBRYS
 10
378.707303
 20
116.732692
 40
12.500000
 50
108.662925
 51
71.337075
  0
LINE
  8
OBRYS
 10
382.707303
 20
132.532692
 11
382.707303
 21
128.575411
  0
LINE
  8
OBRYS
 10
378.707303
 20
132.532692
 11
374.707303
 21
132.532692
  0
LINE
  8
OBRYS
 10
374.707303
 20
132.532692
 11
374.707303
 21
128.575411
  0
CIRCLE
  8
OBRYS
 10
378.707303
 20
116.732692
 40
20.000000
  0
CIRCLE
  8
OBRYS
 10
378.707303
 20
116.732692
 40
27.500000
  0
ARC
  8
OBRYS
 10
378.707303
 20
214.732692
 40
65.000000
 50
261.620667
 51
278.379333
  0
ARC
  8
OBRYS
 10
280.707303
 20
116.732692
 40
65.000000
 50
351.620667
 51
8.379333
  0
ARC
  8
OBRYS
 10
378.707303
 20
18.732692
 40
65.000000
 50
81.620667
 51
98.379333
  0
ARC
  8
OBRYS
 10
476.707303
 20
116.732692
 40
65.000000
 50
171.620667
 51
188.379333
  0
ENDBLK
  8
KOTA
  0
BLOCK
  8
KOTA
  2
Srouby_s_valcovou_hlavou___19
 70
   66
 10
378.707303
 20
159.232692
  0
LINE
  8
KOTA
 62
     2
 10
375.707303
 20
157.500630
 11
375.707303
 21
160.964754
  0
LINE
  8
KOTA
 62
     2
 10
375.707303
 20
160.964754
 11
378.707303
 21
162.696815
  0
LINE
  8
KOTA
 62
     2
 10
378.707303
 20
162.696815
 11
381.707303
 21
160.964754
  0
LINE
  8
KOTA
 62
     2
 10
381.707303
 20
160.964754
 11
381.707303
 21
157.500630
  0
LINE
  8
KOTA
 62
     2
 10
381.707303
 20
157.500630
 11
378.707303
 21
155.768569
  0
LINE
  8
KOTA
 62
     2
 10
378.707303
 20
155.768569
 11
375.707303
 21
157.500630
  0
CIRCLE
  8
KOTA
 62
     2
 10
378.707303
 20
159.232692
 40
3.464123
  0
CIRCLE
  8
KOTA
 62
     2
 10
378.707303
 20
159.232692
 40
6.500000
  0
ENDBLK
  8
KOTA
  0
BLOCK
  8
KOTA
  2
Srouby_s_valcovou_hlavou___20
 70
   66
 10
336.207303
 20
116.732692
  0
LINE
  8
KOTA
 62
     2
 10
333.207303
 20
115.000630
 11
333.207303
 21
118.464754
  0
LINE
  8
KOTA
 62
     2
 10
333.207303
 20
118.464754
 11
336.207303
 21
120.196815
  0
LINE
  8
KOTA
 62
     2
 10
336.207303
 20
120.196815
 11
339.207303
 21
118.464754
  0
LINE
  8
KOTA
 62
     2
 10
339.207303
 20
118.464754
 11
339.207303
 21
115.000630
  0
LINE
  8
KOTA
 62
     2
 10
339.207303
 20
115.000630
 11
336.207303
 21
113.268569
  0
LINE
  8
KOTA
 62
     2
 10
336.207303
 20
113.268569
 11
333.207303
 21
115.000630
  0
CIRCLE
  8
KOTA
 62
     2
 10
336.207303
 20
116.732692
 40
3.464123
  0
CIRCLE
  8
KOTA
 62
     2
 10
336.207303
 20
116.732692
 40
6.500000
  0
ENDBLK
  8
KOTA
  0
BLOCK
  8
KOTA
  2
Srouby_s_valcovou_hlavou___21
 70
   66
 10
378.707303
 20
74.232692
  0
LINE
  8
KOTA
 62
     2
 10
375.707303
 20
72.500630
 11
375.707303
 21
75.964754
  0
LINE
  8
KOTA
 62
     2
 10
375.707303
 20
75.964754
 11
378.707303
 21
77.696815
  0
LINE
  8
KOTA
 62
     2
 10
378.707303
 20
77.696815
 11
381.707303
 21
75.964754
  0
LINE
  8
KOTA
 62
     2
 10
381.707303
 20
75.964754
 11
381.707303
 21
72.500630
  0
LINE
  8
KOTA
 62
     2
 10
381.707303
 20
72.500630
 11
378.707303
 21
70.768569
  0
LINE
  8
KOTA
 62
     2
 10
378.707303
 20
70.768569
 11
375.707303
 21
72.500630
  0
CIRCLE
  8
KOTA
 62
     2
 10
378.707303
 20
74.232692
 40
3.464123
  0
CIRCLE
  8
KOTA
 62
     2
 10
378.707303
 20
74.232692
 40
6.500000
  0
ENDBLK
  8
KOTA
  0
BLOCK
  8
KOTA
  2
Srouby_s_valcovou_hlavou___22
 70
   66
 10
421.207303
 20
116.732692
  0
LINE
  8
KOTA
 62
     2
 10
418.207303
 20
115.000630
 11
418.207303
 21
118.464754
  0
LINE
  8
KOTA
 62
     2
 10
418.207303
 20
118.464754
 11
421.207303
 21
120.196815
  0
LINE
  8
KOTA
 62
     2
 10
421.207303
 20
120.196815
 11
424.207303
 21
118.464754
  0
LINE
  8
KOTA
 62
     2
 10
424.207303
 20
118.464754
 11
424.207303
 21
115.000630
  0
LINE
  8
KOTA
 62
     2
 10
424.207303
 20
115.000630
 11
421.207303
 21
113.268569
  0
LINE
  8
KOTA
 62
     2
 10
421.207303
 20
113.268569
 11
418.207303
 21
115.000630
  0
CIRCLE
  8
KOTA
 62
     2
 10
421.207303
 20
116.732692
 40
3.464123
  0
CIRCLE
  8
KOTA
 62
     2
 10
421.207303
 20
116.732692
 40
6.500000
  0
ENDBLK
  8
KOTA
  0
BLOCK
  8
OSA
  2
_15
 70
   64
 10
438.707303
 20
373.417439
  0
ARC
  8
OSA
 62
     2
  6
CONTINUOUS
 10
312.878876
 20
326.417439
 40
2.000000
 50
45.000000
 51
90.000000
  0
LINE
  8
OSA
 62
     2
  6
CONTINUOUS
 10
319.707303
 20
322.417439
 11
314.293090
 21
327.831653
  0
LINE
  8
OSA
 62
     2
  6
CONTINUOUS
 10
378.707303
 20
315.917439
 11
337.988553
 21
315.917439
  0
LINE
  8
OSA
 62
     2
  6
CONTINUOUS
 10
334.452673
 20
322.417439
 11
319.707303
 21
322.417439
  0
LINE
  8
OSA
 62
     2
  6
CONTINUOUS
 10
337.988553
 20
315.917439
 11
331.756860
 21
327.373149
  0
ARC
  8
OSA
 62
     2
  6
CONTINUOUS
 10
329.999982
 20
326.417439
 40
2.000000
 50
28.545372
 51
90.000000
  0
LINE
  8
OSA
 62
     2
  6
CONTINUOUS
 10
345.567698
 20
315.917439
 11
334.952638
 21
327.752811
  0
ARC
  8
OSA
 62
     2
  6
CONTINUOUS
 10
333.463752
 20
326.417439
 40
2.000000
 50
41.888704
 51
90.000000
  0
LINE
  8
OSA
 62
     2
  6
CONTINUOUS
 10
448.707303
 20
408.417439
 11
453.707303
 21
408.417439
  0
LINE
  8
OSA
 62
     2
  6
CONTINUOUS
 10
300.707303
 20
408.417439
 11
308.707303
 21
408.417439
  0
LINE
  8
OSA
 62
     2
  6
CONTINUOUS
 10
448.707303
 20
338.417439
 11
453.707303
 21
338.417439
  0
LINE
  8
OSA
 62
     2
  6
CONTINUOUS
 10
300.707303
 20
338.417439
 11
308.707303
 21
338.417439
  0
ARC
  8
OSA
 62
     2
  6
CONTINUOUS
 10
441.707303
 20
384.654927
 40
3.000000
 50
113.832713
 51
180.000000
  0
LINE
  8
OSA
 62
     2
  6
CONTINUOUS
 10
438.707303
 20
384.654927
 11
438.707303
 21
346.417439
  0
ARC
  8
OSA
 62
     2
  6
CONTINUOUS
 10
441.707303
 20
346.417439
 40
3.000000
 50
180.000000
 51
270.000000
  0
LINE
  8
OSA
 62
     2
  6
CONTINUOUS
 10
440.043959
 20
387.199829
 11
440.553730
 21
387.484942
  0
LINE
  8
OSA
 62
     2
  6
CONTINUOUS
 10
440.553730
 20
387.484942
 11
441.000244
 21
387.796529
  0
LINE
  8
OSA
 62
     2
  6
CONTINUOUS
 10
441.000244
 20
387.796529
 11
441.376218
 21
388.121506
  0
LINE
  8
OSA
 62
     2
  6
CONTINUOUS
 10
441.376218
 20
388.121506
 11
441.680448
 21
388.446626
  0
LINE
  8
OSA
 62
     2
  6
CONTINUOUS
 10
441.680448
 20
388.446626
 11
441.917301
 21
388.760410
  0
LINE
  8
OSA
 62
     2
  6
CONTINUOUS
 10
441.917301
 20
388.760410
 11
442.095016
 21
389.054333
  0
LINE
  8
OSA
 62
     2
  6
CONTINUOUS
 10
442.095016
 20
389.054333
 11
442.223664
 21
389.323133
  0
LINE
  8
OSA
 62
     2
  6
CONTINUOUS
 10
442.223664
 20
389.323133
 11
442.313439
 21
389.564432
  0
LINE
  8
OSA
 62
     2
  6
CONTINUOUS
 10
442.313439
 20
389.564432
 11
442.373561
 21
389.778037
  0
LINE
  8
OSA
 62
     2
  6
CONTINUOUS
 10
442.373561
 20
389.778037
 11
442.411771
 21
389.965198
  0
LINE
  8
OSA
 62
     2
  6
CONTINUOUS
 10
442.411771
 20
389.965198
 11
442.434236
 21
390.127992
  0
LINE
  8
OSA
 62
     2
  6
CONTINUOUS
 10
442.434236
 20
390.127992
 11
442.445684
 21
390.268872
  0
LINE
  8
OSA
 62
     2
  6
CONTINUOUS
 10
442.445684
 20
390.268872
 11
442.449638
 21
390.390366
  0
LINE
  8
OSA
 62
     2
  6
CONTINUOUS
 10
442.449638
 20
390.390366
 11
442.449774
 21
390.417439
  0
LINE
  8
OSA
 62
     2
  6
CONTINUOUS
 10
430.595999
 20
390.417439
 11
430.597879
 21
390.316705
  0
LINE
  8
OSA
 62
     2
  6
CONTINUOUS
 10
430.597879
 20
390.316705
 11
430.604599
 21
390.202038
  0
LINE
  8
OSA
 62
     2
  6
CONTINUOUS
 10
430.604599
 20
390.202038
 11
430.618169
 21
390.071785
  0
LINE
  8
OSA
 62
     2
  6
CONTINUOUS
 10
430.618169
 20
390.071785
 11
430.641219
 21
389.924267
  0
LINE
  8
OSA
 62
     2
  6
CONTINUOUS
 10
430.641219
 20
389.924267
 11
430.677125
 21
389.757884
  0
LINE
  8
OSA
 62
     2
  6
CONTINUOUS
 10
430.677125
 20
389.757884
 11
430.730130
 21
389.571274
  0
LINE
  8
OSA
 62
     2
  6
CONTINUOUS
 10
430.730130
 20
389.571274
 11
430.805416
 21
389.363545
  0
LINE
  8
OSA
 62
     2
  6
CONTINUOUS
 10
430.805416
 20
389.363545
 11
430.909083
 21
389.134579
  0
LINE
  8
OSA
 62
     2
  6
CONTINUOUS
 10
430.909083
 20
389.134579
 11
431.047960
 21
388.885398
  0
LINE
  8
OSA
 62
     2
  6
CONTINUOUS
 10
431.047960
 20
388.885398
 11
431.229187
 21
388.618537
  0
LINE
  8
OSA
 62
     2
  6
CONTINUOUS
 10
431.229187
 20
388.618537
 11
431.459514
 21
388.338355
  0
LINE
  8
OSA
 62
     2
  6
CONTINUOUS
 10
431.459514
 20
388.338355
 11
431.744356
 21
388.051119
  0
LINE
  8
OSA
 62
     2
  6
CONTINUOUS
 10
431.744356
 20
388.051119
 11
432.086778
 21
387.764773
  0
LINE
  8
OSA
 62
     2
  6
CONTINUOUS
 10
432.086778
 20
387.764773
 11
432.486679
 21
387.488304
  0
LINE
  8
OSA
 62
     2
  6
CONTINUOUS
 10
432.486679
 20
387.488304
 11
432.940526
 21
387.230792
  0
LINE
  8
OSA
 62
     2
  6
CONTINUOUS
 10
432.940526
 20
387.230792
 11
433.441813
 21
387.000401
  0
LINE
  8
OSA
 62
     2
  6
CONTINUOUS
 10
433.441813
 20
387.000401
 11
433.982188
 21
386.803601
  0
LINE
  8
OSA
 62
     2
  6
CONTINUOUS
 10
433.982188
 20
386.803601
 11
434.552893
 21
386.644861
  0
LINE
  8
OSA
 62
     2
  6
CONTINUOUS
 10
434.552893
 20
386.644861
 11
435.146033
 21
386.526869
  0
LINE
  8
OSA
 62
     2
  6
CONTINUOUS
 10
435.146033
 20
386.526869
 11
435.755307
 21
386.451126
  0
LINE
  8
OSA
 62
     2
  6
CONTINUOUS
 10
435.755307
 20
386.451126
 11
436.376019
 21
386.418668
  0
LINE
  8
OSA
 62
     2
  6
CONTINUOUS
 10
436.376019
 20
386.418668
 11
437.004394
 21
386.430662
  0
LINE
  8
OSA
 62
     2
  6
CONTINUOUS
 10
437.004394
 20
386.430662
 11
437.636407
 21
386.488668
  0
LINE
  8
OSA
 62
     2
  6
CONTINUOUS
 10
437.636407
 20
386.488668
 11
438.266393
 21
386.594426
  0
LINE
  8
OSA
 62
     2
  6
CONTINUOUS
 10
438.266393
 20
386.594426
 11
438.885877
 21
386.749096
  0
LINE
  8
OSA
 62
     2
  6
CONTINUOUS
 10
438.885877
 20
386.749096
 11
439.483135
 21
386.952094
  0
LINE
  8
OSA
 62
     2
  6
CONTINUOUS
 10
439.483135
 20
386.952094
 11
440.495100
 21
387.399114
  0
LINE
  8
OSA
 62
     2
  6
CONTINUOUS
 10
430.595999
 20
390.417439
 11
430.595999
 21
403.417439
  0
LINE
  8
OSA
 62
     2
  6
CONTINUOUS
 10
394.096001
 20
390.417442
 11
394.096001
 21
403.417439
  0
LINE
  8
OSA
 62
     2
  6
CONTINUOUS
 10
408.833093
 20
390.417442
 11
408.833093
 21
403.417439
  0
POLYLINE
  8
OSA
 62
     2
  6
CONTINUOUS
 66
    1
  0
VERTEX
  8
OSA
 62
     2
  6
CONTINUOUS
 10
394.096008
 20
390.417419
  0
VERTEX
  8
OSA
 62
     2
  6
CONTINUOUS
 10
394.099670
 20
390.292206
  0
VERTEX
  8
OSA
 62
     2
  6
CONTINUOUS
 10
394.112488
 20
390.149841
  0
VERTEX
  8
OSA
 62
     2
  6
CONTINUOUS
 10
394.138489
 20
389.988556
  0
VERTEX
  8
OSA
 62
     2
  6
CONTINUOUS
 10
394.182312
 20
389.806824
  0
VERTEX
  8
OSA
 62
     2
  6
CONTINUOUS
 10
394.250183
 20
389.603455
  0
VERTEX
  8
OSA
 62
     2
  6
CONTINUOUS
 10
394.349060
 20
389.378052
  0
VERTEX
  8
OSA
 62
     2
  6
CONTINUOUS
 10
394.487244
 20
389.131317
  0
VERTEX
  8
OSA
 62
     2
  6
CONTINUOUS
 10
394.673279
 20
388.865479
  0
VERTEX
  8
OSA
 62
     2
  6
CONTINUOUS
 10
394.914978
 20
388.584656
  0
VERTEX
  8
OSA
 62
     2
  6
CONTINUOUS
 10
395.218811
 20
388.295013
  0
VERTEX
  8
OSA
 62
     2
  6
CONTINUOUS
 10
395.587830
 20
388.004364
  0
VERTEX
  8
OSA
 62
     2
  6
CONTINUOUS
 10
396.020813
 20
387.721680
  0
VERTEX
  8
OSA
 62
     2
  6
CONTINUOUS
 10
396.511780
 20
387.455780
  0
VERTEX
  8
OSA
 62
     2
  6
CONTINUOUS
 10
397.050964
 20
387.214386
  0
VERTEX
  8
OSA
 62
     2
  6
CONTINUOUS
 10
397.626160
 20
387.002991
  0
VERTEX
  8
OSA
 62
     2
  6
CONTINUOUS
 10
398.225037
 20
386.824707
  0
VERTEX
  8
OSA
 62
     2
  6
CONTINUOUS
 10
398.837219
 20
386.680328
  0
VERTEX
  8
OSA
 62
     2
  6
CONTINUOUS
 10
399.455017
 20
386.569061
  0
VERTEX
  8
OSA
 62
     2
  6
CONTINUOUS
 10
400.074402
 20
386.489258
  0
VERTEX
  8
OSA
 62
     2
  6
CONTINUOUS
 10
400.694641
 20
386.439331
  0
VERTEX
  8
OSA
 62
     2
  6
CONTINUOUS
 10
401.317688
 20
386.418213
  0
VERTEX
  8
OSA
 62
     2
  6
CONTINUOUS
 10
401.946594
 20
386.425995
  0
VERTEX
  8
OSA
 62
     2
  6
CONTINUOUS
 10
402.585144
 20
386.463959
  0
VERTEX
  8
OSA
 62
     2
  6
CONTINUOUS
 10
403.235291
 20
386.534637
  0
VERTEX
  8
OSA
 62
     2
  6
CONTINUOUS
 10
403.896790
 20
386.641602
  0
VERTEX
  8
OSA
 62
     2
  6
CONTINUOUS
 10
404.564392
 20
386.788605
  0
VERTEX
  8
OSA
 62
     2
  6
CONTINUOUS
 10
405.227844
 20
386.978455
  0
VERTEX
  8
OSA
 62
     2
  6
CONTINUOUS
 10
405.871155
 20
387.211548
  0
VERTEX
  8
OSA
 62
     2
  6
CONTINUOUS
 10
406.475037
 20
387.484467
  0
VERTEX
  8
OSA
 62
     2
  6
CONTINUOUS
 10
407.019714
 20
387.789490
  0
VERTEX
  8
OSA
 62
     2
  6
CONTINUOUS
 10
407.490051
 20
388.114990
  0
VERTEX
  8
OSA
 62
     2
  6
CONTINUOUS
 10
407.877625
 20
388.447510
  0
VERTEX
  8
OSA
 62
     2
  6
CONTINUOUS
 10
408.182434
 20
388.774017
  0
VERTEX
  8
OSA
 62
     2
  6
CONTINUOUS
 10
408.411560
 20
389.083893
  0
VERTEX
  8
OSA
 62
     2
  6
CONTINUOUS
 10
408.575867
 20
389.369843
  0
VERTEX
  8
OSA
 62
     2
  6
CONTINUOUS
 10
408.688171
 20
389.627991
  0
VERTEX
  8
OSA
 62
     2
  6
CONTINUOUS
 10
408.760437
 20
389.857147
  0
VERTEX
  8
OSA
 62
     2
  6
CONTINUOUS
 10
408.803284
 20
390.058075
  0
VERTEX
  8
OSA
 62
     2
  6
CONTINUOUS
 10
408.825256
 20
390.232788
  0
VERTEX
  8
OSA
 62
     2
  6
CONTINUOUS
 10
408.832825
 20
390.383759
  0
VERTEX
  8
OSA
 62
     2
  6
CONTINUOUS
 10
408.833069
 20
390.417419
  0
SEQEND
  8
OSA
  0
LINE
  8
OSA
 62
     2
  6
CONTINUOUS
 10
378.707303
 20
403.417439
 11
445.707303
 21
403.417439
  0
LINE
  8
OSA
 62
     2
  6
CONTINUOUS
 10
378.707303
 20
411.417439
 11
448.707303
 21
411.417439
  0
ARC
  8
OSA
 62
     2
  6
CONTINUOUS
 10
445.449774
 20
400.417439
 40
3.000000
 50
90.000000
 51
180.000000
  0
LINE
  8
OSA
 62
     2
  6
CONTINUOUS
 10
442.449774
 20
400.417439
 11
442.449774
 21
390.417439
  0
ARC
  8
OSA
 62
     2
  6
CONTINUOUS
 10
445.707303
 20
406.417439
 40
3.000000
 50
270.000000
 51
360.000000
  0
LINE
  8
OSA
 62
     2
  6
CONTINUOUS
 10
448.707303
 20
411.417439
 11
448.707303
 21
406.417439
  0
LINE
  8
OSA
 62
     2
  6
CONTINUOUS
 10
308.707303
 20
340.417439
 11
308.707303
 21
334.535174
  0
ARC
  8
OSA
 62
     2
  6
CONTINUOUS
 10
311.707303
 20
340.417439
 40
3.000000
 50
90.000000
 51
180.000000
  0
ARC
  8
OSA
 62
     2
  6
CONTINUOUS
 10
310.966132
 20
330.417439
 40
2.000000
 50
182.000000
 51
270.000000
  0
LINE
  8
OSA
 62
     2
  6
CONTINUOUS
 10
308.707303
 20
334.535174
 11
308.967350
 21
330.347640
  0
LINE
  8
OSA
 62
     2
  6
CONTINUOUS
 10
378.707303
 20
343.417439
 11
311.707303
 21
343.417439
  0
LINE
  8
OSA
 62
     2
  6
CONTINUOUS
 10
310.966132
 20
328.417439
 11
378.707303
 21
328.417439
  0
LINE
  8
OSA
 62
     2
  6
CONTINUOUS
 10
446.448474
 20
328.417439
 11
378.707303
 21
328.417439
  0
LINE
  8
OSA
 62
     2
  6
CONTINUOUS
 10
378.707303
 20
343.417439
 11
445.707303
 21
343.417439
  0
LINE
  8
OSA
 62
     2
  6
CONTINUOUS
 10
448.707303
 20
334.535174
 11
448.447256
 21
330.347640
  0
ARC
  8
OSA
 62
     2
  6
CONTINUOUS
 10
446.448474
 20
330.417439
 40
2.000000
 50
270.000000
 51
358.000000
  0
ARC
  8
OSA
 62
     2
  6
CONTINUOUS
 10
445.707303
 20
340.417439
 40
3.000000
 50
0.000000
 51
90.000000
  0
LINE
  8
OSA
 62
     2
  6
CONTINUOUS
 10
448.707303
 20
340.417439
 11
448.707303
 21
334.535174
  0
ARC
  8
OSA
 62
     2
  6
CONTINUOUS
 10
423.950854
 20
326.417439
 40
2.000000
 50
90.000000
 51
138.111296
  0
LINE
  8
OSA
 62
     2
  6
CONTINUOUS
 10
411.846908
 20
315.917439
 11
422.461968
 21
327.752811
  0
ARC
  8
OSA
 62
     2
  6
CONTINUOUS
 10
427.414625
 20
326.417439
 40
2.000000
 50
90.000000
 51
151.454628
  0
LINE
  8
OSA
 62
     2
  6
CONTINUOUS
 10
419.426053
 20
315.917439
 11
425.657747
 21
327.373149
  0
LINE
  8
OSA
 62
     2
  6
CONTINUOUS
 10
422.961933
 20
322.417439
 11
437.707303
 21
322.417439
  0
LINE
  8
OSA
 62
     2
  6
CONTINUOUS
 10
376.467363
 20
328.417439
 11
375.026253
 21
322.417439
  0
LINE
  8
OSA
 62
     2
  6
CONTINUOUS
 10
380.947243
 20
328.417439
 11
382.388353
 21
322.417439
  0
LINE
  8
OSA
 62
     2
  6
CONTINUOUS
 10
378.707303
 20
315.917439
 11
419.426053
 21
315.917439
  0
LINE
  8
OSA
 10
378.707303
 20
415.417439
 11
378.707303
 21
300.228731
  0
LINE
  8
OSA
 62
     2
  6
CONTINUOUS
 10
448.707303
 20
411.417439
 11
448.707303
 21
408.417439
  0
LINE
  8
OSA
 62
     2
  6
CONTINUOUS
 10
437.707303
 20
322.417439
 11
443.121517
 21
327.831653
  0
ARC
  8
OSA
 62
     2
  6
CONTINUOUS
 10
444.535730
 20
326.417439
 40
2.000000
 50
90.000000
 51
135.000000
  0
LINE
  8
OSA
 62
     2
  6
CONTINUOUS
 10
413.707303
 20
313.917439
 11
413.207303
 21
313.417439
  0
LINE
  8
OSA
 62
     2
  6
CONTINUOUS
 10
413.707303
 20
315.917439
 11
413.707303
 21
313.917439
  0
LINE
  8
OSA
 10
435.707303
 20
373.417439
 11
477.207303
 21
373.417439
  0
ARC
  8
OSA
 62
     2
  6
CONTINUOUS
 10
315.707303
 20
346.417439
 40
3.000000
 50
270.000000
 51
360.000000
  0
LINE
  8
OSA
 62
     2
  6
CONTINUOUS
 10
308.707303
 20
411.417439
 11
308.707303
 21
406.417439
  0
ARC
  8
OSA
 62
     2
  6
CONTINUOUS
 10
311.707303
 20
406.417439
 40
3.000000
 50
180.000000
 51
270.000000
  0
LINE
  8
OSA
 62
     2
  6
CONTINUOUS
 10
314.964832
 20
400.417439
 11
314.964832
 21
390.417439
  0
ARC
  8
OSA
 62
     2
  6
CONTINUOUS
 10
311.964832
 20
400.417439
 40
3.000000
 50
0.000000
 51
90.000000
  0
LINE
  8
OSA
 62
     2
  6
CONTINUOUS
 10
397.692536
 20
322.417439
 11
378.707303
 21
322.417439
  0
LINE
  8
OSA
 62
     2
  6
CONTINUOUS
 10
413.707303
 20
313.917439
 11
378.707303
 21
313.917439
  0
LINE
  8
OSA
 62
     2
  6
CONTINUOUS
 10
413.207303
 20
313.417439
 11
378.707303
 21
313.417439
  0
LINE
  8
OSA
 62
     2
  6
CONTINUOUS
 10
448.707303
 20
411.417439
 11
378.707303
 21
411.417439
  0
LINE
  8
OSA
 62
     2
  6
CONTINUOUS
 10
378.707303
 20
411.417439
 11
308.707303
 21
411.417439
  0
LINE
  8
OSA
 62
     2
  6
CONTINUOUS
 10
378.707303
 20
403.417439
 11
311.707303
 21
403.417439
  0
LINE
  8
OSA
 62
     2
  6
CONTINUOUS
 10
359.722070
 20
322.417439
 11
378.707303
 21
322.417439
  0
LINE
  8
OSA
 62
     2
  6
CONTINUOUS
 10
344.207303
 20
313.417439
 11
378.707303
 21
313.417439
  0
LINE
  8
OSA
 62
     2
  6
CONTINUOUS
 10
343.707303
 20
313.917439
 11
378.707303
 21
313.917439
  0
LINE
  8
OSA
 62
     2
  6
CONTINUOUS
 10
343.707303
 20
315.917439
 11
343.707303
 21
313.917439
  0
LINE
  8
OSA
 62
     2
  6
CONTINUOUS
 10
343.707303
 20
313.917439
 11
344.207303
 21
313.417439
  0
POLYLINE
  8
OSA
 62
     2
  6
CONTINUOUS
 66
    1
  0
VERTEX
  8
OSA
 62
     2
  6
CONTINUOUS
 10
363.318604
 20
390.417419
  0
VERTEX
  8
OSA
 62
     2
  6
CONTINUOUS
 10
363.314941
 20
390.292206
  0
VERTEX
  8
OSA
 62
     2
  6
CONTINUOUS
 10
363.302124
 20
390.149841
  0
VERTEX
  8
OSA
 62
     2
  6
CONTINUOUS
 10
363.276123
 20
389.988556
  0
VERTEX
  8
OSA
 62
     2
  6
CONTINUOUS
 10
363.232300
 20
389.806824
  0
VERTEX
  8
OSA
 62
     2
  6
CONTINUOUS
 10
363.164429
 20
389.603455
  0
VERTEX
  8
OSA
 62
     2
  6
CONTINUOUS
 10
363.065552
 20
389.378052
  0
VERTEX
  8
OSA
 62
     2
  6
CONTINUOUS
 10
362.927368
 20
389.131317
  0
VERTEX
  8
OSA
 62
     2
  6
CONTINUOUS
 10
362.741333
 20
388.865479
  0
VERTEX
  8
OSA
 62
     2
  6
CONTINUOUS
 10
362.499634
 20
388.584656
  0
VERTEX
  8
OSA
 62
     2
  6
CONTINUOUS
 10
362.195801
 20
388.295013
  0
VERTEX
  8
OSA
 62
     2
  6
CONTINUOUS
 10
361.826782
 20
388.004364
  0
VERTEX
  8
OSA
 62
     2
  6
CONTINUOUS
 10
361.393799
 20
387.721680
  0
VERTEX
  8
OSA
 62
     2
  6
CONTINUOUS
 10
360.902832
 20
387.455780
  0
VERTEX
  8
OSA
 62
     2
  6
CONTINUOUS
 10
360.363647
 20
387.214386
  0
VERTEX
  8
OSA
 62
     2
  6
CONTINUOUS
 10
359.788452
 20
387.002991
  0
VERTEX
  8
OSA
 62
     2
  6
CONTINUOUS
 10
359.189575
 20
386.824707
  0
VERTEX
  8
OSA
 62
     2
  6
CONTINUOUS
 10
358.577393
 20
386.680328
  0
VERTEX
  8
OSA
 62
     2
  6
CONTINUOUS
 10
357.959595
 20
386.569061
  0
VERTEX
  8
OSA
 62
     2
  6
CONTINUOUS
 10
357.340210
 20
386.489258
  0
VERTEX
  8
OSA
 62
     2
  6
CONTINUOUS
 10
356.719971
 20
386.439331
  0
VERTEX
  8
OSA
 62
     2
  6
CONTINUOUS
 10
356.096924
 20
386.418213
  0
VERTEX
  8
OSA
 62
     2
  6
CONTINUOUS
 10
355.468018
 20
386.425995
  0
VERTEX
  8
OSA
 62
     2
  6
CONTINUOUS
 10
354.829468
 20
386.463959
  0
VERTEX
  8
OSA
 62
     2
  6
CONTINUOUS
 10
354.179321
 20
386.534637
  0
VERTEX
  8
OSA
 62
     2
  6
CONTINUOUS
 10
353.517822
 20
386.641602
  0
VERTEX
  8
OSA
 62
     2
  6
CONTINUOUS
 10
352.850220
 20
386.788605
  0
VERTEX
  8
OSA
 62
     2
  6
CONTINUOUS
 10
352.186768
 20
386.978455
  0
VERTEX
  8
OSA
 62
     2
  6
CONTINUOUS
 10
351.543457
 20
387.211548
  0
VERTEX
  8
OSA
 62
     2
  6
CONTINUOUS
 10
350.939575
 20
387.484467
  0
VERTEX
  8
OSA
 62
     2
  6
CONTINUOUS
 10
350.394897
 20
387.789490
  0
VERTEX
  8
OSA
 62
     2
  6
CONTINUOUS
 10
349.924561
 20
388.114990
  0
VERTEX
  8
OSA
 62
     2
  6
CONTINUOUS
 10
349.536987
 20
388.447510
  0
VERTEX
  8
OSA
 62
     2
  6
CONTINUOUS
 10
349.232178
 20
388.774017
  0
VERTEX
  8
OSA
 62
     2
  6
CONTINUOUS
 10
349.003052
 20
389.083893
  0
VERTEX
  8
OSA
 62
     2
  6
CONTINUOUS
 10
348.838745
 20
389.369843
  0
VERTEX
  8
OSA
 62
     2
  6
CONTINUOUS
 10
348.726440
 20
389.627991
  0
VERTEX
  8
OSA
 62
     2
  6
CONTINUOUS
 10
348.654175
 20
389.857147
  0
VERTEX
  8
OSA
 62
     2
  6
CONTINUOUS
 10
348.611328
 20
390.058075
  0
VERTEX
  8
OSA
 62
     2
  6
CONTINUOUS
 10
348.589355
 20
390.232788
  0
VERTEX
  8
OSA
 62
     2
  6
CONTINUOUS
 10
348.581787
 20
390.383759
  0
VERTEX
  8
OSA
 62
     2
  6
CONTINUOUS
 10
348.581543
 20
390.417419
  0
SEQEND
  8
OSA
  0
LINE
  8
OSA
 62
     2
  6
CONTINUOUS
 10
348.581513
 20
390.417442
 11
348.581513
 21
403.417439
  0
LINE
  8
OSA
 62
     2
  6
CONTINUOUS
 10
363.318605
 20
390.417442
 11
363.318605
 21
403.417439
  0
LINE
  8
OSA
 62
     2
  6
CONTINUOUS
 10
326.818607
 20
390.417439
 11
326.818607
 21
403.417439
  0
LINE
  8
OSA
 62
     2
  6
CONTINUOUS
 10
318.707303
 20
384.654927
 11
318.707303
 21
346.417439
  0
LINE
  8
OSA
 62
     2
  6
CONTINUOUS
 10
326.818607
 20
390.417439
 11
326.816727
 21
390.316705
  0
LINE
  8
OSA
 62
     2
  6
CONTINUOUS
 10
326.816727
 20
390.316705
 11
326.810007
 21
390.202038
  0
LINE
  8
OSA
 62
     2
  6
CONTINUOUS
 10
326.810007
 20
390.202038
 11
326.796437
 21
390.071785
  0
LINE
  8
OSA
 62
     2
  6
CONTINUOUS
 10
326.796437
 20
390.071785
 11
326.773387
 21
389.924267
  0
LINE
  8
OSA
 62
     2
  6
CONTINUOUS
 10
326.773387
 20
389.924267
 11
326.737481
 21
389.757884
  0
LINE
  8
OSA
 62
     2
  6
CONTINUOUS
 10
326.737481
 20
389.757884
 11
326.684476
 21
389.571274
  0
LINE
  8
OSA
 62
     2
  6
CONTINUOUS
 10
326.684476
 20
389.571274
 11
326.609190
 21
389.363545
  0
LINE
  8
OSA
 62
     2
  6
CONTINUOUS
 10
326.609190
 20
389.363545
 11
326.505524
 21
389.134579
  0
LINE
  8
OSA
 62
     2
  6
CONTINUOUS
 10
326.505524
 20
389.134579
 11
326.366646
 21
388.885398
  0
LINE
  8
OSA
 62
     2
  6
CONTINUOUS
 10
326.366646
 20
388.885398
 11
326.185419
 21
388.618537
  0
LINE
  8
OSA
 62
     2
  6
CONTINUOUS
 10
326.185419
 20
388.618537
 11
325.955092
 21
388.338355
  0
LINE
  8
OSA
 62
     2
  6
CONTINUOUS
 10
325.955092
 20
388.338355
 11
325.670250
 21
388.051119
  0
LINE
  8
OSA
 62
     2
  6
CONTINUOUS
 10
325.670250
 20
388.051119
 11
325.327828
 21
387.764773
  0
LINE
  8
OSA
 62
     2
  6
CONTINUOUS
 10
325.327828
 20
387.764773
 11
324.927927
 21
387.488304
  0
LINE
  8
OSA
 62
     2
  6
CONTINUOUS
 10
324.927927
 20
387.488304
 11
324.474080
 21
387.230792
  0
LINE
  8
OSA
 62
     2
  6
CONTINUOUS
 10
324.474080
 20
387.230792
 11
323.972793
 21
387.000401
  0
LINE
  8
OSA
 62
     2
  6
CONTINUOUS
 10
323.972793
 20
387.000401
 11
323.432418
 21
386.803601
  0
LINE
  8
OSA
 62
     2
  6
CONTINUOUS
 10
323.432418
 20
386.803601
 11
322.861713
 21
386.644861
  0
LINE
  8
OSA
 62
     2
  6
CONTINUOUS
 10
322.861713
 20
386.644861
 11
322.268574
 21
386.526869
  0
LINE
  8
OSA
 62
     2
  6
CONTINUOUS
 10
322.268574
 20
386.526869
 11
321.659299
 21
386.451126
  0
LINE
  8
OSA
 62
     2
  6
CONTINUOUS
 10
321.659299
 20
386.451126
 11
321.038588
 21
386.418668
  0
LINE
  8
OSA
 62
     2
  6
CONTINUOUS
 10
321.038588
 20
386.418668
 11
320.410212
 21
386.430662
  0
LINE
  8
OSA
 62
     2
  6
CONTINUOUS
 10
320.410212
 20
386.430662
 11
319.778199
 21
386.488668
  0
LINE
  8
OSA
 62
     2
  6
CONTINUOUS
 10
319.778199
 20
386.488668
 11
319.148213
 21
386.594426
  0
LINE
  8
OSA
 62
     2
  6
CONTINUOUS
 10
319.148213
 20
386.594426
 11
318.528729
 21
386.749096
  0
LINE
  8
OSA
 62
     2
  6
CONTINUOUS
 10
318.528729
 20
386.749096
 11
317.931471
 21
386.952094
  0
LINE
  8
OSA
 62
     2
  6
CONTINUOUS
 10
317.931471
 20
386.952094
 11
316.919506
 21
387.399114
  0
LINE
  8
OSA
 62
     2
  6
CONTINUOUS
 10
317.370647
 20
387.199829
 11
316.860876
 21
387.484942
  0
LINE
  8
OSA
 62
     2
  6
CONTINUOUS
 10
316.860876
 20
387.484942
 11
316.414362
 21
387.796529
  0
LINE
  8
OSA
 62
     2
  6
CONTINUOUS
 10
316.414362
 20
387.796529
 11
316.038388
 21
388.121506
  0
LINE
  8
OSA
 62
     2
  6
CONTINUOUS
 10
316.038388
 20
388.121506
 11
315.734158
 21
388.446626
  0
LINE
  8
OSA
 62
     2
  6
CONTINUOUS
 10
315.734158
 20
388.446626
 11
315.497305
 21
388.760410
  0
LINE
  8
OSA
 62
     2
  6
CONTINUOUS
 10
315.497305
 20
388.760410
 11
315.319590
 21
389.054333
  0
LINE
  8
OSA
 62
     2
  6
CONTINUOUS
 10
315.319590
 20
389.054333
 11
315.190942
 21
389.323133
  0
LINE
  8
OSA
 62
     2
  6
CONTINUOUS
 10
315.190942
 20
389.323133
 11
315.101167
 21
389.564432
  0
LINE
  8
OSA
 62
     2
  6
CONTINUOUS
 10
315.101167
 20
389.564432
 11
315.041045
 21
389.778037
  0
LINE
  8
OSA
 62
     2
  6
CONTINUOUS
 10
315.041045
 20
389.778037
 11
315.002835
 21
389.965198
  0
LINE
  8
OSA
 62
     2
  6
CONTINUOUS
 10
315.002835
 20
389.965198
 11
314.980370
 21
390.127992
  0
LINE
  8
OSA
 62
     2
  6
CONTINUOUS
 10
314.980370
 20
390.127992
 11
314.968922
 21
390.268872
  0
LINE
  8
OSA
 62
     2
  6
CONTINUOUS
 10
314.968922
 20
390.268872
 11
314.964968
 21
390.390366
  0
LINE
  8
OSA
 62
     2
  6
CONTINUOUS
 10
314.964968
 20
390.390366
 11
314.964832
 21
390.417439
  0
ARC
  8
OSA
 62
     2
  6
CONTINUOUS
 10
315.707303
 20
384.654927
 40
3.000000
 50
0.000000
 51
66.167287
  0
CIRCLE
  8
OSA
 62
     2
  6
CONTINUOUS
 10
378.707303
 20
373.417439
 40
9.000000
  0
INSERT
  8
OSA
  2
Sroub_M10x16__24
  6
CONTINUOUS
 10
378.707303
 20
373.417439
  0
LINE
  8
OSA
 62
     2
  6
CONTINUOUS
 10
300.707303
 20
376.417439
 11
318.707303
 21
376.417439
  0
LINE
  8
OSA
 62
     2
  6
CONTINUOUS
 10
300.707303
 20
370.417439
 11
318.707303
 21
370.417439
  0
LINE
  8
OSA
 62
     2
  6
CONTINUOUS
 10
300.707303
 20
338.417439
 11
300.707303
 21
408.417439
  0
LINE
  8
OSA
 62
     2
  6
CONTINUOUS
 10
453.707303
 20
338.417439
 11
453.707303
 21
408.417439
  0
ARC
  8
OSA
 62
     2
  6
CONTINUOUS
 10
440.707303
 20
384.417439
 40
2.000000
 50
180.000000
 51
270.000000
  0
ARC
  8
OSA
 62
     2
  6
CONTINUOUS
 10
440.707303
 20
362.417439
 40
2.000000
 50
90.000000
 51
180.000000
  0
LINE
  8
OSA
 62
     2
  6
CONTINUOUS
 10
440.707303
 20
382.417439
 11
440.707303
 21
364.417439
  0
INSERT
  8
OSA
  2
M10x1__25
  6
CONTINUOUS
 10
440.707303
 20
373.417439
  0
LINE
  8
OSA
 62
     2
  6
CONTINUOUS
 10
443.707303
 20
370.417439
 11
453.707303
 21
370.417439
  0
LINE
  8
OSA
 62
     2
  6
CONTINUOUS
 10
443.707303
 20
376.417439
 11
453.707303
 21
376.417439
  0
LINE
  8
OSA
 10
438.707303
 20
373.417439
 11
279.004531
 21
373.417439
  0
ENDBLK
  8
OSA
  0
BLOCK
  8
OSA
  2
Sroub_M10x16__24
 70
   66
 10
378.707303
 20
373.417439
  0
LINE
  8
OSA
 62
     2
  6
CONTINUOUS
 10
374.707303
 20
375.726855
 11
374.707303
 21
371.108024
  0
LINE
  8
OSA
 62
     2
  6
CONTINUOUS
 10
374.707303
 20
371.108024
 11
378.707303
 21
368.798608
  0
LINE
  8
OSA
 62
     2
  6
CONTINUOUS
 10
378.707303
 20
368.798608
 11
382.707303
 21
371.108024
  0
LINE
  8
OSA
 62
     2
  6
CONTINUOUS
 10
382.707303
 20
371.108024
 11
382.707303
 21
375.726855
  0
LINE
  8
OSA
 62
     2
  6
CONTINUOUS
 10
382.707303
 20
375.726855
 11
378.707303
 21
378.036270
  0
LINE
  8
OSA
 62
     2
  6
CONTINUOUS
 10
378.707303
 20
378.036270
 11
374.707303
 21
375.726855
  0
CIRCLE
  8
OSA
 62
     2
  6
CONTINUOUS
 10
378.707303
 20
373.417439
 40
4.618831
  0
CIRCLE
  8
OSA
 62
     2
  6
CONTINUOUS
 10
378.707303
 20
373.417439
 40
8.000000
  0
ENDBLK
  8
OSA
  0
BLOCK
  8
OSA
  2
M10x1__25
 70
   66
 10
440.707303
 20
373.417439
  0
LINE
  8
OSA
 10
431.378401
 20
373.417439
 11
445.152651
 21
373.417439
  0
LINE
  8
OSA
 62
     2
  6
CONTINUOUS
 10
440.707303
 20
380.417439
 11
440.707303
 21
366.417439
  0
LINE
  8
OSA
 62
     2
  6
CONTINUOUS
 10
440.707303
 20
366.417439
 11
442.707303
 21
366.417439
  0
LINE
  8
OSA
 62
     2
  6
CONTINUOUS
 10
440.707303
 20
380.417439
 11
442.707303
 21
380.417439
  0
ARC
  8
OSA
 62
     2
  6
CONTINUOUS
 10
442.707303
 20
367.417439
 40
1.000000
 50
270.000000
 51
360.000000
  0
LINE
  8
OSA
 62
     2
  6
CONTINUOUS
 10
443.707303
 20
379.417439
 11
443.707303
 21
367.417439
  0
ARC
  8
OSA
 62
     2
  6
CONTINUOUS
 10
442.707303
 20
379.417439
 40
1.000000
 50
0.000000
 51
90.000000
  0
ENDBLK
  8
OSA
  0
BLOCK
  8
OSA
  2
_16
 70
   64
 10
438.707303
 20
-83.556697
  0
LINE
  8
OSA
 62
     2
  6
CONTINUOUS
 10
308.707303
 20
-121.556697
 11
308.707303
 21
-118.556697
  0
LINE
  8
OSA
 62
     2
  6
CONTINUOUS
 10
448.707303
 20
-121.556697
 11
448.707303
 21
-118.556697
  0
LINE
  8
OSA
 62
     2
  6
CONTINUOUS
 10
453.707303
 20
-118.556697
 11
300.707303
 21
-118.556697
  0
LINE
  8
OSA
 62
     2
  6
CONTINUOUS
 10
453.707303
 20
-48.556697
 11
453.707303
 21
-118.556697
  0
LINE
  8
OSA
 62
     2
  6
CONTINUOUS
 10
420.993707
 20
-48.556697
 11
420.993707
 21
-118.556697
  0
LINE
  8
OSA
 62
     2
  6
CONTINUOUS
 10
336.420900
 20
-48.556697
 11
336.420900
 21
-118.556697
  0
LINE
  8
OSA
 62
     2
  6
CONTINUOUS
 10
328.994998
 20
-80.556697
 11
300.114470
 21
-80.556697
  0
LINE
  8
OSA
 62
     2
  6
CONTINUOUS
 10
328.994998
 20
-86.556697
 11
300.114470
 21
-86.556697
  0
LINE
  8
OSA
 62
     2
  6
CONTINUOUS
 10
300.707303
 20
-48.556697
 11
453.707303
 21
-48.556697
  0
POLYLINE
  8
OSA
 62
     2
  6
CONTINUOUS
 66
    1
  0
VERTEX
  8
OSA
 62
     2
  6
CONTINUOUS
 10
328.419556
 20
-48.541912
  0
VERTEX
  8
OSA
 62
     2
  6
CONTINUOUS
 10
328.419556
 20
-48.541912
  0
VERTEX
  8
OSA
 62
     2
  6
CONTINUOUS
 10
329.119202
 20
-49.287155
  0
VERTEX
  8
OSA
 62
     2
  6
CONTINUOUS
 10
329.265625
 20
-49.556698
  0
VERTEX
  8
OSA
 62
     2
  6
CONTINUOUS
 10
334.160187
 20
-56.470818
  0
VERTEX
  8
OSA
 62
     2
  6
CONTINUOUS
 10
336.283386
 20
-62.956493
  0
VERTEX
  8
OSA
 62
     2
  6
CONTINUOUS
 10
335.867889
 20
-69.275230
  0
VERTEX
  8
OSA
 62
     2
  6
CONTINUOUS
 10
332.829254
 20
-75.933807
  0
VERTEX
  8
OSA
 62
     2
  6
CONTINUOUS
 10
328.994995
 20
-80.556694
  0
VERTEX
  8
OSA
 62
     2
  6
CONTINUOUS
 10
328.306824
 20
-81.702599
  0
VERTEX
  8
OSA
 62
     2
  6
CONTINUOUS
 10
328.064423
 20
-82.929527
  0
VERTEX
  8
OSA
 62
     2
  6
CONTINUOUS
 10
328.171387
 20
-83.556694
  0
VERTEX
  8
OSA
 62
     2
  6
CONTINUOUS
 10
328.064423
 20
-84.183868
  0
VERTEX
  8
OSA
 62
     2
  6
CONTINUOUS
 10
328.306824
 20
-85.410797
  0
VERTEX
  8
OSA
 62
     2
  6
CONTINUOUS
 10
328.994995
 20
-86.556694
  0
VERTEX
  8
OSA
 62
     2
  6
CONTINUOUS
 10
332.829254
 20
-91.179581
  0
VERTEX
  8
OSA
 62
     2
  6
CONTINUOUS
 10
335.867889
 20
-97.838165
  0
VERTEX
  8
OSA
 62
     2
  6
CONTINUOUS
 10
336.283386
 20
-104.156898
  0
VERTEX
  8
OSA
 62
     2
  6
CONTINUOUS
 10
334.160187
 20
-110.642578
  0
VERTEX
  8
OSA
 62
     2
  6
CONTINUOUS
 10
329.265625
 20
-117.556694
  0
VERTEX
  8
OSA
 62
     2
  6
CONTINUOUS
 10
329.119202
 20
-117.826241
  0
VERTEX
  8
OSA
 62
     2
  6
CONTINUOUS
 10
328.419556
 20
-118.571480
  0
SEQEND
  8
OSA
  0
POLYLINE
  8
OSA
 62
     2
  6
CONTINUOUS
 66
    1
  0
VERTEX
  8
OSA
 62
     2
  6
CONTINUOUS
 10
428.995056
 20
-48.541912
  0
VERTEX
  8
OSA
 62
     2
  6
CONTINUOUS
 10
428.995056
 20
-48.541912
  0
VERTEX
  8
OSA
 62
     2
  6
CONTINUOUS
 10
428.295410
 20
-49.287155
  0
VERTEX
  8
OSA
 62
     2
  6
CONTINUOUS
 10
428.148987
 20
-49.556698
  0
VERTEX
  8
OSA
 62
     2
  6
CONTINUOUS
 10
423.254425
 20
-56.470818
  0
VERTEX
  8
OSA
 62
     2
  6
CONTINUOUS
 10
421.131226
 20
-62.956493
  0
VERTEX
  8
OSA
 62
     2
  6
CONTINUOUS
 10
421.546692
 20
-69.275230
  0
VERTEX
  8
OSA
 62
     2
  6
CONTINUOUS
 10
424.585358
 20
-75.933807
  0
VERTEX
  8
OSA
 62
     2
  6
CONTINUOUS
 10
428.419617
 20
-80.556694
  0
VERTEX
  8
OSA
 62
     2
  6
CONTINUOUS
 10
429.107788
 20
-81.702599
  0
VERTEX
  8
OSA
 62
     2
  6
CONTINUOUS
 10
429.350189
 20
-82.929527
  0
VERTEX
  8
OSA
 62
     2
  6
CONTINUOUS
 10
429.243195
 20
-83.556694
  0
VERTEX
  8
OSA
 62
     2
  6
CONTINUOUS
 10
429.350189
 20
-84.183868
  0
VERTEX
  8
OSA
 62
     2
  6
CONTINUOUS
 10
429.107788
 20
-85.410797
  0
VERTEX
  8
OSA
 62
     2
  6
CONTINUOUS
 10
428.419617
 20
-86.556694
  0
VERTEX
  8
OSA
 62
     2
  6
CONTINUOUS
 10
424.585358
 20
-91.179581
  0
VERTEX
  8
OSA
 62
     2
  6
CONTINUOUS
 10
421.546692
 20
-97.838165
  0
VERTEX
  8
OSA
 62
     2
  6
CONTINUOUS
 10
421.131226
 20
-104.156898
  0
VERTEX
  8
OSA
 62
     2
  6
CONTINUOUS
 10
423.254425
 20
-110.642578
  0
VERTEX
  8
OSA
 62
     2
  6
CONTINUOUS
 10
428.148987
 20
-117.556694
  0
VERTEX
  8
OSA
 62
     2
  6
CONTINUOUS
 10
428.295410
 20
-117.826241
  0
VERTEX
  8
OSA
 62
     2
  6
CONTINUOUS
 10
428.995056
 20
-118.571480
  0
SEQEND
  8
OSA
  0
LINE
  8
OSA
 62
     2
  6
CONTINUOUS
 10
428.419602
 20
-86.556697
 11
454.300131
 21
-86.556697
  0
LINE
  8
OSA
 62
     2
  6
CONTINUOUS
 10
428.419602
 20
-80.556697
 11
454.300131
 21
-80.556697
  0
LINE
  8
OSA
 62
     2
  6
CONTINUOUS
 10
448.948393
 20
-48.556697
 11
448.447256
 21
-40.486898
  0
LINE
  8
OSA
 62
     2
  6
CONTINUOUS
 10
308.466213
 20
-48.556697
 11
308.967350
 21
-40.486898
  0
LINE
  8
OSA
 62
     2
  6
CONTINUOUS
 10
300.707303
 20
-48.556697
 11
300.707303
 21
-118.556697
  0
LINE
  8
OSA
 62
     2
  6
CONTINUOUS
 10
343.707303
 20
-24.056697
 11
344.207303
 21
-23.556697
  0
LINE
  8
OSA
 62
     2
  6
CONTINUOUS
 10
343.707303
 20
-26.056697
 11
343.707303
 21
-24.056697
  0
LINE
  8
OSA
 62
     2
  6
CONTINUOUS
 10
343.707303
 20
-24.056697
 11
378.707303
 21
-24.056697
  0
LINE
  8
OSA
 62
     2
  6
CONTINUOUS
 10
344.207303
 20
-23.556697
 11
378.707303
 21
-23.556697
  0
LINE
  8
OSA
 62
     2
  6
CONTINUOUS
 10
359.722070
 20
-32.556697
 11
378.707303
 21
-32.556697
  0
LINE
  8
OSA
 62
     2
  6
CONTINUOUS
 10
378.707303
 20
-121.556697
 11
308.707303
 21
-121.556697
  0
LINE
  8
OSA
 62
     2
  6
CONTINUOUS
 10
448.707303
 20
-121.556697
 11
378.707303
 21
-121.556697
  0
LINE
  8
OSA
 62
     2
  6
CONTINUOUS
 10
413.207303
 20
-23.556697
 11
378.707303
 21
-23.556697
  0
LINE
  8
OSA
 62
     2
  6
CONTINUOUS
 10
413.707303
 20
-24.056697
 11
378.707303
 21
-24.056697
  0
LINE
  8
OSA
 62
     2
  6
CONTINUOUS
 10
397.692536
 20
-32.556697
 11
378.707303
 21
-32.556697
  0
LINE
  8
OSA
 10
435.707303
 20
-83.556697
 11
477.207303
 21
-83.556697
  0
LINE
  8
OSA
 62
     2
  6
CONTINUOUS
 10
413.707303
 20
-26.056697
 11
413.707303
 21
-24.056697
  0
LINE
  8
OSA
 62
     2
  6
CONTINUOUS
 10
413.707303
 20
-24.056697
 11
413.207303
 21
-23.556697
  0
ARC
  8
OSA
 62
     2
  6
CONTINUOUS
 10
444.535730
 20
-36.556697
 40
2.000000
 50
225.000000
 51
270.000000
  0
LINE
  8
OSA
 62
     2
  6
CONTINUOUS
 10
437.707303
 20
-32.556697
 11
443.121517
 21
-37.970910
  0
LINE
  8
OSA
 10
378.707303
 20
-125.556697
 11
378.707303
 21
-10.367988
  0
LINE
  8
OSA
 62
     2
  6
CONTINUOUS
 10
378.707303
 20
-26.056697
 11
419.426053
 21
-26.056697
  0
LINE
  8
OSA
 62
     2
  6
CONTINUOUS
 10
380.947243
 20
-38.556697
 11
382.388353
 21
-32.556697
  0
LINE
  8
OSA
 62
     2
  6
CONTINUOUS
 10
376.467363
 20
-38.556697
 11
375.026253
 21
-32.556697
  0
LINE
  8
OSA
 62
     2
  6
CONTINUOUS
 10
422.961933
 20
-32.556697
 11
437.707303
 21
-32.556697
  0
LINE
  8
OSA
 62
     2
  6
CONTINUOUS
 10
419.426053
 20
-26.056697
 11
425.657747
 21
-37.512406
  0
ARC
  8
OSA
 62
     2
  6
CONTINUOUS
 10
427.414625
 20
-36.556697
 40
2.000000
 50
208.545372
 51
270.000000
  0
LINE
  8
OSA
 62
     2
  6
CONTINUOUS
 10
411.846908
 20
-26.056697
 11
422.461968
 21
-37.892068
  0
ARC
  8
OSA
 62
     2
  6
CONTINUOUS
 10
423.950854
 20
-36.556697
 40
2.000000
 50
221.888704
 51
270.000000
  0
ARC
  8
OSA
 62
     2
  6
CONTINUOUS
 10
446.448474
 20
-40.556697
 40
2.000000
 50
2.000000
 51
90.000000
  0
LINE
  8
OSA
 62
     2
  6
CONTINUOUS
 10
446.448474
 20
-38.556697
 11
378.707303
 21
-38.556697
  0
LINE
  8
OSA
 62
     2
  6
CONTINUOUS
 10
310.966132
 20
-38.556697
 11
378.707303
 21
-38.556697
  0
ARC
  8
OSA
 62
     2
  6
CONTINUOUS
 10
310.966132
 20
-40.556697
 40
2.000000
 50
90.000000
 51
178.000000
  0
LINE
  8
OSA
 62
     2
  6
CONTINUOUS
 10
378.707303
 20
-121.556697
 11
448.707303
 21
-121.556697
  0
ARC
  8
OSA
 62
     2
  6
CONTINUOUS
 10
333.463752
 20
-36.556697
 40
2.000000
 50
270.000000
 51
318.111296
  0
LINE
  8
OSA
 62
     2
  6
CONTINUOUS
 10
345.567698
 20
-26.056697
 11
334.952638
 21
-37.892068
  0
ARC
  8
OSA
 62
     2
  6
CONTINUOUS
 10
329.999982
 20
-36.556697
 40
2.000000
 50
270.000000
 51
331.454628
  0
LINE
  8
OSA
 62
     2
  6
CONTINUOUS
 10
337.988553
 20
-26.056697
 11
331.756860
 21
-37.512406
  0
LINE
  8
OSA
 62
     2
  6
CONTINUOUS
 10
334.452673
 20
-32.556697
 11
319.707303
 21
-32.556697
  0
LINE
  8
OSA
 62
     2
  6
CONTINUOUS
 10
378.707303
 20
-26.056697
 11
337.988553
 21
-26.056697
  0
LINE
  8
OSA
 62
     2
  6
CONTINUOUS
 10
319.707303
 20
-32.556697
 11
314.293090
 21
-37.970910
  0
ARC
  8
OSA
 62
     2
  6
CONTINUOUS
 10
312.878876
 20
-36.556697
 40
2.000000
 50
270.000000
 51
315.000000
  0
LINE
  8
OSA
 10
438.707303
 20
-83.556697
 11
279.975360
 21
-83.556697
  0
ENDBLK
  8
OSA
  0
BLOCK
  8
OSA
  2
_17
 70
   64
 10
140.054767
 20
176.732692
  0
LINE
  8
OSA
 62
     2
  6
CONTINUOUS
 10
197.554767
 20
116.732692
 11
197.554767
 21
76.013942
  0
ARC
  8
OSA
 62
     2
  6
CONTINUOUS
 10
187.054767
 20
50.904265
 40
2.000000
 50
135.000000
 51
180.000000
  0
LINE
  8
OSA
 62
     2
  6
CONTINUOUS
 10
191.054767
 20
57.732692
 11
185.640553
 21
52.318478
  0
LINE
  8
OSA
 62
     2
  6
CONTINUOUS
 10
191.054767
 20
72.478062
 11
191.054767
 21
57.732692
  0
LINE
  8
OSA
 62
     2
  6
CONTINUOUS
 10
197.554767
 20
76.013942
 11
186.099058
 21
69.782248
  0
ARC
  8
OSA
 62
     2
  6
CONTINUOUS
 10
187.054767
 20
68.025370
 40
2.000000
 50
118.545372
 51
180.000000
  0
LINE
  8
OSA
 62
     2
  6
CONTINUOUS
 10
197.554767
 20
83.593087
 11
185.719395
 21
72.978027
  0
ARC
  8
OSA
 62
     2
  6
CONTINUOUS
 10
187.054767
 20
71.489141
 40
2.000000
 50
131.888704
 51
180.000000
  0
INSERT
  8
OSA
  2
Vnitrni_metricky_zavit_M1__27
  6
CONTINUOUS
 10
140.054767
 20
116.732692
  0
CIRCLE
  8
OSA
 62
     2
  6
CONTINUOUS
 10
140.054767
 20
116.732692
 40
9.000000
  0
POLYLINE
  8
OSA
 62
     2
  6
CONTINUOUS
 66
    1
  0
VERTEX
  8
OSA
 62
     2
  6
CONTINUOUS
 10
123.054779
 20
132.121338
  0
VERTEX
  8
OSA
 62
     2
  6
CONTINUOUS
 10
123.179993
 20
132.125000
  0
VERTEX
  8
OSA
 62
     2
  6
CONTINUOUS
 10
123.322357
 20
132.137939
  0
VERTEX
  8
OSA
 62
     2
  6
CONTINUOUS
 10
123.483643
 20
132.163818
  0
VERTEX
  8
OSA
 62
     2
  6
CONTINUOUS
 10
123.665390
 20
132.207764
  0
VERTEX
  8
OSA
 62
     2
  6
CONTINUOUS
 10
123.868744
 20
132.275513
  0
VERTEX
  8
OSA
 62
     2
  6
CONTINUOUS
 10
124.094147
 20
132.374512
  0
VERTEX
  8
OSA
 62
     2
  6
CONTINUOUS
 10
124.340897
 20
132.512695
  0
VERTEX
  8
OSA
 62
     2
  6
CONTINUOUS
 10
124.606720
 20
132.698608
  0
VERTEX
  8
OSA
 62
     2
  6
CONTINUOUS
 10
124.887543
 20
132.940308
  0
VERTEX
  8
OSA
 62
     2
  6
CONTINUOUS
 10
125.177200
 20
133.244263
  0
VERTEX
  8
OSA
 62
     2
  6
CONTINUOUS
 10
125.467834
 20
133.613159
  0
VERTEX
  8
OSA
 62
     2
  6
CONTINUOUS
 10
125.750534
 20
134.046143
  0
VERTEX
  8
OSA
 62
     2
  6
CONTINUOUS
 10
126.016418
 20
134.537109
  0
VERTEX
  8
OSA
 62
     2
  6
CONTINUOUS
 10
126.257828
 20
135.076294
  0
VERTEX
  8
OSA
 62
     2
  6
CONTINUOUS
 10
126.469208
 20
135.651489
  0
VERTEX
  8
OSA
 62
     2
  6
CONTINUOUS
 10
126.647491
 20
136.250488
  0
VERTEX
  8
OSA
 62
     2
  6
CONTINUOUS
 10
126.791870
 20
136.862549
  0
VERTEX
  8
OSA
 62
     2
  6
CONTINUOUS
 10
126.903152
 20
137.480347
  0
VERTEX
  8
OSA
 62
     2
  6
CONTINUOUS
 10
126.982941
 20
138.099731
  0
VERTEX
  8
OSA
 62
     2
  6
CONTINUOUS
 10
127.032883
 20
138.720093
  0
VERTEX
  8
OSA
 62
     2
  6
CONTINUOUS
 10
127.053986
 20
139.343018
  0
VERTEX
  8
OSA
 62
     2
  6
CONTINUOUS
 10
127.046204
 20
139.972046
  0
VERTEX
  8
OSA
 62
     2
  6
CONTINUOUS
 10
127.008255
 20
140.610474
  0
VERTEX
  8
OSA
 62
     2
  6
CONTINUOUS
 10
126.937561
 20
141.260742
  0
VERTEX
  8
OSA
 62
     2
  6
CONTINUOUS
 10
126.880249
 20
141.615112
  0
SEQEND
  8
OSA
  0
ARC
  8
OSA
 62
     2
  6
CONTINUOUS
 10
112.054767
 20
130.121390
 40
2.000000
 50
90.000000
 51
180.000000
  0
LINE
  8
OSA
 62
     2
  6
CONTINUOUS
 10
123.054767
 20
132.121390
 11
112.054767
 21
132.121390
  0
ARC
  8
OSA
 62
     2
  6
CONTINUOUS
 10
187.054767
 20
161.976243
 40
2.000000
 50
180.000000
 51
228.111296
  0
LINE
  8
OSA
 62
     2
  6
CONTINUOUS
 10
197.554767
 20
149.872297
 11
185.719395
 21
160.487357
  0
ARC
  8
OSA
 62
     2
  6
CONTINUOUS
 10
187.054767
 20
165.440014
 40
2.000000
 50
180.000000
 51
241.454628
  0
LINE
  8
OSA
 62
     2
  6
CONTINUOUS
 10
197.554767
 20
157.451442
 11
186.099058
 21
163.683136
  0
LINE
  8
OSA
 62
     2
  6
CONTINUOUS
 10
191.054767
 20
160.987322
 11
191.054767
 21
175.732692
  0
LINE
  8
OSA
 62
     2
  6
CONTINUOUS
 10
185.054767
 20
114.492752
 11
191.054767
 21
113.051642
  0
LINE
  8
OSA
 62
     2
  6
CONTINUOUS
 10
185.054767
 20
118.972632
 11
191.054767
 21
120.413742
  0
LINE
  8
OSA
 62
     2
  6
CONTINUOUS
 10
197.554767
 20
116.732692
 11
197.554767
 21
157.451442
  0
LINE
  8
OSA
 62
     2
  6
CONTINUOUS
 10
185.054767
 20
184.473863
 11
185.054767
 21
116.732692
  0
LINE
  8
OSA
 10
98.054767
 20
116.732692
 11
213.243475
 21
116.732692
  0
LINE
  8
OSA
 62
     2
  6
CONTINUOUS
 10
191.054767
 20
175.732692
 11
185.640553
 21
181.146906
  0
ARC
  8
OSA
 62
     2
  6
CONTINUOUS
 10
183.054767
 20
184.473863
 40
2.000000
 50
0.000000
 51
88.000000
  0
ARC
  8
OSA
 62
     2
  6
CONTINUOUS
 10
187.054767
 20
182.561119
 40
2.000000
 50
180.000000
 51
225.000000
  0
LINE
  8
OSA
 62
     2
  6
CONTINUOUS
 10
199.554767
 20
151.732692
 11
200.054767
 21
151.232692
  0
LINE
  8
OSA
 62
     2
  6
CONTINUOUS
 10
197.554767
 20
151.732692
 11
199.554767
 21
151.732692
  0
LINE
  8
OSA
 10
140.054767
 20
173.732692
 11
140.054767
 21
215.232692
  0
LINE
  8
OSA
 10
140.054767
 20
176.732692
 11
177.054767
 21
176.732692
  0
LINE
  8
OSA
 10
140.054767
 20
176.732692
 11
103.054767
 21
176.732692
  0
ARC
  8
OSA
 62
     2
  6
CONTINUOUS
 10
151.054767
 20
54.732692
 40
2.000000
 50
90.000000
 51
180.000000
  0
ARC
  8
OSA
 62
     2
  6
CONTINUOUS
 10
129.054767
 20
54.732692
 40
2.000000
 50
0.000000
 51
90.000000
  0
LINE
  8
OSA
 62
     2
  6
CONTINUOUS
 10
149.054767
 20
54.732692
 11
131.054767
 21
54.732692
  0
LINE
  8
OSA
 62
     2
  6
CONTINUOUS
 10
173.054767
 20
46.732692
 11
178.937032
 21
46.732692
  0
ARC
  8
OSA
 62
     2
  6
CONTINUOUS
 10
173.054767
 20
49.732692
 40
3.000000
 50
180.000000
 51
270.000000
  0
ARC
  8
OSA
 62
     2
  6
CONTINUOUS
 10
167.054767
 20
53.732692
 40
3.000000
 50
0.000000
 51
90.000000
  0
LINE
  8
OSA
 62
     2
  6
CONTINUOUS
 10
102.054767
 20
46.732692
 11
107.054767
 21
46.732692
  0
ARC
  8
OSA
 62
     2
  6
CONTINUOUS
 10
107.054767
 20
49.732692
 40
3.000000
 50
270.000000
 51
360.000000
  0
LINE
  8
OSA
 62
     2
  6
CONTINUOUS
 10
113.054767
 20
52.990221
 11
123.054767
 21
52.990221
  0
ARC
  8
OSA
 62
     2
  6
CONTINUOUS
 10
113.054767
 20
49.990221
 40
3.000000
 50
90.000000
 51
180.000000
  0
ARC
  8
OSA
 62
     2
  6
CONTINUOUS
 10
183.054767
 20
48.991521
 40
2.000000
 50
272.000000
 51
360.000000
  0
ARC
  8
OSA
 62
     2
  6
CONTINUOUS
 10
187.054767
 20
50.904265
 40
2.000000
 50
135.000000
 51
180.000000
  0
LINE
  8
OSA
 62
     2
  6
CONTINUOUS
 10
178.937032
 20
46.732692
 11
183.124566
 21
46.992739
  0
LINE
  8
OSA
 62
     2
  6
CONTINUOUS
 10
191.054767
 20
135.717925
 11
191.054767
 21
116.732692
  0
LINE
  8
OSA
 62
     2
  6
CONTINUOUS
 10
199.554767
 20
151.732692
 11
199.554767
 21
116.732692
  0
LINE
  8
OSA
 62
     2
  6
CONTINUOUS
 10
200.054767
 20
151.232692
 11
200.054767
 21
116.732692
  0
LINE
  8
OSA
 62
     2
  6
CONTINUOUS
 10
102.054767
 20
186.732692
 11
102.054767
 21
116.732692
  0
LINE
  8
OSA
 62
     2
  6
CONTINUOUS
 10
102.054767
 20
116.732692
 11
102.054767
 21
46.732692
  0
LINE
  8
OSA
 62
     2
  6
CONTINUOUS
 10
110.054767
 20
116.732692
 11
110.054767
 21
49.732692
  0
LINE
  8
OSA
 62
     2
  6
CONTINUOUS
 10
170.054767
 20
116.732692
 11
170.054767
 21
49.732692
  0
LINE
  8
OSA
 62
     2
  6
CONTINUOUS
 10
185.054767
 20
48.991521
 11
185.054767
 21
116.732692
  0
LINE
  8
OSA
 62
     2
  6
CONTINUOUS
 10
191.054767
 20
97.747459
 11
191.054767
 21
116.732692
  0
LINE
  8
OSA
 62
     2
  6
CONTINUOUS
 10
200.054767
 20
82.232692
 11
200.054767
 21
116.732692
  0
LINE
  8
OSA
 62
     2
  6
CONTINUOUS
 10
199.554767
 20
81.732692
 11
199.554767
 21
116.732692
  0
LINE
  8
OSA
 62
     2
  6
CONTINUOUS
 10
197.554767
 20
81.732692
 11
199.554767
 21
81.732692
  0
LINE
  8
OSA
 62
     2
  6
CONTINUOUS
 10
199.554767
 20
81.732692
 11
200.054767
 21
82.232692
  0
LINE
  8
OSA
 10
140.054767
 20
176.732692
 11
140.054767
 21
46.732692
  0
POLYLINE
  8
OSA
 62
     2
  6
CONTINUOUS
 66
    1
  0
VERTEX
  8
OSA
 62
     2
  6
CONTINUOUS
 10
123.054779
 20
101.344002
  0
VERTEX
  8
OSA
 62
     2
  6
CONTINUOUS
 10
123.179993
 20
101.340340
  0
VERTEX
  8
OSA
 62
     2
  6
CONTINUOUS
 10
123.322357
 20
101.327522
  0
VERTEX
  8
OSA
 62
     2
  6
CONTINUOUS
 10
123.483643
 20
101.301521
  0
VERTEX
  8
OSA
 62
     2
  6
CONTINUOUS
 10
123.665390
 20
101.257698
  0
VERTEX
  8
OSA
 62
     2
  6
CONTINUOUS
 10
123.868744
 20
101.189827
  0
VERTEX
  8
OSA
 62
     2
  6
CONTINUOUS
 10
124.094147
 20
101.090950
  0
VERTEX
  8
OSA
 62
     2
  6
CONTINUOUS
 10
124.340897
 20
100.952766
  0
VERTEX
  8
OSA
 62
     2
  6
CONTINUOUS
 10
124.606720
 20
100.766731
  0
VERTEX
  8
OSA
 62
     2
  6
CONTINUOUS
 10
124.887543
 20
100.525032
  0
VERTEX
  8
OSA
 62
     2
  6
CONTINUOUS
 10
125.177200
 20
100.221199
  0
VERTEX
  8
OSA
 62
     2
  6
CONTINUOUS
 10
125.467834
 20
99.852180
  0
VERTEX
  8
OSA
 62
     2
  6
CONTINUOUS
 10
125.750534
 20
99.419197
  0
VERTEX
  8
OSA
 62
     2
  6
CONTINUOUS
 10
126.016418
 20
98.928230
  0
VERTEX
  8
OSA
 62
     2
  6
CONTINUOUS
 10
126.257828
 20
98.389046
  0
VERTEX
  8
OSA
 62
     2
  6
CONTINUOUS
 10
126.469208
 20
97.813850
  0
VERTEX
  8
OSA
 62
     2
  6
CONTINUOUS
 10
126.647491
 20
97.214973
  0
VERTEX
  8
OSA
 62
     2
  6
CONTINUOUS
 10
126.791870
 20
96.602791
  0
VERTEX
  8
OSA
 62
     2
  6
CONTINUOUS
 10
126.903152
 20
95.984993
  0
VERTEX
  8
OSA
 62
     2
  6
CONTINUOUS
 10
126.982956
 20
95.365608
  0
VERTEX
  8
OSA
 62
     2
  6
CONTINUOUS
 10
127.032883
 20
94.745369
  0
VERTEX
  8
OSA
 62
     2
  6
CONTINUOUS
 10
127.053986
 20
94.122322
  0
VERTEX
  8
OSA
 62
     2
  6
CONTINUOUS
 10
127.046219
 20
93.493416
  0
VERTEX
  8
OSA
 62
     2
  6
CONTINUOUS
 10
127.008255
 20
92.854866
  0
VERTEX
  8
OSA
 62
     2
  6
CONTINUOUS
 10
126.937561
 20
92.204720
  0
VERTEX
  8
OSA
 62
     2
  6
CONTINUOUS
 10
126.830597
 20
91.543221
  0
VERTEX
  8
OSA
 62
     2
  6
CONTINUOUS
 10
126.683594
 20
90.875618
  0
VERTEX
  8
OSA
 62
     2
  6
CONTINUOUS
 10
126.493759
 20
90.212166
  0
VERTEX
  8
OSA
 62
     2
  6
CONTINUOUS
 10
126.260666
 20
89.568855
  0
VERTEX
  8
OSA
 62
     2
  6
CONTINUOUS
 10
125.987732
 20
88.964973
  0
VERTEX
  8
OSA
 62
     2
  6
CONTINUOUS
 10
125.682724
 20
88.420296
  0
VERTEX
  8
OSA
 62
     2
  6
CONTINUOUS
 10
125.357224
 20
87.949959
  0
VERTEX
  8
OSA
 62
     2
  6
CONTINUOUS
 10
125.024704
 20
87.562386
  0
VERTEX
  8
OSA
 62
     2
  6
CONTINUOUS
 10
124.698181
 20
87.257576
  0
VERTEX
  8
OSA
 62
     2
  6
CONTINUOUS
 10
124.388306
 20
87.028450
  0
VERTEX
  8
OSA
 62
     2
  6
CONTINUOUS
 10
124.102356
 20
86.864143
  0
VERTEX
  8
OSA
 62
     2
  6
CONTINUOUS
 10
123.844223
 20
86.751839
  0
VERTEX
  8
OSA
 62
     2
  6
CONTINUOUS
 10
123.615067
 20
86.679573
  0
VERTEX
  8
OSA
 62
     2
  6
CONTINUOUS
 10
123.414124
 20
86.636726
  0
VERTEX
  8
OSA
 62
     2
  6
CONTINUOUS
 10
123.239410
 20
86.614754
  0
VERTEX
  8
OSA
 62
     2
  6
CONTINUOUS
 10
123.088440
 20
86.607185
  0
VERTEX
  8
OSA
 62
     2
  6
CONTINUOUS
 10
123.054779
 20
86.606941
  0
SEQEND
  8
OSA
  0
LINE
  8
OSA
 62
     2
  6
CONTINUOUS
 10
123.054764
 20
86.606902
 11
110.054767
 21
86.606902
  0
LINE
  8
OSA
 62
     2
  6
CONTINUOUS
 10
123.054764
 20
101.343994
 11
110.054767
 21
101.343994
  0
LINE
  8
OSA
 62
     2
  6
CONTINUOUS
 10
123.054767
 20
64.843996
 11
110.054767
 21
64.843996
  0
LINE
  8
OSA
 62
     2
  6
CONTINUOUS
 10
128.817280
 20
56.732692
 11
167.054767
 21
56.732692
  0
LINE
  8
OSA
 62
     2
  6
CONTINUOUS
 10
123.054767
 20
64.843996
 11
123.155501
 21
64.842116
  0
LINE
  8
OSA
 62
     2
  6
CONTINUOUS
 10
123.155501
 20
64.842116
 11
123.270168
 21
64.835396
  0
LINE
  8
OSA
 62
     2
  6
CONTINUOUS
 10
123.270168
 20
64.835396
 11
123.400421
 21
64.821826
  0
LINE
  8
OSA
 62
     2
  6
CONTINUOUS
 10
123.400421
 20
64.821826
 11
123.547939
 21
64.798776
  0
LINE
  8
OSA
 62
     2
  6
CONTINUOUS
 10
123.547939
 20
64.798776
 11
123.714322
 21
64.762870
  0
LINE
  8
OSA
 62
     2
  6
CONTINUOUS
 10
123.714322
 20
64.762870
 11
123.900933
 21
64.709865
  0
LINE
  8
OSA
 62
     2
  6
CONTINUOUS
 10
123.900933
 20
64.709865
 11
124.108661
 21
64.634579
  0
LINE
  8
OSA
 62
     2
  6
CONTINUOUS
 10
124.108661
 20
64.634579
 11
124.337627
 21
64.530913
  0
LINE
  8
OSA
 62
     2
  6
CONTINUOUS
 10
124.337627
 20
64.530913
 11
124.586809
 21
64.392035
  0
LINE
  8
OSA
 62
     2
  6
CONTINUOUS
 10
124.586809
 20
64.392035
 11
124.853669
 21
64.210808
  0
LINE
  8
OSA
 62
     2
  6
CONTINUOUS
 10
124.853669
 20
64.210808
 11
125.133852
 21
63.980481
  0
LINE
  8
OSA
 62
     2
  6
CONTINUOUS
 10
125.133852
 20
63.980481
 11
125.421087
 21
63.695639
  0
LINE
  8
OSA
 62
     2
  6
CONTINUOUS
 10
125.421087
 20
63.695639
 11
125.707433
 21
63.353217
  0
LINE
  8
OSA
 62
     2
  6
CONTINUOUS
 10
125.707433
 20
63.353217
 11
125.983902
 21
62.953316
  0
LINE
  8
OSA
 62
     2
  6
CONTINUOUS
 10
125.983902
 20
62.953316
 11
126.241414
 21
62.499469
  0
LINE
  8
OSA
 62
     2
  6
CONTINUOUS
 10
126.241414
 20
62.499469
 11
126.471805
 21
61.998182
  0
LINE
  8
OSA
 62
     2
  6
CONTINUOUS
 10
126.471805
 20
61.998182
 11
126.668605
 21
61.457807
  0
LINE
  8
OSA
 62
     2
  6
CONTINUOUS
 10
126.668605
 20
61.457807
 11
126.827345
 21
60.887102
  0
LINE
  8
OSA
 62
     2
  6
CONTINUOUS
 10
126.827345
 20
60.887102
 11
126.945337
 21
60.293963
  0
LINE
  8
OSA
 62
     2
  6
CONTINUOUS
 10
126.945337
 20
60.293963
 11
127.021080
 21
59.684688
  0
LINE
  8
OSA
 62
     2
  6
CONTINUOUS
 10
127.021080
 20
59.684688
 11
127.053538
 21
59.063977
  0
LINE
  8
OSA
 62
     2
  6
CONTINUOUS
 10
127.053538
 20
59.063977
 11
127.041545
 21
58.435601
  0
LINE
  8
OSA
 62
     2
  6
CONTINUOUS
 10
127.041545
 20
58.435601
 11
126.983538
 21
57.803588
  0
LINE
  8
OSA
 62
     2
  6
CONTINUOUS
 10
126.983538
 20
57.803588
 11
126.877780
 21
57.173602
  0
LINE
  8
OSA
 62
     2
  6
CONTINUOUS
 10
126.877780
 20
57.173602
 11
126.723110
 21
56.554118
  0
LINE
  8
OSA
 62
     2
  6
CONTINUOUS
 10
126.723110
 20
56.554118
 11
126.520112
 21
55.956860
  0
LINE
  8
OSA
 62
     2
  6
CONTINUOUS
 10
126.520112
 20
55.956860
 11
126.073092
 21
54.944895
  0
LINE
  8
OSA
 62
     2
  6
CONTINUOUS
 10
126.272377
 20
55.396036
 11
125.987264
 21
54.886265
  0
LINE
  8
OSA
 62
     2
  6
CONTINUOUS
 10
125.987264
 20
54.886265
 11
125.675677
 21
54.439751
  0
LINE
  8
OSA
 62
     2
  6
CONTINUOUS
 10
125.675677
 20
54.439751
 11
125.350700
 21
54.063777
  0
LINE
  8
OSA
 62
     2
  6
CONTINUOUS
 10
125.350700
 20
54.063777
 11
125.025580
 21
53.759547
  0
LINE
  8
OSA
 62
     2
  6
CONTINUOUS
 10
125.025580
 20
53.759547
 11
124.711796
 21
53.522694
  0
LINE
  8
OSA
 62
     2
  6
CONTINUOUS
 10
124.711796
 20
53.522694
 11
124.417873
 21
53.344979
  0
LINE
  8
OSA
 62
     2
  6
CONTINUOUS
 10
124.417873
 20
53.344979
 11
124.149073
 21
53.216331
  0
LINE
  8
OSA
 62
     2
  6
CONTINUOUS
 10
124.149073
 20
53.216331
 11
123.907774
 21
53.126556
  0
LINE
  8
OSA
 62
     2
  6
CONTINUOUS
 10
123.907774
 20
53.126556
 11
123.694169
 21
53.066434
  0
LINE
  8
OSA
 62
     2
  6
CONTINUOUS
 10
123.694169
 20
53.066434
 11
123.507008
 21
53.028224
  0
LINE
  8
OSA
 62
     2
  6
CONTINUOUS
 10
123.507008
 20
53.028224
 11
123.344214
 21
53.005759
  0
LINE
  8
OSA
 62
     2
  6
CONTINUOUS
 10
123.344214
 20
53.005759
 11
123.203334
 21
52.994311
  0
LINE
  8
OSA
 62
     2
  6
CONTINUOUS
 10
123.203334
 20
52.994311
 11
123.081841
 21
52.990357
  0
LINE
  8
OSA
 62
     2
  6
CONTINUOUS
 10
123.081841
 20
52.990357
 11
123.054767
 21
52.990221
  0
ARC
  8
OSA
 62
     2
  6
CONTINUOUS
 10
128.817280
 20
53.732692
 40
3.000000
 50
90.000000
 51
156.167287
  0
CIRCLE
  8
OSA
 62
     2
  6
CONTINUOUS
 10
140.054767
 20
176.732692
 40
26.000000
  0
ARC
  8
OSA
 62
     2
  6
CONTINUOUS
 10
111.054767
 20
159.989534
 40
6.000000
 50
180.000000
 51
240.000000
  0
LINE
  8
OSA
 62
     2
  6
CONTINUOUS
 10
105.054767
 20
159.989534
 11
105.054767
 21
193.475850
  0
LINE
  8
OSA
 62
     2
  6
CONTINUOUS
 10
108.054767
 20
154.793382
 11
137.054767
 21
138.050224
  0
ARC
  8
OSA
 62
     2
  6
CONTINUOUS
 10
169.054767
 20
193.475850
 40
6.000000
 50
0.000000
 51
60.000000
  0
LINE
  8
OSA
 62
     2
  6
CONTINUOUS
 10
175.054767
 20
193.475850
 11
175.054767
 21
159.989534
  0
LINE
  8
OSA
 62
     2
  6
CONTINUOUS
 10
172.054767
 20
198.672002
 11
143.054767
 21
215.415160
  0
ARC
  8
OSA
 62
     2
  6
CONTINUOUS
 10
140.054767
 20
143.246376
 40
6.000000
 50
240.000000
 51
300.000000
  0
LINE
  8
OSA
 62
     2
  6
CONTINUOUS
 10
172.054767
 20
154.793382
 11
143.054767
 21
138.050224
  0
ARC
  8
OSA
 62
     2
  6
CONTINUOUS
 10
169.054767
 20
159.989534
 40
6.000000
 50
300.000000
 51
360.000000
  0
ARC
  8
OSA
 62
     2
  6
CONTINUOUS
 10
111.054767
 20
193.475850
 40
6.000000
 50
120.000000
 51
180.000000
  0
LINE
  8
OSA
 62
     2
  6
CONTINUOUS
 10
108.054767
 20
198.672002
 11
137.054767
 21
215.415160
  0
ARC
  8
OSA
 62
     2
  6
CONTINUOUS
 10
140.054767
 20
210.219008
 40
6.000000
 50
60.000000
 51
120.000000
  0
LINE
  8
OSA
 62
     2
  6
CONTINUOUS
 10
102.054767
 20
186.732692
 11
105.054767
 21
186.732692
  0
LINE
  8
OSA
 62
     2
  6
CONTINUOUS
 10
110.054767
 20
153.638681
 11
110.054767
 21
116.732692
  0
LINE
  8
OSA
 62
     2
  6
CONTINUOUS
 10
126.808823
 20
143.965729
 11
127.008255
 21
140.610474
  0
LINE
  8
OSA
 62
     2
  6
CONTINUOUS
 10
170.054767
 20
153.638681
 11
170.054767
 21
116.732692
  0
LINE
  8
OSA
 62
     2
  6
CONTINUOUS
 10
175.054767
 20
186.754449
 11
183.124566
 21
186.472645
  0
ENDBLK
  8
OSA
  0
BLOCK
  8
OSA
  2
Vnitrni_metricky_zavit_M1__27
 70
   66
 10
140.054767
 20
116.732692
  0
CIRCLE
  8
OSA
 62
     2
  6
CONTINUOUS
 10
140.054767
 20
116.732692
 40
4.458800
  0
ARC
  8
OSA
  6
CONTINUOUS
 10
140.054767
 20
116.732692
 40
5.000000
 50
265.000000
 51
185.000000
  0
ENDBLK
  8
OSA
  0
BLOCK
  8
OBRYS
  2
_18
 70
   64
 10
378.707303
 20
-134.556697
  0
LINE
  8
OBRYS
 10
334.452673
 20
-134.556697
 11
321.385502
 21
-134.556697
  0
LINE
  8
OBRYS
 10
378.707303
 20
-134.556697
 11
339.737895
 21
-134.556697
  0
LINE
  8
OBRYS
 10
422.961933
 20
-134.556697
 11
436.029104
 21
-134.556697
  0
LINE
  8
OBRYS
 10
378.707303
 20
-134.556697
 11
417.676711
 21
-134.556697
  0
LINE
  8
OBRYS
 10
376.207303
 20
-173.556697
 11
376.207303
 21
-134.556697
  0
ARC
  8
OBRYS
 10
375.207303
 20
-173.556697
 40
1.000000
 50
270.000000
 51
360.000000
  0
ARC
  8
OBRYS
 10
382.207303
 20
-173.556697
 40
1.000000
 50
180.000000
 51
270.000000
  0
LINE
  8
OBRYS
 10
381.207303
 20
-173.556697
 11
381.207303
 21
-134.556697
  0
LINE
  8
TLUST_
 62
     2
 10
319.977686
 20
-135.136115
 11
279.614993
 21
-175.136115
  0
LINE
  8
OBRYS
 10
378.707303
 20
-174.556697
 11
281.022809
 21
-174.556697
  0
LINE
  8
OBRYS
 10
378.707303
 20
-174.556697
 11
476.391797
 21
-174.556697
  0
LINE
  8
OBRYS
 10
378.707303
 20
-185.556697
 11
278.707303
 21
-185.556697
  0
LINE
  8
OBRYS
 10
378.707303
 20
-185.556697
 11
478.707303
 21
-185.556697
  0
LINE
  8
OBRYS
 10
478.707303
 20
-185.556697
 11
478.390579
 21
-176.486898
  0
ARC
  8
OBRYS
 10
476.391797
 20
-176.556697
 40
2.000000
 50
2.000000
 51
90.000000
  0
LINE
  8
OSA
 10
461.207303
 20
-167.056701
 11
461.207303
 21
-193.056693
  0
LINE
  8
OSA
 10
378.707303
 20
-127.056700
 11
378.707303
 21
-193.056693
  0
ARC
  8
OBRYS
 10
436.029104
 20
-136.556697
 40
2.000000
 50
10.000000
 51
90.000000
  0
LINE
  8
OBRYS
 10
437.998719
 20
-136.209400
 11
444.468966
 21
-172.903993
  0
ARC
  8
OBRYS
 10
446.438582
 20
-172.556697
 40
2.000000
 50
190.000000
 51
270.000000
  0
ARC
  8
OBRYS
 10
310.976025
 20
-172.556697
 40
2.000000
 50
270.000000
 51
350.000000
  0
LINE
  8
OSA
 10
296.207303
 20
-167.056701
 11
296.207303
 21
-193.056693
  0
ARC
  8
OBRYS
 10
281.022809
 20
-176.556697
 40
2.000000
 50
90.000000
 51
178.000000
  0
LINE
  8
OBRYS
 10
278.707303
 20
-185.556697
 11
279.024027
 21
-176.486898
  0
LINE
  8
OBRYS
 10
319.415887
 20
-136.209400
 11
312.945640
 21
-172.903993
  0
ARC
  8
OBRYS
 10
321.385502
 20
-136.556697
 40
2.000000
 50
90.000000
 51
170.000000
  0
ARC
  8
OBRYS
 10
386.707303
 20
-184.056697
 40
2.000000
 50
0.000000
 51
90.000000
  0
LINE
  8
OBRYS
 10
370.707303
 20
-182.056697
 11
386.707303
 21
-182.056697
  0
ARC
  8
OBRYS
 10
370.707303
 20
-184.056697
 40
2.000000
 50
90.000000
 51
180.000000
  0
LINE
  8
OBRYS
 10
388.707303
 20
-184.056697
 11
388.707303
 21
-185.556697
  0
LINE
  8
OBRYS
 10
368.707303
 20
-184.056697
 11
368.707303
 21
-185.556697
  0
LINE
  8
TLUST_
 62
     2
 10
437.436920
 20
-135.136115
 11
477.799614
 21
-175.136115
  0
LINE
  8
OBRYS
 10
424.450160
 20
-134.556697
 11
425.040020
 21
-140.457225
  0
ARC
  8
OBRYS
 10
424.044980
 20
-140.556697
 40
1.000000
 50
270.000000
 51
5.708738
  0
LINE
  8
OBRYS
 10
417.920431
 20
-141.556697
 11
424.044980
 21
-141.556697
  0
LINE
  8
OBRYS
 10
415.971106
 20
-134.556697
 11
416.932411
 21
-140.711025
  0
ARC
  8
OBRYS
 10
417.920431
 20
-140.556697
 40
1.000000
 50
188.877854
 51
270.000000
  0
ARC
  8
OBRYS
 10
339.494175
 20
-140.556697
 40
1.000000
 50
270.000000
 51
351.122146
  0
LINE
  8
OBRYS
 10
341.443500
 20
-134.556697
 11
340.482195
 21
-140.711025
  0
LINE
  8
OBRYS
 10
339.494175
 20
-141.556697
 11
333.369627
 21
-141.556697
  0
ARC
  8
OBRYS
 10
333.369627
 20
-140.556697
 40
1.000000
 50
174.291262
 51
270.000000
  0
LINE
  8
OBRYS
 10
332.964446
 20
-134.556697
 11
332.374586
 21
-140.457225
  0
ENDBLK
  8
OBRYS
  0
BLOCK
  8
OBRYS
  2
_19
 70
   64
 10
378.707303
 20
424.417439
  0
LINE
  8
OBRYS
 10
334.452673
 20
424.417439
 11
321.385502
 21
424.417439
  0
LINE
  8
OBRYS
 10
378.707303
 20
424.417439
 11
339.737895
 21
424.417439
  0
LINE
  8
OBRYS
 10
422.961933
 20
424.417439
 11
436.029104
 21
424.417439
  0
LINE
  8
OBRYS
 10
378.707303
 20
424.417439
 11
417.676711
 21
424.417439
  0
LINE
  8
OBRYS
 10
376.207303
 20
463.417439
 11
376.207303
 21
424.417439
  0
ARC
  8
OBRYS
 10
375.207303
 20
463.417439
 40
1.000000
 50
0.000000
 51
90.000000
  0
ARC
  8
OBRYS
 10
382.207303
 20
463.417439
 40
1.000000
 50
90.000000
 51
180.000000
  0
LINE
  8
OBRYS
 10
381.207303
 20
463.417439
 11
381.207303
 21
424.417439
  0
LINE
  8
TLUST_
 62
     2
 10
319.977686
 20
424.996858
 11
279.614993
 21
464.996858
  0
LINE
  8
OBRYS
 10
378.707303
 20
464.417439
 11
281.022809
 21
464.417439
  0
LINE
  8
OBRYS
 10
378.707303
 20
464.417439
 11
476.391797
 21
464.417439
  0
LINE
  8
OBRYS
 10
378.707303
 20
475.417439
 11
278.707303
 21
475.417439
  0
LINE
  8
OBRYS
 10
378.707303
 20
475.417439
 11
478.707303
 21
475.417439
  0
LINE
  8
OBRYS
 10
478.707303
 20
475.417439
 11
478.390579
 21
466.347640
  0
ARC
  8
OBRYS
 10
476.391797
 20
466.417439
 40
2.000000
 50
270.000000
 51
358.000000
  0
LINE
  8
OSA
 10
461.207303
 20
456.917443
 11
461.207303
 21
482.917436
  0
LINE
  8
OSA
 10
378.707303
 20
416.917443
 11
378.707303
 21
482.917436
  0
ARC
  8
OBRYS
 10
436.029104
 20
426.417439
 40
2.000000
 50
270.000000
 51
350.000000
  0
LINE
  8
OBRYS
 10
437.998719
 20
426.070143
 11
444.468966
 21
462.764736
  0
ARC
  8
OBRYS
 10
446.438582
 20
462.417439
 40
2.000000
 50
90.000000
 51
170.000000
  0
ARC
  8
OBRYS
 10
310.976025
 20
462.417439
 40
2.000000
 50
10.000000
 51
90.000000
  0
LINE
  8
OSA
 10
296.207303
 20
456.917443
 11
296.207303
 21
482.917436
  0
ARC
  8
OBRYS
 10
281.022809
 20
466.417439
 40
2.000000
 50
182.000000
 51
270.000000
  0
LINE
  8
OBRYS
 10
278.707303
 20
475.417439
 11
279.024027
 21
466.347640
  0
LINE
  8
OBRYS
 10
319.415887
 20
426.070143
 11
312.945640
 21
462.764736
  0
ARC
  8
OBRYS
 10
321.385502
 20
426.417439
 40
2.000000
 50
190.000000
 51
270.000000
  0
ARC
  8
OBRYS
 10
386.707303
 20
473.917439
 40
2.000000
 50
270.000000
 51
360.000000
  0
LINE
  8
OBRYS
 10
370.707303
 20
471.917439
 11
386.707303
 21
471.917439
  0
ARC
  8
OBRYS
 10
370.707303
 20
473.917439
 40
2.000000
 50
180.000000
 51
270.000000
  0
LINE
  8
OBRYS
 10
388.707303
 20
473.917439
 11
388.707303
 21
475.417439
  0
LINE
  8
OBRYS
 10
368.707303
 20
473.917439
 11
368.707303
 21
475.417439
  0
LINE
  8
TLUST_
 62
     2
 10
437.436920
 20
424.996858
 11
477.799614
 21
464.996858
  0
LINE
  8
OBRYS
 10
424.450160
 20
424.417439
 11
425.040020
 21
430.317968
  0
ARC
  8
OBRYS
 10
424.044980
 20
430.417439
 40
1.000000
 50
354.291262
 51
90.000000
  0
LINE
  8
OBRYS
 10
417.920431
 20
431.417439
 11
424.044980
 21
431.417439
  0
LINE
  8
OBRYS
 10
415.971106
 20
424.417439
 11
416.932411
 21
430.571768
  0
ARC
  8
OBRYS
 10
417.920431
 20
430.417439
 40
1.000000
 50
90.000000
 51
171.122146
  0
ARC
  8
OBRYS
 10
339.494175
 20
430.417439
 40
1.000000
 50
8.877854
 51
90.000000
  0
LINE
  8
OBRYS
 10
341.443500
 20
424.417439
 11
340.482195
 21
430.571768
  0
LINE
  8
OBRYS
 10
339.494175
 20
431.417439
 11
333.369627
 21
431.417439
  0
ARC
  8
OBRYS
 10
333.369627
 20
430.417439
 40
1.000000
 50
90.000000
 51
185.708738
  0
LINE
  8
OBRYS
 10
332.964446
 20
424.417439
 11
332.374586
 21
430.317968
  0
ENDBLK
  8
OBRYS
  0
BLOCK
  8
OBRYS
  2
_20
 70
   64
 10
89.054767
 20
116.732692
  0
LINE
  8
OBRYS
 10
89.054767
 20
72.478062
 11
89.054767
 21
59.410891
  0
LINE
  8
OBRYS
 10
89.054767
 20
116.732692
 11
89.054767
 21
77.763284
  0
LINE
  8
OBRYS
 10
89.054767
 20
160.987322
 11
89.054767
 21
174.054493
  0
LINE
  8
OBRYS
 10
89.054767
 20
116.732692
 11
89.054767
 21
155.702100
  0
LINE
  8
OBRYS
 10
50.054767
 20
114.232692
 11
89.054767
 21
114.232692
  0
ARC
  8
OBRYS
 10
50.054767
 20
113.232692
 40
1.000000
 50
90.000000
 51
180.000000
  0
ARC
  8
OBRYS
 10
50.054767
 20
120.232692
 40
1.000000
 50
180.000000
 51
270.000000
  0
LINE
  8
OBRYS
 10
50.054767
 20
119.232692
 11
89.054767
 21
119.232692
  0
LINE
  8
TLUST_
 62
     2
 10
88.475348
 20
58.003075
 11
48.475348
 21
17.640381
  0
LINE
  8
OBRYS
 10
49.054767
 20
116.732692
 11
49.054767
 21
19.048198
  0
LINE
  8
OBRYS
 10
49.054767
 20
116.732692
 11
49.054767
 21
214.417186
  0
LINE
  8
OBRYS
 10
38.054767
 20
116.732692
 11
38.054767
 21
16.732692
  0
LINE
  8
OBRYS
 10
38.054767
 20
116.732692
 11
38.054767
 21
216.732692
  0
LINE
  8
OBRYS
 10
38.054767
 20
216.732692
 11
47.124566
 21
216.415968
  0
ARC
  8
OBRYS
 10
47.054767
 20
214.417186
 40
2.000000
 50
0.000000
 51
88.000000
  0
LINE
  8
OSA
 10
56.554763
 20
199.232692
 11
30.554770
 21
199.232692
  0
LINE
  8
OSA
 10
96.554763
 20
116.732692
 11
30.554770
 21
116.732692
  0
ARC
  8
OBRYS
 10
87.054767
 20
174.054493
 40
2.000000
 50
0.000000
 51
80.000000
  0
LINE
  8
OBRYS
 10
87.402063
 20
176.024108
 11
50.707470
 21
182.494355
  0
ARC
  8
OBRYS
 10
51.054767
 20
184.463971
 40
2.000000
 50
180.000000
 51
260.000000
  0
ARC
  8
OBRYS
 10
51.054767
 20
49.001414
 40
2.000000
 50
100.000000
 51
180.000000
  0
LINE
  8
OSA
 10
56.554763
 20
34.232692
 11
30.554770
 21
34.232692
  0
ARC
  8
OBRYS
 10
47.054767
 20
19.048198
 40
2.000000
 50
272.000000
 51
360.000000
  0
LINE
  8
OBRYS
 10
38.054767
 20
16.732692
 11
47.124566
 21
17.049416
  0
LINE
  8
OBRYS
 10
87.402063
 20
57.441276
 11
50.707470
 21
50.971029
  0
ARC
  8
OBRYS
 10
87.054767
 20
59.410891
 40
2.000000
 50
280.000000
 51
360.000000
  0
ARC
  8
OBRYS
 10
39.554767
 20
124.732692
 40
2.000000
 50
0.000000
 51
90.000000
  0
LINE
  8
OBRYS
 10
41.554767
 20
108.732692
 11
41.554767
 21
124.732692
  0
ARC
  8
OBRYS
 10
39.554767
 20
108.732692
 40
2.000000
 50
270.000000
 51
360.000000
  0
LINE
  8
OBRYS
 10
39.554767
 20
126.732692
 11
38.054767
 21
126.732692
  0
LINE
  8
OBRYS
 10
39.554767
 20
106.732692
 11
38.054767
 21
106.732692
  0
LINE
  8
TLUST_
 62
     2
 10
88.475348
 20
175.462309
 11
48.475348
 21
215.825003
  0
LINE
  8
OBRYS
 10
89.054767
 20
162.475549
 11
83.154238
 21
163.065409
  0
ARC
  8
OBRYS
 10
83.054767
 20
162.070369
 40
1.000000
 50
84.291262
 51
180.000000
  0
LINE
  8
OBRYS
 10
82.054767
 20
155.945820
 11
82.054767
 21
162.070369
  0
LINE
  8
OBRYS
 10
89.054767
 20
153.996495
 11
82.900438
 21
154.957800
  0
ARC
  8
OBRYS
 10
83.054767
 20
155.945820
 40
1.000000
 50
180.000000
 51
261.122146
  0
ARC
  8
OBRYS
 10
83.054767
 20
77.519564
 40
1.000000
 50
98.877854
 51
180.000000
  0
LINE
  8
OBRYS
 10
89.054767
 20
79.468889
 11
82.900438
 21
78.507584
  0
LINE
  8
OBRYS
 10
82.054767
 20
77.519564
 11
82.054767
 21
71.395015
  0
ARC
  8
OBRYS
 10
83.054767
 20
71.395015
 40
1.000000
 50
180.000000
 51
275.708738
  0
LINE
  8
OBRYS
 10
89.054767
 20
70.989835
 11
83.154238
 21
70.399975
  0
ENDBLK
  8
OBRYS
  0
BLOCK
  8
OBRYS
  2
M10x1_21
 70
   66
 10
140.054767
 20
54.732692
  0
LINE
  8
OBRYS
 62
     7
  6
DASHDOT
 10
140.054767
 20
64.061594
 11
140.054767
 21
50.287344
  0
LINE
  8
OBRYS
 10
147.054767
 20
54.732692
 11
133.054767
 21
54.732692
  0
LINE
  8
OBRYS
 10
133.054767
 20
54.732692
 11
133.054767
 21
52.732692
  0
LINE
  8
OBRYS
 10
147.054767
 20
54.732692
 11
147.054767
 21
52.732692
  0
ARC
  8
OBRYS
 10
134.054767
 20
52.732692
 40
1.000000
 50
180.000000
 51
270.000000
  0
LINE
  8
OBRYS
 10
146.054767
 20
51.732692
 11
134.054767
 21
51.732692
  0
ARC
  8
OBRYS
 10
146.054767
 20
52.732692
 40
1.000000
 50
270.000000
 51
360.000000
  0
ENDBLK
  8
OBRYS
  0
ENDSEC
  0
SECTION
  2
ENTITIES
  0
TEXT
  8
NEVIDI
 62
     2
  6
CONTINUOUS
 10
298.356812
 20
553.397034
 40
15.000000
  1
MRP 60A - FF-R
 50
0.00
 51
0.00
 41
0.80
  0
LINE
  8
OSA
 10
615.059138
 20
322.397165
 11
634.858128
 21
302.598175
  0
LINE
  8
OSA
 10
542.934246
 20
322.397165
 11
523.135256
 21
302.598175
  0
LINE
  8
OSA
 10
542.934246
 20
394.522057
 11
523.135256
 21
414.321047
  0
LINE
  8
OSA
 10
615.059138
 20
394.522057
 11
634.858128
 21
414.321047
  0
LINE
  8
OSA
 10
578.996692
 20
400.959611
 11
578.996692
 21
378.459611
  0
LINE
  8
OSA
 10
578.996692
 20
358.459611
 11
578.996692
 21
335.959611
  0
LINE
  8
OSA
 10
578.996692
 20
358.459611
 11
578.996692
 21
380.959611
  0
LINE
  8
OSA
 10
578.996692
 20
358.459611
 11
556.496692
 21
358.459611
  0
LINE
  8
OSA
 10
578.996692
 20
358.459611
 11
601.496692
 21
358.459611
  0
CIRCLE
  8
OBRYS
 10
578.996692
 20
358.459611
 40
12.500000
  0
ARC
  8
OBRYS
 10
578.996692
 20
358.459611
 40
7.000000
 50
110.924832
 51
69.075168
  0
LINE
  8
OBRYS
 10
576.496692
 20
364.997959
 11
576.496692
 21
367.659611
  0
LINE
  8
OBRYS
 10
581.496692
 20
364.997959
 11
581.496692
 21
367.659611
  0
LINE
  8
OBRYS
 10
576.496692
 20
367.659611
 11
581.496692
 21
367.659611
  0
CIRCLE
  8
OBRYS
 10
578.996692
 20
358.459611
 40
80.000000
  0
CIRCLE
  8
OBRYS
 10
578.996692
 20
358.459611
 40
55.000000
  0
LINE
  8
OSA
 10
578.996692
 20
358.459611
 11
663.996692
 21
358.459611
  0
LINE
  8
OSA
 10
578.996692
 20
358.459611
 11
493.996692
 21
358.459611
  0
LINE
  8
OSA
 10
578.996692
 20
358.459611
 11
578.996692
 21
443.459611
  0
LINE
  8
OSA
 10
578.996692
 20
358.459611
 11
578.996692
 21
273.459611
  0
CIRCLE
  8
OSA
 10
578.996692
 20
358.459611
 40
65.000000
  0
INSERT
  8
OBRYS
 66
     1
  2
Vnitrni_metricky_zavit_M8_0
 62
     7
 10
533.034751
 20
312.497670
  0
ATTRIB
  8
OBRYS
 10
-7.082134
 20
0.000000
 40
25.000000
  1
CSN 02 1034
  2
norma roz.
 70
     1
  0
ATTRIB
  8
OBRYS
 10
-7.082134
 20
0.000000
 40
25.000000
  1
1.25
  2
roztec
 70
     1
  0
ATTRIB
  8
OBRYS
 10
-7.082134
 20
0.000000
 40
25.000000
  1
*NB
  2
puvod
 70
     1
  0
ATTRIB
  8
OBRYS
 10
-7.082134
 20
0.000000
 40
25.000000
  1
02 1034
  2
tridici znak
 70
     1
  0
SEQEND
  8
OBRYS
  0
INSERT
  8
OBRYS
 66
     1
  2
Vnitrni_metricky_zavit_M8_1
 62
     7
 10
624.958633
 20
312.497670
  0
ATTRIB
  8
OBRYS
 10
-7.082134
 20
0.000000
 40
25.000000
  1
CSN 02 1034
  2
norma roz.
 70
     1
  0
ATTRIB
  8
OBRYS
 10
-7.082134
 20
0.000000
 40
25.000000
  1
1.25
  2
roztec
 70
     1
  0
ATTRIB
  8
OBRYS
 10
-7.082134
 20
0.000000
 40
25.000000
  1
*NB
  2
puvod
 70
     1
  0
ATTRIB
  8
OBRYS
 10
-7.082134
 20
0.000000
 40
25.000000
  1
02 1034
  2
tridici znak
 70
     1
  0
SEQEND
  8
OBRYS
  0
INSERT
  8
OBRYS
 66
     1
  2
Vnitrni_metricky_zavit_M8_2
 62
     7
 10
624.958633
 20
404.421552
  0
ATTRIB
  8
OBRYS
 10
-7.082134
 20
0.000000
 40
25.000000
  1
CSN 02 1034
  2
norma roz.
 70
     1
  0
ATTRIB
  8
OBRYS
 10
-7.082134
 20
0.000000
 40
25.000000
  1
1.25
  2
roztec
 70
     1
  0
ATTRIB
  8
OBRYS
 10
-7.082134
 20
0.000000
 40
25.000000
  1
*NB
  2
puvod
 70
     1
  0
ATTRIB
  8
OBRYS
 10
-7.082134
 20
0.000000
 40
25.000000
  1
02 1034
  2
tridici znak
 70
     1
  0
SEQEND
  8
OBRYS
  0
INSERT
  8
OBRYS
 66
     1
  2
Vnitrni_metricky_zavit_M8_3
 62
     7
 10
533.034751
 20
404.421552
  0
ATTRIB
  8
OBRYS
 10
-7.082134
 20
0.000000
 40
25.000000
  1
CSN 02 1034
  2
norma roz.
 70
     1
  0
ATTRIB
  8
OBRYS
 10
-7.082134
 20
0.000000
 40
25.000000
  1
1.25
  2
roztec
 70
     1
  0
ATTRIB
  8
OBRYS
 10
-7.082134
 20
0.000000
 40
25.000000
  1
*NB
  2
puvod
 70
     1
  0
ATTRIB
  8
OBRYS
 10
-7.082134
 20
0.000000
 40
25.000000
  1
02 1034
  2
tridici znak
 70
     1
  0
SEQEND
  8
OBRYS
  0
LINE
  8
OBRYS
 10
576.496692
 20
-74.171742
 11
581.496692
 21
-74.171742
  0
LINE
  8
OBRYS
 10
581.496692
 20
-76.833394
 11
581.496692
 21
-74.171742
  0
LINE
  8
OBRYS
 10
576.496692
 20
-76.833394
 11
576.496692
 21
-74.171742
  0
ARC
  8
OBRYS
 10
578.996692
 20
-83.371742
 40
7.000000
 50
110.924832
 51
69.075168
  0
CIRCLE
  8
OBRYS
 10
578.996692
 20
-83.371742
 40
12.500000
  0
LINE
  8
OSA
 10
578.996692
 20
-83.371742
 11
601.496692
 21
-83.371742
  0
LINE
  8
OSA
 10
578.996692
 20
-83.371742
 11
556.496692
 21
-83.371742
  0
LINE
  8
OSA
 10
578.996692
 20
-83.371742
 11
578.996692
 21
-60.871742
  0
LINE
  8
OSA
 10
578.996692
 20
-83.371742
 11
578.996692
 21
-105.871742
  0
CIRCLE
  8
OBRYS
 10
578.996692
 20
-40.871742
 40
12.500000
  0
ARC
  8
OBRYS
 10
578.996692
 20
-40.871742
 40
5.500000
 50
110.654018
 51
68.003576
  0
LINE
  8
OBRYS
 10
581.056710
 20
-35.772103
 11
581.056710
 21
-33.682782
  0
LINE
  8
OBRYS
 10
577.056710
 20
-35.725242
 11
577.056710
 21
-33.682782
  0
LINE
  8
OBRYS
 10
577.056710
 20
-33.682782
 11
581.056710
 21
-33.682782
  0
LINE
  8
OSA
 10
578.996692
 20
-40.871742
 11
601.496692
 21
-40.871742
  0
LINE
  8
OSA
 10
578.996692
 20
-40.871742
 11
556.496692
 21
-40.871742
  0
LINE
  8
OSA
 10
578.996692
 20
-40.871742
 11
578.996692
 21
-18.371742
  0
LINE
  8
OSA
 10
578.996692
 20
-40.871742
 11
578.996692
 21
-63.371742
  0
INSERT
  8
OBRYS
  2
_4
 62
     7
 10
629.996692
 20
116.732692
  0
INSERT
  8
OBRYS
  2
_5
 62
     7
 10
578.996692
 20
176.732692
  0
INSERT
  8
OSA
  2
_6
  6
CONTINUOUS
 10
578.996692
 20
176.732692
  0
INSERT
  8
OSA
  2
_7
  6
CONTINUOUS
 10
616.996692
 20
114.732692
  0
INSERT
  8
OSA
  2
_8
  6
CONTINUOUS
 10
540.996692
 20
114.732692
  0
ARC
  8
OBRYS
 10
140.054767
 20
114.732692
 40
70.000000
 50
244.911857
 51
295.376934
  0
ARC
  8
OBRYS
 10
140.054767
 20
114.732692
 40
70.000000
 50
316.766765
 51
31.002719
  0
ARC
  8
OBRYS
 10
140.054767
 20
176.732692
 40
60.000000
 50
158.898853
 51
173.461072
  0
ARC
  8
OBRYS
 10
140.054767
 20
176.732692
 40
60.000000
 50
341.571342
 51
21.101147
  0
ARC
  8
OBRYS
 10
102.054767
 20
221.732692
 40
5.000000
 50
109.216664
 51
131.452663
  0
ARC
  8
OBRYS
 10
140.054767
 20
176.732692
 40
60.000000
 50
98.898853
 51
109.216664
  0
LINE
  8
TLUST_
 62
     2
 10
120.306289
 20
233.389533
 11
100.409060
 21
226.454095
  0
LINE
  8
TLUST_
 62
     2
 10
83.459235
 20
211.979212
 11
98.744761
 21
225.480207
  0
ARC
  8
OBRYS
 10
88.093242
 20
206.732692
 40
7.000000
 50
140.000000
 51
227.046122
  0
ARC
  8
OBRYS
 10
192.016291
 20
206.732692
 40
7.000000
 50
312.953878
 51
40.000000
  0
LINE
  8
TLUST_
 62
     2
 10
196.650298
 20
211.979212
 11
181.364772
 21
225.480207
  0
LINE
  8
TLUST_
 62
     2
 10
159.803245
 20
233.389533
 11
179.700473
 21
226.454095
  0
ARC
  8
OBRYS
 10
140.054767
 20
176.732692
 40
60.000000
 50
70.783336
 51
81.101147
  0
ARC
  8
OBRYS
 10
178.054767
 20
221.732692
 40
5.000000
 50
48.547337
 51
70.783336
  0
ARC
  8
OBRYS
 10
130.309258
 20
238.974359
 40
3.000000
 50
278.898853
 51
347.046120
  0
ARC
  8
OBRYS
 10
149.800275
 20
238.974359
 40
3.000000
 50
192.953880
 51
261.101147
  0
ARC
  8
OBRYS
 10
198.830385
 20
199.413668
 40
3.000000
 50
132.953880
 51
201.101147
  0
ARC
  8
OBRYS
 10
81.279148
 20
199.413668
 40
3.000000
 50
338.898853
 51
47.046120
  0
ARC
  8
OBRYS
 10
140.054767
 20
236.732692
 40
7.000000
 50
12.953880
 51
167.046120
  0
LINE
  8
OBRYS
 10
916.475039
 20
119.232692
 11
927.519696
 21
119.232692
  0
LINE
  8
OBRYS
 10
916.475039
 20
114.232692
 11
927.519696
 21
114.232692
  0
ARC
  8
OBRYS
 10
846.519696
 20
116.732692
 40
100.000000
 50
138.590378
 51
338.284383
  0
INSERT
  8
OBRYS
  2
_9
 62
     7
 10
924.519696
 20
176.732692
  0
INSERT
  8
OBRYS
  2
_10
 62
     7
 10
846.519696
 20
116.732692
  0
INSERT
  8
OBRYS
  2
_11
 62
     7
 10
300.707303
 20
176.732692
  0
INSERT
  8
OSA
  2
_12
  6
CONTINUOUS
 10
300.707303
 20
-83.556697
  0
INSERT
  8
OSA
  2
_13
  6
CONTINUOUS
 10
300.707303
 20
373.417439
  0
LINE
  8
OBRYS
 10
300.707303
 20
216.186139
 11
300.707303
 21
179.310643
  0
LINE
  8
0
 62
     2
 10
321.384102
 20
198.672002
 11
300.707303
 21
198.672002
  0
LINE
  8
0
 62
     2
 10
314.594218
 20
193.475850
 11
300.707303
 21
193.475850
  0
POLYLINE
  8
0
 62
     2
 66
    1
  0
VERTEX
  8
0
 62
     2
 10
328.707275
 20
216.186127
  0
VERTEX
  8
0
 62
     2
 10
328.600342
 20
216.186127
  0
VERTEX
  8
0
 62
     2
 10
328.842712
 20
215.925354
  0
VERTEX
  8
0
 62
     2
 10
329.530884
 20
215.415161
  0
VERTEX
  8
0
 62
     2
 10
333.023376
 20
212.984039
  0
VERTEX
  8
0
 62
     2
 10
335.897827
 20
209.347504
  0
VERTEX
  8
0
 62
     2
 10
336.140076
 20
207.220428
  0
SEQEND
  8
0
  0
LINE
  8
0
 62
     2
 10
336.420900
 20
207.352006
 11
336.420900
 21
211.732692
  0
LINE
  8
OBRYS
 10
409.932293
 20
211.732692
 11
420.993707
 21
211.732692
  0
LINE
  8
OBRYS
 10
336.420900
 20
211.732692
 11
347.482313
 21
211.732692
  0
POLYLINE
  8
0
 62
     2
 66
    1
  0
VERTEX
  8
0
 62
     2
 10
428.707275
 20
216.186127
  0
VERTEX
  8
0
 62
     2
 10
428.814270
 20
216.186127
  0
VERTEX
  8
0
 62
     2
 10
428.571899
 20
215.925354
  0
VERTEX
  8
0
 62
     2
 10
427.883728
 20
215.415161
  0
VERTEX
  8
0
 62
     2
 10
424.391174
 20
212.984039
  0
VERTEX
  8
0
 62
     2
 10
421.516785
 20
209.347504
  0
VERTEX
  8
0
 62
     2
 10
421.274536
 20
207.220428
  0
SEQEND
  8
0
  0
LINE
  8
0
 62
     2
 10
420.993707
 20
207.352006
 11
420.993707
 21
211.732692
  0
LINE
  8
0
 62
     2
 10
436.030505
 20
198.672002
 11
453.707303
 21
198.672002
  0
LINE
  8
0
 62
     2
 10
442.820389
 20
193.475850
 11
453.707303
 21
193.475850
  0
LINE
  8
OBRYS
 10
453.707303
 20
216.186139
 11
453.707303
 21
182.876475
  0
LINE
  8
OSA
 10
452.707303
 20
176.732692
 11
300.957303
 21
176.732692
  0
INSERT
  8
KOTA
  2
_14
 62
     7
 10
378.707303
 20
116.732692
  0
LINE
  8
OSA
 10
280.707303
 20
176.732692
 11
309.525723
 21
176.732692
  0
LINE
  8
OBRYS
 10
300.707303
 20
176.732692
 11
300.707303
 21
216.219008
  0
LINE
  8
OSA
 10
378.707303
 20
229.232692
 11
378.707303
 21
42.789245
  0
LINE
  8
OSA
 10
378.707303
 20
116.732692
 11
458.707303
 21
116.732692
  0
LINE
  8
0
 62
     2
 10
420.993707
 20
211.732692
 11
428.707303
 21
216.186139
  0
LINE
  8
0
 62
     2
 10
453.707303
 20
216.186139
 11
428.814293
 21
216.186139
  0
LINE
  8
0
 62
     2
 10
427.883705
 20
215.415160
 11
453.707303
 21
215.415160
  0
LINE
  8
0
 62
     2
 10
336.420900
 20
211.732692
 11
328.707303
 21
216.186139
  0
LINE
  8
0
 62
     2
 10
329.530901
 20
215.415160
 11
300.707303
 21
215.415160
  0
LINE
  8
0
 62
     2
 10
300.707303
 20
216.186139
 11
328.600313
 21
216.186139
  0
INSERT
  8
OSA
  2
_15
  6
CONTINUOUS
 10
438.707303
 20
373.417439
  0
INSERT
  8
OSA
  2
_16
  6
CONTINUOUS
 10
438.707303
 20
-83.556697
  0
ARC
  8
OBRYS
 10
846.519696
 20
116.732692
 40
100.000000
 50
71.805128
 51
108.194872
  0
LINE
  8
OSA
 10
846.519696
 20
116.732692
 11
922.533673
 21
40.718716
  0
CIRCLE
  8
OBRYS
 10
904.856006
 20
58.396383
 40
5.500000
  0
LINE
  8
OSA
 10
846.519696
 20
229.232692
 11
846.519696
 21
11.157789
  0
LINE
  8
OSA
 10
846.519696
 20
116.732692
 11
740.979412
 21
116.732692
  0
CIRCLE
  8
OBRYS
 10
788.183387
 20
58.396383
 40
5.500000
  0
LINE
  8
OSA
 10
846.519696
 20
116.732692
 11
770.505720
 21
40.718716
  0
ARC
  8
OSA
 10
846.519696
 20
116.732692
 40
82.500000
 50
213.124259
 51
326.760887
  0
LINE
  8
OBRYS
 10
776.564353
 20
114.232692
 11
748.623067
 21
114.232692
  0
ARC
  8
OBRYS
 10
748.623067
 20
121.232692
 40
2.000000
 50
177.368146
 51
270.000000
  0
ARC
  8
OBRYS
 10
748.623067
 20
112.232692
 40
2.000000
 50
90.000000
 51
182.631854
  0
LINE
  8
OBRYS
 10
776.564353
 20
119.232692
 11
748.623067
 21
119.232692
  0
LINE
  8
OSA
 10
846.519696
 20
116.732692
 11
948.713933
 21
116.732692
  0
LINE
  8
OBRYS
 10
844.019696
 20
46.777349
 11
844.019696
 21
18.836063
  0
ARC
  8
OBRYS
 10
851.019696
 20
18.836063
 40
2.000000
 50
180.000000
 51
272.631854
  0
ARC
  8
OBRYS
 10
842.019696
 20
18.836063
 40
2.000000
 50
267.368146
 51
360.000000
  0
LINE
  8
OBRYS
 10
849.019696
 20
46.777349
 11
849.019696
 21
18.836063
  0
INSERT
  8
OSA
  2
_17
  6
CONTINUOUS
 10
140.054767
 20
176.732692
  0
LINE
  8
OBRYS
 10
340.360201
 20
-141.056697
 11
337.988553
 21
-141.056697
  0
LINE
  8
OSA
 62
     2
  6
CONTINUOUS
 10
337.988553
 20
-141.056697
 11
331.756860
 21
-129.600988
  0
LINE
  8
OBRYS
 10
417.054406
 20
-141.056697
 11
419.426053
 21
-141.056697
  0
LINE
  8
OSA
 62
     2
  6
CONTINUOUS
 10
419.426053
 20
-141.056697
 11
425.657747
 21
-129.600988
  0
INSERT
  8
OBRYS
  2
_18
 62
     7
 10
378.707303
 20
-134.556697
  0
ARC
  8
OSA
 62
     2
  6
CONTINUOUS
 10
333.463752
 20
-130.556697
 40
2.000000
 50
41.888704
 51
90.000000
  0
ARC
  8
OSA
 62
     2
  6
CONTINUOUS
 10
329.999982
 20
-130.556697
 40
2.000000
 50
28.545372
 51
90.000000
  0
LINE
  8
OSA
 62
     2
  6
CONTINUOUS
 10
341.190516
 20
-136.176312
 11
334.952638
 21
-129.221325
  0
LINE
  8
OSA
 62
     2
  6
CONTINUOUS
 10
320.132901
 20
-134.982295
 11
314.293090
 21
-129.142483
  0
LINE
  8
OSA
 62
     2
  6
CONTINUOUS
 10
416.224090
 20
-136.176312
 11
422.461968
 21
-129.221325
  0
ARC
  8
OSA
 62
     2
  6
CONTINUOUS
 10
423.950854
 20
-130.556697
 40
2.000000
 50
90.000000
 51
138.111296
  0
ARC
  8
OSA
 62
     2
  6
CONTINUOUS
 10
427.414625
 20
-130.556697
 40
2.000000
 50
90.000000
 51
151.454628
  0
LINE
  8
OSA
 62
     2
  6
CONTINUOUS
 10
422.961933
 20
-134.556697
 11
437.707303
 21
-134.556697
  0
LINE
  8
OSA
 62
     2
  6
CONTINUOUS
 10
376.467363
 20
-128.556697
 11
375.026253
 21
-134.556697
  0
LINE
  8
OSA
 62
     2
  6
CONTINUOUS
 10
380.947243
 20
-128.556697
 11
382.388353
 21
-134.556697
  0
LINE
  8
OSA
 62
     2
  6
CONTINUOUS
 10
446.448474
 20
-128.556697
 11
378.707303
 21
-128.556697
  0
LINE
  8
OSA
 62
     2
  6
CONTINUOUS
 10
437.707303
 20
-134.556697
 11
443.121517
 21
-129.142483
  0
ARC
  8
OSA
 62
     2
  6
CONTINUOUS
 10
446.448474
 20
-126.556697
 40
2.000000
 50
270.000000
 51
358.000000
  0
ARC
  8
OSA
 62
     2
  6
CONTINUOUS
 10
444.535730
 20
-130.556697
 40
2.000000
 50
90.000000
 51
135.000000
  0
ARC
  8
OSA
 62
     2
  6
CONTINUOUS
 10
310.966132
 20
-126.556697
 40
2.000000
 50
182.000000
 51
270.000000
  0
ARC
  8
OSA
 62
     2
  6
CONTINUOUS
 10
312.878876
 20
-130.556697
 40
2.000000
 50
45.000000
 51
90.000000
  0
LINE
  8
OSA
 62
     2
  6
CONTINUOUS
 10
308.707303
 20
-122.438962
 11
308.967350
 21
-126.626496
  0
LINE
  8
OSA
 62
     2
  6
CONTINUOUS
 10
397.692536
 20
-134.556697
 11
378.707303
 21
-134.556697
  0
LINE
  8
OSA
 62
     2
  6
CONTINUOUS
 10
310.966132
 20
-128.556697
 11
378.707303
 21
-128.556697
  0
LINE
  8
OSA
 62
     2
  6
CONTINUOUS
 10
359.722070
 20
-134.556697
 11
378.707303
 21
-134.556697
  0
LINE
  8
OSA
 62
     2
  6
CONTINUOUS
 10
448.624297
 20
-121.556697
 11
448.447256
 21
-126.626496
  0
LINE
  8
OSA
 62
     2
  6
CONTINUOUS
 10
448.624297
 20
411.417439
 11
448.447256
 21
416.487238
  0
LINE
  8
OSA
 62
     2
  6
CONTINUOUS
 10
359.722070
 20
424.417439
 11
378.707303
 21
424.417439
  0
LINE
  8
OSA
 62
     2
  6
CONTINUOUS
 10
310.966132
 20
418.417439
 11
378.707303
 21
418.417439
  0
LINE
  8
OSA
 62
     2
  6
CONTINUOUS
 10
397.692536
 20
424.417439
 11
378.707303
 21
424.417439
  0
LINE
  8
OSA
 62
     2
  6
CONTINUOUS
 10
308.707303
 20
412.299705
 11
308.967350
 21
416.487238
  0
ARC
  8
OSA
 62
     2
  6
CONTINUOUS
 10
312.878876
 20
420.417439
 40
2.000000
 50
270.000000
 51
315.000000
  0
ARC
  8
OSA
 62
     2
  6
CONTINUOUS
 10
310.966132
 20
416.417439
 40
2.000000
 50
90.000000
 51
178.000000
  0
ARC
  8
OSA
 62
     2
  6
CONTINUOUS
 10
444.535730
 20
420.417439
 40
2.000000
 50
225.000000
 51
270.000000
  0
ARC
  8
OSA
 62
     2
  6
CONTINUOUS
 10
446.448474
 20
416.417439
 40
2.000000
 50
2.000000
 51
90.000000
  0
LINE
  8
OSA
 62
     2
  6
CONTINUOUS
 10
437.707303
 20
424.417439
 11
443.121517
 21
419.003226
  0
LINE
  8
OSA
 62
     2
  6
CONTINUOUS
 10
446.448474
 20
418.417439
 11
378.707303
 21
418.417439
  0
LINE
  8
OSA
 62
     2
  6
CONTINUOUS
 10
380.947243
 20
418.417439
 11
382.388353
 21
424.417439
  0
LINE
  8
OSA
 62
     2
  6
CONTINUOUS
 10
376.467363
 20
418.417439
 11
375.026253
 21
424.417439
  0
LINE
  8
OSA
 62
     2
  6
CONTINUOUS
 10
422.961933
 20
424.417439
 11
437.707303
 21
424.417439
  0
ARC
  8
OSA
 62
     2
  6
CONTINUOUS
 10
427.414625
 20
420.417439
 40
2.000000
 50
208.545372
 51
270.000000
  0
ARC
  8
OSA
 62
     2
  6
CONTINUOUS
 10
423.950854
 20
420.417439
 40
2.000000
 50
221.888704
 51
270.000000
  0
LINE
  8
OSA
 62
     2
  6
CONTINUOUS
 10
416.224090
 20
426.037055
 11
422.461968
 21
419.082068
  0
LINE
  8
OSA
 62
     2
  6
CONTINUOUS
 10
320.132901
 20
424.843037
 11
314.293090
 21
419.003226
  0
LINE
  8
OSA
 62
     2
  6
CONTINUOUS
 10
341.190516
 20
426.037055
 11
334.952638
 21
419.082068
  0
ARC
  8
OSA
 62
     2
  6
CONTINUOUS
 10
329.999982
 20
420.417439
 40
2.000000
 50
270.000000
 51
331.454628
  0
ARC
  8
OSA
 62
     2
  6
CONTINUOUS
 10
333.463752
 20
420.417439
 40
2.000000
 50
270.000000
 51
318.111296
  0
INSERT
  8
OBRYS
  2
_19
 62
     7
 10
378.707303
 20
424.417439
  0
LINE
  8
OSA
 62
     2
  6
CONTINUOUS
 10
419.426053
 20
430.917439
 11
425.657747
 21
419.461730
  0
LINE
  8
OBRYS
 10
417.054406
 20
430.917439
 11
419.426053
 21
430.917439
  0
LINE
  8
OSA
 62
     2
  6
CONTINUOUS
 10
337.988553
 20
430.917439
 11
331.756860
 21
419.461730
  0
LINE
  8
OBRYS
 10
340.360201
 20
430.917439
 11
337.988553
 21
430.917439
  0
LINE
  8
OBRYS
 10
82.554767
 20
78.385590
 11
82.554767
 21
76.013942
  0
LINE
  8
OSA
 62
     2
  6
CONTINUOUS
 10
82.554767
 20
76.013942
 11
94.010476
 21
69.782248
  0
LINE
  8
OBRYS
 10
82.554767
 20
155.079795
 11
82.554767
 21
157.451442
  0
LINE
  8
OSA
 62
     2
  6
CONTINUOUS
 10
82.554767
 20
157.451442
 11
94.010476
 21
163.683136
  0
INSERT
  8
OBRYS
  2
_20
 62
     7
 10
89.054767
 20
116.732692
  0
ARC
  8
OSA
 62
     2
  6
CONTINUOUS
 10
93.054767
 20
71.489141
 40
2.000000
 50
0.000000
 51
48.111296
  0
ARC
  8
OSA
 62
     2
  6
CONTINUOUS
 10
93.054767
 20
68.025370
 40
2.000000
 50
0.000000
 51
61.454628
  0
LINE
  8
OSA
 62
     2
  6
CONTINUOUS
 10
87.435151
 20
79.215905
 11
94.390138
 21
72.978027
  0
LINE
  8
OSA
 62
     2
  6
CONTINUOUS
 10
88.629169
 20
58.158290
 11
94.468980
 21
52.318478
  0
LINE
  8
OSA
 62
     2
  6
CONTINUOUS
 10
87.435151
 20
154.249479
 11
94.390138
 21
160.487357
  0
ARC
  8
OSA
 62
     2
  6
CONTINUOUS
 10
93.054767
 20
161.976243
 40
2.000000
 50
311.888704
 51
360.000000
  0
ARC
  8
OSA
 62
     2
  6
CONTINUOUS
 10
93.054767
 20
165.440014
 40
2.000000
 50
298.545372
 51
360.000000
  0
LINE
  8
OSA
 62
     2
  6
CONTINUOUS
 10
89.054767
 20
160.987322
 11
89.054767
 21
175.732692
  0
LINE
  8
OSA
 62
     2
  6
CONTINUOUS
 10
95.054767
 20
114.492752
 11
89.054767
 21
113.051642
  0
LINE
  8
OSA
 62
     2
  6
CONTINUOUS
 10
95.054767
 20
118.972632
 11
89.054767
 21
120.413742
  0
LINE
  8
OSA
 62
     2
  6
CONTINUOUS
 10
95.054767
 20
184.473863
 11
95.054767
 21
116.732692
  0
LINE
  8
OSA
 62
     2
  6
CONTINUOUS
 10
89.054767
 20
175.732692
 11
94.468980
 21
181.146906
  0
ARC
  8
OSA
 62
     2
  6
CONTINUOUS
 10
97.054767
 20
184.473863
 40
2.000000
 50
92.000000
 51
180.000000
  0
ARC
  8
OSA
 62
     2
  6
CONTINUOUS
 10
93.054767
 20
182.561119
 40
2.000000
 50
315.000000
 51
360.000000
  0
ARC
  8
OSA
 62
     2
  6
CONTINUOUS
 10
97.054767
 20
48.991521
 40
2.000000
 50
180.000000
 51
268.000000
  0
ARC
  8
OSA
 62
     2
  6
CONTINUOUS
 10
93.054767
 20
50.904265
 40
2.000000
 50
0.000000
 51
45.000000
  0
LINE
  8
OSA
 62
     2
  6
CONTINUOUS
 10
101.172501
 20
46.732692
 11
96.984968
 21
46.992739
  0
LINE
  8
OSA
 62
     2
  6
CONTINUOUS
 10
89.054767
 20
135.717925
 11
89.054767
 21
116.732692
  0
LINE
  8
OSA
 62
     2
  6
CONTINUOUS
 10
95.054767
 20
48.991521
 11
95.054767
 21
116.732692
  0
LINE
  8
OSA
 62
     2
  6
CONTINUOUS
 10
89.054767
 20
97.747459
 11
89.054767
 21
116.732692
  0
LINE
  8
OSA
 62
     2
  6
CONTINUOUS
 10
102.054767
 20
116.732692
 11
102.054767
 21
46.732692
  0
LINE
  8
OSA
 10
107.054767
 20
116.732692
 11
75.054767
 21
116.732692
  0
LINE
  8
OSA
 62
     2
  6
CONTINUOUS
 10
102.054767
 20
186.649686
 11
96.984968
 21
186.472645
  0
LINE
  8
OSA
 62
     2
  6
CONTINUOUS
 10
102.054767
 20
186.649686
 11
102.054767
 21
116.732692
  0
INSERT
  8
OBRYS
 66
     1
  2
M10x1_21
 62
     7
 10
140.054767
 20
54.732692
  0
ATTRIB
  8
0
 62
     2
 10
0.000000
 20
0.000000
 40
3.749998
  1
DIN 908
  2
norma roz.
 70
     1
  0
SEQEND
  8
OBRYS
  0
ENDSEC
  0
EOF

