  0
SECTION
  2
HEADER
  9
$ACADVER
  1
AC1009
  9
$INSBASE
 10
0.0
 20
0.0
 30
0.0
  9
$LIMMIN
 10
0.0
 20
0.0
  9
$LIMMAX
 10
430.0000
 20
307.0000
  9
$EXTMIN
 10
99999999999999998000000000000000000000.0000
 20
99999999999999998000000000000000000000.0000
  9
$EXTMAX
 10
99999999999999998000000000000000000000.0000
 20
99999999999999998000000000000000000000.0000
  9
$VIEWCTR
 10
523.4217
 20
122.3131
  9
$VIEWSIZE
 40
1103.8048
  9
$DIMLFAC
 40
0.5000
  9
$MEASUREMENT
 70
     1
  9
$DWGCODEPAGE
 3
ANSI_1250
  9
$CLAYER
  8
OBRYS
  9
$CELTYPE
  6
BYLAYER
  9
$CECOLOR
 62
  256
  9
$ORTHOMODE
 70
     0
  9
$REGENMODE
 70
     1
  9
$FILLMODE
 70
     1
  9
$QTEXTMODE
 70
     0
  9
$MIRRTEXT
 70
     1
  9
$DRAGMODE
 70
     2
  9
$LTSCALE
 40
1.0
  9
$OSMODE
 70
    37
  9
$ATTMODE
 70
     1
  9
$TEXTSIZE
 40
2.5
  9
$TRACEWID
 40
1.0
  9
$TEXTSTYLE
  7
STANDARD
  9
$CLAYER
  8
0
  9
$CELTYPE
  6
BYLAYER
  9
$CECOLOR
 62
   256
  9
$DIMSCALE
 40
1.0
  9
$DIMASZ
 40
2.5
  9
$DIMEXO
 40
0.625
  9
$DIMDLI
 40
3.75
  9
$DIMRND
 40
0.0
  9
$DIMDLE
 40
0.0
  9
$DIMEXE
 40
1.25
  9
$DIMTP
 40
0.0
  9
$DIMTM
 40
0.0
  9
$DIMTXT
 40
2.5
  9
$DIMCEN
 40
2.5
  9
$DIMTSZ
 40
0.0
  9
$DIMTOL
 70
     0
  9
$DIMLIM
 70
     0
  9
$DIMTIH
 70
     0
  9
$DIMTOH
 70
     0
  9
$DIMSE1
 70
     0
  9
$DIMSE2
 70
     0
  9
$DIMTAD
 70
     1
  9
$DIMZIN
 70
     8
  9
$DIMBLK
  1

  9
$DIMASO
 70
     1
  9
$DIMSHO
 70
     1
  9
$DIMPOST
  1

  9
$DIMAPOST
  1

  9
$DIMALT
 70
     0
  9
$DIMALTD
 70
     3
  9
$DIMALTF
 40
0.03937007874016
  9
$DIMTOFL
 70
     1
  9
$DIMTVP
 40
0.0
  9
$DIMTIX
 70
     0
  9
$DIMSOXD
 70
     0
  9
$DIMSAH
 70
     0
  9
$DIMBLK1
  1

  9
$DIMBLK2
  1

  9
$DIMSTYLE
  2
ISO-25
  9
$DIMCLRD
 70
     0
  9
$DIMCLRE
 70
     0
  9
$DIMCLRT
 70
     0
  9
$DIMTFAC
 40
1.0
  9
$DIMGAP
 40
0.625
  9
$LUNITS
 70
     2
  9
$LUPREC
 70
     4
  9
$SKETCHINC
 40
1.0
  9
$FILLETRAD
 40
10.0
  9
$AUNITS
 70
     0
  9
$AUPREC
 70
     0
  9
$MENU
  1
.
  9
$ELEVATION
 40
0.0
  9
$PELEVATION
 40
0.0
  9
$THICKNESS
 40
0.0
  9
$LIMCHECK
 70
     0
  9
$BLIPMODE
 70
     0
  9
$CHAMFERA
 40
10.0
  9
$CHAMFERB
 40
10.0
  9
$SKPOLY
 70
     0
  9
$TDCREATE
 40
2451579.5163292708
  9
$TDUPDATE
 40
2451579.6904035881
  9
$TDINDWG
 40
0.0082924769
  9
$TDUSRTIMER
 40
0.0082825116
  9
$USRTIMER
 70
     1
  9
$ANGBASE
 50
0.0
  9
$ANGDIR
 70
     0
  9
$PDMODE
 70
     0
  9
$PDSIZE
 40
0.0
  9
$PLINEWID
 40
0.0
  9
$COORDS
 70
     1
  9
$SPLFRAME
 70
     0
  9
$SPLINETYPE
 70
     6
  9
$SPLINESEGS
 70
     8
  9
$ATTDIA
 70
     0
  9
$ATTREQ
 70
     1
  9
$SURFTAB1
 70
     6
  9
$SURFTAB2
 70
     6
  9
$SURFTYPE
 70
     6
  9
$SURFU
 70
     6
  9
$SURFV
 70
     6
  9
$UCSNAME
  2

  9
$UCSORG
 10
0.0
 20
0.0
 30
0.0
  9
$UCSXDIR
 10
1.0
 20
0.0
 30
0.0
  9
$UCSYDIR
 10
0.0
 20
1.0
 30
0.0
  9
$PUCSNAME
  2

  9
$PUCSORG
 10
0.0
 20
0.0
 30
0.0
  9
$PUCSXDIR
 10
1.0
 20
0.0
 30
0.0
  9
$PUCSYDIR
 10
0.0
 20
1.0
 30
0.0
  9
$USERI1
 70
     0
  9
$USERI2
 70
     0
  9
$USERI3
 70
     0
  9
$USERI4
 70
     0
  9
$USERI5
 70
     0
  9
$USERR1
 40
0.0
  9
$USERR2
 40
0.0
  9
$USERR3
 40
0.0
  9
$USERR4
 40
0.0
  9
$USERR5
 40
0.0
  9
$WORLDVIEW
 70
     1
  9
$SHADEDGE
 70
     3
  9
$SHADEDIF
 70
    70
  9
$TILEMODE
 70
     1
  9
$MAXACTVP
 70
    64
  9
$PLIMCHECK
 70
     0
  9
$PEXTMIN
 10
1.0000000000000000E+020
 20
1.0000000000000000E+020
 30
1.0000000000000000E+020
  9
$PEXTMAX
 10
-1.0000000000000000E+020
 20
-1.0000000000000000E+020
 30
-1.0000000000000000E+020
  9
$PLIMMIN
 10
0.0
 20
0.0
  9
$PLIMMAX
 10
420.0
 20
297.0
  9
$UNITMODE
 70
     0
  9
$VISRETAIN
 70
     1
  9
$PLINEGEN
 70
     0
  9
$PSLTSCALE
 70
     1
  0
ENDSEC
  0
SECTION
  2
TABLES
  0
TABLE
  2
VPORT
 70
     2
  0
VPORT
  2
*ACTIVE
 70
     0
 10
0.0
 20
0.0
 11
1.0
 21
1.0
 12
523.4217
 22
122.3131
 13
0.0
 23
0.0
 14
10.0
 24
10.0
 15
10.0
 25
10.0
 16
0.0
 26
0.0
 36
1.0
 17
0.0
 27
0.0
 37
0.0
 40
1103.8048
 41
1.6916
 42
50.0
 43
0.0
 44
0.0
 50
0.0
 51
0.0
 71
     0
 72
   100
 73
     1
 74
     3
 75
     0
 76
     0
 77
     0
 78
     0
  0
ENDTAB
  0
TABLE
  2
LTYPE
 70
     7
  0
LTYPE
  2
CONTINUOUS
 70
     0
  3
Solid line
 72
    65
 73
     0
 40
0.0
  0
LTYPE
  2
HIDDEN2
 70
     0
  3
Hidden (.5x) _ _ _ _ _ _ _ _ _ _ _ _ _ _ _ _ _
 72
    65
 73
     2
 40
5.1
 49
3.5
 49
-1.6
  0
LTYPE
  2
DASHDOT
 70
     0
  3
Dash dot __ . __ . __ . __ . __ . __ . __ . __
 72
    65
 73
     4
 40
10.4
 49
6.2
 49
-2.1
 49
0.0
 49
-2.1
  0
LTYPE
  2
DOT
 70
     0
  3
Dot . . . . . . . . . . . . . . . . . . . . . .
 72
    65
 73
     2
 40
2.2
 49
1.1
 49
-1.1
  0
LTYPE
  2
DASHED
 70
     0
  3
Dashed __ __ __ __ __ __ __ __ __ __ __ __ __ _
 72
    65
 73
     2
 40
11.049999999999979
 49
8.699999999999999
 49
-2.3499999999999979
  0
LTYPE
  2
PHANTOM2
 70
     0
  3
Phantom (.5x) ___ _ _ ___ _ _ ___ _ _ ___ _ _
 72
    65
 73
     6
 40
18.3
 49
7.8
 49
-2.1
 49
2.1
 49
-2.1
 49
2.1
 49
-2.1
  0
LTYPE
  2
CENTER
 70
     0
  3
Center ____ _ ____ _ ____ _ ____ _ ____ _ ____
 72
    65
 73
     4
 40
14.1
 49
7.8
 49
-2.1
 49
2.1
 49
-2.1
  0
ENDTAB
  0
TABLE
  2
LAYER
 70
     8
  0
LAYER
  2
0
 70
    64
 62
     7
  6
CONTINUOUS
  0
LAYER
  2
OBRYS
 70
    64
 62
     2
  6
CONTINUOUS
  0
LAYER
  2
OSA
 70
    64
 62
     7
  6
DASHDOT
  0
LAYER
  2
KOTA
 70
    64
 62
     3
  6
CONTINUOUS
  0
LAYER
  2
SRAFY
 70
    64
 62
     7
  6
CONTINUOUS
  0
LAYER
  2
POMOC
 70
    64
 62
     5
  6
HIDDEN2
  0
LAYER
  2
NEVIDI
 70
    64
 62
     4
  6
DASHED
  0
LAYER
  2
TLUST_
 70
    64
 62
     1
  6
CONTINUOUS
  0
ENDTAB
  0
TABLE
  2
STYLE
 70
     1
  0
STYLE
  2
STANDARD
 70
     0
 40
0.0
 41
1.0
 50
0.0
 71
     0
 42
2.5
  3
txt
  4

  0
ENDTAB
  0
TABLE
  2
VIEW
 70
     0
  0
ENDTAB
  0
TABLE
  2
UCS
 70
     0
  0
ENDTAB
  0
TABLE
  2
APPID
 70
     1
  0
APPID
  2
ACAD
 70
     0
  0
ENDTAB
  0
TABLE
  2
DIMSTYLE
 70
     1
  0
DIMSTYLE
  2
ISO-25
 70
     0
  3

  4

  5

  6

  7

 40
1.0
 41
2.5
 42
0.625
 43
3.75
 44
1.25
 45
0.0
 46
0.0
 47
0.0
 48
0.0
140
2.5
141
2.5
142
0.0
143
0.03937007874016
144
1.0
145
0.0
146
1.0
147
0.625
 71
     0
 72
     0
 73
     0
 74
     0
 75
     0
 76
     0
 77
     1
 78
     8
170
     0
171
     3
172
     1
173
     0
174
     0
175
     0
176
     0
177
     0
178
     0
  0
ENDTAB
  0
ENDSEC
  0
SECTION
  2
BLOCKS
  0
BLOCK
  8
0
  2
$MODEL_SPACE
 70
     0
 10
0.0
 20
0.0
 30
0.0
  3
$MODEL_SPACE
  1

  0
ENDBLK
  8
0
  0
BLOCK
 67
     1
  8
0
  2
$PAPER_SPACE
 70
     0
 10
0.0
 20
0.0
 30
0.0
  3
$PAPER_SPACE
  1

  0
ENDBLK
 67
     1
  8
0
  0
BLOCK
  8
OBRYS
  2
Vnitrni_metricky_zavit_M8_0
 70
   66
 10
540.116885
 20
312.497670
  0
CIRCLE
  8
OBRYS
 10
540.116885
 20
312.497670
 40
3.323500
  0
ARC
  8
OBRYS
 62
     7
 10
540.116885
 20
312.497670
 40
4.000000
 50
355.000000
 51
275.000000
  0
ENDBLK
  8
OBRYS
  0
BLOCK
  8
OBRYS
  2
Vnitrni_metricky_zavit_M8_1
 70
   66
 10
632.040767
 20
312.497670
  0
CIRCLE
  8
OBRYS
 10
632.040767
 20
312.497670
 40
3.323500
  0
ARC
  8
OBRYS
 62
     7
 10
632.040767
 20
312.497670
 40
4.000000
 50
355.000000
 51
275.000000
  0
ENDBLK
  8
OBRYS
  0
BLOCK
  8
OBRYS
  2
Vnitrni_metricky_zavit_M8_2
 70
   66
 10
632.040767
 20
404.421552
  0
CIRCLE
  8
OBRYS
 10
632.040767
 20
404.421552
 40
3.323500
  0
ARC
  8
OBRYS
 62
     7
 10
632.040767
 20
404.421552
 40
4.000000
 50
355.000000
 51
275.000000
  0
ENDBLK
  8
OBRYS
  0
BLOCK
  8
OBRYS
  2
Vnitrni_metricky_zavit_M8_3
 70
   66
 10
540.116885
 20
404.421552
  0
CIRCLE
  8
OBRYS
 10
540.116885
 20
404.421552
 40
3.323500
  0
ARC
  8
OBRYS
 62
     7
 10
540.116885
 20
404.421552
 40
4.000000
 50
355.000000
 51
275.000000
  0
ENDBLK
  8
OBRYS
  0
BLOCK
  8
OBRYS
  2
_4
 70
   64
 10
586.078826
 20
176.732692
  0
INSERT
  8
OBRYS
  2
Srouby_s_valcovou_hlavou___1
 62
     7
 10
586.078826
 20
236.732692
  0
INSERT
  8
OBRYS
  2
Srouby_s_valcovou_hlavou___2
 62
     7
 10
586.078826
 20
86.732692
  0
INSERT
  8
OBRYS
  2
Srouby_s_valcovou_hlavou___3
 62
     7
 10
638.040350
 20
146.732692
  0
INSERT
  8
OBRYS
  2
Srouby_s_valcovou_hlavou___4
 62
     7
 10
534.117302
 20
146.732692
  0
INSERT
  8
OBRYS
  2
Srouby_s_valcovou_hlavou___5
 62
     7
 10
534.117302
 20
206.732692
  0
INSERT
  8
OBRYS
  2
Srouby_s_valcovou_hlavou___6
 62
     7
 10
638.040350
 20
206.732692
  0
LINE
  8
OSA
 10
562.078826
 20
100.732692
 11
562.078826
 21
108.732692
  0
LINE
  8
OSA
 10
512.759952
 20
114.732692
 11
660.213926
 21
114.732692
  0
LINE
  8
OSA
 10
522.825070
 20
176.732692
 11
650.148808
 21
176.732692
  0
LINE
  8
OSA
 10
586.078826
 20
248.078745
 11
586.078826
 21
40.737321
  0
LINE
  8
OSA
 10
619.705657
 20
81.105861
 11
635.932326
 21
64.879192
  0
LINE
  8
OSA
 10
538.928941
 20
161.882577
 11
549.806159
 21
151.005359
  0
LINE
  8
OSA
 10
538.137538
 20
66.791404
 11
552.759372
 21
81.413238
  0
LINE
  8
OSA
 10
621.054035
 20
149.707901
 11
633.001143
 21
161.655009
  0
INSERT
  8
OBRYS
  2
Vnitrni_metricky_zavit_M8__7
 62
     7
 10
626.737466
 20
155.391332
  0
INSERT
  8
OBRYS
  2
Vnitrni_metricky_zavit_M8__8
 62
     7
 10
545.420186
 20
155.391332
  0
CIRCLE
  8
OBRYS
 10
545.420186
 20
74.074052
 40
4.500000
  0
CIRCLE
  8
OBRYS
 10
626.737466
 20
74.074052
 40
4.500000
  0
CIRCLE
  8
OSA
 10
586.078826
 20
114.732692
 40
57.500000
  0
CIRCLE
  8
OBRYS
 10
534.117302
 20
206.732692
 40
5.000000
  0
CIRCLE
  8
OBRYS
 10
586.078826
 20
236.732692
 40
5.000000
  0
CIRCLE
  8
OBRYS
 10
638.040350
 20
206.732692
 40
5.000000
  0
LINE
  8
OBRYS
 10
563.350751
 20
131.051224
 11
563.616018
 21
131.448621
  0
LINE
  8
OBRYS
 10
549.586293
 20
141.026607
 11
550.215518
 21
141.913994
  0
LINE
  8
OBRYS
 10
622.748101
 20
140.816484
 11
623.208795
 21
140.242918
  0
ARC
  8
OBRYS
 10
615.862518
 20
135.967148
 40
8.500000
 50
214.445674
 51
294.117511
  0
ARC
  8
OBRYS
 10
615.862518
 20
135.967148
 40
8.500000
 50
0.000000
 51
30.200786
  0
ARC
  8
OBRYS
 10
586.078826
 20
114.732692
 40
45.000000
 50
35.425214
 51
142.841004
  0
ARC
  8
OBRYS
 10
586.078826
 20
114.732692
 40
28.000000
 50
35.315423
 51
143.187187
  0
ARC
  8
OBRYS
 10
556.416511
 20
135.967148
 40
8.500000
 50
238.024118
 51
324.665849
  0
ARC
  8
OBRYS
 10
556.416511
 20
135.967148
 40
8.500000
 50
143.470940
 51
238.024118
  0
ARC
  8
OBRYS
 10
615.862518
 20
135.967148
 40
8.500000
 50
294.117511
 51
360.000000
  0
ARC
  8
OBRYS
 10
586.078826
 20
176.732692
 40
60.000000
 50
340.005162
 51
21.101147
  0
ARC
  8
OBRYS
 10
586.078826
 20
176.732692
 40
60.000000
 50
180.000000
 51
199.994838
  0
CIRCLE
  8
OBRYS
 10
534.117302
 20
146.732692
 40
5.000000
  0
CIRCLE
  8
OBRYS
 10
638.040350
 20
146.732692
 40
5.000000
  0
CIRCLE
  8
OBRYS
 10
586.078826
 20
114.732692
 40
47.500000
  0
CIRCLE
  8
OBRYS
 10
586.078828
 20
86.732692
 40
5.000000
  0
CIRCLE
  8
OBRYS
 10
586.078826
 20
114.732692
 40
70.000000
  0
ARC
  8
OBRYS
 10
534.117302
 20
206.732692
 40
7.000000
 50
122.047113
 51
180.000000
  0
LINE
  8
OSA
 10
586.078828
 20
86.732692
 11
586.078828
 21
79.082692
  0
LINE
  8
OSA
 10
586.078828
 20
86.732692
 11
586.078828
 21
94.382692
  0
LINE
  8
OSA
 10
586.078828
 20
86.732692
 11
593.728828
 21
86.732692
  0
LINE
  8
OSA
 10
586.078828
 20
86.732692
 11
578.428828
 21
86.732692
  0
LINE
  8
OSA
 10
586.078826
 20
236.732692
 11
586.078826
 21
229.082692
  0
LINE
  8
OSA
 10
586.078826
 20
236.732692
 11
586.078826
 21
244.382692
  0
LINE
  8
OSA
 10
586.078826
 20
236.732692
 11
593.728826
 21
236.732692
  0
LINE
  8
OSA
 10
586.078826
 20
236.732692
 11
578.428826
 21
236.732692
  0
LINE
  8
OSA
 10
638.040350
 20
206.732692
 11
638.040350
 21
199.082692
  0
LINE
  8
OSA
 10
638.040350
 20
206.732692
 11
638.040350
 21
214.382692
  0
LINE
  8
OSA
 10
638.040350
 20
206.732692
 11
645.690350
 21
206.732692
  0
LINE
  8
OSA
 10
638.040350
 20
206.732692
 11
630.390350
 21
206.732692
  0
LINE
  8
OSA
 10
638.040350
 20
146.732692
 11
638.040350
 21
139.082692
  0
LINE
  8
OSA
 10
638.040350
 20
146.732692
 11
638.040350
 21
154.382692
  0
LINE
  8
OSA
 10
638.040350
 20
146.732692
 11
645.690350
 21
146.732692
  0
LINE
  8
OSA
 10
638.040350
 20
146.732692
 11
630.390350
 21
146.732692
  0
LINE
  8
OSA
 10
534.117302
 20
146.732692
 11
534.117302
 21
139.082692
  0
LINE
  8
OSA
 10
534.117302
 20
146.732692
 11
534.117302
 21
154.382692
  0
LINE
  8
OSA
 10
534.117302
 20
146.732692
 11
541.767302
 21
146.732692
  0
LINE
  8
OSA
 10
534.117302
 20
146.732692
 11
526.467302
 21
146.732692
  0
LINE
  8
OSA
 10
534.117302
 20
206.732692
 11
534.117302
 21
199.082692
  0
LINE
  8
OSA
 10
534.117302
 20
206.732692
 11
534.117302
 21
214.382692
  0
LINE
  8
OSA
 10
534.117302
 20
206.732692
 11
541.767302
 21
206.732692
  0
LINE
  8
OSA
 10
534.117302
 20
206.732692
 11
526.467302
 21
206.732692
  0
ARC
  8
OBRYS
 10
586.078826
 20
236.732692
 40
7.000000
 50
12.953880
 51
167.046120
  0
ARC
  8
OBRYS
 10
586.078826
 20
176.732692
 40
60.000000
 50
158.898853
 51
180.000000
  0
ARC
  8
OBRYS
 10
527.303207
 20
199.413668
 40
3.000000
 50
338.898853
 51
47.046120
  0
ARC
  8
OBRYS
 10
644.854445
 20
199.413668
 40
3.000000
 50
132.953880
 51
201.101147
  0
ARC
  8
OBRYS
 10
595.824334
 20
238.974359
 40
3.000000
 50
192.953880
 51
261.101147
  0
ARC
  8
OBRYS
 10
576.333318
 20
238.974359
 40
3.000000
 50
278.898853
 51
347.046120
  0
ARC
  8
OBRYS
 10
586.078826
 20
114.732692
 40
21.000000
 50
239.612032
 51
180.000000
  0
ARC
  8
OBRYS
 10
586.078826
 20
114.732692
 40
21.000000
 50
180.000000
 51
239.612032
  0
ARC
  8
OBRYS
 10
586.078826
 20
114.732692
 40
81.000000
 50
42.650065
 51
137.349935
  0
LINE
  8
OSA
 10
624.078826
 20
221.732692
 11
624.078826
 21
213.732692
  0
LINE
  8
OSA
 10
624.078826
 20
221.732692
 11
624.078826
 21
229.732692
  0
LINE
  8
OSA
 10
624.078826
 20
221.732692
 11
632.078826
 21
221.732692
  0
LINE
  8
OSA
 10
624.078826
 20
221.732692
 11
616.078826
 21
221.732692
  0
ARC
  8
OBRYS
 10
624.078826
 20
221.732692
 40
5.000000
 50
48.547337
 51
70.783336
  0
ARC
  8
OBRYS
 10
586.078826
 20
176.732692
 40
60.000000
 50
70.783336
 51
81.101147
  0
LINE
  8
TLUST_
 62
     2
 10
605.827304
 20
233.389533
 11
625.724532
 21
226.454095
  0
LINE
  8
TLUST_
 62
     2
 10
642.674357
 20
211.979212
 11
627.388831
 21
225.480207
  0
CIRCLE
  8
OBRYS
 10
624.078826
 20
221.732692
 40
3.000000
  0
ARC
  8
OBRYS
 10
638.040350
 20
206.732692
 40
7.000000
 50
312.953878
 51
40.000000
  0
LINE
  8
OBRYS
 10
642.674357
 20
211.979212
 11
643.402661
 21
211.232205
  0
CIRCLE
  8
OBRYS
 10
562.078826
 20
100.732692
 40
3.000000
  0
LINE
  8
OSA
 10
562.078826
 20
100.732692
 11
554.078826
 21
100.732692
  0
LINE
  8
OSA
 10
562.078826
 20
100.732692
 11
570.078826
 21
100.732692
  0
LINE
  8
OSA
 10
562.078826
 20
100.732692
 11
562.078826
 21
92.732692
  0
LINE
  8
OBRYS
 10
529.483294
 20
211.979212
 11
528.754991
 21
211.232205
  0
ARC
  8
OBRYS
 10
534.117302
 20
206.732692
 40
7.000000
 50
140.000000
 51
227.046122
  0
LINE
  8
TLUST_
 62
     2
 10
529.483294
 20
211.979212
 11
544.768821
 21
225.480207
  0
LINE
  8
TLUST_
 62
     2
 10
566.330348
 20
233.389533
 11
546.433119
 21
226.454095
  0
ARC
  8
OBRYS
 10
586.078826
 20
176.732692
 40
60.000000
 50
98.898853
 51
109.216664
  0
ARC
  8
OBRYS
 10
548.078826
 20
221.732692
 40
5.000000
 50
109.216664
 51
131.452663
  0
CIRCLE
  8
OBRYS
 10
586.078826
 20
114.732692
 40
12.500000
  0
ARC
  8
OBRYS
 10
586.078826
 20
114.732692
 40
5.500000
 50
110.654018
 51
68.003576
  0
LINE
  8
OBRYS
 10
588.138844
 20
119.832332
 11
588.138844
 21
121.921653
  0
LINE
  8
OBRYS
 10
584.138844
 20
119.879193
 11
584.138844
 21
121.921653
  0
LINE
  8
OBRYS
 10
584.138844
 20
121.921653
 11
588.138844
 21
121.921653
  0
ARC
  8
OBRYS
 10
586.078826
 20
114.732692
 40
6.654700
 50
106.949013
 51
71.967383
  0
ENDBLK
  8
OBRYS
  0
BLOCK
  8
OBRYS
  2
Srouby_s_valcovou_hlavou___1
 70
   66
 10
586.078826
 20
236.732692
  0
LINE
  8
OBRYS
 10
584.078826
 20
235.577984
 11
584.078826
 21
237.887400
  0
LINE
  8
OBRYS
 10
584.078826
 20
237.887400
 11
586.078826
 21
239.042108
  0
LINE
  8
OBRYS
 10
586.078826
 20
239.042108
 11
588.078826
 21
237.887400
  0
LINE
  8
OBRYS
 10
588.078826
 20
237.887400
 11
588.078826
 21
235.577984
  0
LINE
  8
OBRYS
 10
588.078826
 20
235.577984
 11
586.078826
 21
234.423277
  0
LINE
  8
OBRYS
 10
586.078826
 20
234.423277
 11
584.078826
 21
235.577984
  0
CIRCLE
  8
OBRYS
 10
586.078826
 20
236.732692
 40
2.309415
  0
CIRCLE
  8
OBRYS
 10
586.078826
 20
236.732692
 40
4.250000
  0
ENDBLK
  8
OBRYS
  0
BLOCK
  8
OBRYS
  2
Srouby_s_valcovou_hlavou___2
 70
   66
 10
586.078826
 20
86.732692
  0
LINE
  8
OBRYS
 10
584.078826
 20
85.577984
 11
584.078826
 21
87.887400
  0
LINE
  8
OBRYS
 10
584.078826
 20
87.887400
 11
586.078826
 21
89.042108
  0
LINE
  8
OBRYS
 10
586.078826
 20
89.042108
 11
588.078826
 21
87.887400
  0
LINE
  8
OBRYS
 10
588.078826
 20
87.887400
 11
588.078826
 21
85.577984
  0
LINE
  8
OBRYS
 10
588.078826
 20
85.577984
 11
586.078826
 21
84.423277
  0
LINE
  8
OBRYS
 10
586.078826
 20
84.423277
 11
584.078826
 21
85.577984
  0
CIRCLE
  8
OBRYS
 10
586.078826
 20
86.732692
 40
2.309415
  0
CIRCLE
  8
OBRYS
 10
586.078826
 20
86.732692
 40
4.250000
  0
ENDBLK
  8
OBRYS
  0
BLOCK
  8
OBRYS
  2
Srouby_s_valcovou_hlavou___3
 70
   66
 10
638.040350
 20
146.732692
  0
LINE
  8
OBRYS
 10
636.040350
 20
145.577984
 11
636.040350
 21
147.887400
  0
LINE
  8
OBRYS
 10
636.040350
 20
147.887400
 11
638.040350
 21
149.042108
  0
LINE
  8
OBRYS
 10
638.040350
 20
149.042108
 11
640.040350
 21
147.887400
  0
LINE
  8
OBRYS
 10
640.040350
 20
147.887400
 11
640.040350
 21
145.577984
  0
LINE
  8
OBRYS
 10
640.040350
 20
145.577984
 11
638.040350
 21
144.423277
  0
LINE
  8
OBRYS
 10
638.040350
 20
144.423277
 11
636.040350
 21
145.577984
  0
CIRCLE
  8
OBRYS
 10
638.040350
 20
146.732692
 40
2.309415
  0
CIRCLE
  8
OBRYS
 10
638.040350
 20
146.732692
 40
4.250000
  0
ENDBLK
  8
OBRYS
  0
BLOCK
  8
OBRYS
  2
Srouby_s_valcovou_hlavou___4
 70
   66
 10
534.117302
 20
146.732692
  0
LINE
  8
OBRYS
 10
532.117302
 20
145.577984
 11
532.117302
 21
147.887400
  0
LINE
  8
OBRYS
 10
532.117302
 20
147.887400
 11
534.117302
 21
149.042108
  0
LINE
  8
OBRYS
 10
534.117302
 20
149.042108
 11
536.117302
 21
147.887400
  0
LINE
  8
OBRYS
 10
536.117302
 20
147.887400
 11
536.117302
 21
145.577984
  0
LINE
  8
OBRYS
 10
536.117302
 20
145.577984
 11
534.117302
 21
144.423277
  0
LINE
  8
OBRYS
 10
534.117302
 20
144.423277
 11
532.117302
 21
145.577984
  0
CIRCLE
  8
OBRYS
 10
534.117302
 20
146.732692
 40
2.309415
  0
CIRCLE
  8
OBRYS
 10
534.117302
 20
146.732692
 40
4.250000
  0
ENDBLK
  8
OBRYS
  0
BLOCK
  8
OBRYS
  2
Srouby_s_valcovou_hlavou___5
 70
   66
 10
534.117302
 20
206.732692
  0
LINE
  8
OBRYS
 10
532.117302
 20
205.577984
 11
532.117302
 21
207.887400
  0
LINE
  8
OBRYS
 10
532.117302
 20
207.887400
 11
534.117302
 21
209.042108
  0
LINE
  8
OBRYS
 10
534.117302
 20
209.042108
 11
536.117302
 21
207.887400
  0
LINE
  8
OBRYS
 10
536.117302
 20
207.887400
 11
536.117302
 21
205.577984
  0
LINE
  8
OBRYS
 10
536.117302
 20
205.577984
 11
534.117302
 21
204.423277
  0
LINE
  8
OBRYS
 10
534.117302
 20
204.423277
 11
532.117302
 21
205.577984
  0
CIRCLE
  8
OBRYS
 10
534.117302
 20
206.732692
 40
2.309415
  0
CIRCLE
  8
OBRYS
 10
534.117302
 20
206.732692
 40
4.250000
  0
ENDBLK
  8
OBRYS
  0
BLOCK
  8
OBRYS
  2
Srouby_s_valcovou_hlavou___6
 70
   66
 10
638.040350
 20
206.732692
  0
LINE
  8
OBRYS
 10
636.040350
 20
205.577984
 11
636.040350
 21
207.887400
  0
LINE
  8
OBRYS
 10
636.040350
 20
207.887400
 11
638.040350
 21
209.042108
  0
LINE
  8
OBRYS
 10
638.040350
 20
209.042108
 11
640.040350
 21
207.887400
  0
LINE
  8
OBRYS
 10
640.040350
 20
207.887400
 11
640.040350
 21
205.577984
  0
LINE
  8
OBRYS
 10
640.040350
 20
205.577984
 11
638.040350
 21
204.423277
  0
LINE
  8
OBRYS
 10
638.040350
 20
204.423277
 11
636.040350
 21
205.577984
  0
CIRCLE
  8
OBRYS
 10
638.040350
 20
206.732692
 40
2.309415
  0
CIRCLE
  8
OBRYS
 10
638.040350
 20
206.732692
 40
4.250000
  0
ENDBLK
  8
OBRYS
  0
BLOCK
  8
OBRYS
  2
Vnitrni_metricky_zavit_M8__7
 70
   66
 10
626.737466
 20
155.391332
  0
CIRCLE
  8
OBRYS
 10
626.737466
 20
155.391332
 40
3.323500
  0
ARC
  8
OBRYS
 62
     7
 10
626.737466
 20
155.391332
 40
4.000000
 50
355.000000
 51
275.000000
  0
ENDBLK
  8
OBRYS
  0
BLOCK
  8
OBRYS
  2
Vnitrni_metricky_zavit_M8__8
 70
   66
 10
545.420186
 20
155.391332
  0
CIRCLE
  8
OBRYS
 10
545.420186
 20
155.391332
 40
3.323500
  0
ARC
  8
OBRYS
 62
     7
 10
545.420186
 20
155.391332
 40
4.000000
 50
355.000000
 51
275.000000
  0
ENDBLK
  8
OBRYS
  0
BLOCK
  8
OSA
  2
_5
 70
   64
 10
586.078826
 20
176.732692
  0
LINE
  8
OSA
 62
     2
  6
CONTINUOUS
 10
624.078826
 20
55.944938
 11
624.078826
 21
46.732692
  0
LINE
  8
OSA
 62
     2
  6
CONTINUOUS
 10
553.078826
 20
44.677903
 11
547.196561
 21
44.677903
  0
ARC
  8
OSA
 62
     2
  6
CONTINUOUS
 10
553.078826
 20
47.677903
 40
3.000000
 50
270.000000
 51
360.000000
  0
LINE
  8
OSA
 62
     2
  6
CONTINUOUS
 10
624.078826
 20
44.677903
 11
619.078826
 21
44.677903
  0
ARC
  8
OSA
 62
     2
  6
CONTINUOUS
 10
619.078826
 20
47.677903
 40
3.000000
 50
180.000000
 51
270.000000
  0
LINE
  8
OSA
 10
586.078826
 20
176.732692
 11
586.078826
 21
46.732692
  0
LINE
  8
OSA
 62
     2
  6
CONTINUOUS
 10
556.078826
 20
51.487139
 11
556.078826
 21
47.677903
  0
LINE
  8
OSA
 62
     2
  6
CONTINUOUS
 10
616.078826
 20
51.487139
 11
616.078826
 21
47.677903
  0
ENDBLK
  8
OSA
  0
BLOCK
  8
OSA
  2
_6
 70
   64
 10
624.078826
 20
114.732692
  0
ARC
  8
OSA
 62
     2
  6
CONTINUOUS
 10
633.078826
 20
48.904265
 40
2.000000
 50
135.000000
 51
180.000000
  0
LINE
  8
OSA
 62
     2
  6
CONTINUOUS
 10
637.078826
 20
55.732692
 11
631.664612
 21
50.318478
  0
ARC
  8
OSA
 62
     2
  6
CONTINUOUS
 10
633.078826
 20
48.904265
 40
2.000000
 50
135.000000
 51
180.000000
  0
LINE
  8
OSA
 62
     2
  6
CONTINUOUS
 10
624.961091
 20
44.732692
 11
629.148625
 21
44.992739
  0
ARC
  8
OSA
 62
     2
  6
CONTINUOUS
 10
633.078826
 20
48.904265
 40
2.000000
 50
135.000000
 51
180.000000
  0
ARC
  8
OSA
 62
     2
  6
CONTINUOUS
 10
629.078826
 20
46.991521
 40
2.000000
 50
272.000000
 51
360.000000
  0
LINE
  8
OSA
 62
     2
  6
CONTINUOUS
 10
631.078826
 20
46.991521
 11
631.078826
 21
61.113666
  0
LINE
  8
OSA
 62
     2
  6
CONTINUOUS
 10
624.078826
 20
55.944938
 11
624.078826
 21
44.732692
  0
LINE
  8
OSA
 62
     2
  6
CONTINUOUS
 10
637.078826
 20
66.784804
 11
637.078826
 21
55.732692
  0
ENDBLK
  8
OSA
  0
BLOCK
  8
OSA
  2
_7
 70
   64
 10
548.078826
 20
114.732692
  0
LINE
  8
OSA
 62
     2
  6
CONTINUOUS
 10
535.078826
 20
66.784804
 11
535.078826
 21
55.732692
  0
LINE
  8
OSA
 62
     2
  6
CONTINUOUS
 10
541.078826
 20
46.991521
 11
541.078826
 21
61.113666
  0
ARC
  8
OSA
 62
     2
  6
CONTINUOUS
 10
543.078826
 20
46.991521
 40
2.000000
 50
180.000000
 51
268.000000
  0
ARC
  8
OSA
 62
     2
  6
CONTINUOUS
 10
539.078826
 20
48.904265
 40
2.000000
 50
0.000000
 51
45.000000
  0
LINE
  8
OSA
 62
     2
  6
CONTINUOUS
 10
547.196561
 20
44.732692
 11
543.009027
 21
44.992739
  0
ARC
  8
OSA
 62
     2
  6
CONTINUOUS
 10
539.078826
 20
48.904265
 40
2.000000
 50
0.000000
 51
45.000000
  0
LINE
  8
OSA
 62
     2
  6
CONTINUOUS
 10
535.078826
 20
55.732692
 11
540.493039
 21
50.318478
  0
ARC
  8
OSA
 62
     2
  6
CONTINUOUS
 10
539.078826
 20
48.904265
 40
2.000000
 50
0.000000
 51
45.000000
  0
ENDBLK
  8
OSA
  0
BLOCK
  8
OBRYS
  2
_8
 70
   64
 10
857.286081
 20
176.732692
  0
ARC
  8
OBRYS
 10
900.440808
 20
76.732692
 40
3.000000
 50
0.000000
 51
90.000000
  0
LINE
  8
OBRYS
 10
890.286081
 20
79.732692
 11
900.440808
 21
79.732692
  0
ARC
  8
OBRYS
 10
906.440808
 20
47.732692
 40
3.000000
 50
180.000000
 51
270.000000
  0
LINE
  8
OBRYS
 10
906.440808
 20
44.732692
 11
912.440808
 21
44.732692
  0
LINE
  8
OBRYS
 10
906.806238
 20
184.732692
 11
912.440808
 21
184.732692
  0
LINE
  8
OBRYS
 10
912.440808
 20
184.732692
 11
912.440808
 21
44.732692
  0
ARC
  8
OBRYS
 10
906.806238
 20
187.732692
 40
3.000000
 50
208.703409
 51
270.000000
  0
LINE
  8
OBRYS
 10
899.654728
 20
194.546935
 11
904.174885
 21
186.291865
  0
ARC
  8
OBRYS
 10
902.286081
 20
195.987762
 40
3.000000
 50
180.000000
 51
208.703409
  0
LINE
  8
OBRYS
 10
899.286081
 20
195.987762
 11
899.286081
 21
240.732692
  0
ARC
  8
OBRYS
 10
896.286081
 20
240.732692
 40
3.000000
 50
0.000000
 51
90.000000
  0
LINE
  8
OBRYS
 10
896.286081
 20
243.732692
 11
890.286081
 21
243.732692
  0
LINE
  8
OBRYS
 62
     7
  6
DASHDOT
 10
893.286081
 20
114.732692
 11
914.440808
 21
114.732692
  0
ARC
  8
OBRYS
 10
859.286081
 20
220.936954
 40
3.000000
 50
300.404895
 51
360.000000
  0
LINE
  8
OBRYS
 10
857.286081
 20
216.284951
 11
860.804403
 21
218.349542
  0
LINE
  8
OBRYS
 62
     7
 10
869.178641
 20
79.809714
 11
869.197137
 21
79.791218
  0
LINE
  8
OBRYS
 62
     7
 10
869.197137
 20
79.791218
 11
869.178641
 21
79.809714
  0
LINE
  8
OBRYS
 10
890.286081
 20
79.732692
 11
870.286081
 21
79.732692
  0
ARC
  8
OBRYS
 10
870.286081
 20
87.732692
 40
8.000000
 50
180.000000
 51
270.000000
  0
ARC
  8
OBRYS
 10
859.286081
 20
95.260556
 40
3.000000
 50
0.000000
 51
48.189685
  0
ARC
  8
OBRYS
 10
863.286081
 20
99.732692
 40
3.000000
 50
180.000000
 51
228.189685
  0
ARC
  8
OBRYS
 10
865.286081
 20
231.602292
 40
3.000000
 50
140.254334
 51
180.000000
  0
LINE
  8
OBRYS
 10
862.979410
 20
233.520435
 11
870.571915
 21
242.650835
  0
LINE
  8
OBRYS
 62
     7
  6
DASHDOT
 10
889.332561
 20
114.732692
 11
890.286081
 21
114.732692
  0
LINE
  8
OBRYS
 62
     7
  6
DASHDOT
 10
865.286081
 20
114.732692
 11
882.434052
 21
114.732692
  0
LINE
  8
OBRYS
 62
     7
  6
DASHDOT
 10
852.286081
 20
176.732692
 11
890.286081
 21
176.732692
  0
LINE
  8
OBRYS
 10
890.286081
 20
243.732692
 11
872.878586
 21
243.732692
  0
ARC
  8
OBRYS
 10
872.878586
 20
240.732692
 40
3.000000
 50
90.000000
 51
140.254334
  0
LINE
  8
OBRYS
 10
857.286081
 20
176.732692
 11
857.286081
 21
137.246376
  0
LINE
  8
OBRYS
 10
857.286081
 20
216.284951
 11
857.286081
 21
176.732692
  0
LINE
  8
OBRYS
 10
862.286081
 20
231.602292
 11
862.286081
 21
176.732692
  0
LINE
  8
OBRYS
 10
862.286081
 20
87.732692
 11
862.286081
 21
176.732692
  0
LINE
  8
OBRYS
 10
857.286081
 20
137.180433
 11
860.286081
 21
134.180433
  0
LINE
  8
OBRYS
 10
860.286081
 20
99.732692
 11
860.286081
 21
134.180433
  0
LINE
  8
OBRYS
 10
899.286081
 20
226.130684
 11
872.878586
 21
226.130684
  0
LINE
  8
OBRYS
 10
899.286081
 20
236.010469
 11
872.878586
 21
236.010469
  0
LINE
  8
OBRYS
 10
886.286081
 20
196.400603
 11
864.763109
 21
196.400603
  0
LINE
  8
OBRYS
 10
899.286081
 20
201.609377
 11
887.286081
 21
201.609377
  0
LINE
  8
OBRYS
 10
903.440808
 20
184.732692
 11
903.440808
 21
47.732692
  0
LINE
  8
OBRYS
 10
886.286081
 20
200.609377
 11
886.286081
 21
157.064782
  0
LINE
  8
OBRYS
 10
903.440808
 20
157.064782
 11
864.763109
 21
157.064782
  0
LINE
  8
OBRYS
 10
890.286081
 20
243.732692
 11
890.286081
 21
79.732692
  0
LINE
  8
OBRYS
 10
903.440808
 20
139.751383
 11
864.763109
 21
139.751383
  0
LINE
  8
OBRYS
 10
885.286081
 20
82.850461
 11
866.182887
 21
82.850461
  0
LINE
  8
OBRYS
 10
886.286081
 20
138.751383
 11
886.286081
 21
83.850461
  0
ENDBLK
  8
OBRYS
  0
BLOCK
  8
OSA
  2
_9
 70
   64
 10
300.707303
 20
-83.556697
  0
ARC
  8
OBRYS
 10
288.486380
 20
-74.459766
 40
2.000000
 50
293.822528
 51
2.782366
  0
ARC
  8
OBRYS
 10
288.486380
 20
-92.653627
 40
2.000000
 50
357.217634
 51
66.177472
  0
ARC
  8
OBRYS
 10
101.305418
 20
-83.556697
 40
189.401885
 50
348.136806
 51
357.032847
  0
LINE
  8
OBRYS
 10
258.707303
 20
-91.257264
 11
288.456067
 21
-91.257264
  0
ARC
  8
OBRYS
 10
292.502877
 20
-83.556697
 40
7.944164
 50
113.822528
 51
246.177472
  0
ARC
  8
OBRYS
 10
101.305418
 20
-83.556697
 40
189.401885
 50
2.782366
 51
11.863194
  0
LINE
  8
OBRYS
 10
258.707303
 20
-75.856130
 11
288.456067
 21
-75.856130
  0
LINE
  8
SRAFY
 62
     2
 10
300.707303
 20
-48.556697
 11
300.707303
 21
-118.556697
  0
LINE
  8
OBRYS
 10
297.707303
 20
-118.556697
 11
300.707303
 21
-118.556697
  0
ARC
  8
OBRYS
 10
297.707303
 20
-120.556697
 40
2.000000
 50
90.000000
 51
180.000000
  0
LINE
  8
OBRYS
 10
297.707303
 20
-48.556697
 11
300.707303
 21
-48.556697
  0
ARC
  8
OBRYS
 10
297.707303
 20
-46.556697
 40
2.000000
 50
180.000000
 51
270.000000
  0
LINE
  8
OBRYS
 10
258.707303
 20
-124.081946
 11
284.704632
 21
-124.081946
  0
LINE
  8
OBRYS
 10
286.321034
 20
-140.130211
 11
286.321034
 21
-126.081946
  0
LINE
  8
OBRYS
 10
286.321034
 20
-26.983183
 11
286.321034
 21
-41.031447
  0
LINE
  8
OBRYS
 10
258.707303
 20
-43.031447
 11
284.321034
 21
-43.031447
  0
LINE
  8
OBRYS
 10
258.707303
 20
-24.595173
 11
258.707303
 21
-142.518221
  0
LINE
  8
OBRYS
 10
245.552576
 20
-153.556697
 11
245.552576
 21
-13.556697
  0
LINE
  8
OBRYS
 10
252.552576
 20
-13.556697
 11
245.552576
 21
-13.556697
  0
ARC
  8
OBRYS
 10
252.552576
 20
-15.556697
 40
2.000000
 50
0.000000
 51
90.000000
  0
LINE
  8
OBRYS
 10
252.552576
 20
-153.556697
 11
245.552576
 21
-153.556697
  0
LINE
  8
OBRYS
 10
254.552576
 20
-151.556697
 11
254.552576
 21
-15.556697
  0
ARC
  8
OBRYS
 10
252.552576
 20
-151.556697
 40
2.000000
 50
270.000000
 51
360.000000
  0
ARC
  8
OBRYS
 10
256.552576
 20
-22.595173
 40
2.000000
 50
180.000000
 51
270.000000
  0
LINE
  8
OBRYS
 10
256.552576
 20
-24.595173
 11
291.707303
 21
-24.595173
  0
ARC
  8
OBRYS
 10
291.707303
 20
-28.595173
 40
4.000000
 50
0.000000
 51
90.000000
  0
ARC
  8
OBRYS
 10
284.558713
 20
-28.595173
 40
4.000000
 50
37.718185
 51
90.000000
  0
LINE
  8
OBRYS
 10
287.722831
 20
-26.148060
 11
294.871421
 21
-35.391190
  0
ARC
  8
OBRYS
 10
291.707303
 20
-37.838302
 40
4.000000
 50
0.000000
 51
37.718185
  0
LINE
  8
OBRYS
 10
295.707303
 20
-83.556697
 11
295.707303
 21
-28.595173
  0
LINE
  8
OBRYS
 10
267.707303
 20
-83.556697
 11
267.707303
 21
-24.595173
  0
LINE
  8
OBRYS
 10
267.707303
 20
-83.556697
 11
267.707303
 21
-142.518221
  0
ARC
  8
OBRYS
 10
291.707303
 20
-129.275091
 40
4.000000
 50
322.281815
 51
360.000000
  0
LINE
  8
OBRYS
 10
287.722831
 20
-140.965334
 11
294.871421
 21
-131.722204
  0
ARC
  8
OBRYS
 10
284.558713
 20
-138.518221
 40
4.000000
 50
270.000000
 51
322.281815
  0
ARC
  8
OBRYS
 10
291.707303
 20
-138.518221
 40
4.000000
 50
270.000000
 51
360.000000
  0
LINE
  8
OBRYS
 10
256.552576
 20
-142.518221
 11
291.707303
 21
-142.518221
  0
ARC
  8
OBRYS
 10
256.552576
 20
-144.518221
 40
2.000000
 50
90.000000
 51
180.000000
  0
LINE
  8
OBRYS
 10
295.707303
 20
-83.556697
 11
295.707303
 21
-138.518221
  0
LINE
  8
OSA
 10
240.552576
 20
-26.056697
 11
255.983241
 21
-26.056697
  0
LINE
  8
OSA
 10
240.552576
 20
-141.056697
 11
255.983241
 21
-141.056697
  0
LINE
  8
NEVIDI
  6
HIDDEN2
 10
245.552576
 20
-36.056697
 11
249.552576
 21
-36.056697
  0
LINE
  8
NEVIDI
  6
HIDDEN2
 10
249.552576
 20
-131.056697
 11
249.552576
 21
-36.056697
  0
LINE
  8
NEVIDI
  6
HIDDEN2
 10
245.552576
 20
-131.056697
 11
249.552576
 21
-131.056697
  0
LINE
  8
OSA
 10
286.561257
 20
-83.556697
 11
240.552576
 21
-83.556697
  0
ENDBLK
  8
OSA
  0
BLOCK
  8
OBRYS
  2
_10
 70
   64
 10
300.707303
 20
176.732692
  0
ARC
  8
OBRYS
 10
257.552576
 20
76.732692
 40
3.000000
 50
90.000000
 51
180.000000
  0
LINE
  8
OBRYS
 10
267.707303
 20
79.732692
 11
257.552576
 21
79.732692
  0
ARC
  8
OBRYS
 10
251.552576
 20
47.732692
 40
3.000000
 50
270.000000
 51
360.000000
  0
LINE
  8
OBRYS
 10
251.552576
 20
44.732692
 11
245.552576
 21
44.732692
  0
LINE
  8
OBRYS
 10
251.187146
 20
184.732692
 11
245.552576
 21
184.732692
  0
LINE
  8
OBRYS
 10
245.552576
 20
184.732692
 11
245.552576
 21
44.732692
  0
ARC
  8
OBRYS
 10
251.187146
 20
187.732692
 40
3.000000
 50
270.000000
 51
331.296591
  0
LINE
  8
OBRYS
 10
258.338656
 20
194.546935
 11
253.818499
 21
186.291865
  0
ARC
  8
OBRYS
 10
255.707303
 20
195.987762
 40
3.000000
 50
331.296591
 51
360.000000
  0
LINE
  8
OBRYS
 10
258.707303
 20
195.987762
 11
258.707303
 21
240.732692
  0
ARC
  8
OBRYS
 10
261.707303
 20
240.732692
 40
3.000000
 50
90.000000
 51
180.000000
  0
LINE
  8
OBRYS
 10
261.707303
 20
243.732692
 11
267.707303
 21
243.732692
  0
LINE
  8
OBRYS
 62
     7
  6
DASHDOT
 10
264.707303
 20
114.732692
 11
243.552576
 21
114.732692
  0
ARC
  8
OBRYS
 10
298.707303
 20
220.936954
 40
3.000000
 50
180.000000
 51
239.595105
  0
LINE
  8
OBRYS
 10
300.707303
 20
216.284951
 11
297.188981
 21
218.349542
  0
LINE
  8
OBRYS
 62
     7
 10
288.814743
 20
79.809714
 11
288.796247
 21
79.791218
  0
LINE
  8
OBRYS
 62
     7
 10
288.796247
 20
79.791218
 11
288.814743
 21
79.809714
  0
LINE
  8
OBRYS
 10
267.707303
 20
79.732692
 11
287.707303
 21
79.732692
  0
ARC
  8
OBRYS
 10
287.707303
 20
87.732692
 40
8.000000
 50
270.000000
 51
360.000000
  0
ARC
  8
OBRYS
 10
298.707303
 20
95.260556
 40
3.000000
 50
131.810315
 51
180.000000
  0
ARC
  8
OBRYS
 10
294.707303
 20
99.732692
 40
3.000000
 50
311.810315
 51
360.000000
  0
ARC
  8
OBRYS
 10
292.707303
 20
231.602292
 40
3.000000
 50
0.000000
 51
39.745666
  0
LINE
  8
OBRYS
 10
295.013974
 20
233.520435
 11
287.421469
 21
242.650835
  0
LINE
  8
OBRYS
 62
     7
  6
DASHDOT
 10
268.660823
 20
114.732692
 11
267.707303
 21
114.732692
  0
LINE
  8
OBRYS
 62
     7
  6
DASHDOT
 10
292.707303
 20
114.732692
 11
275.559332
 21
114.732692
  0
LINE
  8
OBRYS
 62
     7
  6
DASHDOT
 10
305.707303
 20
176.732692
 11
267.707303
 21
176.732692
  0
LINE
  8
OBRYS
 10
267.707303
 20
243.732692
 11
285.114798
 21
243.732692
  0
ARC
  8
OBRYS
 10
285.114798
 20
240.732692
 40
3.000000
 50
39.745666
 51
90.000000
  0
LINE
  8
OBRYS
 10
300.707303
 20
176.732692
 11
300.707303
 21
137.246376
  0
LINE
  8
OBRYS
 10
300.707303
 20
216.284951
 11
300.707303
 21
176.732692
  0
LINE
  8
OBRYS
 10
295.707303
 20
231.602292
 11
295.707303
 21
176.732692
  0
LINE
  8
OBRYS
 10
295.707303
 20
87.732692
 11
295.707303
 21
176.732692
  0
LINE
  8
OBRYS
 10
300.707303
 20
137.180433
 11
297.707303
 21
134.180433
  0
LINE
  8
OBRYS
 10
297.707303
 20
99.732692
 11
297.707303
 21
134.180433
  0
LINE
  8
OBRYS
 10
258.707303
 20
226.130684
 11
285.114798
 21
226.130684
  0
LINE
  8
OBRYS
 10
258.707303
 20
236.010469
 11
285.114798
 21
236.010469
  0
LINE
  8
OBRYS
 10
271.707303
 20
196.400603
 11
293.230275
 21
196.400603
  0
LINE
  8
OBRYS
 10
258.707303
 20
201.609377
 11
270.707303
 21
201.609377
  0
LINE
  8
OBRYS
 10
254.552576
 20
184.732692
 11
254.552576
 21
47.732692
  0
LINE
  8
OBRYS
 10
271.707303
 20
200.609377
 11
271.707303
 21
157.064782
  0
LINE
  8
OBRYS
 10
254.552576
 20
157.064782
 11
293.230275
 21
157.064782
  0
LINE
  8
OBRYS
 10
267.707303
 20
243.732692
 11
267.707303
 21
79.732692
  0
LINE
  8
OBRYS
 10
254.552576
 20
139.751383
 11
293.230275
 21
139.751383
  0
LINE
  8
OBRYS
 10
272.707303
 20
82.850461
 11
291.810497
 21
82.850461
  0
LINE
  8
OBRYS
 10
271.707303
 20
138.751383
 11
271.707303
 21
83.850461
  0
ENDBLK
  8
OBRYS
  0
BLOCK
  8
OSA
  2
_11
 70
   64
 10
300.707303
 20
387.430695
  0
LINE
  8
OSA
 10
235.552576
 20
387.430695
 11
292.294928
 21
387.430695
  0
LINE
  8
OBRYS
 10
297.707303
 20
352.430695
 11
300.707303
 21
352.430695
  0
ARC
  8
OBRYS
 10
297.707303
 20
350.430695
 40
2.000000
 50
90.000000
 51
180.000000
  0
LINE
  8
SRAFY
 62
     2
 10
300.707303
 20
422.430695
 11
300.707303
 21
352.430695
  0
LINE
  8
OSA
 10
277.707303
 20
369.930695
 11
277.707303
 21
359.930695
  0
LINE
  8
OSA
 10
277.707303
 20
369.930695
 11
277.707303
 21
379.930695
  0
LINE
  8
OSA
 10
277.707303
 20
369.930695
 11
267.707303
 21
369.930695
  0
LINE
  8
OSA
 10
277.707303
 20
369.930695
 11
287.707303
 21
369.930695
  0
LINE
  8
OBRYS
 10
254.552576
 20
336.543956
 11
270.707303
 21
336.543956
  0
LINE
  8
OBRYS
 10
271.707303
 20
337.543956
 11
271.707303
 21
356.118422
  0
LINE
  8
OBRYS
 10
295.707303
 20
387.430695
 11
295.707303
 21
332.469170
  0
ARC
  8
OBRYS
 10
256.552576
 20
326.469170
 40
2.000000
 50
90.000000
 51
180.000000
  0
LINE
  8
OBRYS
 10
256.552576
 20
328.469170
 11
291.707303
 21
328.469170
  0
ARC
  8
OBRYS
 10
291.707303
 20
332.469170
 40
4.000000
 50
270.000000
 51
360.000000
  0
ARC
  8
OBRYS
 10
284.558713
 20
332.469170
 40
4.000000
 50
270.000000
 51
322.281815
  0
LINE
  8
OBRYS
 10
287.722831
 20
330.022058
 11
294.871421
 21
339.265188
  0
ARC
  8
OBRYS
 10
291.707303
 20
341.712300
 40
4.000000
 50
322.281815
 51
360.000000
  0
LINE
  8
OBRYS
 10
272.707303
 20
340.345984
 11
294.789202
 21
340.345984
  0
LINE
  8
OBRYS
 10
267.707303
 20
387.430695
 11
267.707303
 21
328.469170
  0
LINE
  8
OBRYS
 10
297.707303
 20
422.430695
 11
300.707303
 21
422.430695
  0
ARC
  8
OBRYS
 10
297.707303
 20
424.430695
 40
2.000000
 50
180.000000
 51
270.000000
  0
LINE
  8
OBRYS
 10
267.707303
 20
387.430695
 11
267.707303
 21
446.392219
  0
LINE
  8
OBRYS
 10
295.707303
 20
387.430695
 11
295.707303
 21
442.392219
  0
LINE
  8
OBRYS
 10
272.707303
 20
434.515405
 11
294.789202
 21
434.515405
  0
ARC
  8
OBRYS
 10
291.707303
 20
433.149089
 40
4.000000
 50
0.000000
 51
37.718185
  0
LINE
  8
OBRYS
 10
287.722831
 20
444.839331
 11
294.871421
 21
435.596202
  0
ARC
  8
OBRYS
 10
284.558713
 20
442.392219
 40
4.000000
 50
37.718185
 51
90.000000
  0
ARC
  8
OBRYS
 10
291.707303
 20
442.392219
 40
4.000000
 50
0.000000
 51
90.000000
  0
LINE
  8
OBRYS
 10
256.552576
 20
446.392219
 11
291.707303
 21
446.392219
  0
ARC
  8
OBRYS
 10
256.552576
 20
448.392219
 40
2.000000
 50
180.000000
 51
270.000000
  0
LINE
  8
OBRYS
 10
254.552576
 20
438.317433
 11
270.707303
 21
438.317433
  0
LINE
  8
OBRYS
 10
272.707303
 20
387.430695
 11
291.707303
 21
387.430695
  0
LINE
  8
OBRYS
 10
272.707303
 20
357.118422
 11
291.707303
 21
357.118422
  0
ARC
  8
OBRYS
 10
272.707303
 20
388.430695
 40
1.000000
 50
180.000000
 51
270.000000
  0
LINE
  8
OBRYS
 10
271.707303
 20
388.430695
 11
271.707303
 21
437.317433
  0
ARC
  8
OBRYS
 10
272.707303
 20
356.118422
 40
1.000000
 50
90.000000
 51
180.000000
  0
ARC
  8
OBRYS
 10
252.552576
 20
319.430695
 40
2.000000
 50
270.000000
 51
360.000000
  0
LINE
  8
OBRYS
 10
254.552576
 20
319.430695
 11
254.552576
 21
455.430695
  0
LINE
  8
OBRYS
 10
252.552576
 20
317.430695
 11
245.552576
 21
317.430695
  0
ARC
  8
OBRYS
 10
252.552576
 20
455.430695
 40
2.000000
 50
0.000000
 51
90.000000
  0
LINE
  8
OBRYS
 10
252.552576
 20
457.430695
 11
245.552576
 21
457.430695
  0
LINE
  8
OBRYS
 10
245.552576
 20
317.430695
 11
245.552576
 21
457.430695
  0
ENDBLK
  8
OSA
  0
BLOCK
  8
OSA
  2
_12
 70
   64
 10
438.707303
 20
-83.556697
  0
ARC
  8
OSA
 62
     2
  6
CONTINUOUS
 10
312.878876
 20
-36.556697
 40
2.000000
 50
270.000000
 51
315.000000
  0
LINE
  8
OSA
 62
     2
  6
CONTINUOUS
 10
319.707303
 20
-32.556697
 11
314.293090
 21
-37.970910
  0
LINE
  8
OSA
 62
     2
  6
CONTINUOUS
 10
378.707303
 20
-26.056697
 11
337.988553
 21
-26.056697
  0
LINE
  8
OSA
 62
     2
  6
CONTINUOUS
 10
334.452673
 20
-32.556697
 11
319.707303
 21
-32.556697
  0
LINE
  8
OSA
 62
     2
  6
CONTINUOUS
 10
337.988553
 20
-26.056697
 11
331.756860
 21
-37.512406
  0
ARC
  8
OSA
 62
     2
  6
CONTINUOUS
 10
329.999982
 20
-36.556697
 40
2.000000
 50
270.000000
 51
331.454628
  0
LINE
  8
OSA
 62
     2
  6
CONTINUOUS
 10
345.567698
 20
-26.056697
 11
334.952638
 21
-37.892068
  0
ARC
  8
OSA
 62
     2
  6
CONTINUOUS
 10
333.463752
 20
-36.556697
 40
2.000000
 50
270.000000
 51
318.111296
  0
LINE
  8
OSA
 62
     2
  6
CONTINUOUS
 10
378.707303
 20
-121.556697
 11
448.707303
 21
-121.556697
  0
ARC
  8
OSA
 62
     2
  6
CONTINUOUS
 10
310.966132
 20
-40.556697
 40
2.000000
 50
90.000000
 51
178.000000
  0
LINE
  8
OSA
 62
     2
  6
CONTINUOUS
 10
310.966132
 20
-38.556697
 11
378.707303
 21
-38.556697
  0
LINE
  8
OSA
 62
     2
  6
CONTINUOUS
 10
446.448474
 20
-38.556697
 11
378.707303
 21
-38.556697
  0
ARC
  8
OSA
 62
     2
  6
CONTINUOUS
 10
446.448474
 20
-40.556697
 40
2.000000
 50
2.000000
 51
90.000000
  0
ARC
  8
OSA
 62
     2
  6
CONTINUOUS
 10
423.950854
 20
-36.556697
 40
2.000000
 50
221.888704
 51
270.000000
  0
LINE
  8
OSA
 62
     2
  6
CONTINUOUS
 10
411.846908
 20
-26.056697
 11
422.461968
 21
-37.892068
  0
ARC
  8
OSA
 62
     2
  6
CONTINUOUS
 10
427.414625
 20
-36.556697
 40
2.000000
 50
208.545372
 51
270.000000
  0
LINE
  8
OSA
 62
     2
  6
CONTINUOUS
 10
419.426053
 20
-26.056697
 11
425.657747
 21
-37.512406
  0
LINE
  8
OSA
 62
     2
  6
CONTINUOUS
 10
422.961933
 20
-32.556697
 11
437.707303
 21
-32.556697
  0
LINE
  8
OSA
 62
     2
  6
CONTINUOUS
 10
376.467363
 20
-38.556697
 11
375.026253
 21
-32.556697
  0
LINE
  8
OSA
 62
     2
  6
CONTINUOUS
 10
380.947243
 20
-38.556697
 11
382.388353
 21
-32.556697
  0
LINE
  8
OSA
 62
     2
  6
CONTINUOUS
 10
378.707303
 20
-26.056697
 11
419.426053
 21
-26.056697
  0
LINE
  8
OSA
 10
378.707303
 20
-125.556697
 11
378.707303
 21
-10.367988
  0
LINE
  8
OSA
 62
     2
  6
CONTINUOUS
 10
437.707303
 20
-32.556697
 11
443.121517
 21
-37.970910
  0
ARC
  8
OSA
 62
     2
  6
CONTINUOUS
 10
444.535730
 20
-36.556697
 40
2.000000
 50
225.000000
 51
270.000000
  0
LINE
  8
OSA
 62
     2
  6
CONTINUOUS
 10
413.707303
 20
-24.056697
 11
413.207303
 21
-23.556697
  0
LINE
  8
OSA
 62
     2
  6
CONTINUOUS
 10
413.707303
 20
-26.056697
 11
413.707303
 21
-24.056697
  0
LINE
  8
OSA
 10
435.707303
 20
-83.556697
 11
459.814449
 21
-83.556697
  0
LINE
  8
OSA
 62
     2
  6
CONTINUOUS
 10
397.692536
 20
-32.556697
 11
378.707303
 21
-32.556697
  0
LINE
  8
OSA
 62
     2
  6
CONTINUOUS
 10
413.707303
 20
-24.056697
 11
378.707303
 21
-24.056697
  0
LINE
  8
OSA
 62
     2
  6
CONTINUOUS
 10
413.207303
 20
-23.556697
 11
378.707303
 21
-23.556697
  0
LINE
  8
OSA
 62
     2
  6
CONTINUOUS
 10
448.707303
 20
-121.556697
 11
378.707303
 21
-121.556697
  0
LINE
  8
OSA
 62
     2
  6
CONTINUOUS
 10
378.707303
 20
-121.556697
 11
308.707303
 21
-121.556697
  0
LINE
  8
OSA
 62
     2
  6
CONTINUOUS
 10
359.722070
 20
-32.556697
 11
378.707303
 21
-32.556697
  0
LINE
  8
OSA
 62
     2
  6
CONTINUOUS
 10
344.207303
 20
-23.556697
 11
378.707303
 21
-23.556697
  0
LINE
  8
OSA
 62
     2
  6
CONTINUOUS
 10
343.707303
 20
-24.056697
 11
378.707303
 21
-24.056697
  0
LINE
  8
OSA
 62
     2
  6
CONTINUOUS
 10
343.707303
 20
-26.056697
 11
343.707303
 21
-24.056697
  0
LINE
  8
OSA
 62
     2
  6
CONTINUOUS
 10
343.707303
 20
-24.056697
 11
344.207303
 21
-23.556697
  0
LINE
  8
OSA
 10
438.707303
 20
-83.556697
 11
308.707303
 21
-83.556697
  0
LINE
  8
OSA
 62
     2
  6
CONTINUOUS
 10
300.707303
 20
-48.556697
 11
300.707303
 21
-118.556697
  0
LINE
  8
OSA
 62
     2
  6
CONTINUOUS
 10
308.466213
 20
-48.556697
 11
308.967350
 21
-40.486898
  0
LINE
  8
OSA
 62
     2
  6
CONTINUOUS
 10
448.948393
 20
-48.556697
 11
448.447256
 21
-40.486898
  0
LINE
  8
OSA
 62
     2
  6
CONTINUOUS
 10
428.419602
 20
-80.556697
 11
454.300131
 21
-80.556697
  0
LINE
  8
OSA
 62
     2
  6
CONTINUOUS
 10
428.419602
 20
-86.556697
 11
454.300131
 21
-86.556697
  0
POLYLINE
  8
OSA
 62
     2
  6
CONTINUOUS
 66
    1
  0
VERTEX
  8
OSA
 62
     2
  6
CONTINUOUS
 10
428.995056
 20
-48.541912
  0
VERTEX
  8
OSA
 62
     2
  6
CONTINUOUS
 10
428.995056
 20
-48.541912
  0
VERTEX
  8
OSA
 62
     2
  6
CONTINUOUS
 10
428.295410
 20
-49.287155
  0
VERTEX
  8
OSA
 62
     2
  6
CONTINUOUS
 10
428.148987
 20
-49.556698
  0
VERTEX
  8
OSA
 62
     2
  6
CONTINUOUS
 10
423.254425
 20
-56.470818
  0
VERTEX
  8
OSA
 62
     2
  6
CONTINUOUS
 10
421.131226
 20
-62.956493
  0
VERTEX
  8
OSA
 62
     2
  6
CONTINUOUS
 10
421.546692
 20
-69.275230
  0
VERTEX
  8
OSA
 62
     2
  6
CONTINUOUS
 10
424.585358
 20
-75.933807
  0
VERTEX
  8
OSA
 62
     2
  6
CONTINUOUS
 10
428.419617
 20
-80.556694
  0
VERTEX
  8
OSA
 62
     2
  6
CONTINUOUS
 10
429.107788
 20
-81.702599
  0
VERTEX
  8
OSA
 62
     2
  6
CONTINUOUS
 10
429.350189
 20
-82.929527
  0
VERTEX
  8
OSA
 62
     2
  6
CONTINUOUS
 10
429.243195
 20
-83.556694
  0
VERTEX
  8
OSA
 62
     2
  6
CONTINUOUS
 10
429.350189
 20
-84.183868
  0
VERTEX
  8
OSA
 62
     2
  6
CONTINUOUS
 10
429.107788
 20
-85.410797
  0
VERTEX
  8
OSA
 62
     2
  6
CONTINUOUS
 10
428.419617
 20
-86.556694
  0
VERTEX
  8
OSA
 62
     2
  6
CONTINUOUS
 10
424.585358
 20
-91.179581
  0
VERTEX
  8
OSA
 62
     2
  6
CONTINUOUS
 10
421.546692
 20
-97.838165
  0
VERTEX
  8
OSA
 62
     2
  6
CONTINUOUS
 10
421.131226
 20
-104.156898
  0
VERTEX
  8
OSA
 62
     2
  6
CONTINUOUS
 10
423.254425
 20
-110.642578
  0
VERTEX
  8
OSA
 62
     2
  6
CONTINUOUS
 10
428.148987
 20
-117.556694
  0
VERTEX
  8
OSA
 62
     2
  6
CONTINUOUS
 10
428.295410
 20
-117.826241
  0
VERTEX
  8
OSA
 62
     2
  6
CONTINUOUS
 10
428.995056
 20
-118.571480
  0
SEQEND
  8
OSA
  0
POLYLINE
  8
OSA
 62
     2
  6
CONTINUOUS
 66
    1
  0
VERTEX
  8
OSA
 62
     2
  6
CONTINUOUS
 10
328.419556
 20
-48.541912
  0
VERTEX
  8
OSA
 62
     2
  6
CONTINUOUS
 10
328.419556
 20
-48.541912
  0
VERTEX
  8
OSA
 62
     2
  6
CONTINUOUS
 10
329.119202
 20
-49.287155
  0
VERTEX
  8
OSA
 62
     2
  6
CONTINUOUS
 10
329.265625
 20
-49.556698
  0
VERTEX
  8
OSA
 62
     2
  6
CONTINUOUS
 10
334.160187
 20
-56.470818
  0
VERTEX
  8
OSA
 62
     2
  6
CONTINUOUS
 10
336.283386
 20
-62.956493
  0
VERTEX
  8
OSA
 62
     2
  6
CONTINUOUS
 10
335.867889
 20
-69.275230
  0
VERTEX
  8
OSA
 62
     2
  6
CONTINUOUS
 10
332.829254
 20
-75.933807
  0
VERTEX
  8
OSA
 62
     2
  6
CONTINUOUS
 10
328.994995
 20
-80.556694
  0
VERTEX
  8
OSA
 62
     2
  6
CONTINUOUS
 10
328.306824
 20
-81.702599
  0
VERTEX
  8
OSA
 62
     2
  6
CONTINUOUS
 10
328.064423
 20
-82.929527
  0
VERTEX
  8
OSA
 62
     2
  6
CONTINUOUS
 10
328.171387
 20
-83.556694
  0
VERTEX
  8
OSA
 62
     2
  6
CONTINUOUS
 10
328.064423
 20
-84.183868
  0
VERTEX
  8
OSA
 62
     2
  6
CONTINUOUS
 10
328.306824
 20
-85.410797
  0
VERTEX
  8
OSA
 62
     2
  6
CONTINUOUS
 10
328.994995
 20
-86.556694
  0
VERTEX
  8
OSA
 62
     2
  6
CONTINUOUS
 10
332.829254
 20
-91.179581
  0
VERTEX
  8
OSA
 62
     2
  6
CONTINUOUS
 10
335.867889
 20
-97.838165
  0
VERTEX
  8
OSA
 62
     2
  6
CONTINUOUS
 10
336.283386
 20
-104.156898
  0
VERTEX
  8
OSA
 62
     2
  6
CONTINUOUS
 10
334.160187
 20
-110.642578
  0
VERTEX
  8
OSA
 62
     2
  6
CONTINUOUS
 10
329.265625
 20
-117.556694
  0
VERTEX
  8
OSA
 62
     2
  6
CONTINUOUS
 10
329.119202
 20
-117.826241
  0
VERTEX
  8
OSA
 62
     2
  6
CONTINUOUS
 10
328.419556
 20
-118.571480
  0
SEQEND
  8
OSA
  0
LINE
  8
OSA
 62
     2
  6
CONTINUOUS
 10
300.707303
 20
-48.556697
 11
453.707303
 21
-48.556697
  0
LINE
  8
OSA
 62
     2
  6
CONTINUOUS
 10
328.994998
 20
-86.556697
 11
300.114470
 21
-86.556697
  0
LINE
  8
OSA
 62
     2
  6
CONTINUOUS
 10
328.994998
 20
-80.556697
 11
300.114470
 21
-80.556697
  0
LINE
  8
OSA
 62
     2
  6
CONTINUOUS
 10
336.420900
 20
-48.556697
 11
336.420900
 21
-118.556697
  0
LINE
  8
OSA
 62
     2
  6
CONTINUOUS
 10
420.993707
 20
-48.556697
 11
420.993707
 21
-118.556697
  0
LINE
  8
OSA
 62
     2
  6
CONTINUOUS
 10
453.707303
 20
-48.556697
 11
453.707303
 21
-118.556697
  0
LINE
  8
OSA
 62
     2
  6
CONTINUOUS
 10
453.707303
 20
-118.556697
 11
300.707303
 21
-118.556697
  0
LINE
  8
OSA
 62
     2
  6
CONTINUOUS
 10
448.707303
 20
-121.556697
 11
448.707303
 21
-118.556697
  0
LINE
  8
OSA
 62
     2
  6
CONTINUOUS
 10
308.707303
 20
-121.556697
 11
308.707303
 21
-118.556697
  0
ENDBLK
  8
OSA
  0
BLOCK
  8
OSA
  2
_13
 70
   64
 10
378.707303
 20
425.430695
  0
ARC
  8
OSA
 62
     2
  6
CONTINUOUS
 10
312.878876
 20
434.430695
 40
2.000000
 50
270.000000
 51
315.000000
  0
LINE
  8
OSA
 62
     2
  6
CONTINUOUS
 10
319.707303
 20
438.430695
 11
314.293090
 21
433.016481
  0
LINE
  8
OSA
 62
     2
  6
CONTINUOUS
 10
378.707303
 20
444.930695
 11
337.988553
 21
444.930695
  0
LINE
  8
OSA
 62
     2
  6
CONTINUOUS
 10
334.452673
 20
438.430695
 11
319.707303
 21
438.430695
  0
LINE
  8
OSA
 62
     2
  6
CONTINUOUS
 10
337.988553
 20
444.930695
 11
331.756860
 21
433.474986
  0
ARC
  8
OSA
 62
     2
  6
CONTINUOUS
 10
329.999982
 20
434.430695
 40
2.000000
 50
270.000000
 51
331.454628
  0
LINE
  8
OSA
 62
     2
  6
CONTINUOUS
 10
345.567698
 20
444.930695
 11
334.952638
 21
433.095323
  0
ARC
  8
OSA
 62
     2
  6
CONTINUOUS
 10
333.463752
 20
434.430695
 40
2.000000
 50
270.000000
 51
318.111296
  0
ARC
  8
OSA
 62
     2
  6
CONTINUOUS
 10
423.950854
 20
434.430695
 40
2.000000
 50
221.888704
 51
270.000000
  0
LINE
  8
OSA
 62
     2
  6
CONTINUOUS
 10
411.846908
 20
444.930695
 11
422.461968
 21
433.095323
  0
ARC
  8
OSA
 62
     2
  6
CONTINUOUS
 10
427.414625
 20
434.430695
 40
2.000000
 50
208.545372
 51
270.000000
  0
LINE
  8
OSA
 62
     2
  6
CONTINUOUS
 10
419.426053
 20
444.930695
 11
425.657747
 21
433.474986
  0
LINE
  8
OSA
 62
     2
  6
CONTINUOUS
 10
422.961933
 20
438.430695
 11
437.707303
 21
438.430695
  0
LINE
  8
OSA
 62
     2
  6
CONTINUOUS
 10
376.467363
 20
432.430695
 11
375.026253
 21
438.430695
  0
LINE
  8
OSA
 62
     2
  6
CONTINUOUS
 10
380.947243
 20
432.430695
 11
382.388353
 21
438.430695
  0
LINE
  8
OSA
 62
     2
  6
CONTINUOUS
 10
378.707303
 20
444.930695
 11
419.426053
 21
444.930695
  0
LINE
  8
OSA
 62
     2
  6
CONTINUOUS
 10
446.448474
 20
432.430695
 11
378.707303
 21
432.430695
  0
LINE
  8
OSA
 62
     2
  6
CONTINUOUS
 10
437.707303
 20
438.430695
 11
443.121517
 21
433.016481
  0
ARC
  8
OSA
 62
     2
  6
CONTINUOUS
 10
446.448474
 20
430.430695
 40
2.000000
 50
2.000000
 51
90.000000
  0
ARC
  8
OSA
 62
     2
  6
CONTINUOUS
 10
444.535730
 20
434.430695
 40
2.000000
 50
225.000000
 51
270.000000
  0
LINE
  8
OSA
 62
     2
  6
CONTINUOUS
 10
413.707303
 20
446.930695
 11
413.207303
 21
447.430695
  0
LINE
  8
OSA
 62
     2
  6
CONTINUOUS
 10
413.707303
 20
444.930695
 11
413.707303
 21
446.930695
  0
ARC
  8
OSA
 62
     2
  6
CONTINUOUS
 10
310.966132
 20
430.430695
 40
2.000000
 50
90.000000
 51
178.000000
  0
LINE
  8
OSA
 62
     2
  6
CONTINUOUS
 10
397.692536
 20
438.430695
 11
378.707303
 21
438.430695
  0
LINE
  8
OSA
 62
     2
  6
CONTINUOUS
 10
413.707303
 20
446.930695
 11
378.707303
 21
446.930695
  0
LINE
  8
OSA
 62
     2
  6
CONTINUOUS
 10
413.207303
 20
447.430695
 11
378.707303
 21
447.430695
  0
LINE
  8
OSA
 62
     2
  6
CONTINUOUS
 10
310.966132
 20
432.430695
 11
378.707303
 21
432.430695
  0
LINE
  8
OSA
 62
     2
  6
CONTINUOUS
 10
359.722070
 20
438.430695
 11
378.707303
 21
438.430695
  0
LINE
  8
OSA
 62
     2
  6
CONTINUOUS
 10
344.207303
 20
447.430695
 11
378.707303
 21
447.430695
  0
LINE
  8
OSA
 62
     2
  6
CONTINUOUS
 10
343.707303
 20
446.930695
 11
378.707303
 21
446.930695
  0
LINE
  8
OSA
 62
     2
  6
CONTINUOUS
 10
343.707303
 20
444.930695
 11
343.707303
 21
446.930695
  0
LINE
  8
OSA
 62
     2
  6
CONTINUOUS
 10
343.707303
 20
446.930695
 11
344.207303
 21
447.430695
  0
LINE
  8
OSA
 62
     2
  6
CONTINUOUS
 10
378.707303
 20
425.430695
 11
308.707303
 21
425.430695
  0
LINE
  8
OSA
 10
378.707303
 20
420.430695
 11
378.707303
 21
452.430695
  0
LINE
  8
OSA
 62
     2
  6
CONTINUOUS
 10
448.624297
 20
425.430695
 11
448.447256
 21
430.500494
  0
LINE
  8
OSA
 62
     2
  6
CONTINUOUS
 10
448.624297
 20
425.430695
 11
378.707303
 21
425.430695
  0
LINE
  8
OSA
 62
     2
  6
CONTINUOUS
 10
308.652514
 20
425.430695
 11
308.967350
 21
430.500494
  0
ENDBLK
  8
OSA
  0
BLOCK
  8
OSA
  2
_14
 70
   64
 10
438.707303
 20
387.430695
  0
LINE
  8
OSA
 62
     2
  6
CONTINUOUS
 10
443.707303
 20
390.430695
 11
453.707303
 21
390.430695
  0
LINE
  8
OSA
 62
     2
  6
CONTINUOUS
 10
443.707303
 20
384.430695
 11
453.707303
 21
384.430695
  0
INSERT
  8
OSA
  2
M10x1__10
  6
CONTINUOUS
 10
440.707303
 20
387.430695
  0
LINE
  8
OSA
 62
     2
  6
CONTINUOUS
 10
440.707303
 20
396.430695
 11
440.707303
 21
378.430695
  0
ARC
  8
OSA
 62
     2
  6
CONTINUOUS
 10
440.707303
 20
376.430695
 40
2.000000
 50
90.000000
 51
180.000000
  0
ARC
  8
OSA
 62
     2
  6
CONTINUOUS
 10
440.707303
 20
398.430695
 40
2.000000
 50
180.000000
 51
270.000000
  0
LINE
  8
OSA
 62
     2
  6
CONTINUOUS
 10
453.707303
 20
352.430695
 11
453.707303
 21
422.430695
  0
LINE
  8
OSA
 62
     2
  6
CONTINUOUS
 10
300.707303
 20
352.430695
 11
300.707303
 21
422.430695
  0
LINE
  8
OSA
 62
     2
  6
CONTINUOUS
 10
300.707303
 20
384.430695
 11
318.707303
 21
384.430695
  0
LINE
  8
OSA
 62
     2
  6
CONTINUOUS
 10
300.707303
 20
390.430695
 11
318.707303
 21
390.430695
  0
INSERT
  8
OSA
  2
Sroub_M10x16__11
  6
CONTINUOUS
 10
378.707303
 20
387.430695
  0
CIRCLE
  8
OSA
 62
     2
  6
CONTINUOUS
 10
378.707303
 20
387.430695
 40
9.000000
  0
ARC
  8
OSA
 62
     2
  6
CONTINUOUS
 10
315.707303
 20
398.668182
 40
3.000000
 50
0.000000
 51
66.167287
  0
LINE
  8
OSA
 62
     2
  6
CONTINUOUS
 10
317.370647
 20
401.213084
 11
316.860876
 21
401.498197
  0
LINE
  8
OSA
 62
     2
  6
CONTINUOUS
 10
316.860876
 20
401.498197
 11
316.414362
 21
401.809785
  0
LINE
  8
OSA
 62
     2
  6
CONTINUOUS
 10
316.414362
 20
401.809785
 11
316.038388
 21
402.134761
  0
LINE
  8
OSA
 62
     2
  6
CONTINUOUS
 10
316.038388
 20
402.134761
 11
315.734158
 21
402.459881
  0
LINE
  8
OSA
 62
     2
  6
CONTINUOUS
 10
315.734158
 20
402.459881
 11
315.497305
 21
402.773665
  0
LINE
  8
OSA
 62
     2
  6
CONTINUOUS
 10
315.497305
 20
402.773665
 11
315.319590
 21
403.067588
  0
LINE
  8
OSA
 62
     2
  6
CONTINUOUS
 10
315.319590
 20
403.067588
 11
315.190942
 21
403.336388
  0
LINE
  8
OSA
 62
     2
  6
CONTINUOUS
 10
315.190942
 20
403.336388
 11
315.101167
 21
403.577687
  0
LINE
  8
OSA
 62
     2
  6
CONTINUOUS
 10
315.101167
 20
403.577687
 11
315.041045
 21
403.791292
  0
LINE
  8
OSA
 62
     2
  6
CONTINUOUS
 10
315.041045
 20
403.791292
 11
315.002835
 21
403.978453
  0
LINE
  8
OSA
 62
     2
  6
CONTINUOUS
 10
315.002835
 20
403.978453
 11
314.980370
 21
404.141248
  0
LINE
  8
OSA
 62
     2
  6
CONTINUOUS
 10
314.980370
 20
404.141248
 11
314.968922
 21
404.282127
  0
LINE
  8
OSA
 62
     2
  6
CONTINUOUS
 10
314.968922
 20
404.282127
 11
314.964968
 21
404.403621
  0
LINE
  8
OSA
 62
     2
  6
CONTINUOUS
 10
314.964968
 20
404.403621
 11
314.964832
 21
404.430695
  0
LINE
  8
OSA
 62
     2
  6
CONTINUOUS
 10
326.818607
 20
404.430695
 11
326.816727
 21
404.329960
  0
LINE
  8
OSA
 62
     2
  6
CONTINUOUS
 10
326.816727
 20
404.329960
 11
326.810007
 21
404.215293
  0
LINE
  8
OSA
 62
     2
  6
CONTINUOUS
 10
326.810007
 20
404.215293
 11
326.796437
 21
404.085040
  0
LINE
  8
OSA
 62
     2
  6
CONTINUOUS
 10
326.796437
 20
404.085040
 11
326.773387
 21
403.937523
  0
LINE
  8
OSA
 62
     2
  6
CONTINUOUS
 10
326.773387
 20
403.937523
 11
326.737481
 21
403.771139
  0
LINE
  8
OSA
 62
     2
  6
CONTINUOUS
 10
326.737481
 20
403.771139
 11
326.684476
 21
403.584529
  0
LINE
  8
OSA
 62
     2
  6
CONTINUOUS
 10
326.684476
 20
403.584529
 11
326.609190
 21
403.376800
  0
LINE
  8
OSA
 62
     2
  6
CONTINUOUS
 10
326.609190
 20
403.376800
 11
326.505524
 21
403.147834
  0
LINE
  8
OSA
 62
     2
  6
CONTINUOUS
 10
326.505524
 20
403.147834
 11
326.366646
 21
402.898653
  0
LINE
  8
OSA
 62
     2
  6
CONTINUOUS
 10
326.366646
 20
402.898653
 11
326.185419
 21
402.631793
  0
LINE
  8
OSA
 62
     2
  6
CONTINUOUS
 10
326.185419
 20
402.631793
 11
325.955092
 21
402.351610
  0
LINE
  8
OSA
 62
     2
  6
CONTINUOUS
 10
325.955092
 20
402.351610
 11
325.670250
 21
402.064374
  0
LINE
  8
OSA
 62
     2
  6
CONTINUOUS
 10
325.670250
 20
402.064374
 11
325.327828
 21
401.778029
  0
LINE
  8
OSA
 62
     2
  6
CONTINUOUS
 10
325.327828
 20
401.778029
 11
324.927927
 21
401.501559
  0
LINE
  8
OSA
 62
     2
  6
CONTINUOUS
 10
324.927927
 20
401.501559
 11
324.474080
 21
401.244047
  0
LINE
  8
OSA
 62
     2
  6
CONTINUOUS
 10
324.474080
 20
401.244047
 11
323.972793
 21
401.013657
  0
LINE
  8
OSA
 62
     2
  6
CONTINUOUS
 10
323.972793
 20
401.013657
 11
323.432418
 21
400.816856
  0
LINE
  8
OSA
 62
     2
  6
CONTINUOUS
 10
323.432418
 20
400.816856
 11
322.861713
 21
400.658116
  0
LINE
  8
OSA
 62
     2
  6
CONTINUOUS
 10
322.861713
 20
400.658116
 11
322.268574
 21
400.540124
  0
LINE
  8
OSA
 62
     2
  6
CONTINUOUS
 10
322.268574
 20
400.540124
 11
321.659299
 21
400.464381
  0
LINE
  8
OSA
 62
     2
  6
CONTINUOUS
 10
321.659299
 20
400.464381
 11
321.038588
 21
400.431923
  0
LINE
  8
OSA
 62
     2
  6
CONTINUOUS
 10
321.038588
 20
400.431923
 11
320.410212
 21
400.443917
  0
LINE
  8
OSA
 62
     2
  6
CONTINUOUS
 10
320.410212
 20
400.443917
 11
319.778199
 21
400.501924
  0
LINE
  8
OSA
 62
     2
  6
CONTINUOUS
 10
319.778199
 20
400.501924
 11
319.148213
 21
400.607681
  0
LINE
  8
OSA
 62
     2
  6
CONTINUOUS
 10
319.148213
 20
400.607681
 11
318.528729
 21
400.762352
  0
LINE
  8
OSA
 62
     2
  6
CONTINUOUS
 10
318.528729
 20
400.762352
 11
317.931471
 21
400.965349
  0
LINE
  8
OSA
 62
     2
  6
CONTINUOUS
 10
317.931471
 20
400.965349
 11
316.919506
 21
401.412369
  0
LINE
  8
OSA
 62
     2
  6
CONTINUOUS
 10
318.707303
 20
398.668182
 11
318.707303
 21
360.430695
  0
LINE
  8
OSA
 62
     2
  6
CONTINUOUS
 10
326.818607
 20
404.430695
 11
326.818607
 21
417.430695
  0
LINE
  8
OSA
 62
     2
  6
CONTINUOUS
 10
363.318605
 20
404.430698
 11
363.318605
 21
417.430695
  0
LINE
  8
OSA
 62
     2
  6
CONTINUOUS
 10
348.581513
 20
404.430698
 11
348.581513
 21
417.430695
  0
POLYLINE
  8
OSA
 62
     2
  6
CONTINUOUS
 66
    1
  0
VERTEX
  8
OSA
 62
     2
  6
CONTINUOUS
 10
363.318604
 20
404.430664
  0
VERTEX
  8
OSA
 62
     2
  6
CONTINUOUS
 10
363.314941
 20
404.305450
  0
VERTEX
  8
OSA
 62
     2
  6
CONTINUOUS
 10
363.302124
 20
404.163086
  0
VERTEX
  8
OSA
 62
     2
  6
CONTINUOUS
 10
363.276123
 20
404.001801
  0
VERTEX
  8
OSA
 62
     2
  6
CONTINUOUS
 10
363.232300
 20
403.820068
  0
VERTEX
  8
OSA
 62
     2
  6
CONTINUOUS
 10
363.164429
 20
403.616699
  0
VERTEX
  8
OSA
 62
     2
  6
CONTINUOUS
 10
363.065552
 20
403.391296
  0
VERTEX
  8
OSA
 62
     2
  6
CONTINUOUS
 10
362.927368
 20
403.144562
  0
VERTEX
  8
OSA
 62
     2
  6
CONTINUOUS
 10
362.741333
 20
402.878723
  0
VERTEX
  8
OSA
 62
     2
  6
CONTINUOUS
 10
362.499634
 20
402.597900
  0
VERTEX
  8
OSA
 62
     2
  6
CONTINUOUS
 10
362.195801
 20
402.308258
  0
VERTEX
  8
OSA
 62
     2
  6
CONTINUOUS
 10
361.826782
 20
402.017609
  0
VERTEX
  8
OSA
 62
     2
  6
CONTINUOUS
 10
361.393799
 20
401.734924
  0
VERTEX
  8
OSA
 62
     2
  6
CONTINUOUS
 10
360.902832
 20
401.469025
  0
VERTEX
  8
OSA
 62
     2
  6
CONTINUOUS
 10
360.363647
 20
401.227631
  0
VERTEX
  8
OSA
 62
     2
  6
CONTINUOUS
 10
359.788452
 20
401.016235
  0
VERTEX
  8
OSA
 62
     2
  6
CONTINUOUS
 10
359.189575
 20
400.837952
  0
VERTEX
  8
OSA
 62
     2
  6
CONTINUOUS
 10
358.577393
 20
400.693573
  0
VERTEX
  8
OSA
 62
     2
  6
CONTINUOUS
 10
357.959595
 20
400.582306
  0
VERTEX
  8
OSA
 62
     2
  6
CONTINUOUS
 10
357.340210
 20
400.502502
  0
VERTEX
  8
OSA
 62
     2
  6
CONTINUOUS
 10
356.719971
 20
400.452576
  0
VERTEX
  8
OSA
 62
     2
  6
CONTINUOUS
 10
356.096924
 20
400.431458
  0
VERTEX
  8
OSA
 62
     2
  6
CONTINUOUS
 10
355.468018
 20
400.439240
  0
VERTEX
  8
OSA
 62
     2
  6
CONTINUOUS
 10
354.829468
 20
400.477203
  0
VERTEX
  8
OSA
 62
     2
  6
CONTINUOUS
 10
354.179321
 20
400.547882
  0
VERTEX
  8
OSA
 62
     2
  6
CONTINUOUS
 10
353.517822
 20
400.654846
  0
VERTEX
  8
OSA
 62
     2
  6
CONTINUOUS
 10
352.850220
 20
400.801849
  0
VERTEX
  8
OSA
 62
     2
  6
CONTINUOUS
 10
352.186768
 20
400.991699
  0
VERTEX
  8
OSA
 62
     2
  6
CONTINUOUS
 10
351.543457
 20
401.224792
  0
VERTEX
  8
OSA
 62
     2
  6
CONTINUOUS
 10
350.939575
 20
401.497711
  0
VERTEX
  8
OSA
 62
     2
  6
CONTINUOUS
 10
350.394897
 20
401.802734
  0
VERTEX
  8
OSA
 62
     2
  6
CONTINUOUS
 10
349.924561
 20
402.128235
  0
VERTEX
  8
OSA
 62
     2
  6
CONTINUOUS
 10
349.536987
 20
402.460754
  0
VERTEX
  8
OSA
 62
     2
  6
CONTINUOUS
 10
349.232178
 20
402.787262
  0
VERTEX
  8
OSA
 62
     2
  6
CONTINUOUS
 10
349.003052
 20
403.097137
  0
VERTEX
  8
OSA
 62
     2
  6
CONTINUOUS
 10
348.838745
 20
403.383087
  0
VERTEX
  8
OSA
 62
     2
  6
CONTINUOUS
 10
348.726440
 20
403.641235
  0
VERTEX
  8
OSA
 62
     2
  6
CONTINUOUS
 10
348.654175
 20
403.870392
  0
VERTEX
  8
OSA
 62
     2
  6
CONTINUOUS
 10
348.611328
 20
404.071320
  0
VERTEX
  8
OSA
 62
     2
  6
CONTINUOUS
 10
348.589355
 20
404.246033
  0
VERTEX
  8
OSA
 62
     2
  6
CONTINUOUS
 10
348.581787
 20
404.397003
  0
VERTEX
  8
OSA
 62
     2
  6
CONTINUOUS
 10
348.581543
 20
404.430664
  0
SEQEND
  8
OSA
  0
LINE
  8
OSA
 10
438.707303
 20
387.430695
 11
308.707303
 21
387.430695
  0
LINE
  8
OSA
 62
     2
  6
CONTINUOUS
 10
343.707303
 20
327.930695
 11
344.207303
 21
327.430695
  0
LINE
  8
OSA
 62
     2
  6
CONTINUOUS
 10
343.707303
 20
329.930695
 11
343.707303
 21
327.930695
  0
LINE
  8
OSA
 62
     2
  6
CONTINUOUS
 10
343.707303
 20
327.930695
 11
378.707303
 21
327.930695
  0
LINE
  8
OSA
 62
     2
  6
CONTINUOUS
 10
344.207303
 20
327.430695
 11
378.707303
 21
327.430695
  0
LINE
  8
OSA
 62
     2
  6
CONTINUOUS
 10
359.722070
 20
336.430695
 11
378.707303
 21
336.430695
  0
LINE
  8
OSA
 62
     2
  6
CONTINUOUS
 10
378.707303
 20
417.430695
 11
311.707303
 21
417.430695
  0
LINE
  8
OSA
 62
     2
  6
CONTINUOUS
 10
378.707303
 20
425.430695
 11
308.707303
 21
425.430695
  0
LINE
  8
OSA
 62
     2
  6
CONTINUOUS
 10
448.707303
 20
425.430695
 11
378.707303
 21
425.430695
  0
LINE
  8
OSA
 62
     2
  6
CONTINUOUS
 10
413.207303
 20
327.430695
 11
378.707303
 21
327.430695
  0
LINE
  8
OSA
 62
     2
  6
CONTINUOUS
 10
413.707303
 20
327.930695
 11
378.707303
 21
327.930695
  0
LINE
  8
OSA
 62
     2
  6
CONTINUOUS
 10
397.692536
 20
336.430695
 11
378.707303
 21
336.430695
  0
ARC
  8
OSA
 62
     2
  6
CONTINUOUS
 10
311.964832
 20
414.430695
 40
3.000000
 50
0.000000
 51
90.000000
  0
LINE
  8
OSA
 62
     2
  6
CONTINUOUS
 10
314.964832
 20
414.430695
 11
314.964832
 21
404.430695
  0
ARC
  8
OSA
 62
     2
  6
CONTINUOUS
 10
311.707303
 20
420.430695
 40
3.000000
 50
180.000000
 51
270.000000
  0
LINE
  8
OSA
 62
     2
  6
CONTINUOUS
 10
308.707303
 20
425.430695
 11
308.707303
 21
420.430695
  0
ARC
  8
OSA
 62
     2
  6
CONTINUOUS
 10
315.707303
 20
360.430695
 40
3.000000
 50
270.000000
 51
360.000000
  0
LINE
  8
OSA
 10
435.707303
 20
387.430695
 11
465.223831
 21
387.430695
  0
LINE
  8
OSA
 62
     2
  6
CONTINUOUS
 10
413.707303
 20
329.930695
 11
413.707303
 21
327.930695
  0
LINE
  8
OSA
 62
     2
  6
CONTINUOUS
 10
413.707303
 20
327.930695
 11
413.207303
 21
327.430695
  0
ARC
  8
OSA
 62
     2
  6
CONTINUOUS
 10
444.535730
 20
340.430695
 40
2.000000
 50
90.000000
 51
135.000000
  0
LINE
  8
OSA
 62
     2
  6
CONTINUOUS
 10
437.707303
 20
336.430695
 11
443.121517
 21
341.844908
  0
LINE
  8
OSA
 62
     2
  6
CONTINUOUS
 10
448.707303
 20
425.430695
 11
448.707303
 21
422.430695
  0
LINE
  8
OSA
 10
378.707303
 20
429.430695
 11
378.707303
 21
314.241986
  0
LINE
  8
OSA
 62
     2
  6
CONTINUOUS
 10
378.707303
 20
329.930695
 11
419.426053
 21
329.930695
  0
LINE
  8
OSA
 62
     2
  6
CONTINUOUS
 10
380.947243
 20
342.430695
 11
382.388353
 21
336.430695
  0
LINE
  8
OSA
 62
     2
  6
CONTINUOUS
 10
376.467363
 20
342.430695
 11
375.026253
 21
336.430695
  0
LINE
  8
OSA
 62
     2
  6
CONTINUOUS
 10
422.961933
 20
336.430695
 11
437.707303
 21
336.430695
  0
LINE
  8
OSA
 62
     2
  6
CONTINUOUS
 10
419.426053
 20
329.930695
 11
425.657747
 21
341.386404
  0
ARC
  8
OSA
 62
     2
  6
CONTINUOUS
 10
427.414625
 20
340.430695
 40
2.000000
 50
90.000000
 51
151.454628
  0
LINE
  8
OSA
 62
     2
  6
CONTINUOUS
 10
411.846908
 20
329.930695
 11
422.461968
 21
341.766066
  0
ARC
  8
OSA
 62
     2
  6
CONTINUOUS
 10
423.950854
 20
340.430695
 40
2.000000
 50
90.000000
 51
138.111296
  0
LINE
  8
OSA
 62
     2
  6
CONTINUOUS
 10
448.707303
 20
354.430695
 11
448.707303
 21
348.548429
  0
ARC
  8
OSA
 62
     2
  6
CONTINUOUS
 10
445.707303
 20
354.430695
 40
3.000000
 50
0.000000
 51
90.000000
  0
ARC
  8
OSA
 62
     2
  6
CONTINUOUS
 10
446.448474
 20
344.430695
 40
2.000000
 50
270.000000
 51
358.000000
  0
LINE
  8
OSA
 62
     2
  6
CONTINUOUS
 10
448.707303
 20
348.548429
 11
448.447256
 21
344.360896
  0
LINE
  8
OSA
 62
     2
  6
CONTINUOUS
 10
378.707303
 20
357.430695
 11
445.707303
 21
357.430695
  0
LINE
  8
OSA
 62
     2
  6
CONTINUOUS
 10
446.448474
 20
342.430695
 11
378.707303
 21
342.430695
  0
LINE
  8
OSA
 62
     2
  6
CONTINUOUS
 10
310.966132
 20
342.430695
 11
378.707303
 21
342.430695
  0
LINE
  8
OSA
 62
     2
  6
CONTINUOUS
 10
378.707303
 20
357.430695
 11
311.707303
 21
357.430695
  0
LINE
  8
OSA
 62
     2
  6
CONTINUOUS
 10
308.707303
 20
348.548429
 11
308.967350
 21
344.360896
  0
ARC
  8
OSA
 62
     2
  6
CONTINUOUS
 10
310.966132
 20
344.430695
 40
2.000000
 50
182.000000
 51
270.000000
  0
ARC
  8
OSA
 62
     2
  6
CONTINUOUS
 10
311.707303
 20
354.430695
 40
3.000000
 50
90.000000
 51
180.000000
  0
LINE
  8
OSA
 62
     2
  6
CONTINUOUS
 10
308.707303
 20
354.430695
 11
308.707303
 21
348.548429
  0
LINE
  8
OSA
 62
     2
  6
CONTINUOUS
 10
448.707303
 20
425.430695
 11
448.707303
 21
420.430695
  0
ARC
  8
OSA
 62
     2
  6
CONTINUOUS
 10
445.707303
 20
420.430695
 40
3.000000
 50
270.000000
 51
360.000000
  0
LINE
  8
OSA
 62
     2
  6
CONTINUOUS
 10
442.449774
 20
414.430695
 11
442.449774
 21
404.430695
  0
ARC
  8
OSA
 62
     2
  6
CONTINUOUS
 10
445.449774
 20
414.430695
 40
3.000000
 50
90.000000
 51
180.000000
  0
LINE
  8
OSA
 62
     2
  6
CONTINUOUS
 10
378.707303
 20
425.430695
 11
448.707303
 21
425.430695
  0
LINE
  8
OSA
 62
     2
  6
CONTINUOUS
 10
378.707303
 20
417.430695
 11
445.707303
 21
417.430695
  0
POLYLINE
  8
OSA
 62
     2
  6
CONTINUOUS
 66
    1
  0
VERTEX
  8
OSA
 62
     2
  6
CONTINUOUS
 10
394.096008
 20
404.430664
  0
VERTEX
  8
OSA
 62
     2
  6
CONTINUOUS
 10
394.099670
 20
404.305450
  0
VERTEX
  8
OSA
 62
     2
  6
CONTINUOUS
 10
394.112488
 20
404.163086
  0
VERTEX
  8
OSA
 62
     2
  6
CONTINUOUS
 10
394.138489
 20
404.001801
  0
VERTEX
  8
OSA
 62
     2
  6
CONTINUOUS
 10
394.182312
 20
403.820068
  0
VERTEX
  8
OSA
 62
     2
  6
CONTINUOUS
 10
394.250183
 20
403.616699
  0
VERTEX
  8
OSA
 62
     2
  6
CONTINUOUS
 10
394.349060
 20
403.391296
  0
VERTEX
  8
OSA
 62
     2
  6
CONTINUOUS
 10
394.487244
 20
403.144562
  0
VERTEX
  8
OSA
 62
     2
  6
CONTINUOUS
 10
394.673279
 20
402.878723
  0
VERTEX
  8
OSA
 62
     2
  6
CONTINUOUS
 10
394.914978
 20
402.597900
  0
VERTEX
  8
OSA
 62
     2
  6
CONTINUOUS
 10
395.218811
 20
402.308258
  0
VERTEX
  8
OSA
 62
     2
  6
CONTINUOUS
 10
395.587830
 20
402.017609
  0
VERTEX
  8
OSA
 62
     2
  6
CONTINUOUS
 10
396.020813
 20
401.734924
  0
VERTEX
  8
OSA
 62
     2
  6
CONTINUOUS
 10
396.511780
 20
401.469025
  0
VERTEX
  8
OSA
 62
     2
  6
CONTINUOUS
 10
397.050964
 20
401.227631
  0
VERTEX
  8
OSA
 62
     2
  6
CONTINUOUS
 10
397.626160
 20
401.016235
  0
VERTEX
  8
OSA
 62
     2
  6
CONTINUOUS
 10
398.225037
 20
400.837952
  0
VERTEX
  8
OSA
 62
     2
  6
CONTINUOUS
 10
398.837219
 20
400.693573
  0
VERTEX
  8
OSA
 62
     2
  6
CONTINUOUS
 10
399.455017
 20
400.582306
  0
VERTEX
  8
OSA
 62
     2
  6
CONTINUOUS
 10
400.074402
 20
400.502502
  0
VERTEX
  8
OSA
 62
     2
  6
CONTINUOUS
 10
400.694641
 20
400.452576
  0
VERTEX
  8
OSA
 62
     2
  6
CONTINUOUS
 10
401.317688
 20
400.431458
  0
VERTEX
  8
OSA
 62
     2
  6
CONTINUOUS
 10
401.946594
 20
400.439240
  0
VERTEX
  8
OSA
 62
     2
  6
CONTINUOUS
 10
402.585144
 20
400.477203
  0
VERTEX
  8
OSA
 62
     2
  6
CONTINUOUS
 10
403.235291
 20
400.547882
  0
VERTEX
  8
OSA
 62
     2
  6
CONTINUOUS
 10
403.896790
 20
400.654846
  0
VERTEX
  8
OSA
 62
     2
  6
CONTINUOUS
 10
404.564392
 20
400.801849
  0
VERTEX
  8
OSA
 62
     2
  6
CONTINUOUS
 10
405.227844
 20
400.991699
  0
VERTEX
  8
OSA
 62
     2
  6
CONTINUOUS
 10
405.871155
 20
401.224792
  0
VERTEX
  8
OSA
 62
     2
  6
CONTINUOUS
 10
406.475037
 20
401.497711
  0
VERTEX
  8
OSA
 62
     2
  6
CONTINUOUS
 10
407.019714
 20
401.802734
  0
VERTEX
  8
OSA
 62
     2
  6
CONTINUOUS
 10
407.490051
 20
402.128235
  0
VERTEX
  8
OSA
 62
     2
  6
CONTINUOUS
 10
407.877625
 20
402.460754
  0
VERTEX
  8
OSA
 62
     2
  6
CONTINUOUS
 10
408.182434
 20
402.787262
  0
VERTEX
  8
OSA
 62
     2
  6
CONTINUOUS
 10
408.411560
 20
403.097137
  0
VERTEX
  8
OSA
 62
     2
  6
CONTINUOUS
 10
408.575867
 20
403.383087
  0
VERTEX
  8
OSA
 62
     2
  6
CONTINUOUS
 10
408.688171
 20
403.641235
  0
VERTEX
  8
OSA
 62
     2
  6
CONTINUOUS
 10
408.760437
 20
403.870392
  0
VERTEX
  8
OSA
 62
     2
  6
CONTINUOUS
 10
408.803284
 20
404.071320
  0
VERTEX
  8
OSA
 62
     2
  6
CONTINUOUS
 10
408.825256
 20
404.246033
  0
VERTEX
  8
OSA
 62
     2
  6
CONTINUOUS
 10
408.832825
 20
404.397003
  0
VERTEX
  8
OSA
 62
     2
  6
CONTINUOUS
 10
408.833069
 20
404.430664
  0
SEQEND
  8
OSA
  0
LINE
  8
OSA
 62
     2
  6
CONTINUOUS
 10
408.833093
 20
404.430698
 11
408.833093
 21
417.430695
  0
LINE
  8
OSA
 62
     2
  6
CONTINUOUS
 10
394.096001
 20
404.430698
 11
394.096001
 21
417.430695
  0
LINE
  8
OSA
 62
     2
  6
CONTINUOUS
 10
430.595999
 20
404.430695
 11
430.595999
 21
417.430695
  0
LINE
  8
OSA
 62
     2
  6
CONTINUOUS
 10
430.595999
 20
404.430695
 11
430.597879
 21
404.329960
  0
LINE
  8
OSA
 62
     2
  6
CONTINUOUS
 10
430.597879
 20
404.329960
 11
430.604599
 21
404.215293
  0
LINE
  8
OSA
 62
     2
  6
CONTINUOUS
 10
430.604599
 20
404.215293
 11
430.618169
 21
404.085040
  0
LINE
  8
OSA
 62
     2
  6
CONTINUOUS
 10
430.618169
 20
404.085040
 11
430.641219
 21
403.937523
  0
LINE
  8
OSA
 62
     2
  6
CONTINUOUS
 10
430.641219
 20
403.937523
 11
430.677125
 21
403.771139
  0
LINE
  8
OSA
 62
     2
  6
CONTINUOUS
 10
430.677125
 20
403.771139
 11
430.730130
 21
403.584529
  0
LINE
  8
OSA
 62
     2
  6
CONTINUOUS
 10
430.730130
 20
403.584529
 11
430.805416
 21
403.376800
  0
LINE
  8
OSA
 62
     2
  6
CONTINUOUS
 10
430.805416
 20
403.376800
 11
430.909083
 21
403.147834
  0
LINE
  8
OSA
 62
     2
  6
CONTINUOUS
 10
430.909083
 20
403.147834
 11
431.047960
 21
402.898653
  0
LINE
  8
OSA
 62
     2
  6
CONTINUOUS
 10
431.047960
 20
402.898653
 11
431.229187
 21
402.631793
  0
LINE
  8
OSA
 62
     2
  6
CONTINUOUS
 10
431.229187
 20
402.631793
 11
431.459514
 21
402.351610
  0
LINE
  8
OSA
 62
     2
  6
CONTINUOUS
 10
431.459514
 20
402.351610
 11
431.744356
 21
402.064374
  0
LINE
  8
OSA
 62
     2
  6
CONTINUOUS
 10
431.744356
 20
402.064374
 11
432.086778
 21
401.778029
  0
LINE
  8
OSA
 62
     2
  6
CONTINUOUS
 10
432.086778
 20
401.778029
 11
432.486679
 21
401.501559
  0
LINE
  8
OSA
 62
     2
  6
CONTINUOUS
 10
432.486679
 20
401.501559
 11
432.940526
 21
401.244047
  0
LINE
  8
OSA
 62
     2
  6
CONTINUOUS
 10
432.940526
 20
401.244047
 11
433.441813
 21
401.013657
  0
LINE
  8
OSA
 62
     2
  6
CONTINUOUS
 10
433.441813
 20
401.013657
 11
433.982188
 21
400.816856
  0
LINE
  8
OSA
 62
     2
  6
CONTINUOUS
 10
433.982188
 20
400.816856
 11
434.552893
 21
400.658116
  0
LINE
  8
OSA
 62
     2
  6
CONTINUOUS
 10
434.552893
 20
400.658116
 11
435.146033
 21
400.540124
  0
LINE
  8
OSA
 62
     2
  6
CONTINUOUS
 10
435.146033
 20
400.540124
 11
435.755307
 21
400.464381
  0
LINE
  8
OSA
 62
     2
  6
CONTINUOUS
 10
435.755307
 20
400.464381
 11
436.376019
 21
400.431923
  0
LINE
  8
OSA
 62
     2
  6
CONTINUOUS
 10
436.376019
 20
400.431923
 11
437.004394
 21
400.443917
  0
LINE
  8
OSA
 62
     2
  6
CONTINUOUS
 10
437.004394
 20
400.443917
 11
437.636407
 21
400.501924
  0
LINE
  8
OSA
 62
     2
  6
CONTINUOUS
 10
437.636407
 20
400.501924
 11
438.266393
 21
400.607681
  0
LINE
  8
OSA
 62
     2
  6
CONTINUOUS
 10
438.266393
 20
400.607681
 11
438.885877
 21
400.762352
  0
LINE
  8
OSA
 62
     2
  6
CONTINUOUS
 10
438.885877
 20
400.762352
 11
439.483135
 21
400.965349
  0
LINE
  8
OSA
 62
     2
  6
CONTINUOUS
 10
439.483135
 20
400.965349
 11
440.495100
 21
401.412369
  0
LINE
  8
OSA
 62
     2
  6
CONTINUOUS
 10
440.043959
 20
401.213084
 11
440.553730
 21
401.498197
  0
LINE
  8
OSA
 62
     2
  6
CONTINUOUS
 10
440.553730
 20
401.498197
 11
441.000244
 21
401.809785
  0
LINE
  8
OSA
 62
     2
  6
CONTINUOUS
 10
441.000244
 20
401.809785
 11
441.376218
 21
402.134761
  0
LINE
  8
OSA
 62
     2
  6
CONTINUOUS
 10
441.376218
 20
402.134761
 11
441.680448
 21
402.459881
  0
LINE
  8
OSA
 62
     2
  6
CONTINUOUS
 10
441.680448
 20
402.459881
 11
441.917301
 21
402.773665
  0
LINE
  8
OSA
 62
     2
  6
CONTINUOUS
 10
441.917301
 20
402.773665
 11
442.095016
 21
403.067588
  0
LINE
  8
OSA
 62
     2
  6
CONTINUOUS
 10
442.095016
 20
403.067588
 11
442.223664
 21
403.336388
  0
LINE
  8
OSA
 62
     2
  6
CONTINUOUS
 10
442.223664
 20
403.336388
 11
442.313439
 21
403.577687
  0
LINE
  8
OSA
 62
     2
  6
CONTINUOUS
 10
442.313439
 20
403.577687
 11
442.373561
 21
403.791292
  0
LINE
  8
OSA
 62
     2
  6
CONTINUOUS
 10
442.373561
 20
403.791292
 11
442.411771
 21
403.978453
  0
LINE
  8
OSA
 62
     2
  6
CONTINUOUS
 10
442.411771
 20
403.978453
 11
442.434236
 21
404.141248
  0
LINE
  8
OSA
 62
     2
  6
CONTINUOUS
 10
442.434236
 20
404.141248
 11
442.445684
 21
404.282127
  0
LINE
  8
OSA
 62
     2
  6
CONTINUOUS
 10
442.445684
 20
404.282127
 11
442.449638
 21
404.403621
  0
LINE
  8
OSA
 62
     2
  6
CONTINUOUS
 10
442.449638
 20
404.403621
 11
442.449774
 21
404.430695
  0
ARC
  8
OSA
 62
     2
  6
CONTINUOUS
 10
441.707303
 20
360.430695
 40
3.000000
 50
180.000000
 51
270.000000
  0
LINE
  8
OSA
 62
     2
  6
CONTINUOUS
 10
438.707303
 20
398.668182
 11
438.707303
 21
360.430695
  0
ARC
  8
OSA
 62
     2
  6
CONTINUOUS
 10
441.707303
 20
398.668182
 40
3.000000
 50
113.832713
 51
180.000000
  0
LINE
  8
OSA
 62
     2
  6
CONTINUOUS
 10
300.707303
 20
352.430695
 11
308.707303
 21
352.430695
  0
LINE
  8
OSA
 62
     2
  6
CONTINUOUS
 10
448.707303
 20
352.430695
 11
453.707303
 21
352.430695
  0
LINE
  8
OSA
 62
     2
  6
CONTINUOUS
 10
300.707303
 20
422.430695
 11
308.707303
 21
422.430695
  0
LINE
  8
OSA
 62
     2
  6
CONTINUOUS
 10
448.707303
 20
422.430695
 11
453.707303
 21
422.430695
  0
ARC
  8
OSA
 62
     2
  6
CONTINUOUS
 10
333.463752
 20
340.430695
 40
2.000000
 50
41.888704
 51
90.000000
  0
LINE
  8
OSA
 62
     2
  6
CONTINUOUS
 10
345.567698
 20
329.930695
 11
334.952638
 21
341.766066
  0
ARC
  8
OSA
 62
     2
  6
CONTINUOUS
 10
329.999982
 20
340.430695
 40
2.000000
 50
28.545372
 51
90.000000
  0
LINE
  8
OSA
 62
     2
  6
CONTINUOUS
 10
337.988553
 20
329.930695
 11
331.756860
 21
341.386404
  0
LINE
  8
OSA
 62
     2
  6
CONTINUOUS
 10
334.452673
 20
336.430695
 11
319.707303
 21
336.430695
  0
LINE
  8
OSA
 62
     2
  6
CONTINUOUS
 10
378.707303
 20
329.930695
 11
337.988553
 21
329.930695
  0
LINE
  8
OSA
 62
     2
  6
CONTINUOUS
 10
319.707303
 20
336.430695
 11
314.293090
 21
341.844908
  0
ARC
  8
OSA
 62
     2
  6
CONTINUOUS
 10
312.878876
 20
340.430695
 40
2.000000
 50
45.000000
 51
90.000000
  0
ENDBLK
  8
OSA
  0
BLOCK
  8
OSA
  2
M10x1__10
 70
   66
 10
440.707303
 20
387.430695
  0
LINE
  8
OSA
 10
431.378401
 20
387.430695
 11
445.152651
 21
387.430695
  0
LINE
  8
OSA
 62
     2
  6
CONTINUOUS
 10
440.707303
 20
394.430695
 11
440.707303
 21
380.430695
  0
LINE
  8
OSA
 62
     2
  6
CONTINUOUS
 10
440.707303
 20
380.430695
 11
442.707303
 21
380.430695
  0
LINE
  8
OSA
 62
     2
  6
CONTINUOUS
 10
440.707303
 20
394.430695
 11
442.707303
 21
394.430695
  0
ARC
  8
OSA
 62
     2
  6
CONTINUOUS
 10
442.707303
 20
381.430695
 40
1.000000
 50
270.000000
 51
360.000000
  0
LINE
  8
OSA
 62
     2
  6
CONTINUOUS
 10
443.707303
 20
393.430695
 11
443.707303
 21
381.430695
  0
ARC
  8
OSA
 62
     2
  6
CONTINUOUS
 10
442.707303
 20
393.430695
 40
1.000000
 50
0.000000
 51
90.000000
  0
ENDBLK
  8
OSA
  0
BLOCK
  8
OSA
  2
Sroub_M10x16__11
 70
   66
 10
378.707303
 20
387.430695
  0
LINE
  8
OSA
 62
     2
  6
CONTINUOUS
 10
374.707303
 20
389.740110
 11
374.707303
 21
385.121279
  0
LINE
  8
OSA
 62
     2
  6
CONTINUOUS
 10
374.707303
 20
385.121279
 11
378.707303
 21
382.811864
  0
LINE
  8
OSA
 62
     2
  6
CONTINUOUS
 10
378.707303
 20
382.811864
 11
382.707303
 21
385.121279
  0
LINE
  8
OSA
 62
     2
  6
CONTINUOUS
 10
382.707303
 20
385.121279
 11
382.707303
 21
389.740110
  0
LINE
  8
OSA
 62
     2
  6
CONTINUOUS
 10
382.707303
 20
389.740110
 11
378.707303
 21
392.049526
  0
LINE
  8
OSA
 62
     2
  6
CONTINUOUS
 10
378.707303
 20
392.049526
 11
374.707303
 21
389.740110
  0
CIRCLE
  8
OSA
 62
     2
  6
CONTINUOUS
 10
378.707303
 20
387.430695
 40
4.618831
  0
CIRCLE
  8
OSA
 62
     2
  6
CONTINUOUS
 10
378.707303
 20
387.430695
 40
8.000000
  0
ENDBLK
  8
OSA
  0
BLOCK
  8
OSA
  2
_15
 70
   64
 10
129.308189
 20
176.732692
  0
LINE
  8
OSA
 62
     2
  6
CONTINUOUS
 10
186.808189
 20
116.732692
 11
186.808189
 21
76.013942
  0
ARC
  8
OSA
 62
     2
  6
CONTINUOUS
 10
176.308189
 20
50.904265
 40
2.000000
 50
135.000000
 51
180.000000
  0
LINE
  8
OSA
 62
     2
  6
CONTINUOUS
 10
180.308189
 20
57.732692
 11
174.893975
 21
52.318478
  0
LINE
  8
OSA
 62
     2
  6
CONTINUOUS
 10
180.308189
 20
72.478062
 11
180.308189
 21
57.732692
  0
LINE
  8
OSA
 62
     2
  6
CONTINUOUS
 10
186.808189
 20
76.013942
 11
175.352479
 21
69.782248
  0
ARC
  8
OSA
 62
     2
  6
CONTINUOUS
 10
176.308189
 20
68.025370
 40
2.000000
 50
118.545372
 51
180.000000
  0
LINE
  8
OSA
 62
     2
  6
CONTINUOUS
 10
186.808189
 20
83.593087
 11
174.972817
 21
72.978027
  0
ARC
  8
OSA
 62
     2
  6
CONTINUOUS
 10
176.308189
 20
71.489141
 40
2.000000
 50
131.888704
 51
180.000000
  0
INSERT
  8
OSA
  2
Vnitrni_metricky_zavit_M1__13
  6
CONTINUOUS
 10
129.308189
 20
116.732692
  0
CIRCLE
  8
OSA
 62
     2
  6
CONTINUOUS
 10
129.308189
 20
116.732692
 40
9.000000
  0
POLYLINE
  8
OSA
 62
     2
  6
CONTINUOUS
 66
    1
  0
VERTEX
  8
OSA
 62
     2
  6
CONTINUOUS
 10
112.308197
 20
132.121338
  0
VERTEX
  8
OSA
 62
     2
  6
CONTINUOUS
 10
112.433411
 20
132.125000
  0
VERTEX
  8
OSA
 62
     2
  6
CONTINUOUS
 10
112.575775
 20
132.137939
  0
VERTEX
  8
OSA
 62
     2
  6
CONTINUOUS
 10
112.737061
 20
132.163818
  0
VERTEX
  8
OSA
 62
     2
  6
CONTINUOUS
 10
112.918808
 20
132.207764
  0
VERTEX
  8
OSA
 62
     2
  6
CONTINUOUS
 10
113.122162
 20
132.275513
  0
VERTEX
  8
OSA
 62
     2
  6
CONTINUOUS
 10
113.347565
 20
132.374512
  0
VERTEX
  8
OSA
 62
     2
  6
CONTINUOUS
 10
113.594315
 20
132.512695
  0
VERTEX
  8
OSA
 62
     2
  6
CONTINUOUS
 10
113.860138
 20
132.698608
  0
VERTEX
  8
OSA
 62
     2
  6
CONTINUOUS
 10
114.140961
 20
132.940308
  0
VERTEX
  8
OSA
 62
     2
  6
CONTINUOUS
 10
114.430618
 20
133.244263
  0
VERTEX
  8
OSA
 62
     2
  6
CONTINUOUS
 10
114.721252
 20
133.613159
  0
VERTEX
  8
OSA
 62
     2
  6
CONTINUOUS
 10
115.003952
 20
134.046143
  0
VERTEX
  8
OSA
 62
     2
  6
CONTINUOUS
 10
115.269836
 20
134.537109
  0
VERTEX
  8
OSA
 62
     2
  6
CONTINUOUS
 10
115.511246
 20
135.076294
  0
VERTEX
  8
OSA
 62
     2
  6
CONTINUOUS
 10
115.722626
 20
135.651489
  0
VERTEX
  8
OSA
 62
     2
  6
CONTINUOUS
 10
115.900909
 20
136.250488
  0
VERTEX
  8
OSA
 62
     2
  6
CONTINUOUS
 10
116.045288
 20
136.862549
  0
VERTEX
  8
OSA
 62
     2
  6
CONTINUOUS
 10
116.156570
 20
137.480347
  0
VERTEX
  8
OSA
 62
     2
  6
CONTINUOUS
 10
116.236359
 20
138.099731
  0
VERTEX
  8
OSA
 62
     2
  6
CONTINUOUS
 10
116.286301
 20
138.720093
  0
VERTEX
  8
OSA
 62
     2
  6
CONTINUOUS
 10
116.307404
 20
139.343018
  0
VERTEX
  8
OSA
 62
     2
  6
CONTINUOUS
 10
116.299622
 20
139.972046
  0
VERTEX
  8
OSA
 62
     2
  6
CONTINUOUS
 10
116.261673
 20
140.610474
  0
VERTEX
  8
OSA
 62
     2
  6
CONTINUOUS
 10
116.190979
 20
141.260742
  0
VERTEX
  8
OSA
 62
     2
  6
CONTINUOUS
 10
116.133667
 20
141.615112
  0
SEQEND
  8
OSA
  0
ARC
  8
OSA
 62
     2
  6
CONTINUOUS
 10
101.308189
 20
130.121390
 40
2.000000
 50
90.000000
 51
180.000000
  0
LINE
  8
OSA
 62
     2
  6
CONTINUOUS
 10
112.308189
 20
132.121390
 11
101.308189
 21
132.121390
  0
ARC
  8
OSA
 62
     2
  6
CONTINUOUS
 10
176.308189
 20
161.976243
 40
2.000000
 50
180.000000
 51
228.111296
  0
LINE
  8
OSA
 62
     2
  6
CONTINUOUS
 10
186.808189
 20
149.872297
 11
174.972817
 21
160.487357
  0
ARC
  8
OSA
 62
     2
  6
CONTINUOUS
 10
176.308189
 20
165.440014
 40
2.000000
 50
180.000000
 51
241.454628
  0
LINE
  8
OSA
 62
     2
  6
CONTINUOUS
 10
186.808189
 20
157.451442
 11
175.352479
 21
163.683136
  0
LINE
  8
OSA
 62
     2
  6
CONTINUOUS
 10
180.308189
 20
160.987322
 11
180.308189
 21
175.732692
  0
LINE
  8
OSA
 62
     2
  6
CONTINUOUS
 10
174.308189
 20
114.492752
 11
180.308189
 21
113.051642
  0
LINE
  8
OSA
 62
     2
  6
CONTINUOUS
 10
174.308189
 20
118.972632
 11
180.308189
 21
120.413742
  0
LINE
  8
OSA
 62
     2
  6
CONTINUOUS
 10
186.808189
 20
116.732692
 11
186.808189
 21
157.451442
  0
LINE
  8
OSA
 62
     2
  6
CONTINUOUS
 10
174.308189
 20
184.473863
 11
174.308189
 21
116.732692
  0
LINE
  8
OSA
 10
87.308189
 20
116.732692
 11
202.496897
 21
116.732692
  0
LINE
  8
OSA
 62
     2
  6
CONTINUOUS
 10
180.308189
 20
175.732692
 11
174.893975
 21
181.146906
  0
ARC
  8
OSA
 62
     2
  6
CONTINUOUS
 10
172.308189
 20
184.473863
 40
2.000000
 50
0.000000
 51
88.000000
  0
ARC
  8
OSA
 62
     2
  6
CONTINUOUS
 10
176.308189
 20
182.561119
 40
2.000000
 50
180.000000
 51
225.000000
  0
LINE
  8
OSA
 62
     2
  6
CONTINUOUS
 10
188.808189
 20
151.732692
 11
189.308189
 21
151.232692
  0
LINE
  8
OSA
 62
     2
  6
CONTINUOUS
 10
186.808189
 20
151.732692
 11
188.808189
 21
151.732692
  0
LINE
  8
OSA
 10
129.308189
 20
173.732692
 11
129.308189
 21
215.232692
  0
LINE
  8
OSA
 10
129.308189
 20
176.732692
 11
166.308189
 21
176.732692
  0
LINE
  8
OSA
 10
129.308189
 20
176.732692
 11
92.308189
 21
176.732692
  0
ARC
  8
OSA
 62
     2
  6
CONTINUOUS
 10
140.308189
 20
54.732692
 40
2.000000
 50
90.000000
 51
180.000000
  0
ARC
  8
OSA
 62
     2
  6
CONTINUOUS
 10
118.308189
 20
54.732692
 40
2.000000
 50
0.000000
 51
90.000000
  0
LINE
  8
OSA
 62
     2
  6
CONTINUOUS
 10
138.308189
 20
54.732692
 11
120.308189
 21
54.732692
  0
LINE
  8
OSA
 62
     2
  6
CONTINUOUS
 10
162.308189
 20
46.732692
 11
168.190454
 21
46.732692
  0
ARC
  8
OSA
 62
     2
  6
CONTINUOUS
 10
162.308189
 20
49.732692
 40
3.000000
 50
180.000000
 51
270.000000
  0
ARC
  8
OSA
 62
     2
  6
CONTINUOUS
 10
156.308189
 20
53.732692
 40
3.000000
 50
0.000000
 51
90.000000
  0
LINE
  8
OSA
 62
     2
  6
CONTINUOUS
 10
91.308189
 20
46.732692
 11
96.308189
 21
46.732692
  0
ARC
  8
OSA
 62
     2
  6
CONTINUOUS
 10
96.308189
 20
49.732692
 40
3.000000
 50
270.000000
 51
360.000000
  0
LINE
  8
OSA
 62
     2
  6
CONTINUOUS
 10
102.308189
 20
52.990221
 11
112.308189
 21
52.990221
  0
ARC
  8
OSA
 62
     2
  6
CONTINUOUS
 10
102.308189
 20
49.990221
 40
3.000000
 50
90.000000
 51
180.000000
  0
ARC
  8
OSA
 62
     2
  6
CONTINUOUS
 10
172.308189
 20
48.991521
 40
2.000000
 50
272.000000
 51
360.000000
  0
ARC
  8
OSA
 62
     2
  6
CONTINUOUS
 10
176.308189
 20
50.904265
 40
2.000000
 50
135.000000
 51
180.000000
  0
LINE
  8
OSA
 62
     2
  6
CONTINUOUS
 10
168.190454
 20
46.732692
 11
172.377988
 21
46.992739
  0
LINE
  8
OSA
 62
     2
  6
CONTINUOUS
 10
180.308189
 20
135.717925
 11
180.308189
 21
116.732692
  0
LINE
  8
OSA
 62
     2
  6
CONTINUOUS
 10
188.808189
 20
151.732692
 11
188.808189
 21
116.732692
  0
LINE
  8
OSA
 62
     2
  6
CONTINUOUS
 10
189.308189
 20
151.232692
 11
189.308189
 21
116.732692
  0
LINE
  8
OSA
 62
     2
  6
CONTINUOUS
 10
91.308189
 20
186.732692
 11
91.308189
 21
116.732692
  0
LINE
  8
OSA
 62
     2
  6
CONTINUOUS
 10
91.308189
 20
116.732692
 11
91.308189
 21
46.732692
  0
LINE
  8
OSA
 62
     2
  6
CONTINUOUS
 10
99.308189
 20
116.732692
 11
99.308189
 21
49.732692
  0
LINE
  8
OSA
 62
     2
  6
CONTINUOUS
 10
159.308189
 20
116.732692
 11
159.308189
 21
49.732692
  0
LINE
  8
OSA
 62
     2
  6
CONTINUOUS
 10
174.308189
 20
48.991521
 11
174.308189
 21
116.732692
  0
LINE
  8
OSA
 62
     2
  6
CONTINUOUS
 10
180.308189
 20
97.747459
 11
180.308189
 21
116.732692
  0
LINE
  8
OSA
 62
     2
  6
CONTINUOUS
 10
189.308189
 20
82.232692
 11
189.308189
 21
116.732692
  0
LINE
  8
OSA
 62
     2
  6
CONTINUOUS
 10
188.808189
 20
81.732692
 11
188.808189
 21
116.732692
  0
LINE
  8
OSA
 62
     2
  6
CONTINUOUS
 10
186.808189
 20
81.732692
 11
188.808189
 21
81.732692
  0
LINE
  8
OSA
 62
     2
  6
CONTINUOUS
 10
188.808189
 20
81.732692
 11
189.308189
 21
82.232692
  0
LINE
  8
OSA
 10
129.308189
 20
176.732692
 11
129.308189
 21
46.732692
  0
POLYLINE
  8
OSA
 62
     2
  6
CONTINUOUS
 66
    1
  0
VERTEX
  8
OSA
 62
     2
  6
CONTINUOUS
 10
112.308197
 20
101.344002
  0
VERTEX
  8
OSA
 62
     2
  6
CONTINUOUS
 10
112.433411
 20
101.340340
  0
VERTEX
  8
OSA
 62
     2
  6
CONTINUOUS
 10
112.575775
 20
101.327522
  0
VERTEX
  8
OSA
 62
     2
  6
CONTINUOUS
 10
112.737061
 20
101.301521
  0
VERTEX
  8
OSA
 62
     2
  6
CONTINUOUS
 10
112.918808
 20
101.257698
  0
VERTEX
  8
OSA
 62
     2
  6
CONTINUOUS
 10
113.122162
 20
101.189827
  0
VERTEX
  8
OSA
 62
     2
  6
CONTINUOUS
 10
113.347565
 20
101.090950
  0
VERTEX
  8
OSA
 62
     2
  6
CONTINUOUS
 10
113.594315
 20
100.952766
  0
VERTEX
  8
OSA
 62
     2
  6
CONTINUOUS
 10
113.860138
 20
100.766731
  0
VERTEX
  8
OSA
 62
     2
  6
CONTINUOUS
 10
114.140961
 20
100.525032
  0
VERTEX
  8
OSA
 62
     2
  6
CONTINUOUS
 10
114.430618
 20
100.221199
  0
VERTEX
  8
OSA
 62
     2
  6
CONTINUOUS
 10
114.721252
 20
99.852180
  0
VERTEX
  8
OSA
 62
     2
  6
CONTINUOUS
 10
115.003952
 20
99.419197
  0
VERTEX
  8
OSA
 62
     2
  6
CONTINUOUS
 10
115.269836
 20
98.928230
  0
VERTEX
  8
OSA
 62
     2
  6
CONTINUOUS
 10
115.511246
 20
98.389046
  0
VERTEX
  8
OSA
 62
     2
  6
CONTINUOUS
 10
115.722626
 20
97.813850
  0
VERTEX
  8
OSA
 62
     2
  6
CONTINUOUS
 10
115.900909
 20
97.214973
  0
VERTEX
  8
OSA
 62
     2
  6
CONTINUOUS
 10
116.045288
 20
96.602791
  0
VERTEX
  8
OSA
 62
     2
  6
CONTINUOUS
 10
116.156570
 20
95.984993
  0
VERTEX
  8
OSA
 62
     2
  6
CONTINUOUS
 10
116.236374
 20
95.365608
  0
VERTEX
  8
OSA
 62
     2
  6
CONTINUOUS
 10
116.286301
 20
94.745369
  0
VERTEX
  8
OSA
 62
     2
  6
CONTINUOUS
 10
116.307404
 20
94.122322
  0
VERTEX
  8
OSA
 62
     2
  6
CONTINUOUS
 10
116.299637
 20
93.493416
  0
VERTEX
  8
OSA
 62
     2
  6
CONTINUOUS
 10
116.261673
 20
92.854866
  0
VERTEX
  8
OSA
 62
     2
  6
CONTINUOUS
 10
116.190979
 20
92.204720
  0
VERTEX
  8
OSA
 62
     2
  6
CONTINUOUS
 10
116.084015
 20
91.543221
  0
VERTEX
  8
OSA
 62
     2
  6
CONTINUOUS
 10
115.937012
 20
90.875618
  0
VERTEX
  8
OSA
 62
     2
  6
CONTINUOUS
 10
115.747177
 20
90.212166
  0
VERTEX
  8
OSA
 62
     2
  6
CONTINUOUS
 10
115.514084
 20
89.568855
  0
VERTEX
  8
OSA
 62
     2
  6
CONTINUOUS
 10
115.241150
 20
88.964973
  0
VERTEX
  8
OSA
 62
     2
  6
CONTINUOUS
 10
114.936142
 20
88.420296
  0
VERTEX
  8
OSA
 62
     2
  6
CONTINUOUS
 10
114.610641
 20
87.949959
  0
VERTEX
  8
OSA
 62
     2
  6
CONTINUOUS
 10
114.278122
 20
87.562386
  0
VERTEX
  8
OSA
 62
     2
  6
CONTINUOUS
 10
113.951599
 20
87.257576
  0
VERTEX
  8
OSA
 62
     2
  6
CONTINUOUS
 10
113.641724
 20
87.028450
  0
VERTEX
  8
OSA
 62
     2
  6
CONTINUOUS
 10
113.355774
 20
86.864143
  0
VERTEX
  8
OSA
 62
     2
  6
CONTINUOUS
 10
113.097641
 20
86.751839
  0
VERTEX
  8
OSA
 62
     2
  6
CONTINUOUS
 10
112.868484
 20
86.679573
  0
VERTEX
  8
OSA
 62
     2
  6
CONTINUOUS
 10
112.667542
 20
86.636726
  0
VERTEX
  8
OSA
 62
     2
  6
CONTINUOUS
 10
112.492828
 20
86.614754
  0
VERTEX
  8
OSA
 62
     2
  6
CONTINUOUS
 10
112.341858
 20
86.607185
  0
VERTEX
  8
OSA
 62
     2
  6
CONTINUOUS
 10
112.308197
 20
86.606941
  0
SEQEND
  8
OSA
  0
LINE
  8
OSA
 62
     2
  6
CONTINUOUS
 10
112.308185
 20
86.606902
 11
99.308189
 21
86.606902
  0
LINE
  8
OSA
 62
     2
  6
CONTINUOUS
 10
112.308185
 20
101.343994
 11
99.308189
 21
101.343994
  0
LINE
  8
OSA
 62
     2
  6
CONTINUOUS
 10
112.308189
 20
64.843996
 11
99.308189
 21
64.843996
  0
LINE
  8
OSA
 62
     2
  6
CONTINUOUS
 10
118.070701
 20
56.732692
 11
156.308189
 21
56.732692
  0
LINE
  8
OSA
 62
     2
  6
CONTINUOUS
 10
112.308189
 20
64.843996
 11
112.408923
 21
64.842116
  0
LINE
  8
OSA
 62
     2
  6
CONTINUOUS
 10
112.408923
 20
64.842116
 11
112.523590
 21
64.835396
  0
LINE
  8
OSA
 62
     2
  6
CONTINUOUS
 10
112.523590
 20
64.835396
 11
112.653843
 21
64.821826
  0
LINE
  8
OSA
 62
     2
  6
CONTINUOUS
 10
112.653843
 20
64.821826
 11
112.801361
 21
64.798776
  0
LINE
  8
OSA
 62
     2
  6
CONTINUOUS
 10
112.801361
 20
64.798776
 11
112.967744
 21
64.762870
  0
LINE
  8
OSA
 62
     2
  6
CONTINUOUS
 10
112.967744
 20
64.762870
 11
113.154354
 21
64.709865
  0
LINE
  8
OSA
 62
     2
  6
CONTINUOUS
 10
113.154354
 20
64.709865
 11
113.362083
 21
64.634579
  0
LINE
  8
OSA
 62
     2
  6
CONTINUOUS
 10
113.362083
 20
64.634579
 11
113.591049
 21
64.530913
  0
LINE
  8
OSA
 62
     2
  6
CONTINUOUS
 10
113.591049
 20
64.530913
 11
113.840230
 21
64.392035
  0
LINE
  8
OSA
 62
     2
  6
CONTINUOUS
 10
113.840230
 20
64.392035
 11
114.107091
 21
64.210808
  0
LINE
  8
OSA
 62
     2
  6
CONTINUOUS
 10
114.107091
 20
64.210808
 11
114.387273
 21
63.980481
  0
LINE
  8
OSA
 62
     2
  6
CONTINUOUS
 10
114.387273
 20
63.980481
 11
114.674509
 21
63.695639
  0
LINE
  8
OSA
 62
     2
  6
CONTINUOUS
 10
114.674509
 20
63.695639
 11
114.960854
 21
63.353217
  0
LINE
  8
OSA
 62
     2
  6
CONTINUOUS
 10
114.960854
 20
63.353217
 11
115.237324
 21
62.953316
  0
LINE
  8
OSA
 62
     2
  6
CONTINUOUS
 10
115.237324
 20
62.953316
 11
115.494836
 21
62.499469
  0
LINE
  8
OSA
 62
     2
  6
CONTINUOUS
 10
115.494836
 20
62.499469
 11
115.725227
 21
61.998182
  0
LINE
  8
OSA
 62
     2
  6
CONTINUOUS
 10
115.725227
 20
61.998182
 11
115.922027
 21
61.457807
  0
LINE
  8
OSA
 62
     2
  6
CONTINUOUS
 10
115.922027
 20
61.457807
 11
116.080767
 21
60.887102
  0
LINE
  8
OSA
 62
     2
  6
CONTINUOUS
 10
116.080767
 20
60.887102
 11
116.198759
 21
60.293963
  0
LINE
  8
OSA
 62
     2
  6
CONTINUOUS
 10
116.198759
 20
60.293963
 11
116.274502
 21
59.684688
  0
LINE
  8
OSA
 62
     2
  6
CONTINUOUS
 10
116.274502
 20
59.684688
 11
116.306960
 21
59.063977
  0
LINE
  8
OSA
 62
     2
  6
CONTINUOUS
 10
116.306960
 20
59.063977
 11
116.294966
 21
58.435601
  0
LINE
  8
OSA
 62
     2
  6
CONTINUOUS
 10
116.294966
 20
58.435601
 11
116.236959
 21
57.803588
  0
LINE
  8
OSA
 62
     2
  6
CONTINUOUS
 10
116.236959
 20
57.803588
 11
116.131202
 21
57.173602
  0
LINE
  8
OSA
 62
     2
  6
CONTINUOUS
 10
116.131202
 20
57.173602
 11
115.976532
 21
56.554118
  0
LINE
  8
OSA
 62
     2
  6
CONTINUOUS
 10
115.976532
 20
56.554118
 11
115.773534
 21
55.956860
  0
LINE
  8
OSA
 62
     2
  6
CONTINUOUS
 10
115.773534
 20
55.956860
 11
115.326514
 21
54.944895
  0
LINE
  8
OSA
 62
     2
  6
CONTINUOUS
 10
115.525799
 20
55.396036
 11
115.240686
 21
54.886265
  0
LINE
  8
OSA
 62
     2
  6
CONTINUOUS
 10
115.240686
 20
54.886265
 11
114.929099
 21
54.439751
  0
LINE
  8
OSA
 62
     2
  6
CONTINUOUS
 10
114.929099
 20
54.439751
 11
114.604122
 21
54.063777
  0
LINE
  8
OSA
 62
     2
  6
CONTINUOUS
 10
114.604122
 20
54.063777
 11
114.279002
 21
53.759547
  0
LINE
  8
OSA
 62
     2
  6
CONTINUOUS
 10
114.279002
 20
53.759547
 11
113.965218
 21
53.522694
  0
LINE
  8
OSA
 62
     2
  6
CONTINUOUS
 10
113.965218
 20
53.522694
 11
113.671295
 21
53.344979
  0
LINE
  8
OSA
 62
     2
  6
CONTINUOUS
 10
113.671295
 20
53.344979
 11
113.402495
 21
53.216331
  0
LINE
  8
OSA
 62
     2
  6
CONTINUOUS
 10
113.402495
 20
53.216331
 11
113.161196
 21
53.126556
  0
LINE
  8
OSA
 62
     2
  6
CONTINUOUS
 10
113.161196
 20
53.126556
 11
112.947591
 21
53.066434
  0
LINE
  8
OSA
 62
     2
  6
CONTINUOUS
 10
112.947591
 20
53.066434
 11
112.760430
 21
53.028224
  0
LINE
  8
OSA
 62
     2
  6
CONTINUOUS
 10
112.760430
 20
53.028224
 11
112.597635
 21
53.005759
  0
LINE
  8
OSA
 62
     2
  6
CONTINUOUS
 10
112.597635
 20
53.005759
 11
112.456756
 21
52.994311
  0
LINE
  8
OSA
 62
     2
  6
CONTINUOUS
 10
112.456756
 20
52.994311
 11
112.335262
 21
52.990357
  0
LINE
  8
OSA
 62
     2
  6
CONTINUOUS
 10
112.335262
 20
52.990357
 11
112.308189
 21
52.990221
  0
ARC
  8
OSA
 62
     2
  6
CONTINUOUS
 10
118.070701
 20
53.732692
 40
3.000000
 50
90.000000
 51
156.167287
  0
CIRCLE
  8
OSA
 62
     2
  6
CONTINUOUS
 10
129.308189
 20
176.732692
 40
26.000000
  0
ARC
  8
OSA
 62
     2
  6
CONTINUOUS
 10
100.308189
 20
159.989534
 40
6.000000
 50
180.000000
 51
240.000000
  0
LINE
  8
OSA
 62
     2
  6
CONTINUOUS
 10
94.308189
 20
159.989534
 11
94.308189
 21
193.475850
  0
LINE
  8
OSA
 62
     2
  6
CONTINUOUS
 10
97.308189
 20
154.793382
 11
126.308189
 21
138.050224
  0
ARC
  8
OSA
 62
     2
  6
CONTINUOUS
 10
158.308189
 20
193.475850
 40
6.000000
 50
0.000000
 51
60.000000
  0
LINE
  8
OSA
 62
     2
  6
CONTINUOUS
 10
164.308189
 20
193.475850
 11
164.308189
 21
159.989534
  0
LINE
  8
OSA
 62
     2
  6
CONTINUOUS
 10
161.308189
 20
198.672002
 11
132.308189
 21
215.415160
  0
ARC
  8
OSA
 62
     2
  6
CONTINUOUS
 10
129.308189
 20
143.246376
 40
6.000000
 50
240.000000
 51
300.000000
  0
LINE
  8
OSA
 62
     2
  6
CONTINUOUS
 10
161.308189
 20
154.793382
 11
132.308189
 21
138.050224
  0
ARC
  8
OSA
 62
     2
  6
CONTINUOUS
 10
158.308189
 20
159.989534
 40
6.000000
 50
300.000000
 51
360.000000
  0
ARC
  8
OSA
 62
     2
  6
CONTINUOUS
 10
100.308189
 20
193.475850
 40
6.000000
 50
120.000000
 51
180.000000
  0
LINE
  8
OSA
 62
     2
  6
CONTINUOUS
 10
97.308189
 20
198.672002
 11
126.308189
 21
215.415160
  0
ARC
  8
OSA
 62
     2
  6
CONTINUOUS
 10
129.308189
 20
210.219008
 40
6.000000
 50
60.000000
 51
120.000000
  0
LINE
  8
OSA
 62
     2
  6
CONTINUOUS
 10
91.308189
 20
186.732692
 11
94.308189
 21
186.732692
  0
LINE
  8
OSA
 62
     2
  6
CONTINUOUS
 10
99.308189
 20
153.638681
 11
99.308189
 21
116.732692
  0
LINE
  8
OSA
 62
     2
  6
CONTINUOUS
 10
116.062241
 20
143.965729
 11
116.261673
 21
140.610474
  0
LINE
  8
OSA
 62
     2
  6
CONTINUOUS
 10
159.308189
 20
153.638681
 11
159.308189
 21
116.732692
  0
LINE
  8
OSA
 62
     2
  6
CONTINUOUS
 10
164.308189
 20
186.754449
 11
172.377988
 21
186.472645
  0
ENDBLK
  8
OSA
  0
BLOCK
  8
OSA
  2
Vnitrni_metricky_zavit_M1__13
 70
   66
 10
129.308189
 20
116.732692
  0
CIRCLE
  8
OSA
 62
     2
  6
CONTINUOUS
 10
129.308189
 20
116.732692
 40
4.458800
  0
ARC
  8
OSA
  6
CONTINUOUS
 10
129.308189
 20
116.732692
 40
5.000000
 50
265.000000
 51
185.000000
  0
ENDBLK
  8
OSA
  0
BLOCK
  8
OBRYS
  2
_16
 70
   64
 10
378.707303
 20
116.732692
  0
ARC
  8
OBRYS
 10
378.707303
 20
116.732692
 40
59.000000
 50
266.667258
 51
273.332742
  0
ARC
  8
OBRYS
 10
378.707303
 20
116.732692
 40
59.000000
 50
176.667258
 51
183.332742
  0
ARC
  8
OBRYS
 10
378.707303
 20
116.732692
 40
59.000000
 50
86.667258
 51
93.332742
  0
ARC
  8
OBRYS
 10
378.707303
 20
116.732692
 40
59.000000
 50
356.667258
 51
3.332742
  0
LINE
  8
OSA
 10
405.801290
 20
182.143363
 11
400.795900
 21
170.059282
  0
ARC
  8
OBRYS
 10
476.707303
 20
116.732692
 40
65.000000
 50
163.017446
 51
196.982554
  0
ARC
  8
OBRYS
 10
378.707303
 20
214.732692
 40
65.000000
 50
253.017446
 51
286.982554
  0
ARC
  8
OBRYS
 10
280.707303
 20
116.732692
 40
65.000000
 50
343.017446
 51
16.982554
  0
ARC
  8
OBRYS
 10
378.707303
 20
18.732692
 40
65.000000
 50
73.017446
 51
106.982554
  0
ARC
  8
OBRYS
 10
270.707303
 20
116.732692
 40
75.000000
 50
16.982554
 51
36.252408
  0
ARC
  8
OBRYS
 10
270.707303
 20
116.732692
 40
75.000000
 50
323.747592
 51
343.017446
  0
ARC
  8
OBRYS
 10
378.707303
 20
224.732692
 40
75.000000
 50
286.982554
 51
306.252408
  0
ARC
  8
OBRYS
 10
378.707303
 20
224.732692
 40
75.000000
 50
233.747592
 51
253.017447
  0
ARC
  8
OBRYS
 10
486.707303
 20
116.732692
 40
75.000000
 50
196.982555
 51
216.252408
  0
ARC
  8
OBRYS
 10
486.707303
 20
116.732692
 40
75.000000
 50
143.747592
 51
163.017445
  0
ARC
  8
OBRYS
 10
378.707303
 20
8.732692
 40
75.000000
 50
106.982554
 51
126.252408
  0
ARC
  8
OBRYS
 10
378.707303
 20
8.732692
 40
75.000000
 50
53.747592
 51
73.017445
  0
LINE
  8
OSA
 10
444.117974
 20
143.826679
 11
428.781574
 21
137.474134
  0
LINE
  8
OSA
 10
444.117974
 20
89.638705
 11
428.781574
 21
95.991250
  0
LINE
  8
OSA
 10
405.801290
 20
51.322021
 11
399.448745
 21
66.658421
  0
LINE
  8
OSA
 10
351.613316
 20
51.322021
 11
357.965861
 21
66.658421
  0
LINE
  8
OSA
 10
313.296632
 20
89.638705
 11
328.633032
 21
95.991250
  0
LINE
  8
OSA
 10
313.296632
 20
143.826679
 11
328.633032
 21
137.474134
  0
LINE
  8
OSA
 10
351.613316
 20
182.143363
 11
357.965861
 21
166.806963
  0
ARC
  8
OBRYS
 10
378.707303
 20
116.732692
 40
65.000000
 50
358.761743
 51
1.238257
  0
ARC
  8
OBRYS
 10
378.707303
 20
116.732692
 40
65.000000
 50
313.761743
 51
316.238257
  0
ARC
  8
OBRYS
 10
378.707303
 20
116.732692
 40
65.000000
 50
268.761743
 51
271.238257
  0
ARC
  8
OBRYS
 10
378.707303
 20
116.732692
 40
65.000000
 50
223.761743
 51
226.238257
  0
ARC
  8
OBRYS
 10
378.707303
 20
116.732692
 40
65.000000
 50
178.761743
 51
181.238257
  0
ARC
  8
OBRYS
 10
378.707303
 20
116.732692
 40
65.000000
 50
133.761743
 51
136.238257
  0
ARC
  8
OBRYS
 10
378.707303
 20
116.732692
 40
65.000000
 50
88.761743
 51
91.238257
  0
ARC
  8
OBRYS
 10
378.707303
 20
116.732692
 40
65.000000
 50
43.761743
 51
46.238257
  0
ARC
  8
OBRYS
 10
302.339771
 20
193.100224
 40
75.000000
 50
331.982554
 51
351.252408
  0
ARC
  8
OBRYS
 10
455.074835
 20
193.100224
 40
75.000000
 50
188.747592
 51
208.017446
  0
ARC
  8
OBRYS
 10
455.074835
 20
193.100224
 40
75.000000
 50
241.982554
 51
261.252408
  0
ARC
  8
OBRYS
 10
455.074835
 20
40.365160
 40
75.000000
 50
98.747592
 51
118.017446
  0
ARC
  8
OBRYS
 10
455.074835
 20
40.365160
 40
75.000000
 50
151.982554
 51
171.252408
  0
ARC
  8
OBRYS
 10
302.339771
 20
40.365160
 40
75.000000
 50
8.747592
 51
28.017446
  0
ARC
  8
OBRYS
 10
302.339771
 20
40.365160
 40
75.000000
 50
61.982554
 51
81.252408
  0
ARC
  8
OBRYS
 10
302.339771
 20
193.100224
 40
75.000000
 50
278.747592
 51
298.017446
  0
LINE
  8
OSA
 10
378.707303
 20
116.732692
 11
378.707303
 21
41.732692
  0
LINE
  8
OSA
 10
378.707303
 20
116.732692
 11
378.707303
 21
191.732692
  0
LINE
  8
OSA
 10
378.707303
 20
116.732692
 11
303.707303
 21
116.732692
  0
LINE
  8
OSA
 10
378.707303
 20
116.732692
 11
453.707303
 21
116.732692
  0
ARC
  8
OBRYS
 10
378.707303
 20
116.732692
 40
52.500000
 50
39.140970
 51
50.859030
  0
ARC
  8
OBRYS
 10
378.707303
 20
116.732692
 40
52.500000
 50
309.140970
 51
320.859030
  0
ARC
  8
OBRYS
 10
378.707303
 20
116.732692
 40
52.500000
 50
219.140970
 51
230.859030
  0
ARC
  8
OBRYS
 10
378.707303
 20
116.732692
 40
52.500000
 50
129.140970
 51
140.859030
  0
ARC
  8
OBRYS
 10
332.872896
 20
97.747459
 40
10.000000
 50
343.017446
 51
61.982554
  0
ARC
  8
OBRYS
 10
332.872896
 20
135.717925
 40
10.000000
 50
298.017446
 51
16.982554
  0
ARC
  8
OBRYS
 10
359.722070
 20
162.567099
 40
10.000000
 50
253.017446
 51
331.982554
  0
ARC
  8
OBRYS
 10
397.692536
 20
162.567099
 40
10.000000
 50
208.017446
 51
286.982554
  0
ARC
  8
OBRYS
 10
424.541710
 20
135.717925
 40
10.000000
 50
163.017446
 51
241.982554
  0
ARC
  8
OBRYS
 10
424.541710
 20
97.747459
 40
10.000000
 50
118.017446
 51
196.982554
  0
ARC
  8
OBRYS
 10
397.692536
 20
70.898285
 40
10.000000
 50
73.017446
 51
151.982554
  0
ARC
  8
OBRYS
 10
359.722070
 20
70.898285
 40
10.000000
 50
28.017446
 51
106.982554
  0
ARC
  8
OBRYS
 10
378.707303
 20
116.732692
 40
35.000000
 50
196.086067
 51
253.913933
  0
ARC
  8
OBRYS
 10
378.707303
 20
116.732692
 40
35.000000
 50
106.086067
 51
163.913933
  0
ARC
  8
OBRYS
 10
378.707303
 20
116.732692
 40
35.000000
 50
16.086067
 51
73.913933
  0
ARC
  8
OBRYS
 10
378.707303
 20
116.732692
 40
35.000000
 50
286.086067
 51
343.913933
  0
CIRCLE
  8
OSA
 10
378.707303
 20
116.732692
 40
62.500000
  0
INSERT
  8
OBRYS
  2
Vnitrni_metricky_zavit_M8__15
 62
     7
 10
809.338119
 20
86.680654
  0
INSERT
  8
OBRYS
  2
Vnitrni_metricky_zavit_M8__16
 62
     7
 10
749.234043
 20
86.680654
  0
INSERT
  8
OBRYS
  2
Vnitrni_metricky_zavit_M8__17
 62
     7
 10
749.234043
 20
146.784730
  0
INSERT
  8
OBRYS
  2
Vnitrni_metricky_zavit_M8__18
 62
     7
 10
809.338119
 20
146.784730
  0
CIRCLE
  8
OBRYS
 10
378.707303
 20
116.732692
 40
70.000000
  0
CIRCLE
  8
OSA
 10
378.707303
 20
116.732692
 40
42.500000
  0
CIRCLE
  8
OBRYS
 10
378.707303
 20
116.732692
 40
27.500000
  0
LINE
  8
OSA
 10
378.707303
 20
116.732692
 11
298.707303
 21
116.732692
  0
INSERT
  8
OBRYS
  2
Vnitrni_metricky_zavit_M8__19
 62
     7
 10
779.286081
 20
159.232692
  0
INSERT
  8
OBRYS
  2
Vnitrni_metricky_zavit_M8__20
 62
     7
 10
736.786081
 20
116.732692
  0
INSERT
  8
OBRYS
  2
Vnitrni_metricky_zavit_M8__21
 62
     7
 10
779.286081
 20
74.232692
  0
INSERT
  8
OBRYS
  2
Vnitrni_metricky_zavit_M8__22
 62
     7
 10
821.786081
 20
116.732692
  0
LINE
  8
OBRYS
 10
378.707303
 20
132.532692
 11
382.707303
 21
132.532692
  0
ARC
  8
OBRYS
 10
378.707303
 20
116.732692
 40
12.500000
 50
108.662925
 51
71.337075
  0
LINE
  8
OBRYS
 10
382.707303
 20
132.532692
 11
382.707303
 21
128.575411
  0
LINE
  8
OBRYS
 10
378.707303
 20
132.532692
 11
374.707303
 21
132.532692
  0
LINE
  8
OBRYS
 10
374.707303
 20
132.532692
 11
374.707303
 21
128.575411
  0
CIRCLE
  8
OBRYS
 10
378.707303
 20
116.732692
 40
20.000000
  0
LINE
  8
OSA
 10
353.962261
 20
141.477735
 11
342.106458
 21
153.333537
  0
LINE
  8
OSA
 10
403.452346
 20
141.477735
 11
415.308148
 21
153.333537
  0
LINE
  8
OSA
 10
403.452346
 20
91.987650
 11
415.308148
 21
80.131847
  0
LINE
  8
OSA
 10
353.962261
 20
91.987650
 11
342.106458
 21
80.131847
  0
INSERT
  8
OBRYS
  2
Srouby_s_valcovou_hlavou___23
 62
     7
 10
721.543610
 20
140.650407
  0
INSERT
  8
OBRYS
  2
Srouby_s_valcovou_hlavou___24
 62
     7
 10
755.368366
 20
174.475163
  0
INSERT
  8
OBRYS
  2
Srouby_s_valcovou_hlavou___25
 62
     7
 10
803.203795
 20
174.475163
  0
INSERT
  8
OBRYS
  2
Srouby_s_valcovou_hlavou___26
 62
     7
 10
837.028552
 20
140.650407
  0
INSERT
  8
OBRYS
  2
Srouby_s_valcovou_hlavou___27
 62
     7
 10
837.028552
 20
92.814978
  0
INSERT
  8
OBRYS
  2
Srouby_s_valcovou_hlavou___28
 62
     7
 10
803.203795
 20
58.990221
  0
INSERT
  8
OBRYS
  2
Srouby_s_valcovou_hlavou___29
 62
     7
 10
755.368366
 20
58.990221
  0
INSERT
  8
OBRYS
  2
Srouby_s_valcovou_hlavou___30
 62
     7
 10
721.543610
 20
92.814978
  0
ENDBLK
  8
OBRYS
  0
BLOCK
  8
OBRYS
  2
Vnitrni_metricky_zavit_M8__15
 70
   66
 10
809.338119
 20
86.680654
  0
CIRCLE
  8
OBRYS
 10
408.759341
 20
86.680654
 40
3.323500
  0
ARC
  8
OBRYS
 62
     7
 10
408.759341
 20
86.680654
 40
4.000000
 50
85.000000
 51
5.000000
  0
ENDBLK
  8
OBRYS
  0
BLOCK
  8
OBRYS
  2
Vnitrni_metricky_zavit_M8__16
 70
   66
 10
749.234043
 20
86.680654
  0
CIRCLE
  8
OBRYS
 10
348.655265
 20
86.680654
 40
3.323500
  0
ARC
  8
OBRYS
 62
     7
 10
348.655265
 20
86.680654
 40
4.000000
 50
175.000000
 51
95.000000
  0
ENDBLK
  8
OBRYS
  0
BLOCK
  8
OBRYS
  2
Vnitrni_metricky_zavit_M8__17
 70
   66
 10
749.234043
 20
146.784730
  0
CIRCLE
  8
OBRYS
 10
348.655265
 20
146.784730
 40
3.323500
  0
ARC
  8
OBRYS
 62
     7
 10
348.655265
 20
146.784730
 40
4.000000
 50
265.000000
 51
185.000000
  0
ENDBLK
  8
OBRYS
  0
BLOCK
  8
OBRYS
  2
Vnitrni_metricky_zavit_M8__18
 70
   66
 10
809.338119
 20
146.784730
  0
CIRCLE
  8
OBRYS
 10
408.759341
 20
146.784730
 40
3.323500
  0
ARC
  8
OBRYS
 62
     7
 10
408.759341
 20
146.784730
 40
4.000000
 50
355.000000
 51
275.000000
  0
ENDBLK
  8
OBRYS
  0
BLOCK
  8
OBRYS
  2
Vnitrni_metricky_zavit_M8__19
 70
   66
 10
779.286081
 20
159.232692
  0
CIRCLE
  8
OBRYS
 10
378.707303
 20
159.232692
 40
3.323500
  0
ARC
  8
OBRYS
 62
     7
 10
378.707303
 20
159.232692
 40
4.000000
 50
40.000000
 51
320.000000
  0
ENDBLK
  8
OBRYS
  0
BLOCK
  8
OBRYS
  2
Vnitrni_metricky_zavit_M8__20
 70
   66
 10
736.786081
 20
116.732692
  0
CIRCLE
  8
OBRYS
 10
336.207303
 20
116.732692
 40
3.323500
  0
ARC
  8
OBRYS
 62
     7
 10
336.207303
 20
116.732692
 40
4.000000
 50
310.000000
 51
230.000000
  0
ENDBLK
  8
OBRYS
  0
BLOCK
  8
OBRYS
  2
Vnitrni_metricky_zavit_M8__21
 70
   66
 10
779.286081
 20
74.232692
  0
CIRCLE
  8
OBRYS
 10
378.707303
 20
74.232692
 40
3.323500
  0
ARC
  8
OBRYS
 62
     7
 10
378.707303
 20
74.232692
 40
4.000000
 50
220.000000
 51
140.000000
  0
ENDBLK
  8
OBRYS
  0
BLOCK
  8
OBRYS
  2
Vnitrni_metricky_zavit_M8__22
 70
   66
 10
821.786081
 20
116.732692
  0
CIRCLE
  8
OBRYS
 10
421.207303
 20
116.732692
 40
3.323500
  0
ARC
  8
OBRYS
 62
     7
 10
421.207303
 20
116.732692
 40
4.000000
 50
130.000000
 51
50.000000
  0
ENDBLK
  8
OBRYS
  0
BLOCK
  8
OBRYS
  2
Srouby_s_valcovou_hlavou___23
 70
   66
 10
721.543610
 20
140.650407
  0
LINE
  8
OBRYS
 10
318.464832
 20
139.207022
 11
318.464832
 21
142.093791
  0
LINE
  8
OBRYS
 10
318.464832
 20
142.093791
 11
320.964832
 21
143.537176
  0
LINE
  8
OBRYS
 10
320.964832
 20
143.537176
 11
323.464832
 21
142.093791
  0
LINE
  8
OBRYS
 10
323.464832
 20
142.093791
 11
323.464832
 21
139.207022
  0
LINE
  8
OBRYS
 10
323.464832
 20
139.207022
 11
320.964832
 21
137.763637
  0
LINE
  8
OBRYS
 10
320.964832
 20
137.763637
 11
318.464832
 21
139.207022
  0
CIRCLE
  8
OBRYS
 10
320.964832
 20
140.650407
 40
2.886769
  0
CIRCLE
  8
OBRYS
 10
320.964832
 20
140.650407
 40
5.000000
  0
ENDBLK
  8
OBRYS
  0
BLOCK
  8
OBRYS
  2
Srouby_s_valcovou_hlavou___24
 70
   66
 10
755.368366
 20
174.475163
  0
LINE
  8
OBRYS
 10
352.289589
 20
173.031778
 11
352.289589
 21
175.918548
  0
LINE
  8
OBRYS
 10
352.289589
 20
175.918548
 11
354.789589
 21
177.361932
  0
LINE
  8
OBRYS
 10
354.789589
 20
177.361932
 11
357.289589
 21
175.918548
  0
LINE
  8
OBRYS
 10
357.289589
 20
175.918548
 11
357.289589
 21
173.031778
  0
LINE
  8
OBRYS
 10
357.289589
 20
173.031778
 11
354.789589
 21
171.588393
  0
LINE
  8
OBRYS
 10
354.789589
 20
171.588393
 11
352.289589
 21
173.031778
  0
CIRCLE
  8
OBRYS
 10
354.789589
 20
174.475163
 40
2.886769
  0
CIRCLE
  8
OBRYS
 10
354.789589
 20
174.475163
 40
5.000000
  0
ENDBLK
  8
OBRYS
  0
BLOCK
  8
OBRYS
  2
Srouby_s_valcovou_hlavou___25
 70
   66
 10
803.203795
 20
174.475163
  0
LINE
  8
OBRYS
 10
400.125018
 20
173.031778
 11
400.125018
 21
175.918548
  0
LINE
  8
OBRYS
 10
400.125018
 20
175.918548
 11
402.625018
 21
177.361932
  0
LINE
  8
OBRYS
 10
402.625018
 20
177.361932
 11
405.125018
 21
175.918548
  0
LINE
  8
OBRYS
 10
405.125018
 20
175.918548
 11
405.125018
 21
173.031778
  0
LINE
  8
OBRYS
 10
405.125018
 20
173.031778
 11
402.625018
 21
171.588393
  0
LINE
  8
OBRYS
 10
402.625018
 20
171.588393
 11
400.125018
 21
173.031778
  0
CIRCLE
  8
OBRYS
 10
402.625018
 20
174.475163
 40
2.886769
  0
CIRCLE
  8
OBRYS
 10
402.625018
 20
174.475163
 40
5.000000
  0
ENDBLK
  8
OBRYS
  0
BLOCK
  8
OBRYS
  2
Srouby_s_valcovou_hlavou___26
 70
   66
 10
837.028552
 20
140.650407
  0
LINE
  8
OBRYS
 10
433.949774
 20
139.207022
 11
433.949774
 21
142.093791
  0
LINE
  8
OBRYS
 10
433.949774
 20
142.093791
 11
436.449774
 21
143.537176
  0
LINE
  8
OBRYS
 10
436.449774
 20
143.537176
 11
438.949774
 21
142.093791
  0
LINE
  8
OBRYS
 10
438.949774
 20
142.093791
 11
438.949774
 21
139.207022
  0
LINE
  8
OBRYS
 10
438.949774
 20
139.207022
 11
436.449774
 21
137.763637
  0
LINE
  8
OBRYS
 10
436.449774
 20
137.763637
 11
433.949774
 21
139.207022
  0
CIRCLE
  8
OBRYS
 10
436.449774
 20
140.650407
 40
2.886769
  0
CIRCLE
  8
OBRYS
 10
436.449774
 20
140.650407
 40
5.000000
  0
ENDBLK
  8
OBRYS
  0
BLOCK
  8
OBRYS
  2
Srouby_s_valcovou_hlavou___27
 70
   66
 10
837.028552
 20
92.814978
  0
LINE
  8
OBRYS
 10
433.949774
 20
91.371593
 11
433.949774
 21
94.258362
  0
LINE
  8
OBRYS
 10
433.949774
 20
94.258362
 11
436.449774
 21
95.701747
  0
LINE
  8
OBRYS
 10
436.449774
 20
95.701747
 11
438.949774
 21
94.258362
  0
LINE
  8
OBRYS
 10
438.949774
 20
94.258362
 11
438.949774
 21
91.371593
  0
LINE
  8
OBRYS
 10
438.949774
 20
91.371593
 11
436.449774
 21
89.928208
  0
LINE
  8
OBRYS
 10
436.449774
 20
89.928208
 11
433.949774
 21
91.371593
  0
CIRCLE
  8
OBRYS
 10
436.449774
 20
92.814978
 40
2.886769
  0
CIRCLE
  8
OBRYS
 10
436.449774
 20
92.814978
 40
5.000000
  0
ENDBLK
  8
OBRYS
  0
BLOCK
  8
OBRYS
  2
Srouby_s_valcovou_hlavou___28
 70
   66
 10
803.203795
 20
58.990221
  0
LINE
  8
OBRYS
 10
400.125018
 20
57.546837
 11
400.125018
 21
60.433606
  0
LINE
  8
OBRYS
 10
400.125018
 20
60.433606
 11
402.625018
 21
61.876991
  0
LINE
  8
OBRYS
 10
402.625018
 20
61.876991
 11
405.125018
 21
60.433606
  0
LINE
  8
OBRYS
 10
405.125018
 20
60.433606
 11
405.125018
 21
57.546837
  0
LINE
  8
OBRYS
 10
405.125018
 20
57.546837
 11
402.625018
 21
56.103452
  0
LINE
  8
OBRYS
 10
402.625018
 20
56.103452
 11
400.125018
 21
57.546837
  0
CIRCLE
  8
OBRYS
 10
402.625018
 20
58.990221
 40
2.886769
  0
CIRCLE
  8
OBRYS
 10
402.625018
 20
58.990221
 40
5.000000
  0
ENDBLK
  8
OBRYS
  0
BLOCK
  8
OBRYS
  2
Srouby_s_valcovou_hlavou___29
 70
   66
 10
755.368366
 20
58.990221
  0
LINE
  8
OBRYS
 10
352.289589
 20
57.546837
 11
352.289589
 21
60.433606
  0
LINE
  8
OBRYS
 10
352.289589
 20
60.433606
 11
354.789589
 21
61.876991
  0
LINE
  8
OBRYS
 10
354.789589
 20
61.876991
 11
357.289589
 21
60.433606
  0
LINE
  8
OBRYS
 10
357.289589
 20
60.433606
 11
357.289589
 21
57.546837
  0
LINE
  8
OBRYS
 10
357.289589
 20
57.546837
 11
354.789589
 21
56.103452
  0
LINE
  8
OBRYS
 10
354.789589
 20
56.103452
 11
352.289589
 21
57.546837
  0
CIRCLE
  8
OBRYS
 10
354.789589
 20
58.990221
 40
2.886769
  0
CIRCLE
  8
OBRYS
 10
354.789589
 20
58.990221
 40
5.000000
  0
ENDBLK
  8
OBRYS
  0
BLOCK
  8
OBRYS
  2
Srouby_s_valcovou_hlavou___30
 70
   66
 10
721.543610
 20
92.814978
  0
LINE
  8
OBRYS
 10
318.464832
 20
91.371593
 11
318.464832
 21
94.258362
  0
LINE
  8
OBRYS
 10
318.464832
 20
94.258362
 11
320.964832
 21
95.701747
  0
LINE
  8
OBRYS
 10
320.964832
 20
95.701747
 11
323.464832
 21
94.258362
  0
LINE
  8
OBRYS
 10
323.464832
 20
94.258362
 11
323.464832
 21
91.371593
  0
LINE
  8
OBRYS
 10
323.464832
 20
91.371593
 11
320.964832
 21
89.928208
  0
LINE
  8
OBRYS
 10
320.964832
 20
89.928208
 11
318.464832
 21
91.371593
  0
CIRCLE
  8
OBRYS
 10
320.964832
 20
92.814978
 40
2.886769
  0
CIRCLE
  8
OBRYS
 10
320.964832
 20
92.814978
 40
5.000000
  0
ENDBLK
  8
OBRYS
  0
BLOCK
  8
OBRYS
  2
Vnitrni_metricky_zavit_M8_17
 70
   66
 10
809.338119
 20
86.680654
  0
CIRCLE
  8
OBRYS
 10
809.338119
 20
86.680654
 40
3.323500
  0
ARC
  8
OBRYS
 62
     7
 10
809.338119
 20
86.680654
 40
4.000000
 50
85.000000
 51
5.000000
  0
ENDBLK
  8
OBRYS
  0
BLOCK
  8
OBRYS
  2
Vnitrni_metricky_zavit_M8_18
 70
   66
 10
749.234043
 20
86.680654
  0
CIRCLE
  8
OBRYS
 10
749.234043
 20
86.680654
 40
3.323500
  0
ARC
  8
OBRYS
 62
     7
 10
749.234043
 20
86.680654
 40
4.000000
 50
175.000000
 51
95.000000
  0
ENDBLK
  8
OBRYS
  0
BLOCK
  8
OBRYS
  2
Vnitrni_metricky_zavit_M8_19
 70
   66
 10
749.234043
 20
146.784730
  0
CIRCLE
  8
OBRYS
 10
749.234043
 20
146.784730
 40
3.323500
  0
ARC
  8
OBRYS
 62
     7
 10
749.234043
 20
146.784730
 40
4.000000
 50
265.000000
 51
185.000000
  0
ENDBLK
  8
OBRYS
  0
BLOCK
  8
OBRYS
  2
Vnitrni_metricky_zavit_M8_20
 70
   66
 10
809.338119
 20
146.784730
  0
CIRCLE
  8
OBRYS
 10
809.338119
 20
146.784730
 40
3.323500
  0
ARC
  8
OBRYS
 62
     7
 10
809.338119
 20
146.784730
 40
4.000000
 50
355.000000
 51
275.000000
  0
ENDBLK
  8
OBRYS
  0
BLOCK
  8
OBRYS
  2
Vnitrni_metricky_zavit_M8_21
 70
   66
 10
779.286081
 20
159.232692
  0
CIRCLE
  8
OBRYS
 10
779.286081
 20
159.232692
 40
3.323500
  0
ARC
  8
OBRYS
 62
     7
 10
779.286081
 20
159.232692
 40
4.000000
 50
40.000000
 51
320.000000
  0
ENDBLK
  8
OBRYS
  0
BLOCK
  8
OBRYS
  2
Vnitrni_metricky_zavit_M8_22
 70
   66
 10
736.786081
 20
116.732692
  0
CIRCLE
  8
OBRYS
 10
736.786081
 20
116.732692
 40
3.323500
  0
ARC
  8
OBRYS
 62
     7
 10
736.786081
 20
116.732692
 40
4.000000
 50
310.000000
 51
230.000000
  0
ENDBLK
  8
OBRYS
  0
BLOCK
  8
OBRYS
  2
Vnitrni_metricky_zavit_M8_23
 70
   66
 10
779.286081
 20
74.232692
  0
CIRCLE
  8
OBRYS
 10
779.286081
 20
74.232692
 40
3.323500
  0
ARC
  8
OBRYS
 62
     7
 10
779.286081
 20
74.232692
 40
4.000000
 50
220.000000
 51
140.000000
  0
ENDBLK
  8
OBRYS
  0
BLOCK
  8
OBRYS
  2
Vnitrni_metricky_zavit_M8_24
 70
   66
 10
821.786081
 20
116.732692
  0
CIRCLE
  8
OBRYS
 10
821.786081
 20
116.732692
 40
3.323500
  0
ARC
  8
OBRYS
 62
     7
 10
821.786081
 20
116.732692
 40
4.000000
 50
130.000000
 51
50.000000
  0
ENDBLK
  8
OBRYS
  0
BLOCK
  8
OSA
  2
_25
 70
   64
 10
378.707303
 20
-121.556697
  0
LINE
  8
OSA
 62
     2
  6
CONTINUOUS
 10
448.624297
 20
-121.556697
 11
378.707303
 21
-121.556697
  0
LINE
  8
OSA
 62
     2
  6
CONTINUOUS
 10
448.624297
 20
-121.556697
 11
448.447256
 21
-126.626496
  0
LINE
  8
OSA
 10
378.707303
 20
-116.556697
 11
378.707303
 21
-148.556697
  0
LINE
  8
OSA
 62
     2
  6
CONTINUOUS
 10
378.707303
 20
-121.556697
 11
308.707303
 21
-121.556697
  0
LINE
  8
OSA
 62
     2
  6
CONTINUOUS
 10
343.707303
 20
-143.056697
 11
344.207303
 21
-143.556697
  0
LINE
  8
OSA
 62
     2
  6
CONTINUOUS
 10
343.707303
 20
-141.056697
 11
343.707303
 21
-143.056697
  0
LINE
  8
OSA
 62
     2
  6
CONTINUOUS
 10
343.707303
 20
-143.056697
 11
378.707303
 21
-143.056697
  0
LINE
  8
OSA
 62
     2
  6
CONTINUOUS
 10
344.207303
 20
-143.556697
 11
378.707303
 21
-143.556697
  0
LINE
  8
OSA
 62
     2
  6
CONTINUOUS
 10
359.722070
 20
-134.556697
 11
378.707303
 21
-134.556697
  0
LINE
  8
OSA
 62
     2
  6
CONTINUOUS
 10
310.966132
 20
-128.556697
 11
378.707303
 21
-128.556697
  0
LINE
  8
OSA
 62
     2
  6
CONTINUOUS
 10
413.207303
 20
-143.556697
 11
378.707303
 21
-143.556697
  0
LINE
  8
OSA
 62
     2
  6
CONTINUOUS
 10
413.707303
 20
-143.056697
 11
378.707303
 21
-143.056697
  0
LINE
  8
OSA
 62
     2
  6
CONTINUOUS
 10
397.692536
 20
-134.556697
 11
378.707303
 21
-134.556697
  0
LINE
  8
OSA
 62
     2
  6
CONTINUOUS
 10
308.707303
 20
-122.438962
 11
308.967350
 21
-126.626496
  0
ARC
  8
OSA
 62
     2
  6
CONTINUOUS
 10
310.966132
 20
-126.556697
 40
2.000000
 50
182.000000
 51
270.000000
  0
LINE
  8
OSA
 62
     2
  6
CONTINUOUS
 10
413.707303
 20
-141.056697
 11
413.707303
 21
-143.056697
  0
LINE
  8
OSA
 62
     2
  6
CONTINUOUS
 10
413.707303
 20
-143.056697
 11
413.207303
 21
-143.556697
  0
ARC
  8
OSA
 62
     2
  6
CONTINUOUS
 10
444.535730
 20
-130.556697
 40
2.000000
 50
90.000000
 51
135.000000
  0
ARC
  8
OSA
 62
     2
  6
CONTINUOUS
 10
446.448474
 20
-126.556697
 40
2.000000
 50
270.000000
 51
358.000000
  0
LINE
  8
OSA
 62
     2
  6
CONTINUOUS
 10
437.707303
 20
-134.556697
 11
443.121517
 21
-129.142483
  0
LINE
  8
OSA
 62
     2
  6
CONTINUOUS
 10
446.448474
 20
-128.556697
 11
378.707303
 21
-128.556697
  0
LINE
  8
OSA
 62
     2
  6
CONTINUOUS
 10
378.707303
 20
-141.056697
 11
419.426053
 21
-141.056697
  0
LINE
  8
OSA
 62
     2
  6
CONTINUOUS
 10
380.947243
 20
-128.556697
 11
382.388353
 21
-134.556697
  0
LINE
  8
OSA
 62
     2
  6
CONTINUOUS
 10
376.467363
 20
-128.556697
 11
375.026253
 21
-134.556697
  0
LINE
  8
OSA
 62
     2
  6
CONTINUOUS
 10
422.961933
 20
-134.556697
 11
437.707303
 21
-134.556697
  0
LINE
  8
OSA
 62
     2
  6
CONTINUOUS
 10
419.426053
 20
-141.056697
 11
425.657747
 21
-129.600988
  0
ARC
  8
OSA
 62
     2
  6
CONTINUOUS
 10
427.414625
 20
-130.556697
 40
2.000000
 50
90.000000
 51
151.454628
  0
LINE
  8
OSA
 62
     2
  6
CONTINUOUS
 10
411.846908
 20
-141.056697
 11
422.461968
 21
-129.221325
  0
ARC
  8
OSA
 62
     2
  6
CONTINUOUS
 10
423.950854
 20
-130.556697
 40
2.000000
 50
90.000000
 51
138.111296
  0
ARC
  8
OSA
 62
     2
  6
CONTINUOUS
 10
333.463752
 20
-130.556697
 40
2.000000
 50
41.888704
 51
90.000000
  0
LINE
  8
OSA
 62
     2
  6
CONTINUOUS
 10
345.567698
 20
-141.056697
 11
334.952638
 21
-129.221325
  0
ARC
  8
OSA
 62
     2
  6
CONTINUOUS
 10
329.999982
 20
-130.556697
 40
2.000000
 50
28.545372
 51
90.000000
  0
LINE
  8
OSA
 62
     2
  6
CONTINUOUS
 10
337.988553
 20
-141.056697
 11
331.756860
 21
-129.600988
  0
LINE
  8
OSA
 62
     2
  6
CONTINUOUS
 10
334.452673
 20
-134.556697
 11
319.707303
 21
-134.556697
  0
LINE
  8
OSA
 62
     2
  6
CONTINUOUS
 10
378.707303
 20
-141.056697
 11
337.988553
 21
-141.056697
  0
LINE
  8
OSA
 62
     2
  6
CONTINUOUS
 10
319.707303
 20
-134.556697
 11
314.293090
 21
-129.142483
  0
ARC
  8
OSA
 62
     2
  6
CONTINUOUS
 10
312.878876
 20
-130.556697
 40
2.000000
 50
45.000000
 51
90.000000
  0
ENDBLK
  8
OSA
  0
BLOCK
  8
OSA
  2
_26
 70
   64
 10
91.308189
 20
116.732692
  0
LINE
  8
OSA
 62
     2
  6
CONTINUOUS
 10
91.308189
 20
186.649686
 11
91.308189
 21
116.732692
  0
LINE
  8
OSA
 62
     2
  6
CONTINUOUS
 10
91.308189
 20
186.649686
 11
86.238390
 21
186.472645
  0
LINE
  8
OSA
 10
96.308189
 20
116.732692
 11
64.308189
 21
116.732692
  0
LINE
  8
OSA
 62
     2
  6
CONTINUOUS
 10
91.308189
 20
116.732692
 11
91.308189
 21
46.732692
  0
LINE
  8
OSA
 62
     2
  6
CONTINUOUS
 10
69.808189
 20
81.732692
 11
69.308189
 21
82.232692
  0
LINE
  8
OSA
 62
     2
  6
CONTINUOUS
 10
71.808189
 20
81.732692
 11
69.808189
 21
81.732692
  0
LINE
  8
OSA
 62
     2
  6
CONTINUOUS
 10
69.808189
 20
81.732692
 11
69.808189
 21
116.732692
  0
LINE
  8
OSA
 62
     2
  6
CONTINUOUS
 10
69.308189
 20
82.232692
 11
69.308189
 21
116.732692
  0
LINE
  8
OSA
 62
     2
  6
CONTINUOUS
 10
78.308189
 20
97.747459
 11
78.308189
 21
116.732692
  0
LINE
  8
OSA
 62
     2
  6
CONTINUOUS
 10
84.308189
 20
48.991521
 11
84.308189
 21
116.732692
  0
LINE
  8
OSA
 62
     2
  6
CONTINUOUS
 10
69.308189
 20
151.232692
 11
69.308189
 21
116.732692
  0
LINE
  8
OSA
 62
     2
  6
CONTINUOUS
 10
69.808189
 20
151.732692
 11
69.808189
 21
116.732692
  0
LINE
  8
OSA
 62
     2
  6
CONTINUOUS
 10
78.308189
 20
135.717925
 11
78.308189
 21
116.732692
  0
LINE
  8
OSA
 62
     2
  6
CONTINUOUS
 10
90.425923
 20
46.732692
 11
86.238390
 21
46.992739
  0
ARC
  8
OSA
 62
     2
  6
CONTINUOUS
 10
82.308189
 20
50.904265
 40
2.000000
 50
0.000000
 51
45.000000
  0
ARC
  8
OSA
 62
     2
  6
CONTINUOUS
 10
86.308189
 20
48.991521
 40
2.000000
 50
180.000000
 51
268.000000
  0
LINE
  8
OSA
 62
     2
  6
CONTINUOUS
 10
71.808189
 20
151.732692
 11
69.808189
 21
151.732692
  0
LINE
  8
OSA
 62
     2
  6
CONTINUOUS
 10
69.808189
 20
151.732692
 11
69.308189
 21
151.232692
  0
ARC
  8
OSA
 62
     2
  6
CONTINUOUS
 10
82.308189
 20
182.561119
 40
2.000000
 50
315.000000
 51
360.000000
  0
ARC
  8
OSA
 62
     2
  6
CONTINUOUS
 10
86.308189
 20
184.473863
 40
2.000000
 50
92.000000
 51
180.000000
  0
LINE
  8
OSA
 62
     2
  6
CONTINUOUS
 10
78.308189
 20
175.732692
 11
83.722402
 21
181.146906
  0
LINE
  8
OSA
 62
     2
  6
CONTINUOUS
 10
84.308189
 20
184.473863
 11
84.308189
 21
116.732692
  0
LINE
  8
OSA
 62
     2
  6
CONTINUOUS
 10
71.808189
 20
116.732692
 11
71.808189
 21
157.451442
  0
LINE
  8
OSA
 62
     2
  6
CONTINUOUS
 10
84.308189
 20
118.972632
 11
78.308189
 21
120.413742
  0
LINE
  8
OSA
 62
     2
  6
CONTINUOUS
 10
84.308189
 20
114.492752
 11
78.308189
 21
113.051642
  0
LINE
  8
OSA
 62
     2
  6
CONTINUOUS
 10
78.308189
 20
160.987322
 11
78.308189
 21
175.732692
  0
LINE
  8
OSA
 62
     2
  6
CONTINUOUS
 10
71.808189
 20
157.451442
 11
83.263898
 21
163.683136
  0
ARC
  8
OSA
 62
     2
  6
CONTINUOUS
 10
82.308189
 20
165.440014
 40
2.000000
 50
298.545372
 51
360.000000
  0
LINE
  8
OSA
 62
     2
  6
CONTINUOUS
 10
71.808189
 20
149.872297
 11
83.643560
 21
160.487357
  0
ARC
  8
OSA
 62
     2
  6
CONTINUOUS
 10
82.308189
 20
161.976243
 40
2.000000
 50
311.888704
 51
360.000000
  0
ARC
  8
OSA
 62
     2
  6
CONTINUOUS
 10
82.308189
 20
71.489141
 40
2.000000
 50
0.000000
 51
48.111296
  0
LINE
  8
OSA
 62
     2
  6
CONTINUOUS
 10
71.808189
 20
83.593087
 11
83.643560
 21
72.978027
  0
ARC
  8
OSA
 62
     2
  6
CONTINUOUS
 10
82.308189
 20
68.025370
 40
2.000000
 50
0.000000
 51
61.454628
  0
LINE
  8
OSA
 62
     2
  6
CONTINUOUS
 10
71.808189
 20
76.013942
 11
83.263898
 21
69.782248
  0
LINE
  8
OSA
 62
     2
  6
CONTINUOUS
 10
78.308189
 20
72.478062
 11
78.308189
 21
57.732692
  0
LINE
  8
OSA
 62
     2
  6
CONTINUOUS
 10
71.808189
 20
116.732692
 11
71.808189
 21
76.013942
  0
LINE
  8
OSA
 62
     2
  6
CONTINUOUS
 10
78.308189
 20
57.732692
 11
83.722402
 21
52.318478
  0
ARC
  8
OSA
 62
     2
  6
CONTINUOUS
 10
82.308189
 20
50.904265
 40
2.000000
 50
0.000000
 51
45.000000
  0
ENDBLK
  8
OSA
  0
BLOCK
  8
OBRYS
  2
M10x1_27
 70
   66
 10
129.308189
 20
54.732692
  0
LINE
  8
OBRYS
 62
     7
  6
DASHDOT
 10
129.308189
 20
64.061594
 11
129.308189
 21
50.287344
  0
LINE
  8
OBRYS
 10
136.308189
 20
54.732692
 11
122.308189
 21
54.732692
  0
LINE
  8
OBRYS
 10
122.308189
 20
54.732692
 11
122.308189
 21
52.732692
  0
LINE
  8
OBRYS
 10
136.308189
 20
54.732692
 11
136.308189
 21
52.732692
  0
ARC
  8
OBRYS
 10
123.308189
 20
52.732692
 40
1.000000
 50
180.000000
 51
270.000000
  0
LINE
  8
OBRYS
 10
135.308189
 20
51.732692
 11
123.308189
 21
51.732692
  0
ARC
  8
OBRYS
 10
135.308189
 20
52.732692
 40
1.000000
 50
270.000000
 51
360.000000
  0
ENDBLK
  8
OBRYS
  0
ENDSEC
  0
SECTION
  2
ENTITIES
  0
LINE
  8
OSA
 10
622.141272
 20
322.397165
 11
641.940262
 21
302.598175
  0
LINE
  8
OSA
 10
550.016380
 20
322.397165
 11
530.217390
 21
302.598175
  0
LINE
  8
OSA
 10
550.016380
 20
394.522057
 11
530.217390
 21
414.321047
  0
LINE
  8
OSA
 10
622.141272
 20
394.522057
 11
641.940262
 21
414.321047
  0
LINE
  8
OSA
 10
586.078826
 20
400.959611
 11
586.078826
 21
378.459611
  0
LINE
  8
OSA
 10
586.078826
 20
358.459611
 11
586.078826
 21
335.959611
  0
LINE
  8
OSA
 10
586.078826
 20
358.459611
 11
586.078826
 21
380.959611
  0
LINE
  8
OSA
 10
586.078826
 20
358.459611
 11
563.578826
 21
358.459611
  0
LINE
  8
OSA
 10
586.078826
 20
358.459611
 11
608.578826
 21
358.459611
  0
CIRCLE
  8
OBRYS
 10
586.078826
 20
358.459611
 40
12.500000
  0
ARC
  8
OBRYS
 10
586.078826
 20
358.459611
 40
7.000000
 50
110.924832
 51
69.075168
  0
LINE
  8
OBRYS
 10
583.578826
 20
364.997959
 11
583.578826
 21
367.659611
  0
LINE
  8
OBRYS
 10
588.578826
 20
364.997959
 11
588.578826
 21
367.659611
  0
LINE
  8
OBRYS
 10
583.578826
 20
367.659611
 11
588.578826
 21
367.659611
  0
CIRCLE
  8
OBRYS
 10
586.078826
 20
358.459611
 40
80.000000
  0
CIRCLE
  8
OBRYS
 10
586.078826
 20
358.459611
 40
55.000000
  0
LINE
  8
OSA
 10
586.078826
 20
358.459611
 11
671.078826
 21
358.459611
  0
LINE
  8
OSA
 10
586.078826
 20
358.459611
 11
501.078826
 21
358.459611
  0
LINE
  8
OSA
 10
586.078826
 20
358.459611
 11
586.078826
 21
443.459611
  0
LINE
  8
OSA
 10
586.078826
 20
358.459611
 11
586.078826
 21
273.459611
  0
CIRCLE
  8
OSA
 10
586.078826
 20
358.459611
 40
65.000000
  0
INSERT
  8
OBRYS
 66
     1
  2
Vnitrni_metricky_zavit_M8_0
 62
     7
 10
540.116885
 20
312.497670
  0
ATTRIB
  8
OBRYS
 10
30.333765
 20
-7.393362
 40
25.000000
  1
CSN 02 1034
  2
norma roz.
 70
     1
  0
ATTRIB
  8
OBRYS
 10
30.333765
 20
-7.393362
 40
25.000000
  1
1.25
  2
roztec
 70
     1
  0
ATTRIB
  8
OBRYS
 10
30.333765
 20
-7.393362
 40
25.000000
  1
*NB
  2
puvod
 70
     1
  0
ATTRIB
  8
OBRYS
 10
30.333765
 20
-7.393362
 40
25.000000
  1
02 1034
  2
tridici znak
 70
     1
  0
SEQEND
  8
OBRYS
  0
INSERT
  8
OBRYS
 66
     1
  2
Vnitrni_metricky_zavit_M8_1
 62
     7
 10
632.040767
 20
312.497670
  0
ATTRIB
  8
OBRYS
 10
30.333765
 20
-7.393362
 40
25.000000
  1
CSN 02 1034
  2
norma roz.
 70
     1
  0
ATTRIB
  8
OBRYS
 10
30.333765
 20
-7.393362
 40
25.000000
  1
1.25
  2
roztec
 70
     1
  0
ATTRIB
  8
OBRYS
 10
30.333765
 20
-7.393362
 40
25.000000
  1
*NB
  2
puvod
 70
     1
  0
ATTRIB
  8
OBRYS
 10
30.333765
 20
-7.393362
 40
25.000000
  1
02 1034
  2
tridici znak
 70
     1
  0
SEQEND
  8
OBRYS
  0
INSERT
  8
OBRYS
 66
     1
  2
Vnitrni_metricky_zavit_M8_2
 62
     7
 10
632.040767
 20
404.421552
  0
ATTRIB
  8
OBRYS
 10
30.333765
 20
-7.393362
 40
25.000000
  1
CSN 02 1034
  2
norma roz.
 70
     1
  0
ATTRIB
  8
OBRYS
 10
30.333765
 20
-7.393362
 40
25.000000
  1
1.25
  2
roztec
 70
     1
  0
ATTRIB
  8
OBRYS
 10
30.333765
 20
-7.393362
 40
25.000000
  1
*NB
  2
puvod
 70
     1
  0
ATTRIB
  8
OBRYS
 10
30.333765
 20
-7.393362
 40
25.000000
  1
02 1034
  2
tridici znak
 70
     1
  0
SEQEND
  8
OBRYS
  0
INSERT
  8
OBRYS
 66
     1
  2
Vnitrni_metricky_zavit_M8_3
 62
     7
 10
540.116885
 20
404.421552
  0
ATTRIB
  8
OBRYS
 10
30.333765
 20
-7.393362
 40
25.000000
  1
CSN 02 1034
  2
norma roz.
 70
     1
  0
ATTRIB
  8
OBRYS
 10
30.333765
 20
-7.393362
 40
25.000000
  1
1.25
  2
roztec
 70
     1
  0
ATTRIB
  8
OBRYS
 10
30.333765
 20
-7.393362
 40
25.000000
  1
*NB
  2
puvod
 70
     1
  0
ATTRIB
  8
OBRYS
 10
30.333765
 20
-7.393362
 40
25.000000
  1
02 1034
  2
tridici znak
 70
     1
  0
SEQEND
  8
OBRYS
  0
INSERT
  8
OBRYS
  2
_4
 62
     7
 10
586.078826
 20
176.732692
  0
LINE
  8
OBRYS
 10
583.578826
 20
-74.171742
 11
588.578826
 21
-74.171742
  0
LINE
  8
OBRYS
 10
588.578826
 20
-76.833394
 11
588.578826
 21
-74.171742
  0
LINE
  8
OBRYS
 10
583.578826
 20
-76.833394
 11
583.578826
 21
-74.171742
  0
ARC
  8
OBRYS
 10
586.078826
 20
-83.371742
 40
7.000000
 50
110.924832
 51
69.075168
  0
CIRCLE
  8
OBRYS
 10
586.078826
 20
-83.371742
 40
12.500000
  0
LINE
  8
OSA
 10
586.078826
 20
-83.371742
 11
608.578826
 21
-83.371742
  0
LINE
  8
OSA
 10
586.078826
 20
-83.371742
 11
563.578826
 21
-83.371742
  0
LINE
  8
OSA
 10
586.078826
 20
-83.371742
 11
586.078826
 21
-60.871742
  0
LINE
  8
OSA
 10
586.078826
 20
-83.371742
 11
586.078826
 21
-105.871742
  0
CIRCLE
  8
OBRYS
 10
586.078826
 20
-40.871742
 40
12.500000
  0
ARC
  8
OBRYS
 10
586.078826
 20
-40.871742
 40
5.500000
 50
110.654018
 51
68.003576
  0
LINE
  8
OBRYS
 10
588.138844
 20
-35.772103
 11
588.138844
 21
-33.682782
  0
LINE
  8
OBRYS
 10
584.138844
 20
-35.725242
 11
584.138844
 21
-33.682782
  0
LINE
  8
OBRYS
 10
584.138844
 20
-33.682782
 11
588.138844
 21
-33.682782
  0
LINE
  8
OSA
 10
586.078826
 20
-40.871742
 11
608.578826
 21
-40.871742
  0
LINE
  8
OSA
 10
586.078826
 20
-40.871742
 11
563.578826
 21
-40.871742
  0
LINE
  8
OSA
 10
586.078826
 20
-40.871742
 11
586.078826
 21
-18.371742
  0
LINE
  8
OSA
 10
586.078826
 20
-40.871742
 11
586.078826
 21
-63.371742
  0
INSERT
  8
OSA
  2
_5
  6
CONTINUOUS
 10
586.078826
 20
176.732692
  0
INSERT
  8
OSA
  2
_6
  6
CONTINUOUS
 10
624.078826
 20
114.732692
  0
INSERT
  8
OSA
  2
_7
  6
CONTINUOUS
 10
548.078826
 20
114.732692
  0
ARC
  8
OBRYS
 10
129.308189
 20
114.732692
 40
70.000000
 50
316.766765
 51
31.002719
  0
ARC
  8
OBRYS
 10
129.308189
 20
114.732692
 40
70.000000
 50
270.000000
 51
295.376934
  0
ARC
  8
OBRYS
 10
129.308189
 20
114.732692
 40
70.000000
 50
244.911857
 51
270.000000
  0
ARC
  8
OBRYS
 10
129.308189
 20
114.732692
 40
70.000000
 50
148.997281
 51
223.233235
  0
ARC
  8
OBRYS
 10
129.308189
 20
176.732692
 40
60.000000
 50
341.571342
 51
21.101147
  0
ARC
  8
OBRYS
 10
129.308189
 20
176.732692
 40
60.000000
 50
158.898853
 51
198.428658
  0
ARC
  8
OBRYS
 10
91.308189
 20
221.732692
 40
5.000000
 50
109.216664
 51
131.452663
  0
ARC
  8
OBRYS
 10
129.308189
 20
176.732692
 40
60.000000
 50
98.898853
 51
109.216664
  0
LINE
  8
TLUST_
 62
     2
 10
109.559711
 20
233.389533
 11
89.662482
 21
226.454095
  0
LINE
  8
TLUST_
 62
     2
 10
72.712657
 20
211.979212
 11
87.998183
 21
225.480207
  0
ARC
  8
OBRYS
 10
77.346664
 20
206.732692
 40
7.000000
 50
140.000000
 51
227.046122
  0
ARC
  8
OBRYS
 10
181.269713
 20
206.732692
 40
7.000000
 50
312.953878
 51
40.000000
  0
LINE
  8
TLUST_
 62
     2
 10
185.903720
 20
211.979212
 11
170.618194
 21
225.480207
  0
LINE
  8
TLUST_
 62
     2
 10
149.056666
 20
233.389533
 11
168.953895
 21
226.454095
  0
ARC
  8
OBRYS
 10
129.308189
 20
176.732692
 40
60.000000
 50
70.783336
 51
81.101147
  0
ARC
  8
OBRYS
 10
167.308189
 20
221.732692
 40
5.000000
 50
48.547337
 51
70.783336
  0
ARC
  8
OBRYS
 10
119.562680
 20
238.974359
 40
3.000000
 50
278.898853
 51
347.046120
  0
ARC
  8
OBRYS
 10
139.053697
 20
238.974359
 40
3.000000
 50
192.953880
 51
261.101147
  0
ARC
  8
OBRYS
 10
188.083807
 20
199.413668
 40
3.000000
 50
132.953880
 51
201.101147
  0
ARC
  8
OBRYS
 10
70.532570
 20
199.413668
 40
3.000000
 50
338.898853
 51
47.046120
  0
ARC
  8
OBRYS
 10
129.308189
 20
236.732692
 40
7.000000
 50
12.953880
 51
167.046120
  0
INSERT
  8
OBRYS
  2
_8
 62
     7
 10
857.286081
 20
176.732692
  0
INSERT
  8
OSA
  2
_9
  6
CONTINUOUS
 10
300.707303
 20
-83.556697
  0
INSERT
  8
OBRYS
  2
_10
 62
     7
 10
300.707303
 20
176.732692
  0
INSERT
  8
OSA
  2
_11
  6
CONTINUOUS
 10
300.707303
 20
387.430695
  0
TEXT
  8
NEVIDI
 62
     2
  6
CONTINUOUS
 10
308.929779
 20
540.857910
 40
15.000000
  1
MRP 60A - FT
 50
0.00
 51
0.00
 41
0.80
  0
INSERT
  8
OSA
  2
_12
  6
CONTINUOUS
 10
438.707303
 20
-83.556697
  0
INSERT
  8
OSA
  2
_13
  6
CONTINUOUS
 10
378.707303
 20
425.430695
  0
INSERT
  8
OSA
  2
_14
  6
CONTINUOUS
 10
438.707303
 20
387.430695
  0
INSERT
  8
OSA
  2
_15
  6
CONTINUOUS
 10
129.308189
 20
176.732692
  0
INSERT
  8
OBRYS
  2
_16
 62
     7
 10
378.707303
 20
116.732692
  0
LINE
  8
OBRYS
 10
300.707303
 20
216.186139
 11
300.707303
 21
137.279245
  0
LINE
  8
OBRYS
 10
857.286081
 20
216.186139
 11
857.286081
 21
137.279245
  0
LINE
  8
0
 62
     2
 10
300.707303
 20
216.186139
 11
328.600313
 21
216.186139
  0
LINE
  8
0
 62
     2
 10
329.530901
 20
215.415160
 11
300.707303
 21
215.415160
  0
LINE
  8
0
 62
     2
 10
329.767195
 20
198.672002
 11
300.707303
 21
198.672002
  0
LINE
  8
0
 62
     2
 10
329.583704
 20
193.475850
 11
300.707303
 21
193.475850
  0
LINE
  8
OBRYS
 10
336.420900
 20
211.732692
 11
420.993707
 21
211.732692
  0
LINE
  8
0
 62
     2
 10
336.420900
 20
172.516741
 11
336.420900
 21
211.732692
  0
LINE
  8
0
 62
     2
 10
336.420900
 20
211.732692
 11
328.707303
 21
216.186139
  0
POLYLINE
  8
0
 62
     2
 66
    1
  0
VERTEX
  8
0
 62
     2
 10
328.707275
 20
216.186127
  0
VERTEX
  8
0
 62
     2
 10
328.600342
 20
216.186127
  0
VERTEX
  8
0
 62
     2
 10
328.842712
 20
215.925354
  0
VERTEX
  8
0
 62
     2
 10
329.530884
 20
215.415161
  0
VERTEX
  8
0
 62
     2
 10
333.023376
 20
212.984039
  0
VERTEX
  8
0
 62
     2
 10
335.897827
 20
209.347504
  0
VERTEX
  8
0
 62
     2
 10
336.290833
 20
205.896576
  0
VERTEX
  8
0
 62
     2
 10
334.282410
 20
202.354462
  0
VERTEX
  8
0
 62
     2
 10
329.767212
 20
198.671997
  0
VERTEX
  8
0
 62
     2
 10
329.550049
 20
198.381531
  0
VERTEX
  8
0
 62
     2
 10
328.972656
 20
197.934723
  0
VERTEX
  8
0
 62
     2
 10
328.449158
 20
197.002563
  0
VERTEX
  8
0
 62
     2
 10
328.377686
 20
195.916260
  0
VERTEX
  8
0
 62
     2
 10
328.761475
 20
194.723328
  0
VERTEX
  8
0
 62
     2
 10
329.583679
 20
193.475861
  0
VERTEX
  8
0
 62
     2
 10
331.426147
 20
191.230164
  0
VERTEX
  8
0
 62
     2
 10
335.233276
 20
183.694641
  0
VERTEX
  8
0
 62
     2
 10
336.420898
 20
176.732697
  0
VERTEX
  8
0
 62
     2
 10
335.592957
 20
171.879333
  0
SEQEND
  8
0
  0
POLYLINE
  8
0
 62
     2
 66
    1
  0
VERTEX
  8
0
 62
     2
 10
428.707275
 20
216.186127
  0
VERTEX
  8
0
 62
     2
 10
428.814270
 20
216.186127
  0
VERTEX
  8
0
 62
     2
 10
428.571899
 20
215.925354
  0
VERTEX
  8
0
 62
     2
 10
427.883728
 20
215.415161
  0
VERTEX
  8
0
 62
     2
 10
424.391174
 20
212.984039
  0
VERTEX
  8
0
 62
     2
 10
421.516785
 20
209.347504
  0
VERTEX
  8
0
 62
     2
 10
421.123779
 20
205.896576
  0
VERTEX
  8
0
 62
     2
 10
423.132202
 20
202.354462
  0
VERTEX
  8
0
 62
     2
 10
427.647400
 20
198.671997
  0
VERTEX
  8
0
 62
     2
 10
427.864563
 20
198.381531
  0
VERTEX
  8
0
 62
     2
 10
428.441956
 20
197.934723
  0
VERTEX
  8
0
 62
     2
 10
428.965454
 20
197.002563
  0
VERTEX
  8
0
 62
     2
 10
429.036926
 20
195.916260
  0
VERTEX
  8
0
 62
     2
 10
428.653137
 20
194.723328
  0
VERTEX
  8
0
 62
     2
 10
427.830933
 20
193.475861
  0
VERTEX
  8
0
 62
     2
 10
425.988464
 20
191.230164
  0
VERTEX
  8
0
 62
     2
 10
422.181335
 20
183.694641
  0
VERTEX
  8
0
 62
     2
 10
420.993713
 20
176.732697
  0
VERTEX
  8
0
 62
     2
 10
421.821655
 20
171.879333
  0
SEQEND
  8
0
  0
LINE
  8
0
 62
     2
 10
420.993707
 20
172.516741
 11
420.993707
 21
211.732692
  0
LINE
  8
0
 62
     2
 10
427.883705
 20
215.415160
 11
453.707303
 21
215.415160
  0
LINE
  8
0
 62
     2
 10
453.707303
 20
216.186139
 11
428.814293
 21
216.186139
  0
LINE
  8
0
 62
     2
 10
427.647411
 20
198.672002
 11
453.707303
 21
198.672002
  0
LINE
  8
0
 62
     2
 10
427.830902
 20
193.475850
 11
453.707303
 21
193.475850
  0
LINE
  8
0
 62
     2
 10
420.993707
 20
211.732692
 11
428.707303
 21
216.186139
  0
LINE
  8
0
 62
     2
 10
300.707303
 20
137.279245
 11
311.790645
 21
137.279245
  0
LINE
  8
0
 62
     2
 10
312.032249
 20
138.050224
 11
300.707303
 21
138.050224
  0
LINE
  8
0
 62
     2
 10
319.958823
 20
154.793382
 11
300.707303
 21
154.793382
  0
LINE
  8
0
 62
     2
 10
323.672354
 20
159.989534
 11
300.707303
 21
159.989534
  0
LINE
  8
0
 62
     2
 10
453.707303
 20
137.279245
 11
445.623961
 21
137.279245
  0
LINE
  8
OBRYS
 10
453.707303
 20
216.186139
 11
453.707303
 21
137.279245
  0
LINE
  8
0
 62
     2
 10
445.382357
 20
138.050224
 11
453.707303
 21
138.050224
  0
LINE
  8
0
 62
     2
 10
437.455783
 20
154.793382
 11
453.707303
 21
154.793382
  0
LINE
  8
0
 62
     2
 10
433.742252
 20
159.989534
 11
453.707303
 21
159.989534
  0
LINE
  8
OSA
 10
452.707303
 20
176.732692
 11
300.957303
 21
176.732692
  0
ARC
  8
OBRYS
 10
779.286081
 20
116.732692
 40
52.500000
 50
39.140970
 51
50.859030
  0
ARC
  8
OBRYS
 10
779.286081
 20
116.732692
 40
52.500000
 50
309.140970
 51
320.859030
  0
ARC
  8
OBRYS
 10
779.286081
 20
116.732692
 40
52.500000
 50
219.140970
 51
230.859030
  0
ARC
  8
OBRYS
 10
733.451674
 20
97.747459
 40
10.000000
 50
343.017446
 51
61.982554
  0
ARC
  8
OBRYS
 10
733.451674
 20
135.717925
 40
10.000000
 50
298.017446
 51
16.982554
  0
ARC
  8
OBRYS
 10
760.300848
 20
162.567099
 40
10.000000
 50
253.017446
 51
331.982554
  0
ARC
  8
OBRYS
 10
798.271314
 20
162.567099
 40
10.000000
 50
208.017446
 51
286.982554
  0
ARC
  8
OBRYS
 10
825.120488
 20
135.717925
 40
10.000000
 50
163.017446
 51
241.982554
  0
ARC
  8
OBRYS
 10
825.120488
 20
97.747459
 40
10.000000
 50
118.017446
 51
196.982554
  0
ARC
  8
OBRYS
 10
798.271314
 20
70.898285
 40
10.000000
 50
73.017446
 51
151.982554
  0
ARC
  8
OBRYS
 10
760.300848
 20
70.898285
 40
10.000000
 50
28.017446
 51
106.982554
  0
ARC
  8
OBRYS
 10
779.286081
 20
116.732692
 40
35.000000
 50
196.086067
 51
253.913933
  0
ARC
  8
OBRYS
 10
779.286081
 20
116.732692
 40
35.000000
 50
106.086067
 51
163.913933
  0
ARC
  8
OBRYS
 10
779.286081
 20
116.732692
 40
35.000000
 50
16.086067
 51
73.913933
  0
ARC
  8
OBRYS
 10
779.286081
 20
116.732692
 40
35.000000
 50
286.086067
 51
343.913933
  0
INSERT
  8
OBRYS
 66
     1
  2
Vnitrni_metricky_zavit_M8_17
 62
     7
 10
809.338119
 20
86.680654
  0
ATTRIB
  8
OBRYS
 10
0.000000
 20
0.000000
 40
3.500000
  1
CSN 02 1034
  2
norma roz.
 70
     1
  0
ATTRIB
  8
OBRYS
 10
0.000000
 20
0.000000
 40
3.500000
  1
1.25
  2
roztec
 70
     1
  0
ATTRIB
  8
OBRYS
 10
0.000000
 20
0.000000
 40
3.500000
  1
*NB
  2
puvod
 70
     1
  0
ATTRIB
  8
OBRYS
 10
0.000000
 20
0.000000
 40
3.500000
  1
02 1034
  2
tridici znak
 70
     1
  0
SEQEND
  8
OBRYS
  0
INSERT
  8
OBRYS
 66
     1
  2
Vnitrni_metricky_zavit_M8_18
 62
     7
 10
749.234043
 20
86.680654
  0
ATTRIB
  8
OBRYS
 10
0.000000
 20
0.000000
 40
3.500000
  1
CSN 02 1034
  2
norma roz.
 70
     1
  0
ATTRIB
  8
OBRYS
 10
0.000000
 20
0.000000
 40
3.500000
  1
1.25
  2
roztec
 70
     1
  0
ATTRIB
  8
OBRYS
 10
0.000000
 20
0.000000
 40
3.500000
  1
*NB
  2
puvod
 70
     1
  0
ATTRIB
  8
OBRYS
 10
0.000000
 20
0.000000
 40
3.500000
  1
02 1034
  2
tridici znak
 70
     1
  0
SEQEND
  8
OBRYS
  0
INSERT
  8
OBRYS
 66
     1
  2
Vnitrni_metricky_zavit_M8_19
 62
     7
 10
749.234043
 20
146.784730
  0
ATTRIB
  8
OBRYS
 10
0.000000
 20
0.000000
 40
3.500000
  1
CSN 02 1034
  2
norma roz.
 70
     1
  0
ATTRIB
  8
OBRYS
 10
0.000000
 20
0.000000
 40
3.500000
  1
1.25
  2
roztec
 70
     1
  0
ATTRIB
  8
OBRYS
 10
0.000000
 20
0.000000
 40
3.500000
  1
*NB
  2
puvod
 70
     1
  0
ATTRIB
  8
OBRYS
 10
0.000000
 20
0.000000
 40
3.500000
  1
02 1034
  2
tridici znak
 70
     1
  0
SEQEND
  8
OBRYS
  0
INSERT
  8
OBRYS
 66
     1
  2
Vnitrni_metricky_zavit_M8_20
 62
     7
 10
809.338119
 20
146.784730
  0
ATTRIB
  8
OBRYS
 10
0.000000
 20
0.000000
 40
3.500000
  1
CSN 02 1034
  2
norma roz.
 70
     1
  0
ATTRIB
  8
OBRYS
 10
0.000000
 20
0.000000
 40
3.500000
  1
1.25
  2
roztec
 70
     1
  0
ATTRIB
  8
OBRYS
 10
0.000000
 20
0.000000
 40
3.500000
  1
*NB
  2
puvod
 70
     1
  0
ATTRIB
  8
OBRYS
 10
0.000000
 20
0.000000
 40
3.500000
  1
02 1034
  2
tridici znak
 70
     1
  0
SEQEND
  8
OBRYS
  0
CIRCLE
  8
OBRYS
 10
779.286081
 20
116.732692
 40
70.000000
  0
CIRCLE
  8
OSA
 10
779.286081
 20
116.732692
 40
42.500000
  0
CIRCLE
  8
OBRYS
 10
779.286081
 20
116.732692
 40
27.500000
  0
LINE
  8
OSA
 10
779.286081
 20
116.732692
 11
699.286081
 21
116.732692
  0
LINE
  8
OSA
 10
779.286081
 20
116.732692
 11
859.286081
 21
116.732692
  0
LINE
  8
OSA
 10
705.286081
 20
176.732692
 11
857.036081
 21
176.732692
  0
ARC
  8
OBRYS
 10
739.795398
 20
164.528988
 40
3.000000
 50
129.564503
 51
236.737086
  0
ARC
  8
OBRYS
 10
702.918548
 20
193.100224
 40
75.000000
 50
331.982554
 51
348.262914
  0
ARC
  8
OBRYS
 10
773.413126
 20
178.453907
 40
3.000000
 50
348.262914
 51
95.435497
  0
ARC
  8
OBRYS
 10
855.653613
 20
193.100224
 40
75.000000
 50
191.737086
 51
208.017446
  0
ARC
  8
OBRYS
 10
785.159036
 20
178.453907
 40
3.000000
 50
84.564503
 51
191.737086
  0
ARC
  8
OBRYS
 10
818.776764
 20
164.528988
 40
3.000000
 50
303.262914
 51
50.435497
  0
ARC
  8
OBRYS
 10
731.489785
 20
156.223375
 40
3.000000
 50
33.262914
 51
140.435497
  0
ARC
  8
OBRYS
 10
702.918548
 20
193.100224
 40
75.000000
 50
281.737086
 51
298.017446
  0
ARC
  8
OBRYS
 10
779.286081
 20
116.732692
 40
65.000000
 50
140.435497
 51
174.564503
  0
ARC
  8
OBRYS
 10
717.564866
 20
122.605647
 40
3.000000
 50
174.564503
 51
281.737086
  0
ARC
  8
OBRYS
 10
702.918548
 20
40.365160
 40
75.000000
 50
61.982554
 51
78.262914
  0
ARC
  8
OBRYS
 10
717.564866
 20
110.859737
 40
3.000000
 50
78.262914
 51
185.435497
  0
ARC
  8
OBRYS
 10
779.286081
 20
116.732692
 40
65.000000
 50
185.435497
 51
219.564503
  0
ARC
  8
OBRYS
 10
731.489785
 20
77.242009
 40
3.000000
 50
219.564503
 51
326.737086
  0
ARC
  8
OBRYS
 10
739.795398
 20
68.936396
 40
3.000000
 50
123.262914
 51
230.435497
  0
ARC
  8
OBRYS
 10
702.918548
 20
40.365160
 40
75.000000
 50
11.737086
 51
28.017446
  0
ARC
  8
OBRYS
 10
779.286081
 20
116.732692
 40
65.000000
 50
230.435497
 51
264.564503
  0
ARC
  8
OBRYS
 10
773.413126
 20
55.011477
 40
3.000000
 50
264.564503
 51
11.737086
  0
ARC
  8
OBRYS
 10
855.653613
 20
40.365160
 40
75.000000
 50
151.982554
 51
168.262914
  0
ARC
  8
OBRYS
 10
785.159036
 20
55.011477
 40
3.000000
 50
168.262914
 51
275.435497
  0
ARC
  8
OBRYS
 10
779.286081
 20
116.732692
 40
65.000000
 50
275.435497
 51
309.564503
  0
ARC
  8
OBRYS
 10
818.776764
 20
68.936396
 40
3.000000
 50
309.564503
 51
56.737086
  0
ARC
  8
OBRYS
 10
827.082377
 20
77.242009
 40
3.000000
 50
213.262914
 51
320.435497
  0
ARC
  8
OBRYS
 10
855.653613
 20
40.365160
 40
75.000000
 50
101.737086
 51
118.017446
  0
ARC
  8
OBRYS
 10
779.286081
 20
116.732692
 40
65.000000
 50
320.435497
 51
354.564503
  0
ARC
  8
OBRYS
 10
841.007296
 20
110.859737
 40
3.000000
 50
354.564503
 51
101.737086
  0
ARC
  8
OBRYS
 10
855.653613
 20
193.100224
 40
75.000000
 50
241.982554
 51
258.262914
  0
ARC
  8
OBRYS
 10
841.007296
 20
122.605647
 40
3.000000
 50
258.262914
 51
5.435497
  0
ARC
  8
OBRYS
 10
779.286081
 20
116.732692
 40
65.000000
 50
5.435497
 51
39.564503
  0
ARC
  8
OBRYS
 10
827.082377
 20
156.223375
 40
3.000000
 50
39.564503
 51
146.737086
  0
INSERT
  8
OBRYS
 66
     1
  2
Vnitrni_metricky_zavit_M8_21
 62
     7
 10
779.286081
 20
159.232692
  0
ATTRIB
  8
OBRYS
 10
0.000000
 20
0.000000
 40
3.500000
  1
CSN 02 1034
  2
norma roz.
 70
     1
  0
ATTRIB
  8
OBRYS
 10
0.000000
 20
0.000000
 40
3.500000
  1
1.25
  2
roztec
 70
     1
  0
ATTRIB
  8
OBRYS
 10
0.000000
 20
0.000000
 40
3.500000
  1
*NB
  2
puvod
 70
     1
  0
ATTRIB
  8
OBRYS
 10
0.000000
 20
0.000000
 40
3.500000
  1
02 1034
  2
tridici znak
 70
     1
  0
SEQEND
  8
OBRYS
  0
INSERT
  8
OBRYS
 66
     1
  2
Vnitrni_metricky_zavit_M8_22
 62
     7
 10
736.786081
 20
116.732692
  0
ATTRIB
  8
OBRYS
 10
0.000000
 20
0.000000
 40
3.500000
  1
CSN 02 1034
  2
norma roz.
 70
     1
  0
ATTRIB
  8
OBRYS
 10
0.000000
 20
0.000000
 40
3.500000
  1
1.25
  2
roztec
 70
     1
  0
ATTRIB
  8
OBRYS
 10
0.000000
 20
0.000000
 40
3.500000
  1
*NB
  2
puvod
 70
     1
  0
ATTRIB
  8
OBRYS
 10
0.000000
 20
0.000000
 40
3.500000
  1
02 1034
  2
tridici znak
 70
     1
  0
SEQEND
  8
OBRYS
  0
INSERT
  8
OBRYS
 66
     1
  2
Vnitrni_metricky_zavit_M8_23
 62
     7
 10
779.286081
 20
74.232692
  0
ATTRIB
  8
OBRYS
 10
0.000000
 20
0.000000
 40
3.500000
  1
CSN 02 1034
  2
norma roz.
 70
     1
  0
ATTRIB
  8
OBRYS
 10
0.000000
 20
0.000000
 40
3.500000
  1
1.25
  2
roztec
 70
     1
  0
ATTRIB
  8
OBRYS
 10
0.000000
 20
0.000000
 40
3.500000
  1
*NB
  2
puvod
 70
     1
  0
ATTRIB
  8
OBRYS
 10
0.000000
 20
0.000000
 40
3.500000
  1
02 1034
  2
tridici znak
 70
     1
  0
SEQEND
  8
OBRYS
  0
INSERT
  8
OBRYS
 66
     1
  2
Vnitrni_metricky_zavit_M8_24
 62
     7
 10
821.786081
 20
116.732692
  0
ATTRIB
  8
OBRYS
 10
0.000000
 20
0.000000
 40
3.500000
  1
CSN 02 1034
  2
norma roz.
 70
     1
  0
ATTRIB
  8
OBRYS
 10
0.000000
 20
0.000000
 40
3.500000
  1
1.25
  2
roztec
 70
     1
  0
ATTRIB
  8
OBRYS
 10
0.000000
 20
0.000000
 40
3.500000
  1
*NB
  2
puvod
 70
     1
  0
ATTRIB
  8
OBRYS
 10
0.000000
 20
0.000000
 40
3.500000
  1
02 1034
  2
tridici znak
 70
     1
  0
SEQEND
  8
OBRYS
  0
ARC
  8
OBRYS
 10
779.286081
 20
116.732692
 40
65.000000
 50
50.435497
 51
84.564503
  0
ARC
  8
OBRYS
 10
779.286081
 20
116.732692
 40
65.000000
 50
88.025161
 51
91.974839
  0
ARC
  8
OBRYS
 10
779.286081
 20
116.732692
 40
65.000000
 50
95.435498
 51
129.564503
  0
ARC
  8
OBRYS
 10
779.286081
 20
116.732692
 40
65.000000
 50
133.025161
 51
136.974839
  0
ARC
  8
OBRYS
 10
779.286081
 20
116.732692
 40
65.000000
 50
178.025161
 51
181.974839
  0
ARC
  8
OBRYS
 10
779.286081
 20
116.732692
 40
65.000000
 50
223.025161
 51
226.974839
  0
ARC
  8
OBRYS
 10
779.286081
 20
116.732692
 40
65.000000
 50
268.025161
 51
271.974839
  0
ARC
  8
OBRYS
 10
779.286081
 20
116.732692
 40
65.000000
 50
313.025161
 51
316.974839
  0
ARC
  8
OBRYS
 10
779.286081
 20
116.732692
 40
65.000000
 50
358.025161
 51
1.974839
  0
ARC
  8
OBRYS
 10
779.286081
 20
116.732692
 40
65.000000
 50
43.025161
 51
46.974839
  0
LINE
  8
OSA
 10
779.286081
 20
229.232692
 11
779.286081
 21
42.789245
  0
ARC
  8
OBRYS
 10
779.286081
 20
116.732692
 40
52.500000
 50
129.140970
 51
140.859030
  0
ARC
  8
OBRYS
 10
877.286081
 20
116.732692
 40
65.000000
 50
163.017446
 51
196.982554
  0
ARC
  8
OBRYS
 10
887.286081
 20
116.732692
 40
75.000000
 50
146.737086
 51
163.017446
  0
ARC
  8
OBRYS
 10
887.286081
 20
116.732692
 40
75.000000
 50
196.982554
 51
213.262914
  0
ARC
  8
OBRYS
 10
779.286081
 20
224.732692
 40
75.000000
 50
236.737086
 51
253.017447
  0
ARC
  8
OBRYS
 10
779.286081
 20
224.732692
 40
75.000000
 50
286.982554
 51
303.262914
  0
ARC
  8
OBRYS
 10
671.286081
 20
116.732692
 40
75.000000
 50
326.737086
 51
343.017446
  0
ARC
  8
OBRYS
 10
671.286081
 20
116.732692
 40
75.000000
 50
16.982553
 51
33.262914
  0
ARC
  8
OBRYS
 10
779.286081
 20
8.732692
 40
75.000000
 50
56.737086
 51
73.017446
  0
ARC
  8
OBRYS
 10
779.286081
 20
8.732692
 40
75.000000
 50
106.982554
 51
123.262914
  0
ARC
  8
OBRYS
 10
779.286081
 20
214.732692
 40
65.000000
 50
253.017446
 51
286.982554
  0
ARC
  8
OBRYS
 10
681.286081
 20
116.732692
 40
65.000000
 50
343.017446
 51
16.982554
  0
ARC
  8
OBRYS
 10
779.286081
 20
18.732692
 40
65.000000
 50
73.017446
 51
106.982554
  0
ARC
  8
OBRYS
 10
779.286081
 20
116.732692
 40
59.000000
 50
356.667258
 51
3.332742
  0
ARC
  8
OBRYS
 10
779.286081
 20
116.732692
 40
59.000000
 50
86.667258
 51
93.332742
  0
ARC
  8
OBRYS
 10
779.286081
 20
116.732692
 40
59.000000
 50
176.667258
 51
183.332742
  0
ARC
  8
OBRYS
 10
779.286081
 20
116.732692
 40
59.000000
 50
266.667258
 51
273.332742
  0
LINE
  8
0
 62
     2
 10
724.251132
 20
159.989534
 11
704.286081
 21
159.989534
  0
LINE
  8
0
 62
     2
 10
720.537601
 20
154.793382
 11
704.286081
 21
154.793382
  0
LINE
  8
0
 62
     2
 10
712.611027
 20
138.050224
 11
704.286081
 21
138.050224
  0
LINE
  8
OBRYS
 10
704.286081
 20
216.186139
 11
704.286081
 21
137.279245
  0
LINE
  8
0
 62
     2
 10
704.286081
 20
137.279245
 11
712.369423
 21
137.279245
  0
LINE
  8
0
 62
     2
 10
834.321030
 20
159.989534
 11
857.286081
 21
159.989534
  0
LINE
  8
0
 62
     2
 10
838.034561
 20
154.793382
 11
857.286081
 21
154.793382
  0
LINE
  8
0
 62
     2
 10
845.961135
 20
138.050224
 11
857.286081
 21
138.050224
  0
LINE
  8
OBRYS
 10
857.286081
 20
216.186139
 11
857.286081
 21
137.279245
  0
LINE
  8
0
 62
     2
 10
857.286081
 20
137.279245
 11
846.202739
 21
137.279245
  0
LINE
  8
0
 62
     2
 10
736.999677
 20
211.732692
 11
729.286081
 21
216.186139
  0
LINE
  8
0
 62
     2
 10
730.162481
 20
193.475850
 11
704.286081
 21
193.475850
  0
LINE
  8
0
 62
     2
 10
730.345973
 20
198.672002
 11
704.286081
 21
198.672002
  0
LINE
  8
0
 62
     2
 10
704.286081
 20
216.186139
 11
729.179090
 21
216.186139
  0
LINE
  8
0
 62
     2
 10
730.109679
 20
215.415160
 11
704.286081
 21
215.415160
  0
LINE
  8
0
 62
     2
 10
736.999677
 20
172.516741
 11
736.999677
 21
211.732692
  0
POLYLINE
  8
0
 62
     2
 66
    1
  0
VERTEX
  8
0
 62
     2
 10
729.286133
 20
216.186127
  0
VERTEX
  8
0
 62
     2
 10
729.179138
 20
216.186127
  0
VERTEX
  8
0
 62
     2
 10
729.421509
 20
215.925354
  0
VERTEX
  8
0
 62
     2
 10
730.109680
 20
215.415161
  0
VERTEX
  8
0
 62
     2
 10
733.602234
 20
212.984039
  0
VERTEX
  8
0
 62
     2
 10
736.476624
 20
209.347504
  0
VERTEX
  8
0
 62
     2
 10
736.869629
 20
205.896576
  0
VERTEX
  8
0
 62
     2
 10
734.861206
 20
202.354462
  0
VERTEX
  8
0
 62
     2
 10
730.346008
 20
198.671997
  0
VERTEX
  8
0
 62
     2
 10
730.128845
 20
198.381531
  0
VERTEX
  8
0
 62
     2
 10
729.551453
 20
197.934723
  0
VERTEX
  8
0
 62
     2
 10
729.027954
 20
197.002563
  0
VERTEX
  8
0
 62
     2
 10
728.956482
 20
195.916260
  0
VERTEX
  8
0
 62
     2
 10
729.340271
 20
194.723328
  0
VERTEX
  8
0
 62
     2
 10
730.162476
 20
193.475861
  0
VERTEX
  8
0
 62
     2
 10
732.004944
 20
191.230164
  0
VERTEX
  8
0
 62
     2
 10
735.812073
 20
183.694641
  0
VERTEX
  8
0
 62
     2
 10
736.999695
 20
176.732697
  0
VERTEX
  8
0
 62
     2
 10
736.171753
 20
171.879333
  0
SEQEND
  8
0
  0
POLYLINE
  8
0
 62
     2
 66
    1
  0
VERTEX
  8
0
 62
     2
 10
829.286133
 20
216.186127
  0
VERTEX
  8
0
 62
     2
 10
829.393066
 20
216.186127
  0
VERTEX
  8
0
 62
     2
 10
829.150696
 20
215.925354
  0
VERTEX
  8
0
 62
     2
 10
828.462524
 20
215.415161
  0
VERTEX
  8
0
 62
     2
 10
824.970032
 20
212.984039
  0
VERTEX
  8
0
 62
     2
 10
822.095581
 20
209.347504
  0
VERTEX
  8
0
 62
     2
 10
821.702576
 20
205.896576
  0
VERTEX
  8
0
 62
     2
 10
823.710999
 20
202.354462
  0
VERTEX
  8
0
 62
     2
 10
828.226196
 20
198.671997
  0
VERTEX
  8
0
 62
     2
 10
828.443359
 20
198.381531
  0
VERTEX
  8
0
 62
     2
 10
829.020752
 20
197.934723
  0
VERTEX
  8
0
 62
     2
 10
829.544250
 20
197.002563
  0
VERTEX
  8
0
 62
     2
 10
829.615723
 20
195.916260
  0
VERTEX
  8
0
 62
     2
 10
829.231934
 20
194.723328
  0
VERTEX
  8
0
 62
     2
 10
828.409729
 20
193.475861
  0
VERTEX
  8
0
 62
     2
 10
826.567261
 20
191.230164
  0
VERTEX
  8
0
 62
     2
 10
822.760132
 20
183.694641
  0
VERTEX
  8
0
 62
     2
 10
821.572510
 20
176.732697
  0
VERTEX
  8
0
 62
     2
 10
822.400452
 20
171.879333
  0
SEQEND
  8
0
  0
LINE
  8
0
 62
     2
 10
821.572484
 20
211.732692
 11
829.286081
 21
216.186139
  0
LINE
  8
0
 62
     2
 10
821.572484
 20
172.516741
 11
821.572484
 21
211.732692
  0
LINE
  8
OBRYS
 10
821.572484
 20
211.732692
 11
736.999677
 21
211.732692
  0
LINE
  8
0
 62
     2
 10
828.409680
 20
193.475850
 11
857.286081
 21
193.475850
  0
LINE
  8
0
 62
     2
 10
828.226189
 20
198.672002
 11
857.286081
 21
198.672002
  0
LINE
  8
0
 62
     2
 10
828.462482
 20
215.415160
 11
857.286081
 21
215.415160
  0
LINE
  8
0
 62
     2
 10
857.286081
 20
216.186139
 11
829.393071
 21
216.186139
  0
LINE
  8
OBRYS
 10
779.286081
 20
132.532692
 11
783.286081
 21
132.532692
  0
ARC
  8
OBRYS
 10
779.286081
 20
116.732692
 40
12.500000
 50
108.662925
 51
71.337075
  0
LINE
  8
OBRYS
 10
783.286081
 20
132.532692
 11
783.286081
 21
128.575411
  0
LINE
  8
OBRYS
 10
779.286081
 20
132.532692
 11
775.286081
 21
132.532692
  0
LINE
  8
OBRYS
 10
775.286081
 20
132.532692
 11
775.286081
 21
128.575411
  0
CIRCLE
  8
OBRYS
 10
779.286081
 20
116.732692
 40
20.000000
  0
CIRCLE
  8
OBRYS
 10
779.286081
 20
116.732692
 40
27.500000
  0
LINE
  8
OSA
 10
779.286081
 20
116.732692
 11
815.882689
 21
153.329300
  0
LINE
  8
OSA
 10
779.286081
 20
116.732692
 11
814.639521
 21
81.379252
  0
LINE
  8
OSA
 10
779.286081
 20
116.732692
 11
742.940021
 21
80.386632
  0
LINE
  8
OSA
 10
779.286081
 20
116.732692
 11
742.685236
 21
153.333537
  0
LINE
  8
OBRYS
 10
857.286081
 20
176.732692
 11
857.286081
 21
216.219008
  0
LINE
  8
OBRYS
 10
857.286081
 20
176.732692
 11
857.286081
 21
137.246376
  0
INSERT
  8
OSA
  2
_25
  6
CONTINUOUS
 10
378.707303
 20
-121.556697
  0
INSERT
  8
OSA
  2
_26
  6
CONTINUOUS
 10
91.308189
 20
116.732692
  0
LINE
  8
OSA
 10
378.707303
 20
116.732692
 11
458.707303
 21
116.732692
  0
LINE
  8
OSA
 10
378.707303
 20
116.732692
 11
298.707303
 21
116.732692
  0
LINE
  8
OSA
 10
378.707303
 20
229.232692
 11
378.707303
 21
42.789245
  0
LINE
  8
OBRYS
 10
300.707303
 20
176.732692
 11
300.707303
 21
137.246376
  0
LINE
  8
OBRYS
 10
300.707303
 20
176.732692
 11
300.707303
 21
216.219008
  0
LINE
  8
OSA
 10
280.707303
 20
176.732692
 11
309.525723
 21
176.732692
  0
INSERT
  8
OBRYS
 66
     1
  2
M10x1_27
 62
     7
 10
129.308189
 20
54.732692
  0
ATTRIB
  8
0
 62
     2
 10
0.000000
 20
0.000000
 40
3.749998
  1
DIN 908
  2
norma roz.
 70
     1
  0
SEQEND
  8
OBRYS
  0
ENDSEC
  0
EOF

