  0
SECTION
  2
HEADER
  9
$ACADVER
  1
AC1009
  9
$INSBASE
 10
0.0
 20
0.0
 30
0.0
  9
$LIMMIN
 10
0.0
 20
0.0
  9
$LIMMAX
 10
430.0000
 20
307.0000
  9
$EXTMIN
 10
99999999999999998000000000000000000000.0000
 20
99999999999999998000000000000000000000.0000
  9
$EXTMAX
 10
99999999999999998000000000000000000000.0000
 20
99999999999999998000000000000000000000.0000
  9
$VIEWCTR
 10
495.8638
 20
123.7096
  9
$VIEWSIZE
 40
1064.8555
  9
$DIMLFAC
 40
0.5000
  9
$MEASUREMENT
 70
     1
  9
$DWGCODEPAGE
 3
ANSI_1250
  9
$CLAYER
  8
OBRYS
  9
$CELTYPE
  6
BYLAYER
  9
$CECOLOR
 62
  256
  9
$ORTHOMODE
 70
     0
  9
$REGENMODE
 70
     1
  9
$FILLMODE
 70
     1
  9
$QTEXTMODE
 70
     0
  9
$MIRRTEXT
 70
     1
  9
$DRAGMODE
 70
     2
  9
$LTSCALE
 40
1.0
  9
$OSMODE
 70
    37
  9
$ATTMODE
 70
     1
  9
$TEXTSIZE
 40
2.5
  9
$TRACEWID
 40
1.0
  9
$TEXTSTYLE
  7
STANDARD
  9
$CLAYER
  8
0
  9
$CELTYPE
  6
BYLAYER
  9
$CECOLOR
 62
   256
  9
$DIMSCALE
 40
1.0
  9
$DIMASZ
 40
2.5
  9
$DIMEXO
 40
0.625
  9
$DIMDLI
 40
3.75
  9
$DIMRND
 40
0.0
  9
$DIMDLE
 40
0.0
  9
$DIMEXE
 40
1.25
  9
$DIMTP
 40
0.0
  9
$DIMTM
 40
0.0
  9
$DIMTXT
 40
2.5
  9
$DIMCEN
 40
2.5
  9
$DIMTSZ
 40
0.0
  9
$DIMTOL
 70
     0
  9
$DIMLIM
 70
     0
  9
$DIMTIH
 70
     0
  9
$DIMTOH
 70
     0
  9
$DIMSE1
 70
     0
  9
$DIMSE2
 70
     0
  9
$DIMTAD
 70
     1
  9
$DIMZIN
 70
     8
  9
$DIMBLK
  1

  9
$DIMASO
 70
     1
  9
$DIMSHO
 70
     1
  9
$DIMPOST
  1

  9
$DIMAPOST
  1

  9
$DIMALT
 70
     0
  9
$DIMALTD
 70
     3
  9
$DIMALTF
 40
0.03937007874016
  9
$DIMTOFL
 70
     1
  9
$DIMTVP
 40
0.0
  9
$DIMTIX
 70
     0
  9
$DIMSOXD
 70
     0
  9
$DIMSAH
 70
     0
  9
$DIMBLK1
  1

  9
$DIMBLK2
  1

  9
$DIMSTYLE
  2
ISO-25
  9
$DIMCLRD
 70
     0
  9
$DIMCLRE
 70
     0
  9
$DIMCLRT
 70
     0
  9
$DIMTFAC
 40
1.0
  9
$DIMGAP
 40
0.625
  9
$LUNITS
 70
     2
  9
$LUPREC
 70
     4
  9
$SKETCHINC
 40
1.0
  9
$FILLETRAD
 40
10.0
  9
$AUNITS
 70
     0
  9
$AUPREC
 70
     0
  9
$MENU
  1
.
  9
$ELEVATION
 40
0.0
  9
$PELEVATION
 40
0.0
  9
$THICKNESS
 40
0.0
  9
$LIMCHECK
 70
     0
  9
$BLIPMODE
 70
     0
  9
$CHAMFERA
 40
10.0
  9
$CHAMFERB
 40
10.0
  9
$SKPOLY
 70
     0
  9
$TDCREATE
 40
2451579.5163292708
  9
$TDUPDATE
 40
2451579.6904035881
  9
$TDINDWG
 40
0.0082924769
  9
$TDUSRTIMER
 40
0.0082825116
  9
$USRTIMER
 70
     1
  9
$ANGBASE
 50
0.0
  9
$ANGDIR
 70
     0
  9
$PDMODE
 70
     0
  9
$PDSIZE
 40
0.0
  9
$PLINEWID
 40
0.0
  9
$COORDS
 70
     1
  9
$SPLFRAME
 70
     0
  9
$SPLINETYPE
 70
     6
  9
$SPLINESEGS
 70
     8
  9
$ATTDIA
 70
     0
  9
$ATTREQ
 70
     1
  9
$SURFTAB1
 70
     6
  9
$SURFTAB2
 70
     6
  9
$SURFTYPE
 70
     6
  9
$SURFU
 70
     6
  9
$SURFV
 70
     6
  9
$UCSNAME
  2

  9
$UCSORG
 10
0.0
 20
0.0
 30
0.0
  9
$UCSXDIR
 10
1.0
 20
0.0
 30
0.0
  9
$UCSYDIR
 10
0.0
 20
1.0
 30
0.0
  9
$PUCSNAME
  2

  9
$PUCSORG
 10
0.0
 20
0.0
 30
0.0
  9
$PUCSXDIR
 10
1.0
 20
0.0
 30
0.0
  9
$PUCSYDIR
 10
0.0
 20
1.0
 30
0.0
  9
$USERI1
 70
     0
  9
$USERI2
 70
     0
  9
$USERI3
 70
     0
  9
$USERI4
 70
     0
  9
$USERI5
 70
     0
  9
$USERR1
 40
0.0
  9
$USERR2
 40
0.0
  9
$USERR3
 40
0.0
  9
$USERR4
 40
0.0
  9
$USERR5
 40
0.0
  9
$WORLDVIEW
 70
     1
  9
$SHADEDGE
 70
     3
  9
$SHADEDIF
 70
    70
  9
$TILEMODE
 70
     1
  9
$MAXACTVP
 70
    64
  9
$PLIMCHECK
 70
     0
  9
$PEXTMIN
 10
1.0000000000000000E+020
 20
1.0000000000000000E+020
 30
1.0000000000000000E+020
  9
$PEXTMAX
 10
-1.0000000000000000E+020
 20
-1.0000000000000000E+020
 30
-1.0000000000000000E+020
  9
$PLIMMIN
 10
0.0
 20
0.0
  9
$PLIMMAX
 10
420.0
 20
297.0
  9
$UNITMODE
 70
     0
  9
$VISRETAIN
 70
     1
  9
$PLINEGEN
 70
     0
  9
$PSLTSCALE
 70
     1
  0
ENDSEC
  0
SECTION
  2
TABLES
  0
TABLE
  2
VPORT
 70
     2
  0
VPORT
  2
*ACTIVE
 70
     0
 10
0.0
 20
0.0
 11
1.0
 21
1.0
 12
495.8638
 22
123.7096
 13
0.0
 23
0.0
 14
10.0
 24
10.0
 15
10.0
 25
10.0
 16
0.0
 26
0.0
 36
1.0
 17
0.0
 27
0.0
 37
0.0
 40
1064.8555
 41
1.6916
 42
50.0
 43
0.0
 44
0.0
 50
0.0
 51
0.0
 71
     0
 72
   100
 73
     1
 74
     3
 75
     0
 76
     0
 77
     0
 78
     0
  0
ENDTAB
  0
TABLE
  2
LTYPE
 70
     7
  0
LTYPE
  2
CONTINUOUS
 70
     0
  3
Solid line
 72
    65
 73
     0
 40
0.0
  0
LTYPE
  2
HIDDEN2
 70
     0
  3
Hidden (.5x) _ _ _ _ _ _ _ _ _ _ _ _ _ _ _ _ _
 72
    65
 73
     2
 40
5.1
 49
3.5
 49
-1.6
  0
LTYPE
  2
DASHDOT
 70
     0
  3
Dash dot __ . __ . __ . __ . __ . __ . __ . __
 72
    65
 73
     4
 40
10.4
 49
6.2
 49
-2.1
 49
0.0
 49
-2.1
  0
LTYPE
  2
DOT
 70
     0
  3
Dot . . . . . . . . . . . . . . . . . . . . . .
 72
    65
 73
     2
 40
2.2
 49
1.1
 49
-1.1
  0
LTYPE
  2
DASHED
 70
     0
  3
Dashed __ __ __ __ __ __ __ __ __ __ __ __ __ _
 72
    65
 73
     2
 40
11.049999999999979
 49
8.699999999999999
 49
-2.3499999999999979
  0
LTYPE
  2
PHANTOM2
 70
     0
  3
Phantom (.5x) ___ _ _ ___ _ _ ___ _ _ ___ _ _
 72
    65
 73
     6
 40
18.3
 49
7.8
 49
-2.1
 49
2.1
 49
-2.1
 49
2.1
 49
-2.1
  0
LTYPE
  2
CENTER
 70
     0
  3
Center ____ _ ____ _ ____ _ ____ _ ____ _ ____
 72
    65
 73
     4
 40
14.1
 49
7.8
 49
-2.1
 49
2.1
 49
-2.1
  0
ENDTAB
  0
TABLE
  2
LAYER
 70
     8
  0
LAYER
  2
0
 70
    64
 62
     7
  6
CONTINUOUS
  0
LAYER
  2
OBRYS
 70
    64
 62
     2
  6
CONTINUOUS
  0
LAYER
  2
OSA
 70
    64
 62
     7
  6
DASHDOT
  0
LAYER
  2
KOTA
 70
    64
 62
     3
  6
CONTINUOUS
  0
LAYER
  2
SRAFY
 70
    64
 62
     7
  6
CONTINUOUS
  0
LAYER
  2
POMOC
 70
    64
 62
     5
  6
HIDDEN2
  0
LAYER
  2
NEVIDI
 70
    64
 62
     4
  6
DASHED
  0
LAYER
  2
TLUST_
 70
    64
 62
     1
  6
CONTINUOUS
  0
ENDTAB
  0
TABLE
  2
STYLE
 70
     1
  0
STYLE
  2
STANDARD
 70
     0
 40
0.0
 41
1.0
 50
0.0
 71
     0
 42
2.5
  3
txt
  4

  0
ENDTAB
  0
TABLE
  2
VIEW
 70
     0
  0
ENDTAB
  0
TABLE
  2
UCS
 70
     0
  0
ENDTAB
  0
TABLE
  2
APPID
 70
     1
  0
APPID
  2
ACAD
 70
     0
  0
ENDTAB
  0
TABLE
  2
DIMSTYLE
 70
     1
  0
DIMSTYLE
  2
ISO-25
 70
     0
  3

  4

  5

  6

  7

 40
1.0
 41
2.5
 42
0.625
 43
3.75
 44
1.25
 45
0.0
 46
0.0
 47
0.0
 48
0.0
140
2.5
141
2.5
142
0.0
143
0.03937007874016
144
1.0
145
0.0
146
1.0
147
0.625
 71
     0
 72
     0
 73
     0
 74
     0
 75
     0
 76
     0
 77
     1
 78
     8
170
     0
171
     3
172
     1
173
     0
174
     0
175
     0
176
     0
177
     0
178
     0
  0
ENDTAB
  0
ENDSEC
  0
SECTION
  2
BLOCKS
  0
BLOCK
  8
0
  2
$MODEL_SPACE
 70
     0
 10
0.0
 20
0.0
 30
0.0
  3
$MODEL_SPACE
  1

  0
ENDBLK
  8
0
  0
BLOCK
 67
     1
  8
0
  2
$PAPER_SPACE
 70
     0
 10
0.0
 20
0.0
 30
0.0
  3
$PAPER_SPACE
  1

  0
ENDBLK
 67
     1
  8
0
  0
BLOCK
  8
OBRYS
  2
_0
 70
   64
 10
378.707303
 20
-264.916596
  0
LINE
  8
OBRYS
 10
448.707303
 20
-278.077394
 11
448.707303
 21
-283.416596
  0
LINE
  8
OBRYS
 10
309.606903
 20
-271.916596
 11
311.137802
 21
-271.916596
  0
ARC
  8
OBRYS
 10
320.711929
 20
-270.374752
 40
3.000000
 50
180.000000
 51
225.949293
  0
LINE
  8
OBRYS
 10
326.590248
 20
-278.916596
 11
326.158153
 21
-278.806752
  0
LINE
  8
OBRYS
 10
326.158153
 20
-278.806752
 11
325.293700
 21
-278.615059
  0
LINE
  8
OBRYS
 10
325.293700
 20
-278.615059
 11
324.981074
 21
-278.388067
  0
LINE
  8
OBRYS
 10
324.981074
 20
-278.388067
 11
324.017701
 21
-277.746818
  0
LINE
  8
OBRYS
 10
324.017701
 20
-277.746818
 11
318.626045
 21
-272.530927
  0
LINE
  8
OBRYS
 10
317.711929
 20
-264.916596
 11
317.711929
 21
-270.374752
  0
ARC
  8
OBRYS
 10
314.291629
 20
-270.285583
 40
3.000000
 50
180.000000
 51
228.805294
  0
LINE
  8
OBRYS
 10
312.315770
 20
-272.543010
 11
318.261140
 21
-277.746818
  0
LINE
  8
OBRYS
 10
311.291629
 20
-270.285583
 11
311.291629
 21
-264.916596
  0
LINE
  8
OBRYS
 10
318.261140
 20
-277.746818
 11
319.325916
 21
-278.388067
  0
LINE
  8
OBRYS
 10
319.325916
 20
-278.388067
 11
319.720314
 21
-278.615059
  0
LINE
  8
OBRYS
 10
319.720314
 20
-278.615059
 11
320.810878
 21
-278.806752
  0
LINE
  8
OBRYS
 10
320.810878
 20
-278.806752
 11
321.474745
 21
-278.916596
  0
ARC
  8
OBRYS
 10
316.585765
 20
-275.916596
 40
3.000000
 50
230.000000
 51
270.000000
  0
LINE
  8
OBRYS
 10
309.778940
 20
-274.121213
 11
314.657402
 21
-278.214729
  0
ARC
  8
OBRYS
 10
311.707303
 20
-271.823080
 40
3.000000
 50
180.000000
 51
230.000000
  0
ARC
  8
OBRYS
 10
318.869429
 20
-273.916596
 40
5.000000
 50
230.000000
 51
270.000000
  0
LINE
  8
OBRYS
 10
310.493365
 20
-273.415280
 11
315.655491
 21
-277.746818
  0
ARC
  8
OBRYS
 10
313.707303
 20
-269.585057
 40
5.000000
 50
180.000000
 51
230.000000
  0
ARC
  8
OBRYS
 10
444.707303
 20
-283.416596
 40
4.000000
 50
270.000000
 51
360.000000
  0
LINE
  8
OBRYS
 10
444.707303
 20
-287.416596
 11
406.707303
 21
-287.416596
  0
LINE
  8
OBRYS
 62
     7
  6
DASHDOT
 10
426.207303
 20
-274.416596
 11
426.207303
 21
-287.416592
  0
LINE
  8
OBRYS
 62
     7
  6
DASHDOT
 10
426.207303
 20
-274.416596
 11
426.207303
 21
-261.416599
  0
LINE
  8
OBRYS
 62
     7
  6
DASHDOT
 10
331.207303
 20
-274.416596
 11
331.207303
 21
-261.416599
  0
LINE
  8
OBRYS
 62
     7
  6
DASHDOT
 10
331.207303
 20
-274.416596
 11
331.207303
 21
-287.416592
  0
LINE
  8
OBRYS
 62
     7
  6
DASHDOT
 10
331.207303
 20
-274.416596
 11
318.207307
 21
-274.416596
  0
LINE
  8
OBRYS
 62
     7
  6
DASHDOT
 10
331.207303
 20
-274.416596
 11
344.207299
 21
-274.416596
  0
LINE
  8
OBRYS
 10
312.707303
 20
-287.416596
 11
350.707303
 21
-287.416596
  0
ARC
  8
OBRYS
 10
312.707303
 20
-283.416596
 40
4.000000
 50
180.000000
 51
270.000000
  0
LINE
  8
OBRYS
 10
308.707303
 20
-264.916596
 11
308.707303
 21
-283.416596
  0
ARC
  8
OBRYS
 10
350.707303
 20
-283.416596
 40
4.000000
 50
270.000000
 51
333.121958
  0
ARC
  8
OBRYS
 10
406.707303
 20
-283.416596
 40
4.000000
 50
186.902240
 51
270.000000
  0
LINE
  8
OBRYS
 10
440.828841
 20
-278.916596
 11
412.762816
 21
-278.916596
  0
LINE
  8
OBRYS
 10
316.585765
 20
-278.916596
 11
340.651790
 21
-278.916596
  0
LINE
  8
OBRYS
 10
319.091014
 20
-271.916596
 11
330.979850
 21
-271.916596
  0
LINE
  8
OBRYS
 10
308.707303
 20
-264.916596
 11
323.943679
 21
-264.916596
  0
ARC
  8
OBRYS
 62
     4
  6
DASHED
 10
331.207303
 20
-274.416596
 40
5.500000
 50
119.822160
 51
341.486682
  0
ENDBLK
  8
OBRYS
  0
BLOCK
  8
OBRYS
  2
_1
 70
   64
 10
378.707303
 20
-172.916596
  0
LINE
  8
OBRYS
 10
448.707303
 20
-159.755798
 11
448.707303
 21
-154.416596
  0
LINE
  8
OBRYS
 10
309.606903
 20
-165.916596
 11
311.137802
 21
-165.916596
  0
ARC
  8
OBRYS
 10
320.711929
 20
-167.458439
 40
3.000000
 50
134.050707
 51
180.000000
  0
LINE
  8
OBRYS
 10
326.590248
 20
-158.916596
 11
326.158153
 21
-159.026440
  0
LINE
  8
OBRYS
 10
326.158153
 20
-159.026440
 11
325.293700
 21
-159.218133
  0
LINE
  8
OBRYS
 10
325.293700
 20
-159.218133
 11
324.981074
 21
-159.445124
  0
LINE
  8
OBRYS
 10
324.981074
 20
-159.445124
 11
324.017701
 21
-160.086374
  0
LINE
  8
OBRYS
 10
324.017701
 20
-160.086374
 11
318.626045
 21
-165.302265
  0
LINE
  8
OBRYS
 10
317.711929
 20
-172.916596
 11
317.711929
 21
-167.458439
  0
ARC
  8
OBRYS
 10
314.291629
 20
-167.547609
 40
3.000000
 50
131.194706
 51
180.000000
  0
LINE
  8
OBRYS
 10
312.315770
 20
-165.290181
 11
318.261140
 21
-160.086374
  0
LINE
  8
OBRYS
 10
311.291629
 20
-167.547609
 11
311.291629
 21
-172.916596
  0
LINE
  8
OBRYS
 10
318.261140
 20
-160.086374
 11
319.325916
 21
-159.445124
  0
LINE
  8
OBRYS
 10
319.325916
 20
-159.445124
 11
319.720314
 21
-159.218133
  0
LINE
  8
OBRYS
 10
319.720314
 20
-159.218133
 11
320.810878
 21
-159.026440
  0
LINE
  8
OBRYS
 10
320.810878
 20
-159.026440
 11
321.474745
 21
-158.916596
  0
ARC
  8
OBRYS
 10
316.585765
 20
-161.916596
 40
3.000000
 50
90.000000
 51
130.000000
  0
LINE
  8
OBRYS
 10
309.778940
 20
-163.711978
 11
314.657402
 21
-159.618462
  0
ARC
  8
OBRYS
 10
311.707303
 20
-166.010111
 40
3.000000
 50
130.000000
 51
180.000000
  0
ARC
  8
OBRYS
 10
318.869429
 20
-163.916596
 40
5.000000
 50
90.000000
 51
130.000000
  0
LINE
  8
OBRYS
 10
310.493365
 20
-164.417912
 11
315.655491
 21
-160.086374
  0
ARC
  8
OBRYS
 10
313.707303
 20
-168.248134
 40
5.000000
 50
130.000000
 51
180.000000
  0
ARC
  8
OBRYS
 10
444.707303
 20
-154.416596
 40
4.000000
 50
0.000000
 51
90.000000
  0
LINE
  8
OBRYS
 10
444.707303
 20
-150.416596
 11
406.707303
 21
-150.416596
  0
LINE
  8
OBRYS
 62
     7
  6
DASHDOT
 10
426.207303
 20
-163.416596
 11
426.207303
 21
-150.416599
  0
LINE
  8
OBRYS
 62
     7
  6
DASHDOT
 10
426.207303
 20
-163.416596
 11
426.207303
 21
-176.416592
  0
LINE
  8
OBRYS
 62
     7
  6
DASHDOT
 10
331.207303
 20
-163.416596
 11
331.207303
 21
-176.416592
  0
LINE
  8
OBRYS
 62
     7
  6
DASHDOT
 10
331.207303
 20
-163.416596
 11
331.207303
 21
-150.416599
  0
LINE
  8
OBRYS
 62
     7
  6
DASHDOT
 10
331.207303
 20
-163.416596
 11
318.207307
 21
-163.416596
  0
LINE
  8
OBRYS
 62
     7
  6
DASHDOT
 10
331.207303
 20
-163.416596
 11
344.207299
 21
-163.416596
  0
LINE
  8
OBRYS
 10
312.707303
 20
-150.416596
 11
350.707303
 21
-150.416596
  0
ARC
  8
OBRYS
 10
312.707303
 20
-154.416596
 40
4.000000
 50
90.000000
 51
180.000000
  0
LINE
  8
OBRYS
 10
308.707303
 20
-172.916596
 11
308.707303
 21
-154.416596
  0
ARC
  8
OBRYS
 10
350.707303
 20
-154.416596
 40
4.000000
 50
26.878042
 51
90.000000
  0
ARC
  8
OBRYS
 10
406.707303
 20
-154.416596
 40
4.000000
 50
90.000000
 51
173.097760
  0
LINE
  8
OBRYS
 10
440.828841
 20
-158.916596
 11
412.762816
 21
-158.916596
  0
LINE
  8
OBRYS
 10
316.585765
 20
-158.916596
 11
340.651790
 21
-158.916596
  0
LINE
  8
OBRYS
 10
319.091014
 20
-165.916596
 11
330.979850
 21
-165.916596
  0
LINE
  8
OBRYS
 10
308.707303
 20
-172.916596
 11
323.943679
 21
-172.916596
  0
ARC
  8
OBRYS
 62
     4
  6
DASHED
 10
331.207303
 20
-163.416596
 40
5.500000
 50
18.513318
 51
240.177840
  0
ENDBLK
  8
OBRYS
  0
BLOCK
  8
OSA
  2
_2
 70
   64
 10
378.707303
 20
-256.916596
  0
ARC
  8
OSA
 62
     2
  6
CONTINUOUS
 10
312.878876
 20
-265.916596
 40
2.000000
 50
45.000000
 51
90.000000
  0
ARC
  8
OSA
 62
     2
  6
CONTINUOUS
 10
310.966132
 20
-261.916596
 40
2.000000
 50
182.000000
 51
270.000000
  0
LINE
  8
OSA
 62
     2
  6
CONTINUOUS
 10
308.652514
 20
-256.916596
 11
308.967350
 21
-261.986395
  0
LINE
  8
OSA
 62
     2
  6
CONTINUOUS
 10
314.707303
 20
-264.916596
 11
314.293090
 21
-264.502382
  0
LINE
  8
OSA
 62
     2
  6
CONTINUOUS
 10
317.919549
 20
-256.916596
 11
308.652514
 21
-256.916596
  0
LINE
  8
OSA
 62
     2
  6
CONTINUOUS
 10
310.966132
 20
-263.916596
 11
323.088277
 21
-263.916596
  0
ENDBLK
  8
OSA
  0
BLOCK
  8
OBRYS
  2
_3
 70
   64
 10
438.707303
 20
-218.916596
  0
INSERT
  8
OBRYS
  2
Srouby_s_valcovou_hlavou___1
 62
     7
 10
498.707303
 20
-218.916596
  0
INSERT
  8
OBRYS
  2
Srouby_s_valcovou_hlavou___2
 62
     7
 10
348.707303
 20
-218.916596
  0
INSERT
  8
OBRYS
  2
Srouby_s_valcovou_hlavou___3
 62
     7
 10
408.707303
 20
-270.878120
  0
INSERT
  8
OBRYS
  2
Srouby_s_valcovou_hlavou___4
 62
     7
 10
408.707303
 20
-166.955071
  0
INSERT
  8
OBRYS
  2
Srouby_s_valcovou_hlavou___5
 62
     7
 10
468.707303
 20
-166.955071
  0
INSERT
  8
OBRYS
  2
Srouby_s_valcovou_hlavou___6
 62
     7
 10
468.707303
 20
-270.878120
  0
LINE
  8
OSA
 10
362.707303
 20
-194.916596
 11
370.707303
 21
-194.916596
  0
LINE
  8
OSA
 10
376.707303
 20
-145.597722
 11
376.707303
 21
-293.051696
  0
LINE
  8
OSA
 10
438.707303
 20
-155.662840
 11
438.707303
 21
-282.986578
  0
LINE
  8
OSA
 10
510.053356
 20
-218.916596
 11
302.711932
 21
-218.916596
  0
LINE
  8
OSA
 10
343.080472
 20
-252.543427
 11
326.853803
 21
-268.770096
  0
LINE
  8
OSA
 10
423.857188
 20
-171.766711
 11
412.979970
 21
-182.643929
  0
LINE
  8
OSA
 10
328.766015
 20
-170.975308
 11
343.387849
 21
-185.597142
  0
LINE
  8
OSA
 10
411.682512
 20
-253.891804
 11
423.629620
 21
-265.838913
  0
INSERT
  8
OBRYS
  2
Vnitrni_metricky_zavit_M8__7
 62
     7
 10
417.365943
 20
-259.575236
  0
INSERT
  8
OBRYS
  2
Vnitrni_metricky_zavit_M8__8
 62
     7
 10
417.365943
 20
-178.257956
  0
CIRCLE
  8
OBRYS
 10
336.048663
 20
-178.257956
 40
4.500000
  0
CIRCLE
  8
OBRYS
 10
336.048663
 20
-259.575236
 40
4.500000
  0
CIRCLE
  8
OSA
 10
376.707303
 20
-218.916596
 40
57.500000
  0
CIRCLE
  8
OBRYS
 10
468.707303
 20
-166.955071
 40
5.000000
  0
CIRCLE
  8
OBRYS
 10
498.707303
 20
-218.916596
 40
5.000000
  0
CIRCLE
  8
OBRYS
 10
468.707303
 20
-270.878120
 40
5.000000
  0
LINE
  8
OBRYS
 10
393.025835
 20
-196.188521
 11
393.423232
 21
-196.453788
  0
LINE
  8
OBRYS
 10
403.001218
 20
-182.424062
 11
403.888605
 21
-183.053288
  0
LINE
  8
OBRYS
 10
402.791096
 20
-255.585871
 11
402.217529
 21
-256.046565
  0
ARC
  8
OBRYS
 10
397.941759
 20
-248.700288
 40
8.500000
 50
124.445674
 51
204.117511
  0
ARC
  8
OBRYS
 10
397.941759
 20
-248.700288
 40
8.500000
 50
270.000000
 51
300.200786
  0
ARC
  8
OBRYS
 10
376.707303
 20
-218.916596
 40
45.000000
 50
305.425214
 51
52.841004
  0
ARC
  8
OBRYS
 10
376.707303
 20
-218.916596
 40
28.000000
 50
305.315423
 51
53.187187
  0
ARC
  8
OBRYS
 10
397.941759
 20
-189.254280
 40
8.500000
 50
148.024118
 51
234.665849
  0
ARC
  8
OBRYS
 10
397.941759
 20
-189.254280
 40
8.500000
 50
53.470940
 51
148.024118
  0
ARC
  8
OBRYS
 10
397.941759
 20
-248.700288
 40
8.500000
 50
204.117511
 51
270.000000
  0
ARC
  8
OBRYS
 10
438.707303
 20
-218.916596
 40
60.000000
 50
250.005162
 51
291.101147
  0
ARC
  8
OBRYS
 10
438.707303
 20
-218.916596
 40
60.000000
 50
90.000000
 51
109.994838
  0
CIRCLE
  8
OBRYS
 10
408.707303
 20
-166.955071
 40
5.000000
  0
CIRCLE
  8
OBRYS
 10
408.707303
 20
-270.878120
 40
5.000000
  0
CIRCLE
  8
OBRYS
 10
376.707303
 20
-218.916596
 40
47.500000
  0
CIRCLE
  8
OBRYS
 10
348.707303
 20
-218.916597
 40
5.000000
  0
CIRCLE
  8
OBRYS
 10
376.707303
 20
-218.916596
 40
70.000000
  0
ARC
  8
OBRYS
 10
468.707303
 20
-166.955071
 40
7.000000
 50
32.047113
 51
90.000000
  0
LINE
  8
OSA
 10
348.707303
 20
-218.916597
 11
341.057303
 21
-218.916597
  0
LINE
  8
OSA
 10
348.707303
 20
-218.916597
 11
356.357303
 21
-218.916597
  0
LINE
  8
OSA
 10
348.707303
 20
-218.916597
 11
348.707303
 21
-226.566597
  0
LINE
  8
OSA
 10
348.707303
 20
-218.916597
 11
348.707303
 21
-211.266597
  0
LINE
  8
OSA
 10
498.707303
 20
-218.916596
 11
491.057303
 21
-218.916596
  0
LINE
  8
OSA
 10
498.707303
 20
-218.916596
 11
506.357303
 21
-218.916596
  0
LINE
  8
OSA
 10
498.707303
 20
-218.916596
 11
498.707303
 21
-226.566596
  0
LINE
  8
OSA
 10
498.707303
 20
-218.916596
 11
498.707303
 21
-211.266596
  0
LINE
  8
OSA
 10
468.707303
 20
-270.878120
 11
461.057303
 21
-270.878120
  0
LINE
  8
OSA
 10
468.707303
 20
-270.878120
 11
476.357303
 21
-270.878120
  0
LINE
  8
OSA
 10
468.707303
 20
-270.878120
 11
468.707303
 21
-278.528120
  0
LINE
  8
OSA
 10
468.707303
 20
-270.878120
 11
468.707303
 21
-263.228120
  0
LINE
  8
OSA
 10
408.707303
 20
-270.878120
 11
401.057303
 21
-270.878120
  0
LINE
  8
OSA
 10
408.707303
 20
-270.878120
 11
416.357303
 21
-270.878120
  0
LINE
  8
OSA
 10
408.707303
 20
-270.878120
 11
408.707303
 21
-278.528120
  0
LINE
  8
OSA
 10
408.707303
 20
-270.878120
 11
408.707303
 21
-263.228120
  0
LINE
  8
OSA
 10
408.707303
 20
-166.955071
 11
401.057303
 21
-166.955071
  0
LINE
  8
OSA
 10
408.707303
 20
-166.955071
 11
416.357303
 21
-166.955071
  0
LINE
  8
OSA
 10
408.707303
 20
-166.955071
 11
408.707303
 21
-174.605071
  0
LINE
  8
OSA
 10
408.707303
 20
-166.955071
 11
408.707303
 21
-159.305071
  0
LINE
  8
OSA
 10
468.707303
 20
-166.955071
 11
461.057303
 21
-166.955071
  0
LINE
  8
OSA
 10
468.707303
 20
-166.955071
 11
476.357303
 21
-166.955071
  0
LINE
  8
OSA
 10
468.707303
 20
-166.955071
 11
468.707303
 21
-174.605071
  0
LINE
  8
OSA
 10
468.707303
 20
-166.955071
 11
468.707303
 21
-159.305071
  0
ARC
  8
OBRYS
 10
498.707303
 20
-218.916596
 40
7.000000
 50
282.953880
 51
77.046120
  0
ARC
  8
OBRYS
 10
438.707303
 20
-218.916596
 40
60.000000
 50
68.898853
 51
90.000000
  0
ARC
  8
OBRYS
 10
461.388279
 20
-160.140977
 40
3.000000
 50
248.898853
 51
317.046120
  0
ARC
  8
OBRYS
 10
461.388279
 20
-277.692214
 40
3.000000
 50
42.953880
 51
111.101147
  0
ARC
  8
OBRYS
 10
500.948970
 20
-228.662104
 40
3.000000
 50
102.953880
 51
171.101147
  0
ARC
  8
OBRYS
 10
500.948970
 20
-209.171088
 40
3.000000
 50
188.898853
 51
257.046120
  0
ARC
  8
OBRYS
 10
376.707303
 20
-218.916596
 40
21.000000
 50
149.612032
 51
90.000000
  0
ARC
  8
OBRYS
 10
376.707303
 20
-218.916596
 40
21.000000
 50
90.000000
 51
149.612032
  0
ARC
  8
OBRYS
 10
376.707303
 20
-218.916596
 40
81.000000
 50
312.650065
 51
47.349935
  0
LINE
  8
OSA
 10
483.707303
 20
-256.916596
 11
475.707303
 21
-256.916596
  0
LINE
  8
OSA
 10
483.707303
 20
-256.916596
 11
491.707303
 21
-256.916596
  0
LINE
  8
OSA
 10
483.707303
 20
-256.916596
 11
483.707303
 21
-264.916596
  0
LINE
  8
OSA
 10
483.707303
 20
-256.916596
 11
483.707303
 21
-248.916596
  0
ARC
  8
OBRYS
 10
483.707303
 20
-256.916596
 40
5.000000
 50
318.547337
 51
340.783336
  0
ARC
  8
OBRYS
 10
438.707303
 20
-218.916596
 40
60.000000
 50
340.783336
 51
351.101147
  0
LINE
  8
TLUST_
 62
     2
 10
495.364144
 20
-238.665074
 11
488.428707
 21
-258.562302
  0
LINE
  8
TLUST_
 62
     2
 10
473.953823
 20
-275.512127
 11
487.454818
 21
-260.226601
  0
CIRCLE
  8
OBRYS
 10
483.707303
 20
-256.916596
 40
3.000000
  0
ARC
  8
OBRYS
 10
468.707303
 20
-270.878120
 40
7.000000
 50
222.953878
 51
310.000000
  0
LINE
  8
OBRYS
 10
473.953823
 20
-275.512127
 11
473.206816
 21
-276.240431
  0
CIRCLE
  8
OBRYS
 10
362.707303
 20
-194.916596
 40
3.000000
  0
LINE
  8
OSA
 10
362.707303
 20
-194.916596
 11
362.707303
 21
-186.916596
  0
LINE
  8
OSA
 10
362.707303
 20
-194.916596
 11
362.707303
 21
-202.916596
  0
LINE
  8
OSA
 10
362.707303
 20
-194.916596
 11
354.707303
 21
-194.916596
  0
LINE
  8
OBRYS
 10
473.953823
 20
-162.321064
 11
473.206816
 21
-161.592760
  0
ARC
  8
OBRYS
 10
468.707303
 20
-166.955071
 40
7.000000
 50
50.000000
 51
137.046122
  0
LINE
  8
TLUST_
 62
     2
 10
473.953823
 20
-162.321064
 11
487.454818
 21
-177.606590
  0
LINE
  8
TLUST_
 62
     2
 10
495.364144
 20
-199.168118
 11
488.428707
 21
-179.270889
  0
ARC
  8
OBRYS
 10
438.707303
 20
-218.916596
 40
60.000000
 50
8.898853
 51
19.216664
  0
ARC
  8
OBRYS
 10
483.707303
 20
-180.916596
 40
5.000000
 50
19.216664
 51
41.452663
  0
CIRCLE
  8
OBRYS
 10
376.707303
 20
-218.916596
 40
12.500000
  0
ARC
  8
OBRYS
 10
376.707303
 20
-218.916596
 40
5.500000
 50
20.654018
 51
338.003576
  0
LINE
  8
OBRYS
 10
381.806943
 20
-220.976614
 11
383.896264
 21
-220.976614
  0
LINE
  8
OBRYS
 10
381.853804
 20
-216.976614
 11
383.896264
 21
-216.976614
  0
LINE
  8
OBRYS
 10
383.896264
 20
-216.976614
 11
383.896264
 21
-220.976614
  0
ARC
  8
OBRYS
 10
376.707303
 20
-218.916596
 40
6.654700
 50
16.949013
 51
341.967383
  0
ENDBLK
  8
OBRYS
  0
BLOCK
  8
OBRYS
  2
Srouby_s_valcovou_hlavou___1
 70
   66
 10
498.707303
 20
-218.916596
  0
LINE
  8
OBRYS
 10
497.552595
 20
-216.916596
 11
499.862011
 21
-216.916596
  0
LINE
  8
OBRYS
 10
499.862011
 20
-216.916596
 11
501.016719
 21
-218.916596
  0
LINE
  8
OBRYS
 10
501.016719
 20
-218.916596
 11
499.862011
 21
-220.916596
  0
LINE
  8
OBRYS
 10
499.862011
 20
-220.916596
 11
497.552595
 21
-220.916596
  0
LINE
  8
OBRYS
 10
497.552595
 20
-220.916596
 11
496.397888
 21
-218.916596
  0
LINE
  8
OBRYS
 10
496.397888
 20
-218.916596
 11
497.552595
 21
-216.916596
  0
CIRCLE
  8
OBRYS
 10
498.707303
 20
-218.916596
 40
2.309415
  0
CIRCLE
  8
OBRYS
 10
498.707303
 20
-218.916596
 40
4.250000
  0
ENDBLK
  8
OBRYS
  0
BLOCK
  8
OBRYS
  2
Srouby_s_valcovou_hlavou___2
 70
   66
 10
348.707303
 20
-218.916596
  0
LINE
  8
OBRYS
 10
347.552595
 20
-216.916596
 11
349.862011
 21
-216.916596
  0
LINE
  8
OBRYS
 10
349.862011
 20
-216.916596
 11
351.016719
 21
-218.916596
  0
LINE
  8
OBRYS
 10
351.016719
 20
-218.916596
 11
349.862011
 21
-220.916596
  0
LINE
  8
OBRYS
 10
349.862011
 20
-220.916596
 11
347.552595
 21
-220.916596
  0
LINE
  8
OBRYS
 10
347.552595
 20
-220.916596
 11
346.397888
 21
-218.916596
  0
LINE
  8
OBRYS
 10
346.397888
 20
-218.916596
 11
347.552595
 21
-216.916596
  0
CIRCLE
  8
OBRYS
 10
348.707303
 20
-218.916596
 40
2.309415
  0
CIRCLE
  8
OBRYS
 10
348.707303
 20
-218.916596
 40
4.250000
  0
ENDBLK
  8
OBRYS
  0
BLOCK
  8
OBRYS
  2
Srouby_s_valcovou_hlavou___3
 70
   66
 10
408.707303
 20
-270.878120
  0
LINE
  8
OBRYS
 10
407.552595
 20
-268.878120
 11
409.862011
 21
-268.878120
  0
LINE
  8
OBRYS
 10
409.862011
 20
-268.878120
 11
411.016719
 21
-270.878120
  0
LINE
  8
OBRYS
 10
411.016719
 20
-270.878120
 11
409.862011
 21
-272.878120
  0
LINE
  8
OBRYS
 10
409.862011
 20
-272.878120
 11
407.552595
 21
-272.878120
  0
LINE
  8
OBRYS
 10
407.552595
 20
-272.878120
 11
406.397888
 21
-270.878120
  0
LINE
  8
OBRYS
 10
406.397888
 20
-270.878120
 11
407.552595
 21
-268.878120
  0
CIRCLE
  8
OBRYS
 10
408.707303
 20
-270.878120
 40
2.309415
  0
CIRCLE
  8
OBRYS
 10
408.707303
 20
-270.878120
 40
4.250000
  0
ENDBLK
  8
OBRYS
  0
BLOCK
  8
OBRYS
  2
Srouby_s_valcovou_hlavou___4
 70
   66
 10
408.707303
 20
-166.955071
  0
LINE
  8
OBRYS
 10
407.552595
 20
-164.955071
 11
409.862011
 21
-164.955071
  0
LINE
  8
OBRYS
 10
409.862011
 20
-164.955071
 11
411.016719
 21
-166.955071
  0
LINE
  8
OBRYS
 10
411.016719
 20
-166.955071
 11
409.862011
 21
-168.955071
  0
LINE
  8
OBRYS
 10
409.862011
 20
-168.955071
 11
407.552595
 21
-168.955071
  0
LINE
  8
OBRYS
 10
407.552595
 20
-168.955071
 11
406.397888
 21
-166.955071
  0
LINE
  8
OBRYS
 10
406.397888
 20
-166.955071
 11
407.552595
 21
-164.955071
  0
CIRCLE
  8
OBRYS
 10
408.707303
 20
-166.955071
 40
2.309415
  0
CIRCLE
  8
OBRYS
 10
408.707303
 20
-166.955071
 40
4.250000
  0
ENDBLK
  8
OBRYS
  0
BLOCK
  8
OBRYS
  2
Srouby_s_valcovou_hlavou___5
 70
   66
 10
468.707303
 20
-166.955071
  0
LINE
  8
OBRYS
 10
467.552595
 20
-164.955071
 11
469.862011
 21
-164.955071
  0
LINE
  8
OBRYS
 10
469.862011
 20
-164.955071
 11
471.016719
 21
-166.955071
  0
LINE
  8
OBRYS
 10
471.016719
 20
-166.955071
 11
469.862011
 21
-168.955071
  0
LINE
  8
OBRYS
 10
469.862011
 20
-168.955071
 11
467.552595
 21
-168.955071
  0
LINE
  8
OBRYS
 10
467.552595
 20
-168.955071
 11
466.397888
 21
-166.955071
  0
LINE
  8
OBRYS
 10
466.397888
 20
-166.955071
 11
467.552595
 21
-164.955071
  0
CIRCLE
  8
OBRYS
 10
468.707303
 20
-166.955071
 40
2.309415
  0
CIRCLE
  8
OBRYS
 10
468.707303
 20
-166.955071
 40
4.250000
  0
ENDBLK
  8
OBRYS
  0
BLOCK
  8
OBRYS
  2
Srouby_s_valcovou_hlavou___6
 70
   66
 10
468.707303
 20
-270.878120
  0
LINE
  8
OBRYS
 10
467.552595
 20
-268.878120
 11
469.862011
 21
-268.878120
  0
LINE
  8
OBRYS
 10
469.862011
 20
-268.878120
 11
471.016719
 21
-270.878120
  0
LINE
  8
OBRYS
 10
471.016719
 20
-270.878120
 11
469.862011
 21
-272.878120
  0
LINE
  8
OBRYS
 10
469.862011
 20
-272.878120
 11
467.552595
 21
-272.878120
  0
LINE
  8
OBRYS
 10
467.552595
 20
-272.878120
 11
466.397888
 21
-270.878120
  0
LINE
  8
OBRYS
 10
466.397888
 20
-270.878120
 11
467.552595
 21
-268.878120
  0
CIRCLE
  8
OBRYS
 10
468.707303
 20
-270.878120
 40
2.309415
  0
CIRCLE
  8
OBRYS
 10
468.707303
 20
-270.878120
 40
4.250000
  0
ENDBLK
  8
OBRYS
  0
BLOCK
  8
OBRYS
  2
Vnitrni_metricky_zavit_M8__7
 70
   66
 10
417.365943
 20
-259.575236
  0
CIRCLE
  8
OBRYS
 10
417.365943
 20
-259.575236
 40
3.323500
  0
ARC
  8
OBRYS
 62
     7
 10
417.365943
 20
-259.575236
 40
4.000000
 50
265.000000
 51
185.000000
  0
ENDBLK
  8
OBRYS
  0
BLOCK
  8
OBRYS
  2
Vnitrni_metricky_zavit_M8__8
 70
   66
 10
417.365943
 20
-178.257956
  0
CIRCLE
  8
OBRYS
 10
417.365943
 20
-178.257956
 40
3.323500
  0
ARC
  8
OBRYS
 62
     7
 10
417.365943
 20
-178.257956
 40
4.000000
 50
265.000000
 51
185.000000
  0
ENDBLK
  8
OBRYS
  0
BLOCK
  8
OBRYS
  2
Vnitrni_metricky_zavit_M8_4
 70
   66
 10
571.975887
 20
250.798894
  0
CIRCLE
  8
OBRYS
 10
571.975887
 20
250.798894
 40
3.323500
  0
ARC
  8
OBRYS
 62
     7
 10
571.975887
 20
250.798894
 40
4.000000
 50
355.000000
 51
275.000000
  0
ENDBLK
  8
OBRYS
  0
BLOCK
  8
OBRYS
  2
Vnitrni_metricky_zavit_M8_5
 70
   66
 10
663.899769
 20
250.798894
  0
CIRCLE
  8
OBRYS
 10
663.899769
 20
250.798894
 40
3.323500
  0
ARC
  8
OBRYS
 62
     7
 10
663.899769
 20
250.798894
 40
4.000000
 50
355.000000
 51
275.000000
  0
ENDBLK
  8
OBRYS
  0
BLOCK
  8
OBRYS
  2
Vnitrni_metricky_zavit_M8_6
 70
   66
 10
663.899769
 20
342.722776
  0
CIRCLE
  8
OBRYS
 10
663.899769
 20
342.722776
 40
3.323500
  0
ARC
  8
OBRYS
 62
     7
 10
663.899769
 20
342.722776
 40
4.000000
 50
355.000000
 51
275.000000
  0
ENDBLK
  8
OBRYS
  0
BLOCK
  8
OBRYS
  2
Vnitrni_metricky_zavit_M8_7
 70
   66
 10
571.975887
 20
342.722776
  0
CIRCLE
  8
OBRYS
 10
571.975887
 20
342.722776
 40
3.323500
  0
ARC
  8
OBRYS
 62
     7
 10
571.975887
 20
342.722776
 40
4.000000
 50
355.000000
 51
275.000000
  0
ENDBLK
  8
OBRYS
  0
BLOCK
  8
OBRYS
  2
_8
 70
   64
 10
178.417914
 20
131.033916
  0
LINE
  8
OSA
 10
178.417914
 20
145.179963
 11
178.417914
 21
191.188643
  0
LINE
  8
NEVIDI
  6
HIDDEN2
 10
130.917914
 20
186.188643
 11
130.917914
 21
182.188643
  0
LINE
  8
NEVIDI
  6
HIDDEN2
 10
130.917914
 20
182.188643
 11
225.917914
 21
182.188643
  0
LINE
  8
NEVIDI
  6
HIDDEN2
 10
225.917914
 20
186.188643
 11
225.917914
 21
182.188643
  0
LINE
  8
OSA
 10
120.917914
 20
191.188643
 11
120.917914
 21
175.757978
  0
LINE
  8
OSA
 10
235.917914
 20
191.188643
 11
235.917914
 21
175.757978
  0
LINE
  8
OBRYS
 10
178.417914
 20
136.033916
 11
123.456390
 21
136.033916
  0
ARC
  8
OBRYS
 10
117.456390
 20
175.188643
 40
2.000000
 50
0.000000
 51
90.000000
  0
LINE
  8
OBRYS
 10
119.456390
 20
175.188643
 11
119.456390
 21
140.033916
  0
ARC
  8
OBRYS
 10
123.456390
 20
140.033916
 40
4.000000
 50
180.000000
 51
270.000000
  0
ARC
  8
OBRYS
 10
123.456390
 20
147.182506
 40
4.000000
 50
180.000000
 51
232.281815
  0
LINE
  8
OBRYS
 10
121.009277
 20
144.018388
 11
130.252407
 21
136.869798
  0
ARC
  8
OBRYS
 10
132.699520
 20
140.033916
 40
4.000000
 50
232.281815
 51
270.000000
  0
LINE
  8
OBRYS
 10
178.417914
 20
164.033916
 11
119.456390
 21
164.033916
  0
LINE
  8
OBRYS
 10
178.417914
 20
164.033916
 11
237.379438
 21
164.033916
  0
LINE
  8
OBRYS
 10
178.417914
 20
136.033916
 11
233.379438
 21
136.033916
  0
ARC
  8
OBRYS
 10
224.136309
 20
140.033916
 40
4.000000
 50
270.000000
 51
307.718185
  0
LINE
  8
OBRYS
 10
235.826551
 20
144.018388
 11
226.583421
 21
136.869798
  0
ARC
  8
OBRYS
 10
233.379438
 20
147.182506
 40
4.000000
 50
307.718185
 51
360.000000
  0
ARC
  8
OBRYS
 10
233.379438
 20
140.033916
 40
4.000000
 50
270.000000
 51
360.000000
  0
LINE
  8
OBRYS
 10
237.379438
 20
175.188643
 11
237.379438
 21
140.033916
  0
ARC
  8
OBRYS
 10
239.379438
 20
175.188643
 40
2.000000
 50
90.000000
 51
180.000000
  0
ARC
  8
OBRYS
 10
110.417914
 20
179.188643
 40
2.000000
 50
180.000000
 51
270.000000
  0
LINE
  8
OBRYS
 10
110.417914
 20
177.188643
 11
246.417914
 21
177.188643
  0
LINE
  8
OBRYS
 10
108.417914
 20
179.188643
 11
108.417914
 21
186.188643
  0
ARC
  8
OBRYS
 10
246.417914
 20
179.188643
 40
2.000000
 50
270.000000
 51
360.000000
  0
LINE
  8
OBRYS
 10
248.417914
 20
179.188643
 11
248.417914
 21
186.188643
  0
LINE
  8
OBRYS
 10
108.417914
 20
186.188643
 11
248.417914
 21
186.188643
  0
LINE
  8
OBRYS
 10
237.379438
 20
173.033916
 11
119.456390
 21
173.033916
  0
LINE
  8
OBRYS
 10
218.943164
 20
173.033916
 11
218.943164
 21
147.420185
  0
LINE
  8
OBRYS
 10
234.991428
 20
145.420185
 11
220.943164
 21
145.420185
  0
LINE
  8
OBRYS
 10
121.844400
 20
145.420185
 11
135.892665
 21
145.420185
  0
LINE
  8
OBRYS
 10
137.892665
 20
173.033916
 11
137.892665
 21
147.036587
  0
ARC
  8
OBRYS
 10
215.417914
 20
134.033916
 40
2.000000
 50
90.000000
 51
180.000000
  0
LINE
  8
OBRYS
 10
213.417914
 20
134.033916
 11
213.417914
 21
131.033916
  0
ARC
  8
OBRYS
 10
141.417914
 20
134.033916
 40
2.000000
 50
0.000000
 51
90.000000
  0
LINE
  8
OBRYS
 10
143.417914
 20
134.033916
 11
143.417914
 21
131.033916
  0
LINE
  8
SRAFY
 62
     2
 10
213.417914
 20
131.033916
 11
143.417914
 21
131.033916
  0
LINE
  8
OBRYS
 10
186.118481
 20
173.033916
 11
186.118481
 21
143.285152
  0
ARC
  8
OBRYS
 10
178.417914
 20
330.435801
 40
189.401885
 50
272.782366
 51
281.863194
  0
ARC
  8
OBRYS
 10
178.417914
 20
139.238342
 40
7.944164
 50
23.822528
 51
156.177472
  0
LINE
  8
OBRYS
 10
170.717347
 20
173.033916
 11
170.717347
 21
143.285152
  0
ARC
  8
OBRYS
 10
178.417914
 20
330.435801
 40
189.401885
 50
258.136806
 51
267.032847
  0
ARC
  8
OBRYS
 10
169.320984
 20
143.254840
 40
2.000000
 50
267.217634
 51
336.177472
  0
ARC
  8
OBRYS
 10
187.514845
 20
143.254840
 40
2.000000
 50
203.822528
 51
272.782366
  0
ENDBLK
  8
OBRYS
  0
BLOCK
  8
OBRYS
  2
_9
 70
   64
 10
617.937828
 20
131.033916
  0
LINE
  8
OBRYS
 10
547.937828
 20
186.188643
 11
687.937828
 21
186.188643
  0
LINE
  8
OBRYS
 10
687.937828
 20
179.188643
 11
687.937828
 21
186.188643
  0
ARC
  8
OBRYS
 10
685.937828
 20
179.188643
 40
2.000000
 50
270.000000
 51
360.000000
  0
LINE
  8
OBRYS
 10
547.937828
 20
179.188643
 11
547.937828
 21
186.188643
  0
LINE
  8
OBRYS
 10
549.937828
 20
177.188643
 11
685.937828
 21
177.188643
  0
ARC
  8
OBRYS
 10
549.937828
 20
179.188643
 40
2.000000
 50
180.000000
 51
270.000000
  0
ARC
  8
OBRYS
 10
586.625555
 20
159.033916
 40
1.000000
 50
0.000000
 51
90.000000
  0
LINE
  8
OBRYS
 10
618.937828
 20
160.033916
 11
667.824566
 21
160.033916
  0
ARC
  8
OBRYS
 10
618.937828
 20
159.033916
 40
1.000000
 50
90.000000
 51
180.000000
  0
LINE
  8
OBRYS
 10
587.625555
 20
159.033916
 11
587.625555
 21
140.033916
  0
LINE
  8
OBRYS
 10
617.937828
 20
159.033916
 11
617.937828
 21
140.033916
  0
LINE
  8
OBRYS
 10
668.824566
 20
177.188643
 11
668.824566
 21
161.033916
  0
ARC
  8
OBRYS
 10
678.899352
 20
175.188643
 40
2.000000
 50
90.000000
 51
180.000000
  0
LINE
  8
OBRYS
 10
676.899352
 20
175.188643
 11
676.899352
 21
140.033916
  0
ARC
  8
OBRYS
 10
672.899352
 20
140.033916
 40
4.000000
 50
270.000000
 51
360.000000
  0
ARC
  8
OBRYS
 10
672.899352
 20
147.182506
 40
4.000000
 50
307.718185
 51
360.000000
  0
LINE
  8
OBRYS
 10
675.346465
 20
144.018388
 11
666.103335
 21
136.869798
  0
ARC
  8
OBRYS
 10
663.656222
 20
140.033916
 40
4.000000
 50
270.000000
 51
307.718185
  0
LINE
  8
OBRYS
 10
665.022538
 20
159.033916
 11
665.022538
 21
136.952017
  0
LINE
  8
OBRYS
 10
617.937828
 20
136.033916
 11
672.899352
 21
136.033916
  0
LINE
  8
OBRYS
 10
617.937828
 20
164.033916
 11
676.899352
 21
164.033916
  0
ARC
  8
OBRYS
 10
654.937828
 20
134.033916
 40
2.000000
 50
90.000000
 51
180.000000
  0
LINE
  8
OBRYS
 10
652.937828
 20
134.033916
 11
652.937828
 21
131.033916
  0
LINE
  8
OBRYS
 10
617.937828
 20
164.033916
 11
558.976304
 21
164.033916
  0
LINE
  8
OBRYS
 10
570.853117
 20
159.033916
 11
570.853117
 21
136.952017
  0
ARC
  8
OBRYS
 10
572.219433
 20
140.033916
 40
4.000000
 50
232.281815
 51
270.000000
  0
LINE
  8
OBRYS
 10
560.529191
 20
144.018388
 11
569.772321
 21
136.869798
  0
ARC
  8
OBRYS
 10
562.976304
 20
147.182506
 40
4.000000
 50
180.000000
 51
232.281815
  0
ARC
  8
OBRYS
 10
562.976304
 20
140.033916
 40
4.000000
 50
180.000000
 51
270.000000
  0
LINE
  8
OBRYS
 10
558.976304
 20
175.188643
 11
558.976304
 21
140.033916
  0
ARC
  8
OBRYS
 10
556.976304
 20
175.188643
 40
2.000000
 50
0.000000
 51
90.000000
  0
LINE
  8
OBRYS
 10
617.937828
 20
136.033916
 11
562.976304
 21
136.033916
  0
LINE
  8
OBRYS
 10
568.051089
 20
160.033916
 11
586.625555
 21
160.033916
  0
LINE
  8
OBRYS
 10
567.051089
 20
177.188643
 11
567.051089
 21
161.033916
  0
LINE
  8
OSA
 10
600.437828
 20
154.033916
 11
600.437828
 21
144.033916
  0
LINE
  8
OSA
 10
600.437828
 20
154.033916
 11
600.437828
 21
164.033916
  0
LINE
  8
OSA
 10
600.437828
 20
154.033916
 11
610.437828
 21
154.033916
  0
LINE
  8
OSA
 10
600.437828
 20
154.033916
 11
590.437828
 21
154.033916
  0
LINE
  8
SRAFY
 62
     2
 10
652.937828
 20
131.033916
 11
582.937828
 21
131.033916
  0
ARC
  8
OBRYS
 10
580.937828
 20
134.033916
 40
2.000000
 50
0.000000
 51
90.000000
  0
LINE
  8
OBRYS
 10
582.937828
 20
134.033916
 11
582.937828
 21
131.033916
  0
LINE
  8
OSA
 10
617.937828
 20
196.188643
 11
617.937828
 21
139.446291
  0
ENDBLK
  8
OBRYS
  0
BLOCK
  8
OBRYS
  2
_10
 70
   64
 10
794.513579
 20
131.033916
  0
ARC
  8
OBRYS
 10
894.513579
 20
174.188643
 40
3.000000
 50
90.000000
 51
180.000000
  0
LINE
  8
OBRYS
 10
891.513579
 20
164.033916
 11
891.513579
 21
174.188643
  0
ARC
  8
OBRYS
 10
923.513579
 20
180.188643
 40
3.000000
 50
270.000000
 51
360.000000
  0
LINE
  8
OBRYS
 10
926.513579
 20
180.188643
 11
926.513579
 21
186.188643
  0
LINE
  8
OBRYS
 10
786.513579
 20
180.554073
 11
786.513579
 21
186.188643
  0
LINE
  8
OBRYS
 10
786.513579
 20
186.188643
 11
926.513579
 21
186.188643
  0
ARC
  8
OBRYS
 10
783.513579
 20
180.554073
 40
3.000000
 50
298.703409
 51
360.000000
  0
LINE
  8
OBRYS
 10
776.699335
 20
173.402563
 11
784.954406
 21
177.922721
  0
ARC
  8
OBRYS
 10
775.258508
 20
176.033916
 40
3.000000
 50
270.000000
 51
298.703409
  0
LINE
  8
OBRYS
 10
775.258508
 20
173.033916
 11
730.513579
 21
173.033916
  0
ARC
  8
OBRYS
 10
730.513579
 20
170.033916
 40
3.000000
 50
90.000000
 51
180.000000
  0
LINE
  8
OBRYS
 10
727.513579
 20
170.033916
 11
727.513579
 21
164.033916
  0
LINE
  8
OBRYS
 62
     7
  6
DASHDOT
 10
856.513579
 20
167.033916
 11
856.513579
 21
188.188643
  0
ARC
  8
OBRYS
 10
750.309317
 20
133.033916
 40
3.000000
 50
30.404895
 51
90.000000
  0
LINE
  8
OBRYS
 10
754.961320
 20
131.033916
 11
752.896728
 21
134.552238
  0
LINE
  8
OBRYS
 62
     7
 10
891.436556
 20
142.926476
 11
891.455053
 21
142.944972
  0
LINE
  8
OBRYS
 62
     7
 10
891.455053
 20
142.944972
 11
891.436556
 21
142.926476
  0
LINE
  8
OBRYS
 10
891.513579
 20
164.033916
 11
891.513579
 21
144.033916
  0
ARC
  8
OBRYS
 10
883.513579
 20
144.033916
 40
8.000000
 50
270.000000
 51
360.000000
  0
ARC
  8
OBRYS
 10
875.985715
 20
133.033916
 40
3.000000
 50
90.000000
 51
138.189685
  0
ARC
  8
OBRYS
 10
871.513579
 20
137.033916
 40
3.000000
 50
270.000000
 51
318.189685
  0
ARC
  8
OBRYS
 10
739.643979
 20
139.033916
 40
3.000000
 50
230.254334
 51
270.000000
  0
LINE
  8
OBRYS
 10
737.725836
 20
136.727246
 11
728.595436
 21
144.319751
  0
LINE
  8
OBRYS
 62
     7
  6
DASHDOT
 10
856.513579
 20
163.080396
 11
856.513579
 21
164.033916
  0
LINE
  8
OBRYS
 62
     7
  6
DASHDOT
 10
856.513579
 20
139.033916
 11
856.513579
 21
156.181888
  0
LINE
  8
OBRYS
 62
     7
  6
DASHDOT
 10
794.513579
 20
126.033916
 11
794.513579
 21
164.033916
  0
LINE
  8
OBRYS
 10
727.513579
 20
164.033916
 11
727.513579
 21
146.626421
  0
ARC
  8
OBRYS
 10
730.513579
 20
146.626421
 40
3.000000
 50
180.000000
 51
230.254334
  0
LINE
  8
OBRYS
 10
794.513579
 20
131.033916
 11
833.999894
 21
131.033916
  0
LINE
  8
OBRYS
 10
754.961320
 20
131.033916
 11
794.513579
 21
131.033916
  0
LINE
  8
OBRYS
 10
739.643979
 20
136.033916
 11
794.513579
 21
136.033916
  0
LINE
  8
OBRYS
 10
883.513579
 20
136.033916
 11
794.513579
 21
136.033916
  0
LINE
  8
OBRYS
 10
834.065837
 20
131.033916
 11
837.065837
 21
134.033916
  0
LINE
  8
OBRYS
 10
871.513579
 20
134.033916
 11
837.065837
 21
134.033916
  0
LINE
  8
OBRYS
 10
745.115587
 20
173.033916
 11
745.115587
 21
146.626421
  0
LINE
  8
OBRYS
 10
735.235801
 20
173.033916
 11
735.235801
 21
146.626421
  0
LINE
  8
OBRYS
 10
774.845668
 20
160.033916
 11
774.845668
 21
138.510944
  0
LINE
  8
OBRYS
 10
769.636894
 20
173.033916
 11
769.636894
 21
161.033916
  0
LINE
  8
OBRYS
 10
786.513579
 20
177.188643
 11
923.513579
 21
177.188643
  0
LINE
  8
OBRYS
 10
770.636894
 20
160.033916
 11
814.181489
 21
160.033916
  0
LINE
  8
OBRYS
 10
814.181489
 20
177.188643
 11
814.181489
 21
138.510944
  0
LINE
  8
OBRYS
 10
727.513579
 20
164.033916
 11
891.513579
 21
164.033916
  0
LINE
  8
OBRYS
 10
831.494888
 20
177.188643
 11
831.494888
 21
138.510944
  0
LINE
  8
OBRYS
 10
888.395810
 20
159.033916
 11
888.395810
 21
139.930722
  0
LINE
  8
OBRYS
 10
832.494888
 20
160.033916
 11
887.395810
 21
160.033916
  0
ENDBLK
  8
OBRYS
  0
BLOCK
  8
OBRYS
  2
_11
 70
   64
 10
438.707303
 20
131.033916
  0
ARC
  8
OBRYS
 10
338.707303
 20
174.188643
 40
3.000000
 50
0.000000
 51
90.000000
  0
LINE
  8
OBRYS
 10
341.707303
 20
164.033916
 11
341.707303
 21
174.188643
  0
ARC
  8
OBRYS
 10
309.707303
 20
180.188643
 40
3.000000
 50
180.000000
 51
270.000000
  0
LINE
  8
OBRYS
 10
306.707303
 20
180.188643
 11
306.707303
 21
186.188643
  0
LINE
  8
OBRYS
 10
446.707303
 20
180.554073
 11
446.707303
 21
186.188643
  0
LINE
  8
OBRYS
 10
446.707303
 20
186.188643
 11
306.707303
 21
186.188643
  0
ARC
  8
OBRYS
 10
449.707303
 20
180.554073
 40
3.000000
 50
180.000000
 51
241.296591
  0
LINE
  8
OBRYS
 10
456.521546
 20
173.402563
 11
448.266476
 21
177.922721
  0
ARC
  8
OBRYS
 10
457.962373
 20
176.033916
 40
3.000000
 50
241.296591
 51
270.000000
  0
LINE
  8
OBRYS
 10
457.962373
 20
173.033916
 11
502.707303
 21
173.033916
  0
ARC
  8
OBRYS
 10
502.707303
 20
170.033916
 40
3.000000
 50
0.000000
 51
90.000000
  0
LINE
  8
OBRYS
 10
505.707303
 20
170.033916
 11
505.707303
 21
164.033916
  0
LINE
  8
OBRYS
 62
     7
  6
DASHDOT
 10
376.707303
 20
167.033916
 11
376.707303
 21
188.188643
  0
ARC
  8
OBRYS
 10
482.911565
 20
133.033916
 40
3.000000
 50
90.000000
 51
149.595105
  0
LINE
  8
OBRYS
 10
478.259562
 20
131.033916
 11
480.324153
 21
134.552238
  0
LINE
  8
OBRYS
 62
     7
 10
341.784325
 20
142.926476
 11
341.765829
 21
142.944972
  0
LINE
  8
OBRYS
 62
     7
 10
341.765829
 20
142.944972
 11
341.784325
 21
142.926476
  0
LINE
  8
OBRYS
 10
341.707303
 20
164.033916
 11
341.707303
 21
144.033916
  0
ARC
  8
OBRYS
 10
349.707303
 20
144.033916
 40
8.000000
 50
180.000000
 51
270.000000
  0
ARC
  8
OBRYS
 10
357.235167
 20
133.033916
 40
3.000000
 50
41.810315
 51
90.000000
  0
ARC
  8
OBRYS
 10
361.707303
 20
137.033916
 40
3.000000
 50
221.810315
 51
270.000000
  0
ARC
  8
OBRYS
 10
493.576903
 20
139.033916
 40
3.000000
 50
270.000000
 51
309.745666
  0
LINE
  8
OBRYS
 10
495.495046
 20
136.727246
 11
504.625446
 21
144.319751
  0
LINE
  8
OBRYS
 62
     7
  6
DASHDOT
 10
376.707303
 20
163.080396
 11
376.707303
 21
164.033916
  0
LINE
  8
OBRYS
 62
     7
  6
DASHDOT
 10
376.707303
 20
139.033916
 11
376.707303
 21
156.181888
  0
LINE
  8
OBRYS
 62
     7
  6
DASHDOT
 10
438.707303
 20
126.033916
 11
438.707303
 21
164.033916
  0
LINE
  8
OBRYS
 10
505.707303
 20
164.033916
 11
505.707303
 21
146.626421
  0
ARC
  8
OBRYS
 10
502.707303
 20
146.626421
 40
3.000000
 50
309.745666
 51
360.000000
  0
LINE
  8
OBRYS
 10
438.707303
 20
131.033916
 11
399.220987
 21
131.033916
  0
LINE
  8
OBRYS
 10
478.259562
 20
131.033916
 11
438.707303
 21
131.033916
  0
LINE
  8
OBRYS
 10
493.576903
 20
136.033916
 11
438.707303
 21
136.033916
  0
LINE
  8
OBRYS
 10
349.707303
 20
136.033916
 11
438.707303
 21
136.033916
  0
LINE
  8
OBRYS
 10
399.155044
 20
131.033916
 11
396.155044
 21
134.033916
  0
LINE
  8
OBRYS
 10
361.707303
 20
134.033916
 11
396.155044
 21
134.033916
  0
LINE
  8
OBRYS
 10
488.105295
 20
173.033916
 11
488.105295
 21
146.626421
  0
LINE
  8
OBRYS
 10
497.985080
 20
173.033916
 11
497.985080
 21
146.626421
  0
LINE
  8
OBRYS
 10
458.375214
 20
160.033916
 11
458.375214
 21
138.510944
  0
LINE
  8
OBRYS
 10
463.583988
 20
173.033916
 11
463.583988
 21
161.033916
  0
LINE
  8
OBRYS
 10
446.707303
 20
177.188643
 11
309.707303
 21
177.188643
  0
LINE
  8
OBRYS
 10
462.583988
 20
160.033916
 11
419.039393
 21
160.033916
  0
LINE
  8
OBRYS
 10
419.039393
 20
177.188643
 11
419.039393
 21
138.510944
  0
LINE
  8
OBRYS
 10
505.707303
 20
164.033916
 11
341.707303
 21
164.033916
  0
LINE
  8
OBRYS
 10
401.725994
 20
177.188643
 11
401.725994
 21
138.510944
  0
LINE
  8
OBRYS
 10
344.825072
 20
159.033916
 11
344.825072
 21
139.930722
  0
LINE
  8
OBRYS
 10
400.725994
 20
160.033916
 11
345.825072
 21
160.033916
  0
ENDBLK
  8
OBRYS
  0
BLOCK
  8
OBRYS
  2
_12
 70
   64
 10
378.707303
 20
377.022081
  0
ARC
  8
OBRYS
 10
444.707303
 20
381.522081
 40
4.000000
 50
0.000000
 51
90.000000
  0
LINE
  8
OBRYS
 10
448.707303
 20
355.522081
 11
448.707303
 21
381.522081
  0
LINE
  8
OBRYS
 10
444.707303
 20
385.522081
 11
406.707303
 21
385.522081
  0
ARC
  8
OBRYS
 10
406.707303
 20
381.522081
 40
4.000000
 50
90.000000
 51
180.000000
  0
LINE
  8
OBRYS
 10
402.707303
 20
381.522081
 11
402.707303
 21
355.522081
  0
CIRCLE
  8
OBRYS
 10
426.207303
 20
372.522081
 40
5.500000
  0
LINE
  8
OBRYS
 62
     7
  6
DASHDOT
 10
426.207303
 20
372.522081
 11
413.207307
 21
372.522081
  0
LINE
  8
OBRYS
 62
     7
  6
DASHDOT
 10
426.207303
 20
372.522081
 11
439.207299
 21
372.522081
  0
LINE
  8
OBRYS
 62
     7
  6
DASHDOT
 10
426.207303
 20
372.522081
 11
426.207303
 21
385.522077
  0
LINE
  8
OBRYS
 62
     7
  6
DASHDOT
 10
426.207303
 20
372.522081
 11
426.207303
 21
359.522085
  0
LINE
  8
OBRYS
 10
381.207303
 20
361.022081
 11
381.207303
 21
377.022081
  0
POLYLINE
  8
OBRYS
 66
    1
  0
VERTEX
  8
OBRYS
 10
402.707306
 20
374.522064
  0
VERTEX
  8
OBRYS
 10
402.312164
 20
374.525970
  0
VERTEX
  8
OBRYS
 10
401.905396
 20
374.538147
  0
VERTEX
  8
OBRYS
 10
401.479736
 20
374.559906
  0
VERTEX
  8
OBRYS
 10
401.028534
 20
374.593323
  0
VERTEX
  8
OBRYS
 10
400.546631
 20
374.641266
  0
VERTEX
  8
OBRYS
 10
400.031464
 20
374.707367
  0
VERTEX
  8
OBRYS
 10
399.484924
 20
374.795837
  0
VERTEX
  8
OBRYS
 10
398.914825
 20
374.910706
  0
VERTEX
  8
OBRYS
 10
398.336426
 20
375.054962
  0
VERTEX
  8
OBRYS
 10
397.771637
 20
375.229156
  0
VERTEX
  8
OBRYS
 10
397.246307
 20
375.430206
  0
VERTEX
  8
OBRYS
 10
396.784729
 20
375.651215
  0
VERTEX
  8
OBRYS
 10
396.403900
 20
375.882294
  0
VERTEX
  8
OBRYS
 10
396.110138
 20
376.112732
  0
VERTEX
  8
OBRYS
 10
395.899292
 20
376.333069
  0
VERTEX
  8
OBRYS
 10
395.759827
 20
376.536621
  0
VERTEX
  8
OBRYS
 10
395.677063
 20
376.719543
  0
VERTEX
  8
OBRYS
 10
395.636353
 20
376.880737
  0
VERTEX
  8
OBRYS
 10
395.625031
 20
377.020752
  0
VERTEX
  8
OBRYS
 10
395.625031
 20
377.022064
  0
SEQEND
  8
OBRYS
  0
LINE
  8
OBRYS
 10
402.707303
 20
377.022081
 11
378.707303
 21
377.022081
  0
LINE
  8
OBRYS
 10
402.707303
 20
361.022081
 11
378.707303
 21
361.022081
  0
LINE
  8
OBRYS
 10
448.707303
 20
355.522081
 11
378.707303
 21
355.522081
  0
LINE
  8
OBRYS
 10
308.707303
 20
355.522081
 11
378.707303
 21
355.522081
  0
LINE
  8
OBRYS
 10
354.707303
 20
361.022081
 11
378.707303
 21
361.022081
  0
LINE
  8
OBRYS
 10
354.707303
 20
377.022081
 11
378.707303
 21
377.022081
  0
POLYLINE
  8
OBRYS
 66
    1
  0
VERTEX
  8
OBRYS
 10
354.707306
 20
374.522064
  0
VERTEX
  8
OBRYS
 10
355.102448
 20
374.525970
  0
VERTEX
  8
OBRYS
 10
355.509216
 20
374.538147
  0
VERTEX
  8
OBRYS
 10
355.934875
 20
374.559906
  0
VERTEX
  8
OBRYS
 10
356.386078
 20
374.593323
  0
VERTEX
  8
OBRYS
 10
356.867981
 20
374.641266
  0
VERTEX
  8
OBRYS
 10
357.383148
 20
374.707367
  0
VERTEX
  8
OBRYS
 10
357.929688
 20
374.795837
  0
VERTEX
  8
OBRYS
 10
358.499786
 20
374.910706
  0
VERTEX
  8
OBRYS
 10
359.078186
 20
375.054962
  0
VERTEX
  8
OBRYS
 10
359.642975
 20
375.229156
  0
VERTEX
  8
OBRYS
 10
360.168304
 20
375.430206
  0
VERTEX
  8
OBRYS
 10
360.629883
 20
375.651215
  0
VERTEX
  8
OBRYS
 10
361.010712
 20
375.882294
  0
VERTEX
  8
OBRYS
 10
361.304474
 20
376.112732
  0
VERTEX
  8
OBRYS
 10
361.515320
 20
376.333069
  0
VERTEX
  8
OBRYS
 10
361.654785
 20
376.536621
  0
VERTEX
  8
OBRYS
 10
361.737549
 20
376.719543
  0
VERTEX
  8
OBRYS
 10
361.778259
 20
376.880737
  0
VERTEX
  8
OBRYS
 10
361.789581
 20
377.020752
  0
VERTEX
  8
OBRYS
 10
361.789581
 20
377.022064
  0
SEQEND
  8
OBRYS
  0
LINE
  8
OBRYS
 10
376.207303
 20
361.022081
 11
376.207303
 21
377.022081
  0
LINE
  8
OBRYS
 62
     7
  6
DASHDOT
 10
331.207303
 20
372.522081
 11
331.207303
 21
359.522085
  0
LINE
  8
OBRYS
 62
     7
  6
DASHDOT
 10
331.207303
 20
372.522081
 11
331.207303
 21
385.522077
  0
LINE
  8
OBRYS
 62
     7
  6
DASHDOT
 10
331.207303
 20
372.522081
 11
318.207307
 21
372.522081
  0
LINE
  8
OBRYS
 62
     7
  6
DASHDOT
 10
331.207303
 20
372.522081
 11
344.207299
 21
372.522081
  0
CIRCLE
  8
OBRYS
 10
331.207303
 20
372.522081
 40
5.500000
  0
LINE
  8
OBRYS
 62
     7
  6
DASHDOT
 10
378.707303
 20
348.022085
 11
378.707303
 21
393.022077
  0
LINE
  8
OBRYS
 10
354.707303
 20
381.522081
 11
354.707303
 21
355.522081
  0
ARC
  8
OBRYS
 10
350.707303
 20
381.522081
 40
4.000000
 50
0.000000
 51
90.000000
  0
LINE
  8
OBRYS
 10
312.707303
 20
385.522081
 11
350.707303
 21
385.522081
  0
LINE
  8
OBRYS
 10
308.707303
 20
355.522081
 11
308.707303
 21
381.522081
  0
ARC
  8
OBRYS
 10
312.707303
 20
381.522081
 40
4.000000
 50
90.000000
 51
180.000000
  0
LINE
  8
OBRYS
 10
448.707303
 20
355.522081
 11
448.707303
 21
355.022081
  0
LINE
  8
OBRYS
 10
308.707303
 20
355.022081
 11
308.707303
 21
355.522081
  0
ENDBLK
  8
OBRYS
  0
BLOCK
  8
OBRYS
  2
M10x1_13
 70
   66
 10
316.707303
 20
317.022081
  0
LINE
  8
OBRYS
 62
     7
  6
DASHDOT
 10
326.036205
 20
317.022081
 11
312.261955
 21
317.022081
  0
LINE
  8
OBRYS
 10
316.707303
 20
310.022081
 11
316.707303
 21
324.022081
  0
LINE
  8
OBRYS
 10
316.707303
 20
324.022081
 11
314.707303
 21
324.022081
  0
LINE
  8
OBRYS
 10
316.707303
 20
310.022081
 11
314.707303
 21
310.022081
  0
ARC
  8
OBRYS
 10
314.707303
 20
323.022081
 40
1.000000
 50
90.000000
 51
180.000000
  0
LINE
  8
OBRYS
 10
313.707303
 20
311.022081
 11
313.707303
 21
323.022081
  0
ARC
  8
OBRYS
 10
314.707303
 20
311.022081
 40
1.000000
 50
180.000000
 51
270.000000
  0
ENDBLK
  8
OBRYS
  0
BLOCK
  8
OBRYS
  2
_14
 70
   64
 10
378.707303
 20
257.022081
  0
ARC
  8
OBRYS
 10
444.707303
 20
252.522081
 40
4.000000
 50
270.000000
 51
360.000000
  0
LINE
  8
OBRYS
 10
448.707303
 20
278.522081
 11
448.707303
 21
252.522081
  0
LINE
  8
OBRYS
 10
444.707303
 20
248.522081
 11
406.707303
 21
248.522081
  0
ARC
  8
OBRYS
 10
406.707303
 20
252.522081
 40
4.000000
 50
180.000000
 51
270.000000
  0
LINE
  8
OBRYS
 10
402.707303
 20
252.522081
 11
402.707303
 21
278.522081
  0
CIRCLE
  8
OBRYS
 10
426.207303
 20
261.522081
 40
5.500000
  0
LINE
  8
OBRYS
 62
     7
  6
DASHDOT
 10
426.207303
 20
261.522081
 11
413.207307
 21
261.522081
  0
LINE
  8
OBRYS
 62
     7
  6
DASHDOT
 10
426.207303
 20
261.522081
 11
439.207299
 21
261.522081
  0
LINE
  8
OBRYS
 62
     7
  6
DASHDOT
 10
426.207303
 20
261.522081
 11
426.207303
 21
248.522085
  0
LINE
  8
OBRYS
 62
     7
  6
DASHDOT
 10
426.207303
 20
261.522081
 11
426.207303
 21
274.522077
  0
LINE
  8
OBRYS
 10
381.207303
 20
273.022081
 11
381.207303
 21
257.022081
  0
POLYLINE
  8
OBRYS
 66
    1
  0
VERTEX
  8
OBRYS
 10
402.707275
 20
259.522095
  0
VERTEX
  8
OBRYS
 10
402.312134
 20
259.518188
  0
VERTEX
  8
OBRYS
 10
401.905396
 20
259.506012
  0
VERTEX
  8
OBRYS
 10
401.479736
 20
259.484253
  0
VERTEX
  8
OBRYS
 10
401.028564
 20
259.450836
  0
VERTEX
  8
OBRYS
 10
400.546631
 20
259.402893
  0
VERTEX
  8
OBRYS
 10
400.031494
 20
259.336792
  0
VERTEX
  8
OBRYS
 10
399.484924
 20
259.248322
  0
VERTEX
  8
OBRYS
 10
398.914856
 20
259.133453
  0
VERTEX
  8
OBRYS
 10
398.336426
 20
258.989197
  0
VERTEX
  8
OBRYS
 10
397.771667
 20
258.815002
  0
VERTEX
  8
OBRYS
 10
397.246338
 20
258.613953
  0
VERTEX
  8
OBRYS
 10
396.784729
 20
258.392944
  0
VERTEX
  8
OBRYS
 10
396.403870
 20
258.161865
  0
VERTEX
  8
OBRYS
 10
396.110168
 20
257.931427
  0
VERTEX
  8
OBRYS
 10
395.899292
 20
257.711090
  0
VERTEX
  8
OBRYS
 10
395.759827
 20
257.507538
  0
VERTEX
  8
OBRYS
 10
395.677063
 20
257.324615
  0
VERTEX
  8
OBRYS
 10
395.636353
 20
257.163422
  0
VERTEX
  8
OBRYS
 10
395.625000
 20
257.023407
  0
VERTEX
  8
OBRYS
 10
395.625000
 20
257.022095
  0
SEQEND
  8
OBRYS
  0
LINE
  8
OBRYS
 10
402.707303
 20
257.022081
 11
378.707303
 21
257.022081
  0
LINE
  8
OBRYS
 10
402.707303
 20
273.022081
 11
378.707303
 21
273.022081
  0
LINE
  8
OBRYS
 10
448.707303
 20
278.522081
 11
378.707303
 21
278.522081
  0
LINE
  8
OBRYS
 10
308.707303
 20
278.522081
 11
378.707303
 21
278.522081
  0
LINE
  8
OBRYS
 10
354.707303
 20
273.022081
 11
378.707303
 21
273.022081
  0
LINE
  8
OBRYS
 10
354.707303
 20
257.022081
 11
378.707303
 21
257.022081
  0
POLYLINE
  8
OBRYS
 66
    1
  0
VERTEX
  8
OBRYS
 10
354.707336
 20
259.522095
  0
VERTEX
  8
OBRYS
 10
355.102478
 20
259.518188
  0
VERTEX
  8
OBRYS
 10
355.509216
 20
259.506012
  0
VERTEX
  8
OBRYS
 10
355.934875
 20
259.484253
  0
VERTEX
  8
OBRYS
 10
356.386047
 20
259.450836
  0
VERTEX
  8
OBRYS
 10
356.867981
 20
259.402893
  0
VERTEX
  8
OBRYS
 10
357.383118
 20
259.336792
  0
VERTEX
  8
OBRYS
 10
357.929688
 20
259.248322
  0
VERTEX
  8
OBRYS
 10
358.499756
 20
259.133453
  0
VERTEX
  8
OBRYS
 10
359.078186
 20
258.989197
  0
VERTEX
  8
OBRYS
 10
359.642944
 20
258.815002
  0
VERTEX
  8
OBRYS
 10
360.168274
 20
258.613953
  0
VERTEX
  8
OBRYS
 10
360.629883
 20
258.392944
  0
VERTEX
  8
OBRYS
 10
361.010742
 20
258.161865
  0
VERTEX
  8
OBRYS
 10
361.304443
 20
257.931427
  0
VERTEX
  8
OBRYS
 10
361.515320
 20
257.711090
  0
VERTEX
  8
OBRYS
 10
361.654785
 20
257.507538
  0
VERTEX
  8
OBRYS
 10
361.737549
 20
257.324615
  0
VERTEX
  8
OBRYS
 10
361.778259
 20
257.163422
  0
VERTEX
  8
OBRYS
 10
361.789612
 20
257.023407
  0
VERTEX
  8
OBRYS
 10
361.789612
 20
257.022095
  0
SEQEND
  8
OBRYS
  0
LINE
  8
OBRYS
 10
376.207303
 20
273.022081
 11
376.207303
 21
257.022081
  0
LINE
  8
OBRYS
 62
     7
  6
DASHDOT
 10
331.207303
 20
261.522081
 11
331.207303
 21
274.522077
  0
LINE
  8
OBRYS
 62
     7
  6
DASHDOT
 10
331.207303
 20
261.522081
 11
331.207303
 21
248.522085
  0
LINE
  8
OBRYS
 62
     7
  6
DASHDOT
 10
331.207303
 20
261.522081
 11
318.207307
 21
261.522081
  0
LINE
  8
OBRYS
 62
     7
  6
DASHDOT
 10
331.207303
 20
261.522081
 11
344.207299
 21
261.522081
  0
CIRCLE
  8
OBRYS
 10
331.207303
 20
261.522081
 40
5.500000
  0
LINE
  8
OBRYS
 62
     7
  6
DASHDOT
 10
378.707303
 20
286.022077
 11
378.707303
 21
241.022085
  0
LINE
  8
OBRYS
 10
354.707303
 20
252.522081
 11
354.707303
 21
278.522081
  0
ARC
  8
OBRYS
 10
350.707303
 20
252.522081
 40
4.000000
 50
270.000000
 51
360.000000
  0
LINE
  8
OBRYS
 10
312.707303
 20
248.522081
 11
350.707303
 21
248.522081
  0
LINE
  8
OBRYS
 10
308.707303
 20
278.522081
 11
308.707303
 21
252.522081
  0
ARC
  8
OBRYS
 10
312.707303
 20
252.522081
 40
4.000000
 50
180.000000
 51
270.000000
  0
LINE
  8
OBRYS
 10
448.707303
 20
278.522081
 11
448.707303
 21
279.022081
  0
LINE
  8
OBRYS
 10
308.707303
 20
279.022081
 11
308.707303
 21
278.522081
  0
ENDBLK
  8
OBRYS
  0
BLOCK
  8
OSA
  2
_15
 70
   64
 10
438.707303
 20
317.022081
  0
POLYLINE
  8
OSA
 62
     2
  6
CONTINUOUS
 66
    1
  0
VERTEX
  8
OSA
 62
     2
  6
CONTINUOUS
 10
394.095947
 20
334.022095
  0
VERTEX
  8
OSA
 62
     2
  6
CONTINUOUS
 10
394.099609
 20
333.896851
  0
VERTEX
  8
OSA
 62
     2
  6
CONTINUOUS
 10
394.112549
 20
333.754517
  0
VERTEX
  8
OSA
 62
     2
  6
CONTINUOUS
 10
394.138428
 20
333.593201
  0
VERTEX
  8
OSA
 62
     2
  6
CONTINUOUS
 10
394.182373
 20
333.411438
  0
VERTEX
  8
OSA
 62
     2
  6
CONTINUOUS
 10
394.250122
 20
333.208130
  0
VERTEX
  8
OSA
 62
     2
  6
CONTINUOUS
 10
394.349121
 20
332.982727
  0
VERTEX
  8
OSA
 62
     2
  6
CONTINUOUS
 10
394.487305
 20
332.735962
  0
VERTEX
  8
OSA
 62
     2
  6
CONTINUOUS
 10
394.673218
 20
332.470154
  0
VERTEX
  8
OSA
 62
     2
  6
CONTINUOUS
 10
394.914917
 20
332.189331
  0
VERTEX
  8
OSA
 62
     2
  6
CONTINUOUS
 10
395.218872
 20
331.899658
  0
VERTEX
  8
OSA
 62
     2
  6
CONTINUOUS
 10
395.587769
 20
331.609009
  0
VERTEX
  8
OSA
 62
     2
  6
CONTINUOUS
 10
396.020752
 20
331.326355
  0
VERTEX
  8
OSA
 62
     2
  6
CONTINUOUS
 10
396.511719
 20
331.060425
  0
VERTEX
  8
OSA
 62
     2
  6
CONTINUOUS
 10
397.050903
 20
330.819031
  0
VERTEX
  8
OSA
 62
     2
  6
CONTINUOUS
 10
397.626099
 20
330.607666
  0
VERTEX
  8
OSA
 62
     2
  6
CONTINUOUS
 10
398.225098
 20
330.429382
  0
VERTEX
  8
OSA
 62
     2
  6
CONTINUOUS
 10
398.837158
 20
330.284973
  0
VERTEX
  8
OSA
 62
     2
  6
CONTINUOUS
 10
399.454956
 20
330.173706
  0
VERTEX
  8
OSA
 62
     2
  6
CONTINUOUS
 10
400.074341
 20
330.093933
  0
VERTEX
  8
OSA
 62
     2
  6
CONTINUOUS
 10
400.694702
 20
330.044006
  0
VERTEX
  8
OSA
 62
     2
  6
CONTINUOUS
 10
401.317627
 20
330.022888
  0
VERTEX
  8
OSA
 62
     2
  6
CONTINUOUS
 10
401.946655
 20
330.030640
  0
VERTEX
  8
OSA
 62
     2
  6
CONTINUOUS
 10
402.585083
 20
330.068604
  0
VERTEX
  8
OSA
 62
     2
  6
CONTINUOUS
 10
403.235352
 20
330.139282
  0
VERTEX
  8
OSA
 62
     2
  6
CONTINUOUS
 10
403.589722
 20
330.196594
  0
SEQEND
  8
OSA
  0
CIRCLE
  8
OSA
 62
     2
  6
CONTINUOUS
 10
438.707303
 20
317.022081
 40
26.000000
  0
ARC
  8
OSA
 62
     2
  6
CONTINUOUS
 10
315.707303
 20
328.259568
 40
3.000000
 50
0.000000
 51
66.167287
  0
LINE
  8
OSA
 62
     2
  6
CONTINUOUS
 10
317.370647
 20
330.804471
 11
316.860876
 21
331.089583
  0
LINE
  8
OSA
 62
     2
  6
CONTINUOUS
 10
316.860876
 20
331.089583
 11
316.414362
 21
331.401171
  0
LINE
  8
OSA
 62
     2
  6
CONTINUOUS
 10
316.414362
 20
331.401171
 11
316.038388
 21
331.726147
  0
LINE
  8
OSA
 62
     2
  6
CONTINUOUS
 10
316.038388
 20
331.726147
 11
315.734158
 21
332.051268
  0
LINE
  8
OSA
 62
     2
  6
CONTINUOUS
 10
315.734158
 20
332.051268
 11
315.497305
 21
332.365051
  0
LINE
  8
OSA
 62
     2
  6
CONTINUOUS
 10
315.497305
 20
332.365051
 11
315.319590
 21
332.658974
  0
LINE
  8
OSA
 62
     2
  6
CONTINUOUS
 10
315.319590
 20
332.658974
 11
315.190942
 21
332.927775
  0
LINE
  8
OSA
 62
     2
  6
CONTINUOUS
 10
315.190942
 20
332.927775
 11
315.101167
 21
333.169074
  0
LINE
  8
OSA
 62
     2
  6
CONTINUOUS
 10
315.101167
 20
333.169074
 11
315.041045
 21
333.382678
  0
LINE
  8
OSA
 62
     2
  6
CONTINUOUS
 10
315.041045
 20
333.382678
 11
315.002835
 21
333.569839
  0
LINE
  8
OSA
 62
     2
  6
CONTINUOUS
 10
315.002835
 20
333.569839
 11
314.980370
 21
333.732634
  0
LINE
  8
OSA
 62
     2
  6
CONTINUOUS
 10
314.980370
 20
333.732634
 11
314.968922
 21
333.873514
  0
LINE
  8
OSA
 62
     2
  6
CONTINUOUS
 10
314.968922
 20
333.873514
 11
314.964968
 21
333.995007
  0
LINE
  8
OSA
 62
     2
  6
CONTINUOUS
 10
314.964968
 20
333.995007
 11
314.964832
 21
334.022081
  0
LINE
  8
OSA
 62
     2
  6
CONTINUOUS
 10
326.818607
 20
334.022081
 11
326.816727
 21
333.921346
  0
LINE
  8
OSA
 62
     2
  6
CONTINUOUS
 10
326.816727
 20
333.921346
 11
326.810007
 21
333.806679
  0
LINE
  8
OSA
 62
     2
  6
CONTINUOUS
 10
326.810007
 20
333.806679
 11
326.796437
 21
333.676427
  0
LINE
  8
OSA
 62
     2
  6
CONTINUOUS
 10
326.796437
 20
333.676427
 11
326.773387
 21
333.528909
  0
LINE
  8
OSA
 62
     2
  6
CONTINUOUS
 10
326.773387
 20
333.528909
 11
326.737481
 21
333.362525
  0
LINE
  8
OSA
 62
     2
  6
CONTINUOUS
 10
326.737481
 20
333.362525
 11
326.684476
 21
333.175915
  0
LINE
  8
OSA
 62
     2
  6
CONTINUOUS
 10
326.684476
 20
333.175915
 11
326.609190
 21
332.968186
  0
LINE
  8
OSA
 62
     2
  6
CONTINUOUS
 10
326.609190
 20
332.968186
 11
326.505524
 21
332.739221
  0
LINE
  8
OSA
 62
     2
  6
CONTINUOUS
 10
326.505524
 20
332.739221
 11
326.366646
 21
332.490039
  0
LINE
  8
OSA
 62
     2
  6
CONTINUOUS
 10
326.366646
 20
332.490039
 11
326.185419
 21
332.223179
  0
LINE
  8
OSA
 62
     2
  6
CONTINUOUS
 10
326.185419
 20
332.223179
 11
325.955092
 21
331.942996
  0
LINE
  8
OSA
 62
     2
  6
CONTINUOUS
 10
325.955092
 20
331.942996
 11
325.670250
 21
331.655760
  0
LINE
  8
OSA
 62
     2
  6
CONTINUOUS
 10
325.670250
 20
331.655760
 11
325.327828
 21
331.369415
  0
LINE
  8
OSA
 62
     2
  6
CONTINUOUS
 10
325.327828
 20
331.369415
 11
324.927927
 21
331.092945
  0
LINE
  8
OSA
 62
     2
  6
CONTINUOUS
 10
324.927927
 20
331.092945
 11
324.474080
 21
330.835433
  0
LINE
  8
OSA
 62
     2
  6
CONTINUOUS
 10
324.474080
 20
330.835433
 11
323.972793
 21
330.605043
  0
LINE
  8
OSA
 62
     2
  6
CONTINUOUS
 10
323.972793
 20
330.605043
 11
323.432418
 21
330.408243
  0
LINE
  8
OSA
 62
     2
  6
CONTINUOUS
 10
323.432418
 20
330.408243
 11
322.861713
 21
330.249502
  0
LINE
  8
OSA
 62
     2
  6
CONTINUOUS
 10
322.861713
 20
330.249502
 11
322.268574
 21
330.131510
  0
LINE
  8
OSA
 62
     2
  6
CONTINUOUS
 10
322.268574
 20
330.131510
 11
321.659299
 21
330.055767
  0
LINE
  8
OSA
 62
     2
  6
CONTINUOUS
 10
321.659299
 20
330.055767
 11
321.038588
 21
330.023309
  0
LINE
  8
OSA
 62
     2
  6
CONTINUOUS
 10
321.038588
 20
330.023309
 11
320.410212
 21
330.035303
  0
LINE
  8
OSA
 62
     2
  6
CONTINUOUS
 10
320.410212
 20
330.035303
 11
319.778199
 21
330.093310
  0
LINE
  8
OSA
 62
     2
  6
CONTINUOUS
 10
319.778199
 20
330.093310
 11
319.148213
 21
330.199067
  0
LINE
  8
OSA
 62
     2
  6
CONTINUOUS
 10
319.148213
 20
330.199067
 11
318.528729
 21
330.353738
  0
LINE
  8
OSA
 62
     2
  6
CONTINUOUS
 10
318.528729
 20
330.353738
 11
317.931471
 21
330.556735
  0
LINE
  8
OSA
 62
     2
  6
CONTINUOUS
 10
317.931471
 20
330.556735
 11
316.919506
 21
331.003755
  0
LINE
  8
OSA
 62
     2
  6
CONTINUOUS
 10
318.707303
 20
328.259568
 11
318.707303
 21
290.022081
  0
LINE
  8
OSA
 62
     2
  6
CONTINUOUS
 10
326.818607
 20
334.022081
 11
326.818607
 21
347.022081
  0
LINE
  8
OSA
 62
     2
  6
CONTINUOUS
 10
363.318605
 20
334.022084
 11
363.318605
 21
347.022081
  0
LINE
  8
OSA
 62
     2
  6
CONTINUOUS
 10
348.581513
 20
334.022084
 11
348.581513
 21
347.022081
  0
POLYLINE
  8
OSA
 62
     2
  6
CONTINUOUS
 66
    1
  0
VERTEX
  8
OSA
 62
     2
  6
CONTINUOUS
 10
363.318604
 20
334.022095
  0
VERTEX
  8
OSA
 62
     2
  6
CONTINUOUS
 10
363.314941
 20
333.896851
  0
VERTEX
  8
OSA
 62
     2
  6
CONTINUOUS
 10
363.302124
 20
333.754517
  0
VERTEX
  8
OSA
 62
     2
  6
CONTINUOUS
 10
363.276123
 20
333.593201
  0
VERTEX
  8
OSA
 62
     2
  6
CONTINUOUS
 10
363.232300
 20
333.411438
  0
VERTEX
  8
OSA
 62
     2
  6
CONTINUOUS
 10
363.164429
 20
333.208130
  0
VERTEX
  8
OSA
 62
     2
  6
CONTINUOUS
 10
363.065552
 20
332.982727
  0
VERTEX
  8
OSA
 62
     2
  6
CONTINUOUS
 10
362.927368
 20
332.735962
  0
VERTEX
  8
OSA
 62
     2
  6
CONTINUOUS
 10
362.741333
 20
332.470154
  0
VERTEX
  8
OSA
 62
     2
  6
CONTINUOUS
 10
362.499634
 20
332.189331
  0
VERTEX
  8
OSA
 62
     2
  6
CONTINUOUS
 10
362.195801
 20
331.899658
  0
VERTEX
  8
OSA
 62
     2
  6
CONTINUOUS
 10
361.826782
 20
331.609009
  0
VERTEX
  8
OSA
 62
     2
  6
CONTINUOUS
 10
361.393799
 20
331.326355
  0
VERTEX
  8
OSA
 62
     2
  6
CONTINUOUS
 10
360.902832
 20
331.060425
  0
VERTEX
  8
OSA
 62
     2
  6
CONTINUOUS
 10
360.363647
 20
330.819031
  0
VERTEX
  8
OSA
 62
     2
  6
CONTINUOUS
 10
359.788452
 20
330.607666
  0
VERTEX
  8
OSA
 62
     2
  6
CONTINUOUS
 10
359.189575
 20
330.429382
  0
VERTEX
  8
OSA
 62
     2
  6
CONTINUOUS
 10
358.577393
 20
330.284973
  0
VERTEX
  8
OSA
 62
     2
  6
CONTINUOUS
 10
357.959595
 20
330.173706
  0
VERTEX
  8
OSA
 62
     2
  6
CONTINUOUS
 10
357.340210
 20
330.093933
  0
VERTEX
  8
OSA
 62
     2
  6
CONTINUOUS
 10
356.719971
 20
330.044006
  0
VERTEX
  8
OSA
 62
     2
  6
CONTINUOUS
 10
356.096924
 20
330.022888
  0
VERTEX
  8
OSA
 62
     2
  6
CONTINUOUS
 10
355.468018
 20
330.030640
  0
VERTEX
  8
OSA
 62
     2
  6
CONTINUOUS
 10
354.829468
 20
330.068604
  0
VERTEX
  8
OSA
 62
     2
  6
CONTINUOUS
 10
354.179321
 20
330.139282
  0
VERTEX
  8
OSA
 62
     2
  6
CONTINUOUS
 10
353.517822
 20
330.246277
  0
VERTEX
  8
OSA
 62
     2
  6
CONTINUOUS
 10
352.850220
 20
330.393250
  0
VERTEX
  8
OSA
 62
     2
  6
CONTINUOUS
 10
352.186768
 20
330.583069
  0
VERTEX
  8
OSA
 62
     2
  6
CONTINUOUS
 10
351.543457
 20
330.816223
  0
VERTEX
  8
OSA
 62
     2
  6
CONTINUOUS
 10
350.939575
 20
331.089111
  0
VERTEX
  8
OSA
 62
     2
  6
CONTINUOUS
 10
350.394897
 20
331.394104
  0
VERTEX
  8
OSA
 62
     2
  6
CONTINUOUS
 10
349.924561
 20
331.719666
  0
VERTEX
  8
OSA
 62
     2
  6
CONTINUOUS
 10
349.536987
 20
332.052185
  0
VERTEX
  8
OSA
 62
     2
  6
CONTINUOUS
 10
349.232178
 20
332.378662
  0
VERTEX
  8
OSA
 62
     2
  6
CONTINUOUS
 10
349.003052
 20
332.688538
  0
VERTEX
  8
OSA
 62
     2
  6
CONTINUOUS
 10
348.838745
 20
332.974487
  0
VERTEX
  8
OSA
 62
     2
  6
CONTINUOUS
 10
348.726440
 20
333.232605
  0
VERTEX
  8
OSA
 62
     2
  6
CONTINUOUS
 10
348.654175
 20
333.461792
  0
VERTEX
  8
OSA
 62
     2
  6
CONTINUOUS
 10
348.611328
 20
333.662720
  0
VERTEX
  8
OSA
 62
     2
  6
CONTINUOUS
 10
348.589355
 20
333.837463
  0
VERTEX
  8
OSA
 62
     2
  6
CONTINUOUS
 10
348.581787
 20
333.988403
  0
VERTEX
  8
OSA
 62
     2
  6
CONTINUOUS
 10
348.581543
 20
334.022095
  0
SEQEND
  8
OSA
  0
LINE
  8
OSA
 10
438.707303
 20
317.022081
 11
308.707303
 21
317.022081
  0
LINE
  8
OSA
 62
     2
  6
CONTINUOUS
 10
378.707303
 20
287.022081
 11
311.707303
 21
287.022081
  0
LINE
  8
OSA
 62
     2
  6
CONTINUOUS
 10
378.707303
 20
347.022081
 11
311.707303
 21
347.022081
  0
LINE
  8
OSA
 62
     2
  6
CONTINUOUS
 10
378.707303
 20
355.022081
 11
308.707303
 21
355.022081
  0
LINE
  8
OSA
 62
     2
  6
CONTINUOUS
 10
448.707303
 20
355.022081
 11
378.707303
 21
355.022081
  0
ARC
  8
OSA
 62
     2
  6
CONTINUOUS
 10
311.964832
 20
344.022081
 40
3.000000
 50
0.000000
 51
90.000000
  0
LINE
  8
OSA
 62
     2
  6
CONTINUOUS
 10
314.964832
 20
344.022081
 11
314.964832
 21
334.022081
  0
ARC
  8
OSA
 62
     2
  6
CONTINUOUS
 10
311.707303
 20
350.022081
 40
3.000000
 50
180.000000
 51
270.000000
  0
LINE
  8
OSA
 62
     2
  6
CONTINUOUS
 10
308.707303
 20
355.022081
 11
308.707303
 21
350.022081
  0
ARC
  8
OSA
 62
     2
  6
CONTINUOUS
 10
315.707303
 20
290.022081
 40
3.000000
 50
270.000000
 51
360.000000
  0
ARC
  8
OSA
 62
     2
  6
CONTINUOUS
 10
311.707303
 20
284.022081
 40
3.000000
 50
90.000000
 51
180.000000
  0
LINE
  8
OSA
 62
     2
  6
CONTINUOUS
 10
308.707303
 20
284.022081
 11
308.707303
 21
278.139816
  0
LINE
  8
OSA
 62
     2
  6
CONTINUOUS
 10
316.707303
 20
308.022081
 11
316.707303
 21
326.022081
  0
ARC
  8
OSA
 62
     2
  6
CONTINUOUS
 10
316.707303
 20
328.022081
 40
2.000000
 50
270.000000
 51
360.000000
  0
ARC
  8
OSA
 62
     2
  6
CONTINUOUS
 10
316.707303
 20
306.022081
 40
2.000000
 50
0.000000
 51
90.000000
  0
LINE
  8
OSA
 10
438.707303
 20
317.022081
 11
438.707303
 21
354.022081
  0
LINE
  8
OSA
 10
438.707303
 20
317.022081
 11
438.707303
 21
280.022081
  0
LINE
  8
OSA
 10
435.707303
 20
317.022081
 11
477.207303
 21
317.022081
  0
LINE
  8
OSA
 10
378.707303
 20
359.022081
 11
378.707303
 21
243.833373
  0
LINE
  8
OSA
 62
     2
  6
CONTINUOUS
 10
394.096001
 20
334.022081
 11
394.096001
 21
345.022081
  0
ARC
  8
OSA
 62
     2
  6
CONTINUOUS
 10
392.096001
 20
345.022081
 40
2.000000
 50
0.000000
 51
90.000000
  0
CIRCLE
  8
OSA
 62
     2
  6
CONTINUOUS
 10
378.707303
 20
317.022081
 40
9.000000
  0
INSERT
  8
OSA
  2
Vnitrni_metricky_zavit_M1__10
  6
CONTINUOUS
 10
378.707303
 20
317.022081
  0
LINE
  8
OSA
 62
     2
  6
CONTINUOUS
 10
415.613292
 20
287.022081
 11
378.707303
 21
287.022081
  0
LINE
  8
OSA
 62
     2
  6
CONTINUOUS
 10
405.940338
 20
330.268066
 11
402.585083
 21
330.068604
  0
LINE
  8
OSA
 62
     2
  6
CONTINUOUS
 10
415.613292
 20
347.022081
 11
378.707303
 21
347.022081
  0
LINE
  8
OSA
 62
     2
  6
CONTINUOUS
 10
448.707303
 20
355.022081
 11
448.707303
 21
352.022081
  0
ARC
  8
OSA
 62
     2
  6
CONTINUOUS
 10
472.193619
 20
317.022081
 40
6.000000
 50
330.000000
 51
30.000000
  0
LINE
  8
OSA
 62
     2
  6
CONTINUOUS
 10
460.646613
 20
349.022081
 11
477.389771
 21
320.022081
  0
ARC
  8
OSA
 62
     2
  6
CONTINUOUS
 10
455.450461
 20
346.022081
 40
6.000000
 50
30.000000
 51
90.000000
  0
ARC
  8
OSA
 62
     2
  6
CONTINUOUS
 10
421.964145
 20
288.022081
 40
6.000000
 50
210.000000
 51
270.000000
  0
LINE
  8
OSA
 62
     2
  6
CONTINUOUS
 10
416.767993
 20
285.022081
 11
400.024835
 21
314.022081
  0
ARC
  8
OSA
 62
     2
  6
CONTINUOUS
 10
405.220987
 20
317.022081
 40
6.000000
 50
150.000000
 51
210.000000
  0
LINE
  8
OSA
 62
     2
  6
CONTINUOUS
 10
460.646613
 20
285.022081
 11
477.389771
 21
314.022081
  0
LINE
  8
OSA
 62
     2
  6
CONTINUOUS
 10
455.450461
 20
282.022081
 11
421.964145
 21
282.022081
  0
ARC
  8
OSA
 62
     2
  6
CONTINUOUS
 10
455.450461
 20
288.022081
 40
6.000000
 50
270.000000
 51
330.000000
  0
LINE
  8
OSA
 62
     2
  6
CONTINUOUS
 10
416.767993
 20
349.022081
 11
400.024835
 21
320.022081
  0
LINE
  8
OSA
 62
     2
  6
CONTINUOUS
 10
421.964145
 20
352.022081
 11
455.450461
 21
352.022081
  0
ARC
  8
OSA
 62
     2
  6
CONTINUOUS
 10
421.964145
 20
346.022081
 40
6.000000
 50
90.000000
 51
150.000000
  0
LINE
  8
OSA
 62
     2
  6
CONTINUOUS
 10
448.729060
 20
282.022081
 11
448.606837
 21
278.522081
  0
ENDBLK
  8
OSA
  0
BLOCK
  8
OSA
  2
Vnitrni_metricky_zavit_M1__10
 70
   66
 10
378.707303
 20
317.022081
  0
CIRCLE
  8
OSA
 62
     2
  6
CONTINUOUS
 10
378.707303
 20
317.022081
 40
4.458800
  0
ARC
  8
OSA
  6
CONTINUOUS
 10
378.707303
 20
317.022081
 40
5.000000
 50
175.000000
 51
95.000000
  0
ENDBLK
  8
OSA
  0
BLOCK
  8
OSA
  2
_16
 70
   64
 10
655.937828
 20
53.033916
  0
ARC
  8
OSA
 62
     2
  6
CONTINUOUS
 10
664.937828
 20
98.277467
 40
2.000000
 50
180.000000
 51
228.111296
  0
ARC
  8
OSA
 62
     2
  6
CONTINUOUS
 10
664.937828
 20
101.741238
 40
2.000000
 50
180.000000
 51
241.454628
  0
LINE
  8
OSA
 62
     2
  6
CONTINUOUS
 10
662.937828
 20
120.775087
 11
662.937828
 21
53.033916
  0
ARC
  8
OSA
 62
     2
  6
CONTINUOUS
 10
660.937828
 20
120.775087
 40
2.000000
 50
0.000000
 51
88.000000
  0
ARC
  8
OSA
 62
     2
  6
CONTINUOUS
 10
664.937828
 20
118.862343
 40
2.000000
 50
180.000000
 51
225.000000
  0
LINE
  8
OSA
 62
     2
  6
CONTINUOUS
 10
655.937828
 20
53.033916
 11
655.937828
 21
-16.966084
  0
LINE
  8
OSA
 10
650.937828
 20
53.033916
 11
682.937828
 21
53.033916
  0
LINE
  8
OSA
 62
     2
  6
CONTINUOUS
 10
655.937828
 20
122.950910
 11
661.007627
 21
122.773869
  0
LINE
  8
OSA
 62
     2
  6
CONTINUOUS
 10
655.937828
 20
122.950910
 11
655.937828
 21
53.033916
  0
LINE
  8
OSA
 62
     2
  6
CONTINUOUS
 10
655.937828
 20
-17.020873
 11
656.437828
 21
-16.989823
  0
LINE
  8
OSA
 62
     2
  6
CONTINUOUS
 10
662.937828
 20
24.159264
 11
662.937828
 21
53.033916
  0
LINE
  8
OSA
 62
     2
  6
CONTINUOUS
 10
662.937828
 20
55.273856
 11
663.937828
 21
55.514041
  0
LINE
  8
OSA
 62
     2
  6
CONTINUOUS
 10
662.937828
 20
50.793976
 11
663.937828
 21
50.553791
  0
LINE
  8
OSA
 62
     2
  6
CONTINUOUS
 10
663.937828
 20
96.487789
 11
663.602456
 21
96.788581
  0
LINE
  8
OSA
 62
     2
  6
CONTINUOUS
 10
663.937828
 20
117.033916
 11
663.523614
 21
117.448130
  0
ENDBLK
  8
OSA
  0
BLOCK
  8
OBRYS
  2
_17
 70
   64
 10
677.937828
 20
53.033916
  0
ARC
  8
OSA
 62
     2
  6
CONTINUOUS
 10
659.437828
 20
20.395332
 40
3.000000
 50
90.000000
 51
180.000000
  0
LINE
  8
OSA
 62
     2
  6
CONTINUOUS
 10
656.437828
 20
20.395332
 11
656.437828
 21
-46.966084
  0
LINE
  8
OBRYS
 10
685.559148
 20
-35.844764
 11
670.939215
 21
-21.224831
  0
LINE
  8
OSA
 62
     2
  6
CONTINUOUS
 10
686.437828
 20
-37.966084
 11
686.437828
 21
-46.966084
  0
LINE
  8
OSA
 62
     2
  6
CONTINUOUS
 10
686.437828
 20
-46.966084
 11
656.437828
 21
-46.966084
  0
ARC
  8
OBRYS
 10
683.437828
 20
-37.966084
 40
3.000000
 50
0.000000
 51
45.000000
  0
ARC
  8
OSA
 62
     2
  6
CONTINUOUS
 10
683.437828
 20
-37.966084
 40
3.000000
 50
45.000000
 51
90.000000
  0
LINE
  8
OSA
 10
682.937828
 20
95.533916
 11
663.937828
 21
95.533916
  0
LINE
  8
OSA
 10
682.937828
 20
10.533916
 11
663.937828
 21
10.533916
  0
ARC
  8
OBRYS
 10
668.606290
 20
118.033916
 40
5.000000
 50
40.000000
 51
90.000000
  0
LINE
  8
OBRYS
 10
672.436512
 20
121.247854
 11
676.768050
 21
116.085728
  0
ARC
  8
OBRYS
 10
672.937828
 20
112.871790
 40
5.000000
 50
0.000000
 51
40.000000
  0
LINE
  8
OSA
 10
682.937828
 20
53.033916
 11
658.937828
 21
53.033916
  0
LINE
  8
NEVIDI
  6
HIDDEN2
 10
678.937828
 20
-34.966084
 11
678.937828
 21
-46.966084
  0
LINE
  8
OSA
 10
673.437828
 20
-27.366084
 11
673.437828
 21
-56.366084
  0
LINE
  8
NEVIDI
  6
HIDDEN2
 10
667.937828
 20
-34.966084
 11
667.937828
 21
-46.966084
  0
ARC
  8
OBRYS
 10
672.937828
 20
-6.803958
 40
5.000000
 50
320.000000
 51
360.000000
  0
LINE
  8
OBRYS
 10
670.844312
 20
123.033916
 11
663.937828
 21
123.033916
  0
ARC
  8
OBRYS
 10
670.844312
 20
120.033916
 40
3.000000
 50
40.000000
 51
90.000000
  0
LINE
  8
OBRYS
 10
673.142445
 20
121.962279
 11
677.235961
 21
117.083817
  0
ARC
  8
OBRYS
 10
674.937828
 20
115.155454
 40
3.000000
 50
0.000000
 51
40.000000
  0
LINE
  8
OBRYS
 10
663.937828
 20
123.033916
 11
663.937828
 21
53.033916
  0
ARC
  8
OBRYS
 10
673.060536
 20
-19.103511
 40
3.000000
 50
140.000000
 51
225.000000
  0
LINE
  8
OBRYS
 10
677.937828
 20
-6.803959
 11
677.937828
 21
53.033916
  0
LINE
  8
OBRYS
 10
666.098359
 20
24.038967
 11
669.787102
 21
39.110050
  0
LINE
  8
OBRYS
 10
669.787102
 20
39.110050
 11
670.937828
 21
53.033916
  0
LINE
  8
OBRYS
 10
663.937828
 20
26.395332
 11
663.937828
 21
53.033916
  0
ARC
  8
OBRYS
 10
660.937828
 20
26.395332
 40
3.000000
 50
270.000000
 51
360.000000
  0
LINE
  8
OBRYS
 10
660.937828
 20
23.395332
 11
659.437828
 21
23.395332
  0
LINE
  8
OBRYS
 10
670.937828
 20
55.533916
 11
677.937828
 21
55.533916
  0
LINE
  8
OBRYS
 10
670.937828
 20
50.533916
 11
677.937828
 21
50.533916
  0
LINE
  8
OBRYS
 10
677.827984
 20
110.930342
 11
677.937828
 21
110.266474
  0
LINE
  8
OBRYS
 10
677.636291
 20
112.020905
 11
677.827984
 21
110.930342
  0
LINE
  8
OBRYS
 10
677.409299
 20
112.415303
 11
677.636291
 21
112.020905
  0
LINE
  8
OBRYS
 10
676.768050
 20
113.480080
 11
677.409299
 21
112.415303
  0
POLYLINE
  8
OBRYS
 66
    1
  0
VERTEX
  8
OBRYS
 10
671.179749
 20
-12.208553
  0
VERTEX
  8
OBRYS
 10
671.654114
 20
-12.064445
  0
VERTEX
  8
OBRYS
 10
672.342834
 20
-11.637653
  0
VERTEX
  8
OBRYS
 10
673.219421
 20
-10.944576
  0
VERTEX
  8
OBRYS
 10
674.250122
 20
-10.011856
  0
VERTEX
  8
OBRYS
 10
675.395447
 20
-8.875332
  0
VERTEX
  8
OBRYS
 10
676.611267
 20
-7.578681
  0
VERTEX
  8
OBRYS
 10
676.768066
 20
-7.400714
  0
VERTEX
  8
OBRYS
 10
677.513184
 20
-6.171733
  0
VERTEX
  8
OBRYS
 10
677.636353
 20
-5.956302
  0
VERTEX
  8
OBRYS
 10
677.854187
 20
-4.708553
  0
VERTEX
  8
OBRYS
 10
677.937866
 20
-4.199939
  0
VERTEX
  8
OBRYS
 10
677.937866
 20
-3.245376
  0
VERTEX
  8
OBRYS
 10
677.937866
 20
-1.838428
  0
VERTEX
  8
OBRYS
 10
677.937866
 20
-0.541778
  0
VERTEX
  8
OBRYS
 10
677.937866
 20
0.594750
  0
VERTEX
  8
OBRYS
 10
677.937866
 20
1.527466
  0
VERTEX
  8
OBRYS
 10
677.937866
 20
2.220543
  0
VERTEX
  8
OBRYS
 10
677.937866
 20
2.647331
  0
VERTEX
  8
OBRYS
 10
677.937866
 20
2.791443
  0
SEQEND
  8
OBRYS
  0
POLYLINE
  8
OBRYS
 66
    1
  0
VERTEX
  8
OBRYS
 10
674.250122
 20
21.616203
  0
VERTEX
  8
OBRYS
 10
675.395447
 20
21.760315
  0
VERTEX
  8
OBRYS
 10
676.611267
 20
22.187103
  0
VERTEX
  8
OBRYS
 10
676.768066
 20
22.274773
  0
VERTEX
  8
OBRYS
 10
677.513184
 20
22.880180
  0
VERTEX
  8
OBRYS
 10
677.636353
 20
23.017509
  0
VERTEX
  8
OBRYS
 10
677.854187
 20
23.812897
  0
VERTEX
  8
OBRYS
 10
677.937866
 20
24.207970
  0
VERTEX
  8
OBRYS
 10
677.937866
 20
24.949425
  0
VERTEX
  8
OBRYS
 10
677.937866
 20
26.246078
  0
VERTEX
  8
OBRYS
 10
677.937866
 20
27.653023
  0
VERTEX
  8
OBRYS
 10
677.937866
 20
29.116203
  0
VERTEX
  8
OBRYS
 10
677.937866
 20
30.579376
  0
VERTEX
  8
OBRYS
 10
677.937866
 20
31.986328
  0
VERTEX
  8
OBRYS
 10
677.937866
 20
33.282974
  0
VERTEX
  8
OBRYS
 10
677.937866
 20
34.419502
  0
VERTEX
  8
OBRYS
 10
677.937866
 20
35.352226
  0
VERTEX
  8
OBRYS
 10
677.937866
 20
36.045296
  0
VERTEX
  8
OBRYS
 10
677.937866
 20
36.472092
  0
VERTEX
  8
OBRYS
 10
677.937866
 20
36.566109
  0
VERTEX
  8
OBRYS
 10
677.854187
 20
36.616203
  0
SEQEND
  8
OBRYS
  0
POLYLINE
  8
OBRYS
 66
    1
  0
VERTEX
  8
OBRYS
 10
677.937866
 20
0.918968
  0
VERTEX
  8
OBRYS
 10
677.854187
 20
0.594750
  0
VERTEX
  8
OBRYS
 10
677.636353
 20
-0.374443
  0
VERTEX
  8
OBRYS
 10
677.513184
 20
-0.541778
  0
VERTEX
  8
OBRYS
 10
676.768066
 20
-1.674415
  0
VERTEX
  8
OBRYS
 10
676.611267
 20
-1.838428
  0
VERTEX
  8
OBRYS
 10
675.395447
 20
-3.245376
  0
VERTEX
  8
OBRYS
 10
674.250122
 20
-4.708553
  0
VERTEX
  8
OBRYS
 10
673.219421
 20
-6.171733
  0
VERTEX
  8
OBRYS
 10
672.342834
 20
-7.578681
  0
VERTEX
  8
OBRYS
 10
671.654114
 20
-8.875332
  0
VERTEX
  8
OBRYS
 10
671.179749
 20
-10.011856
  0
VERTEX
  8
OBRYS
 10
670.937866
 20
-10.944576
  0
VERTEX
  8
OBRYS
 10
670.937866
 20
-11.637653
  0
VERTEX
  8
OBRYS
 10
670.937866
 20
-12.064445
  0
VERTEX
  8
OBRYS
 10
671.179749
 20
-12.208553
  0
SEQEND
  8
OBRYS
  0
POLYLINE
  8
OBRYS
 66
    1
  0
VERTEX
  8
OBRYS
 10
677.854187
 20
36.616203
  0
VERTEX
  8
OBRYS
 10
677.636353
 20
36.493309
  0
VERTEX
  8
OBRYS
 10
677.513184
 20
36.472092
  0
VERTEX
  8
OBRYS
 10
676.768066
 20
36.099281
  0
VERTEX
  8
OBRYS
 10
676.611267
 20
36.045296
  0
VERTEX
  8
OBRYS
 10
675.395447
 20
35.352226
  0
VERTEX
  8
OBRYS
 10
674.250122
 20
34.419502
  0
VERTEX
  8
OBRYS
 10
673.219421
 20
33.282974
  0
VERTEX
  8
OBRYS
 10
672.342834
 20
31.986328
  0
VERTEX
  8
OBRYS
 10
671.654114
 20
30.579376
  0
VERTEX
  8
OBRYS
 10
671.179749
 20
29.116203
  0
VERTEX
  8
OBRYS
 10
670.937866
 20
27.653023
  0
VERTEX
  8
OBRYS
 10
670.937866
 20
26.246078
  0
VERTEX
  8
OBRYS
 10
670.937866
 20
24.949425
  0
VERTEX
  8
OBRYS
 10
671.179749
 20
23.812897
  0
VERTEX
  8
OBRYS
 10
671.654114
 20
22.880180
  0
VERTEX
  8
OBRYS
 10
672.342834
 20
22.187103
  0
VERTEX
  8
OBRYS
 10
673.219421
 20
21.760315
  0
VERTEX
  8
OBRYS
 10
674.250122
 20
21.616203
  0
SEQEND
  8
OBRYS
  0
LINE
  8
OBRYS
 10
669.306815
 20
120.449590
 11
663.937828
 21
120.449590
  0
LINE
  8
OBRYS
 10
671.564242
 20
119.425450
 11
676.768050
 21
113.480080
  0
ARC
  8
OBRYS
 10
669.306815
 20
117.449590
 40
3.000000
 50
41.194706
 51
90.000000
  0
LINE
  8
OBRYS
 10
663.937828
 20
114.029290
 11
669.395984
 21
114.029290
  0
LINE
  8
OBRYS
 10
677.937828
 20
105.150971
 11
677.827984
 21
105.583066
  0
LINE
  8
OBRYS
 10
677.827984
 20
105.583066
 11
677.636291
 21
106.447519
  0
LINE
  8
OBRYS
 10
677.636291
 20
106.447519
 11
677.409299
 21
106.760145
  0
LINE
  8
OBRYS
 10
677.409299
 20
106.760145
 11
676.768050
 21
107.723518
  0
LINE
  8
OBRYS
 10
676.768050
 20
107.723518
 11
671.552159
 21
113.115175
  0
ARC
  8
OBRYS
 10
669.395984
 20
111.029290
 40
3.000000
 50
44.050707
 51
90.000000
  0
LINE
  8
OBRYS
 10
669.858341
 20
87.378702
 11
663.937828
 21
87.378702
  0
ARC
  8
OBRYS
 10
669.858341
 20
84.378702
 40
3.000000
 50
59.798611
 51
90.000000
  0
LINE
  8
OBRYS
 10
677.937828
 20
115.155454
 11
677.937828
 21
53.033916
  0
LINE
  8
OBRYS
 10
671.367464
 20
86.971490
 11
677.192389
 21
83.581113
  0
ARC
  8
OBRYS
 10
676.437828
 20
82.284719
 40
1.500000
 50
0.000000
 51
59.798611
  0
ARC
  8
OBRYS
 10
676.437828
 20
68.461352
 40
1.500000
 50
0.000000
 51
72.288290
  0
LINE
  8
OBRYS
 10
661.937828
 20
13.571239
 11
666.098359
 21
24.038967
  0
LINE
  8
OSA
 62
     2
  6
CONTINUOUS
 10
683.437828
 20
-34.966084
 11
664.937828
 21
-34.966084
  0
LINE
  8
OBRYS
 10
661.937828
 20
-31.966084
 11
661.937828
 21
13.571239
  0
ARC
  8
OSA
 62
     2
  6
CONTINUOUS
 10
664.937828
 20
-31.966084
 40
3.000000
 50
180.000000
 51
270.000000
  0
LINE
  8
OBRYS
 10
662.639694
 20
-26.855414
 11
676.768050
 21
-10.017896
  0
ARC
  8
OBRYS
 10
664.937828
 20
-28.783777
 40
3.000000
 50
140.000000
 51
180.000000
  0
LINE
  8
OBRYS
 10
670.704118
 20
71.792504
 11
663.937828
 21
71.792504
  0
LINE
  8
OBRYS
 10
676.894169
 20
69.890251
 11
671.160460
 21
71.721403
  0
ARC
  8
OBRYS
 10
670.704118
 20
70.292504
 40
1.500000
 50
72.288290
 51
90.000000
  0
LINE
  8
OBRYS
 10
670.937828
 20
122.134317
 11
670.937828
 21
120.603417
  0
LINE
  8
OBRYS
 10
670.937828
 20
112.650205
 11
670.937828
 21
88.408301
  0
LINE
  8
OBRYS
 10
670.937828
 20
69.822908
 11
670.937828
 21
53.033916
  0
ENDBLK
  8
OBRYS
  0
BLOCK
  8
OBRYS
  2
_18
 70
   64
 10
557.937828
 20
53.033916
  0
ARC
  8
OSA
 62
     2
  6
CONTINUOUS
 10
576.437828
 20
20.395332
 40
3.000000
 50
0.000000
 51
90.000000
  0
LINE
  8
OSA
 62
     2
  6
CONTINUOUS
 10
579.437828
 20
20.395332
 11
579.437828
 21
-46.966084
  0
LINE
  8
OBRYS
 10
550.316507
 20
-35.844764
 11
564.936440
 21
-21.224831
  0
LINE
  8
OSA
 62
     2
  6
CONTINUOUS
 10
549.437828
 20
-37.966084
 11
549.437828
 21
-46.966084
  0
LINE
  8
OSA
 62
     2
  6
CONTINUOUS
 10
549.437828
 20
-46.966084
 11
579.437828
 21
-46.966084
  0
ARC
  8
OBRYS
 10
552.437828
 20
-37.966084
 40
3.000000
 50
135.000000
 51
180.000000
  0
ARC
  8
OSA
 62
     2
  6
CONTINUOUS
 10
552.437828
 20
-37.966084
 40
3.000000
 50
90.000000
 51
135.000000
  0
LINE
  8
OSA
 10
552.937828
 20
95.533916
 11
571.937828
 21
95.533916
  0
LINE
  8
OSA
 10
552.937828
 20
10.533916
 11
571.937828
 21
10.533916
  0
ARC
  8
OBRYS
 10
567.269366
 20
118.033916
 40
5.000000
 50
90.000000
 51
140.000000
  0
LINE
  8
OBRYS
 10
563.439144
 20
121.247854
 11
559.107606
 21
116.085728
  0
ARC
  8
OBRYS
 10
562.937828
 20
112.871790
 40
5.000000
 50
140.000000
 51
180.000000
  0
LINE
  8
OSA
 10
552.937828
 20
53.033916
 11
576.937828
 21
53.033916
  0
LINE
  8
NEVIDI
  6
HIDDEN2
 10
556.937828
 20
-34.966084
 11
556.937828
 21
-46.966084
  0
LINE
  8
OSA
 10
562.437828
 20
-27.366084
 11
562.437828
 21
-56.366084
  0
LINE
  8
NEVIDI
  6
HIDDEN2
 10
567.937828
 20
-34.966084
 11
567.937828
 21
-46.966084
  0
ARC
  8
OBRYS
 10
562.937828
 20
-6.803958
 40
5.000000
 50
180.000000
 51
220.000000
  0
LINE
  8
OBRYS
 10
565.031343
 20
123.033916
 11
571.937828
 21
123.033916
  0
ARC
  8
OBRYS
 10
565.031343
 20
120.033916
 40
3.000000
 50
90.000000
 51
140.000000
  0
LINE
  8
OBRYS
 10
562.733210
 20
121.962279
 11
558.639694
 21
117.083817
  0
ARC
  8
OBRYS
 10
560.937828
 20
115.155454
 40
3.000000
 50
140.000000
 51
180.000000
  0
LINE
  8
OBRYS
 10
571.937828
 20
123.033916
 11
571.937828
 21
53.033916
  0
ARC
  8
OBRYS
 10
562.815120
 20
-19.103511
 40
3.000000
 50
315.000000
 51
40.000000
  0
LINE
  8
OBRYS
 10
557.937828
 20
-6.803959
 11
557.937828
 21
53.033916
  0
LINE
  8
OBRYS
 10
569.777296
 20
24.038967
 11
566.088553
 21
39.110050
  0
LINE
  8
OBRYS
 10
566.088553
 20
39.110050
 11
564.937828
 21
53.033916
  0
LINE
  8
OBRYS
 10
571.937828
 20
26.395332
 11
571.937828
 21
53.033916
  0
ARC
  8
OBRYS
 10
574.937828
 20
26.395332
 40
3.000000
 50
180.000000
 51
270.000000
  0
LINE
  8
OBRYS
 10
574.937828
 20
23.395332
 11
576.437828
 21
23.395332
  0
LINE
  8
OBRYS
 10
564.937828
 20
55.533916
 11
557.937828
 21
55.533916
  0
LINE
  8
OBRYS
 10
564.937828
 20
50.533916
 11
557.937828
 21
50.533916
  0
LINE
  8
OBRYS
 10
558.047672
 20
110.930342
 11
557.937828
 21
110.266474
  0
LINE
  8
OBRYS
 10
558.239365
 20
112.020905
 11
558.047672
 21
110.930342
  0
LINE
  8
OBRYS
 10
558.466356
 20
112.415303
 11
558.239365
 21
112.020905
  0
LINE
  8
OBRYS
 10
559.107606
 20
113.480080
 11
558.466356
 21
112.415303
  0
POLYLINE
  8
OBRYS
 66
    1
  0
VERTEX
  8
OBRYS
 10
564.695984
 20
-12.208553
  0
VERTEX
  8
OBRYS
 10
564.221619
 20
-12.064445
  0
VERTEX
  8
OBRYS
 10
563.532898
 20
-11.637653
  0
VERTEX
  8
OBRYS
 10
562.656311
 20
-10.944576
  0
VERTEX
  8
OBRYS
 10
561.625610
 20
-10.011856
  0
VERTEX
  8
OBRYS
 10
560.480286
 20
-8.875332
  0
VERTEX
  8
OBRYS
 10
559.264465
 20
-7.578681
  0
VERTEX
  8
OBRYS
 10
559.107666
 20
-7.400714
  0
VERTEX
  8
OBRYS
 10
558.362549
 20
-6.171733
  0
VERTEX
  8
OBRYS
 10
558.239380
 20
-5.956302
  0
VERTEX
  8
OBRYS
 10
558.021545
 20
-4.708553
  0
VERTEX
  8
OBRYS
 10
557.937866
 20
-4.199939
  0
VERTEX
  8
OBRYS
 10
557.937866
 20
-3.245376
  0
VERTEX
  8
OBRYS
 10
557.937866
 20
-1.838428
  0
VERTEX
  8
OBRYS
 10
557.937866
 20
-0.541778
  0
VERTEX
  8
OBRYS
 10
557.937866
 20
0.594750
  0
VERTEX
  8
OBRYS
 10
557.937866
 20
1.527466
  0
VERTEX
  8
OBRYS
 10
557.937866
 20
2.220543
  0
VERTEX
  8
OBRYS
 10
557.937866
 20
2.647331
  0
VERTEX
  8
OBRYS
 10
557.937866
 20
2.791443
  0
SEQEND
  8
OBRYS
  0
POLYLINE
  8
OBRYS
 66
    1
  0
VERTEX
  8
OBRYS
 10
561.625610
 20
21.616203
  0
VERTEX
  8
OBRYS
 10
560.480286
 20
21.760315
  0
VERTEX
  8
OBRYS
 10
559.264465
 20
22.187103
  0
VERTEX
  8
OBRYS
 10
559.107666
 20
22.274773
  0
VERTEX
  8
OBRYS
 10
558.362549
 20
22.880180
  0
VERTEX
  8
OBRYS
 10
558.239380
 20
23.017509
  0
VERTEX
  8
OBRYS
 10
558.021545
 20
23.812897
  0
VERTEX
  8
OBRYS
 10
557.937866
 20
24.207970
  0
VERTEX
  8
OBRYS
 10
557.937866
 20
24.949425
  0
VERTEX
  8
OBRYS
 10
557.937866
 20
26.246078
  0
VERTEX
  8
OBRYS
 10
557.937866
 20
27.653023
  0
VERTEX
  8
OBRYS
 10
557.937866
 20
29.116203
  0
VERTEX
  8
OBRYS
 10
557.937866
 20
30.579376
  0
VERTEX
  8
OBRYS
 10
557.937866
 20
31.986328
  0
VERTEX
  8
OBRYS
 10
557.937866
 20
33.282974
  0
VERTEX
  8
OBRYS
 10
557.937866
 20
34.419502
  0
VERTEX
  8
OBRYS
 10
557.937866
 20
35.352226
  0
VERTEX
  8
OBRYS
 10
557.937866
 20
36.045296
  0
VERTEX
  8
OBRYS
 10
557.937866
 20
36.472092
  0
VERTEX
  8
OBRYS
 10
557.937866
 20
36.566109
  0
VERTEX
  8
OBRYS
 10
558.021545
 20
36.616203
  0
SEQEND
  8
OBRYS
  0
POLYLINE
  8
OBRYS
 66
    1
  0
VERTEX
  8
OBRYS
 10
557.937866
 20
0.918968
  0
VERTEX
  8
OBRYS
 10
558.021545
 20
0.594750
  0
VERTEX
  8
OBRYS
 10
558.239380
 20
-0.374443
  0
VERTEX
  8
OBRYS
 10
558.362549
 20
-0.541778
  0
VERTEX
  8
OBRYS
 10
559.107666
 20
-1.674415
  0
VERTEX
  8
OBRYS
 10
559.264465
 20
-1.838428
  0
VERTEX
  8
OBRYS
 10
560.480286
 20
-3.245376
  0
VERTEX
  8
OBRYS
 10
561.625610
 20
-4.708553
  0
VERTEX
  8
OBRYS
 10
562.656311
 20
-6.171733
  0
VERTEX
  8
OBRYS
 10
563.532898
 20
-7.578681
  0
VERTEX
  8
OBRYS
 10
564.221619
 20
-8.875332
  0
VERTEX
  8
OBRYS
 10
564.695984
 20
-10.011856
  0
VERTEX
  8
OBRYS
 10
564.937866
 20
-10.944576
  0
VERTEX
  8
OBRYS
 10
564.937866
 20
-11.637653
  0
VERTEX
  8
OBRYS
 10
564.937866
 20
-12.064445
  0
VERTEX
  8
OBRYS
 10
564.695984
 20
-12.208553
  0
SEQEND
  8
OBRYS
  0
POLYLINE
  8
OBRYS
 66
    1
  0
VERTEX
  8
OBRYS
 10
558.021545
 20
36.616203
  0
VERTEX
  8
OBRYS
 10
558.239380
 20
36.493309
  0
VERTEX
  8
OBRYS
 10
558.362549
 20
36.472092
  0
VERTEX
  8
OBRYS
 10
559.107666
 20
36.099281
  0
VERTEX
  8
OBRYS
 10
559.264465
 20
36.045296
  0
VERTEX
  8
OBRYS
 10
560.480286
 20
35.352226
  0
VERTEX
  8
OBRYS
 10
561.625610
 20
34.419502
  0
VERTEX
  8
OBRYS
 10
562.656311
 20
33.282974
  0
VERTEX
  8
OBRYS
 10
563.532898
 20
31.986328
  0
VERTEX
  8
OBRYS
 10
564.221619
 20
30.579376
  0
VERTEX
  8
OBRYS
 10
564.695984
 20
29.116203
  0
VERTEX
  8
OBRYS
 10
564.937866
 20
27.653023
  0
VERTEX
  8
OBRYS
 10
564.937866
 20
26.246078
  0
VERTEX
  8
OBRYS
 10
564.937866
 20
24.949425
  0
VERTEX
  8
OBRYS
 10
564.695984
 20
23.812897
  0
VERTEX
  8
OBRYS
 10
564.221619
 20
22.880180
  0
VERTEX
  8
OBRYS
 10
563.532898
 20
22.187103
  0
VERTEX
  8
OBRYS
 10
562.656311
 20
21.760315
  0
VERTEX
  8
OBRYS
 10
561.625610
 20
21.616203
  0
SEQEND
  8
OBRYS
  0
LINE
  8
OBRYS
 10
566.568841
 20
120.449590
 11
571.937828
 21
120.449590
  0
LINE
  8
OBRYS
 10
564.311413
 20
119.425450
 11
559.107606
 21
113.480080
  0
ARC
  8
OBRYS
 10
566.568841
 20
117.449590
 40
3.000000
 50
90.000000
 51
138.805294
  0
LINE
  8
OBRYS
 10
571.937828
 20
114.029290
 11
566.479671
 21
114.029290
  0
LINE
  8
OBRYS
 10
557.937828
 20
105.150971
 11
558.047672
 21
105.583066
  0
LINE
  8
OBRYS
 10
558.047672
 20
105.583066
 11
558.239365
 21
106.447519
  0
LINE
  8
OBRYS
 10
558.239365
 20
106.447519
 11
558.466356
 21
106.760145
  0
LINE
  8
OBRYS
 10
558.466356
 20
106.760145
 11
559.107606
 21
107.723518
  0
LINE
  8
OBRYS
 10
559.107606
 20
107.723518
 11
564.323497
 21
113.115175
  0
ARC
  8
OBRYS
 10
566.479671
 20
111.029290
 40
3.000000
 50
90.000000
 51
135.949293
  0
LINE
  8
OBRYS
 10
566.017314
 20
87.378702
 11
571.937828
 21
87.378702
  0
ARC
  8
OBRYS
 10
566.017314
 20
84.378702
 40
3.000000
 50
90.000000
 51
120.201389
  0
LINE
  8
OBRYS
 10
557.937828
 20
115.155454
 11
557.937828
 21
53.033916
  0
LINE
  8
OBRYS
 10
564.508192
 20
86.971490
 11
558.683266
 21
83.581113
  0
ARC
  8
OBRYS
 10
559.437828
 20
82.284719
 40
1.500000
 50
120.201389
 51
180.000000
  0
ARC
  8
OBRYS
 10
559.437828
 20
68.461352
 40
1.500000
 50
107.711710
 51
180.000000
  0
LINE
  8
OBRYS
 10
573.937828
 20
13.571239
 11
569.777296
 21
24.038967
  0
LINE
  8
OSA
 62
     2
  6
CONTINUOUS
 10
552.437828
 20
-34.966084
 11
570.937828
 21
-34.966084
  0
LINE
  8
OBRYS
 10
573.937828
 20
-31.966084
 11
573.937828
 21
13.571239
  0
ARC
  8
OSA
 62
     2
  6
CONTINUOUS
 10
570.937828
 20
-31.966084
 40
3.000000
 50
270.000000
 51
360.000000
  0
LINE
  8
OBRYS
 10
573.235961
 20
-26.855414
 11
559.107606
 21
-10.017896
  0
ARC
  8
OBRYS
 10
570.937828
 20
-28.783777
 40
3.000000
 50
0.000000
 51
40.000000
  0
LINE
  8
OBRYS
 10
565.171538
 20
71.792504
 11
571.937828
 21
71.792504
  0
LINE
  8
OBRYS
 10
558.981486
 20
69.890251
 11
564.715196
 21
71.721403
  0
ARC
  8
OBRYS
 10
565.171538
 20
70.292504
 40
1.500000
 50
90.000000
 51
107.711710
  0
LINE
  8
OBRYS
 10
564.937828
 20
122.134317
 11
564.937828
 21
120.603417
  0
LINE
  8
OBRYS
 10
564.937828
 20
112.650205
 11
564.937828
 21
88.408301
  0
LINE
  8
OBRYS
 10
564.937828
 20
69.822908
 11
564.937828
 21
53.033916
  0
ENDBLK
  8
OBRYS
  0
BLOCK
  8
OSA
  2
_19
 70
   64
 10
617.937828
 20
-6.966084
  0
LINE
  8
OSA
 10
617.937828
 20
-31.966084
 11
617.937828
 21
149.446291
  0
LINE
  8
OSA
 62
     2
  6
CONTINUOUS
 10
652.937828
 20
-16.966084
 11
652.937828
 21
-21.966084
  0
LINE
  8
OSA
 62
     2
  6
CONTINUOUS
 10
652.937828
 20
131.033916
 11
652.937828
 21
123.033916
  0
LINE
  8
OSA
 62
     2
  6
CONTINUOUS
 10
582.937828
 20
-16.966084
 11
582.937828
 21
-21.966084
  0
LINE
  8
OSA
 62
     2
  6
CONTINUOUS
 10
620.937828
 20
131.033916
 11
620.937828
 21
113.033916
  0
LINE
  8
OSA
 62
     2
  6
CONTINUOUS
 10
614.937828
 20
131.033916
 11
614.937828
 21
113.033916
  0
LINE
  8
OSA
 62
     2
  6
CONTINUOUS
 10
582.937828
 20
131.033916
 11
652.937828
 21
131.033916
  0
LINE
  8
OSA
 62
     2
  6
CONTINUOUS
 10
582.937828
 20
-21.966084
 11
652.937828
 21
-21.966084
  0
LINE
  8
OSA
 62
     2
  6
CONTINUOUS
 10
614.937828
 20
-11.966084
 11
614.937828
 21
-21.966084
  0
LINE
  8
OSA
 62
     2
  6
CONTINUOUS
 10
620.937828
 20
-11.966084
 11
620.937828
 21
-21.966084
  0
LINE
  8
OSA
 62
     2
  6
CONTINUOUS
 10
620.937828
 20
-11.966084
 11
620.937828
 21
-21.966084
  0
LINE
  8
OSA
 62
     2
  6
CONTINUOUS
 10
614.937828
 20
-11.966084
 11
614.937828
 21
-21.966084
  0
INSERT
  8
OSA
  2
M10x1__12
  6
CONTINUOUS
 10
617.937828
 20
-8.966084
  0
LINE
  8
OSA
 62
     2
  6
CONTINUOUS
 10
626.937828
 20
-8.966084
 11
608.937828
 21
-8.966084
  0
ARC
  8
OSA
 62
     2
  6
CONTINUOUS
 10
606.937828
 20
-8.966084
 40
2.000000
 50
0.000000
 51
90.000000
  0
ARC
  8
OSA
 62
     2
  6
CONTINUOUS
 10
628.937828
 20
-8.966084
 40
2.000000
 50
90.000000
 51
180.000000
  0
INSERT
  8
OSA
  2
Sroub_M10x16__13
  6
CONTINUOUS
 10
617.937828
 20
53.033916
  0
CIRCLE
  8
OSA
 62
     2
  6
CONTINUOUS
 10
617.937828
 20
53.033916
 40
9.000000
  0
ARC
  8
OSA
 62
     2
  6
CONTINUOUS
 10
629.175315
 20
116.033916
 40
3.000000
 50
270.000000
 51
336.167287
  0
LINE
  8
OSA
 62
     2
  6
CONTINUOUS
 10
631.720218
 20
114.370572
 11
632.005330
 21
114.880343
  0
LINE
  8
OSA
 62
     2
  6
CONTINUOUS
 10
632.005330
 20
114.880343
 11
632.316918
 21
115.326857
  0
LINE
  8
OSA
 62
     2
  6
CONTINUOUS
 10
632.316918
 20
115.326857
 11
632.641894
 21
115.702831
  0
LINE
  8
OSA
 62
     2
  6
CONTINUOUS
 10
632.641894
 20
115.702831
 11
632.967015
 21
116.007061
  0
LINE
  8
OSA
 62
     2
  6
CONTINUOUS
 10
632.967015
 20
116.007061
 11
633.280798
 21
116.243914
  0
LINE
  8
OSA
 62
     2
  6
CONTINUOUS
 10
633.280798
 20
116.243914
 11
633.574721
 21
116.421629
  0
LINE
  8
OSA
 62
     2
  6
CONTINUOUS
 10
633.574721
 20
116.421629
 11
633.843521
 21
116.550277
  0
LINE
  8
OSA
 62
     2
  6
CONTINUOUS
 10
633.843521
 20
116.550277
 11
634.084821
 21
116.640052
  0
LINE
  8
OSA
 62
     2
  6
CONTINUOUS
 10
634.084821
 20
116.640052
 11
634.298425
 21
116.700174
  0
LINE
  8
OSA
 62
     2
  6
CONTINUOUS
 10
634.298425
 20
116.700174
 11
634.485586
 21
116.738384
  0
LINE
  8
OSA
 62
     2
  6
CONTINUOUS
 10
634.485586
 20
116.738384
 11
634.648381
 21
116.760849
  0
LINE
  8
OSA
 62
     2
  6
CONTINUOUS
 10
634.648381
 20
116.760849
 11
634.789261
 21
116.772297
  0
LINE
  8
OSA
 62
     2
  6
CONTINUOUS
 10
634.789261
 20
116.772297
 11
634.910754
 21
116.776251
  0
LINE
  8
OSA
 62
     2
  6
CONTINUOUS
 10
634.910754
 20
116.776251
 11
634.937828
 21
116.776387
  0
LINE
  8
OSA
 62
     2
  6
CONTINUOUS
 10
634.937828
 20
104.922612
 11
634.837093
 21
104.924492
  0
LINE
  8
OSA
 62
     2
  6
CONTINUOUS
 10
634.837093
 20
104.924492
 11
634.722426
 21
104.931212
  0
LINE
  8
OSA
 62
     2
  6
CONTINUOUS
 10
634.722426
 20
104.931212
 11
634.592173
 21
104.944782
  0
LINE
  8
OSA
 62
     2
  6
CONTINUOUS
 10
634.592173
 20
104.944782
 11
634.444656
 21
104.967832
  0
LINE
  8
OSA
 62
     2
  6
CONTINUOUS
 10
634.444656
 20
104.967832
 11
634.278272
 21
105.003738
  0
LINE
  8
OSA
 62
     2
  6
CONTINUOUS
 10
634.278272
 20
105.003738
 11
634.091662
 21
105.056743
  0
LINE
  8
OSA
 62
     2
  6
CONTINUOUS
 10
634.091662
 20
105.056743
 11
633.883933
 21
105.132029
  0
LINE
  8
OSA
 62
     2
  6
CONTINUOUS
 10
633.883933
 20
105.132029
 11
633.654968
 21
105.235696
  0
LINE
  8
OSA
 62
     2
  6
CONTINUOUS
 10
633.654968
 20
105.235696
 11
633.405786
 21
105.374573
  0
LINE
  8
OSA
 62
     2
  6
CONTINUOUS
 10
633.405786
 20
105.374573
 11
633.138926
 21
105.555800
  0
LINE
  8
OSA
 62
     2
  6
CONTINUOUS
 10
633.138926
 20
105.555800
 11
632.858743
 21
105.786127
  0
LINE
  8
OSA
 62
     2
  6
CONTINUOUS
 10
632.858743
 20
105.786127
 11
632.571507
 21
106.070969
  0
LINE
  8
OSA
 62
     2
  6
CONTINUOUS
 10
632.571507
 20
106.070969
 11
632.285162
 21
106.413391
  0
LINE
  8
OSA
 62
     2
  6
CONTINUOUS
 10
632.285162
 20
106.413391
 11
632.008692
 21
106.813292
  0
LINE
  8
OSA
 62
     2
  6
CONTINUOUS
 10
632.008692
 20
106.813292
 11
631.751180
 21
107.267139
  0
LINE
  8
OSA
 62
     2
  6
CONTINUOUS
 10
631.751180
 20
107.267139
 11
631.520790
 21
107.768426
  0
LINE
  8
OSA
 62
     2
  6
CONTINUOUS
 10
631.520790
 20
107.768426
 11
631.323989
 21
108.308801
  0
LINE
  8
OSA
 62
     2
  6
CONTINUOUS
 10
631.323989
 20
108.308801
 11
631.165249
 21
108.879506
  0
LINE
  8
OSA
 62
     2
  6
CONTINUOUS
 10
631.165249
 20
108.879506
 11
631.047257
 21
109.472646
  0
LINE
  8
OSA
 62
     2
  6
CONTINUOUS
 10
631.047257
 20
109.472646
 11
630.971514
 21
110.081920
  0
LINE
  8
OSA
 62
     2
  6
CONTINUOUS
 10
630.971514
 20
110.081920
 11
630.939056
 21
110.702632
  0
LINE
  8
OSA
 62
     2
  6
CONTINUOUS
 10
630.939056
 20
110.702632
 11
630.951050
 21
111.331007
  0
LINE
  8
OSA
 62
     2
  6
CONTINUOUS
 10
630.951050
 20
111.331007
 11
631.009057
 21
111.963020
  0
LINE
  8
OSA
 62
     2
  6
CONTINUOUS
 10
631.009057
 20
111.963020
 11
631.114814
 21
112.593006
  0
LINE
  8
OSA
 62
     2
  6
CONTINUOUS
 10
631.114814
 20
112.593006
 11
631.269485
 21
113.212490
  0
LINE
  8
OSA
 62
     2
  6
CONTINUOUS
 10
631.269485
 20
113.212490
 11
631.472482
 21
113.809748
  0
LINE
  8
OSA
 62
     2
  6
CONTINUOUS
 10
631.472482
 20
113.809748
 11
631.919502
 21
114.821713
  0
LINE
  8
OSA
 62
     2
  6
CONTINUOUS
 10
629.175315
 20
113.033916
 11
590.937828
 21
113.033916
  0
LINE
  8
OSA
 62
     2
  6
CONTINUOUS
 10
634.937828
 20
104.922612
 11
647.937828
 21
104.922612
  0
LINE
  8
OSA
 62
     2
  6
CONTINUOUS
 10
634.937831
 20
68.422614
 11
647.937828
 21
68.422614
  0
LINE
  8
OSA
 62
     2
  6
CONTINUOUS
 10
634.937831
 20
83.159706
 11
647.937828
 21
83.159706
  0
POLYLINE
  8
OSA
 62
     2
  6
CONTINUOUS
 66
    1
  0
VERTEX
  8
OSA
 62
     2
  6
CONTINUOUS
 10
634.937866
 20
68.422623
  0
VERTEX
  8
OSA
 62
     2
  6
CONTINUOUS
 10
634.812622
 20
68.426285
  0
VERTEX
  8
OSA
 62
     2
  6
CONTINUOUS
 10
634.670288
 20
68.439102
  0
VERTEX
  8
OSA
 62
     2
  6
CONTINUOUS
 10
634.508972
 20
68.465103
  0
VERTEX
  8
OSA
 62
     2
  6
CONTINUOUS
 10
634.327271
 20
68.508926
  0
VERTEX
  8
OSA
 62
     2
  6
CONTINUOUS
 10
634.123901
 20
68.576797
  0
VERTEX
  8
OSA
 62
     2
  6
CONTINUOUS
 10
633.898499
 20
68.675674
  0
VERTEX
  8
OSA
 62
     2
  6
CONTINUOUS
 10
633.651733
 20
68.813858
  0
VERTEX
  8
OSA
 62
     2
  6
CONTINUOUS
 10
633.385925
 20
68.999893
  0
VERTEX
  8
OSA
 62
     2
  6
CONTINUOUS
 10
633.105103
 20
69.241592
  0
VERTEX
  8
OSA
 62
     2
  6
CONTINUOUS
 10
632.815430
 20
69.545425
  0
VERTEX
  8
OSA
 62
     2
  6
CONTINUOUS
 10
632.524780
 20
69.914444
  0
VERTEX
  8
OSA
 62
     2
  6
CONTINUOUS
 10
632.242126
 20
70.347427
  0
VERTEX
  8
OSA
 62
     2
  6
CONTINUOUS
 10
631.976196
 20
70.838394
  0
VERTEX
  8
OSA
 62
     2
  6
CONTINUOUS
 10
631.734802
 20
71.377579
  0
VERTEX
  8
OSA
 62
     2
  6
CONTINUOUS
 10
631.523438
 20
71.952774
  0
VERTEX
  8
OSA
 62
     2
  6
CONTINUOUS
 10
631.345154
 20
72.551651
  0
VERTEX
  8
OSA
 62
     2
  6
CONTINUOUS
 10
631.200745
 20
73.163834
  0
VERTEX
  8
OSA
 62
     2
  6
CONTINUOUS
 10
631.089478
 20
73.781631
  0
VERTEX
  8
OSA
 62
     2
  6
CONTINUOUS
 10
631.009705
 20
74.401016
  0
VERTEX
  8
OSA
 62
     2
  6
CONTINUOUS
 10
630.959778
 20
75.021255
  0
VERTEX
  8
OSA
 62
     2
  6
CONTINUOUS
 10
630.938660
 20
75.644302
  0
VERTEX
  8
OSA
 62
     2
  6
CONTINUOUS
 10
630.946411
 20
76.273209
  0
VERTEX
  8
OSA
 62
     2
  6
CONTINUOUS
 10
630.984375
 20
76.911758
  0
VERTEX
  8
OSA
 62
     2
  6
CONTINUOUS
 10
631.055054
 20
77.561905
  0
VERTEX
  8
OSA
 62
     2
  6
CONTINUOUS
 10
631.162048
 20
78.223404
  0
VERTEX
  8
OSA
 62
     2
  6
CONTINUOUS
 10
631.309021
 20
78.891006
  0
VERTEX
  8
OSA
 62
     2
  6
CONTINUOUS
 10
631.498901
 20
79.554459
  0
VERTEX
  8
OSA
 62
     2
  6
CONTINUOUS
 10
631.731995
 20
80.197769
  0
VERTEX
  8
OSA
 62
     2
  6
CONTINUOUS
 10
632.004883
 20
80.801651
  0
VERTEX
  8
OSA
 62
     2
  6
CONTINUOUS
 10
632.309937
 20
81.346329
  0
VERTEX
  8
OSA
 62
     2
  6
CONTINUOUS
 10
632.635437
 20
81.816666
  0
VERTEX
  8
OSA
 62
     2
  6
CONTINUOUS
 10
632.967957
 20
82.204239
  0
VERTEX
  8
OSA
 62
     2
  6
CONTINUOUS
 10
633.294434
 20
82.509048
  0
VERTEX
  8
OSA
 62
     2
  6
CONTINUOUS
 10
633.604309
 20
82.738174
  0
VERTEX
  8
OSA
 62
     2
  6
CONTINUOUS
 10
633.890259
 20
82.902481
  0
VERTEX
  8
OSA
 62
     2
  6
CONTINUOUS
 10
634.148438
 20
83.014786
  0
VERTEX
  8
OSA
 62
     2
  6
CONTINUOUS
 10
634.377563
 20
83.087051
  0
VERTEX
  8
OSA
 62
     2
  6
CONTINUOUS
 10
634.578491
 20
83.129898
  0
VERTEX
  8
OSA
 62
     2
  6
CONTINUOUS
 10
634.753235
 20
83.151871
  0
VERTEX
  8
OSA
 62
     2
  6
CONTINUOUS
 10
634.904175
 20
83.159439
  0
VERTEX
  8
OSA
 62
     2
  6
CONTINUOUS
 10
634.937866
 20
83.159683
  0
SEQEND
  8
OSA
  0
LINE
  8
OSA
 62
     2
  6
CONTINUOUS
 10
647.937828
 20
53.033916
 11
647.937828
 21
120.033916
  0
LINE
  8
OSA
 62
     2
  6
CONTINUOUS
 10
655.937828
 20
53.033916
 11
655.937828
 21
123.033916
  0
LINE
  8
OSA
 62
     2
  6
CONTINUOUS
 10
655.937828
 20
-16.966084
 11
655.937828
 21
53.033916
  0
ARC
  8
OSA
 62
     2
  6
CONTINUOUS
 10
644.937828
 20
119.776387
 40
3.000000
 50
270.000000
 51
360.000000
  0
LINE
  8
OSA
 62
     2
  6
CONTINUOUS
 10
644.937828
 20
116.776387
 11
634.937828
 21
116.776387
  0
ARC
  8
OSA
 62
     2
  6
CONTINUOUS
 10
650.937828
 20
120.033916
 40
3.000000
 50
90.000000
 51
180.000000
  0
LINE
  8
OSA
 62
     2
  6
CONTINUOUS
 10
655.937828
 20
123.033916
 11
650.937828
 21
123.033916
  0
ARC
  8
OSA
 62
     2
  6
CONTINUOUS
 10
590.937828
 20
116.033916
 40
3.000000
 50
180.000000
 51
270.000000
  0
LINE
  8
OSA
 62
     2
  6
CONTINUOUS
 10
655.937828
 20
-16.966084
 11
654.937828
 21
-16.966084
  0
LINE
  8
OSA
 10
659.937828
 20
53.033916
 11
544.749119
 21
53.033916
  0
LINE
  8
OSA
 62
     2
  6
CONTINUOUS
 10
584.937828
 20
-16.966084
 11
579.055563
 21
-16.966084
  0
ARC
  8
OSA
 62
     2
  6
CONTINUOUS
 10
584.937828
 20
-13.966084
 40
3.000000
 50
270.000000
 51
360.000000
  0
LINE
  8
OSA
 62
     2
  6
CONTINUOUS
 10
587.937828
 20
53.033916
 11
587.937828
 21
-13.966084
  0
LINE
  8
OSA
 62
     2
  6
CONTINUOUS
 10
587.937828
 20
53.033916
 11
587.937828
 21
120.033916
  0
ARC
  8
OSA
 62
     2
  6
CONTINUOUS
 10
584.937828
 20
120.033916
 40
3.000000
 50
0.000000
 51
90.000000
  0
LINE
  8
OSA
 62
     2
  6
CONTINUOUS
 10
655.937828
 20
-16.966084
 11
650.937828
 21
-16.966084
  0
ARC
  8
OSA
 62
     2
  6
CONTINUOUS
 10
650.937828
 20
-13.966084
 40
3.000000
 50
180.000000
 51
270.000000
  0
LINE
  8
OSA
 62
     2
  6
CONTINUOUS
 10
644.937828
 20
-10.708555
 11
634.937828
 21
-10.708555
  0
ARC
  8
OSA
 62
     2
  6
CONTINUOUS
 10
644.937828
 20
-13.708555
 40
3.000000
 50
0.000000
 51
90.000000
  0
LINE
  8
OSA
 62
     2
  6
CONTINUOUS
 10
655.937828
 20
53.033916
 11
655.937828
 21
-16.966084
  0
LINE
  8
OSA
 62
     2
  6
CONTINUOUS
 10
647.937828
 20
53.033916
 11
647.937828
 21
-13.966084
  0
POLYLINE
  8
OSA
 62
     2
  6
CONTINUOUS
 66
    1
  0
VERTEX
  8
OSA
 62
     2
  6
CONTINUOUS
 10
634.937866
 20
37.645210
  0
VERTEX
  8
OSA
 62
     2
  6
CONTINUOUS
 10
634.812622
 20
37.641548
  0
VERTEX
  8
OSA
 62
     2
  6
CONTINUOUS
 10
634.670288
 20
37.628731
  0
VERTEX
  8
OSA
 62
     2
  6
CONTINUOUS
 10
634.508972
 20
37.602730
  0
VERTEX
  8
OSA
 62
     2
  6
CONTINUOUS
 10
634.327271
 20
37.558907
  0
VERTEX
  8
OSA
 62
     2
  6
CONTINUOUS
 10
634.123901
 20
37.491035
  0
VERTEX
  8
OSA
 62
     2
  6
CONTINUOUS
 10
633.898499
 20
37.392159
  0
VERTEX
  8
OSA
 62
     2
  6
CONTINUOUS
 10
633.651733
 20
37.253975
  0
VERTEX
  8
OSA
 62
     2
  6
CONTINUOUS
 10
633.385925
 20
37.067940
  0
VERTEX
  8
OSA
 62
     2
  6
CONTINUOUS
 10
633.105103
 20
36.826241
  0
VERTEX
  8
OSA
 62
     2
  6
CONTINUOUS
 10
632.815430
 20
36.522408
  0
VERTEX
  8
OSA
 62
     2
  6
CONTINUOUS
 10
632.524780
 20
36.153389
  0
VERTEX
  8
OSA
 62
     2
  6
CONTINUOUS
 10
632.242126
 20
35.720406
  0
VERTEX
  8
OSA
 62
     2
  6
CONTINUOUS
 10
631.976196
 20
35.229439
  0
VERTEX
  8
OSA
 62
     2
  6
CONTINUOUS
 10
631.734802
 20
34.690254
  0
VERTEX
  8
OSA
 62
     2
  6
CONTINUOUS
 10
631.523438
 20
34.115059
  0
VERTEX
  8
OSA
 62
     2
  6
CONTINUOUS
 10
631.345154
 20
33.516182
  0
VERTEX
  8
OSA
 62
     2
  6
CONTINUOUS
 10
631.200745
 20
32.903999
  0
VERTEX
  8
OSA
 62
     2
  6
CONTINUOUS
 10
631.089478
 20
32.286201
  0
VERTEX
  8
OSA
 62
     2
  6
CONTINUOUS
 10
631.009705
 20
31.666817
  0
VERTEX
  8
OSA
 62
     2
  6
CONTINUOUS
 10
630.959778
 20
31.046577
  0
VERTEX
  8
OSA
 62
     2
  6
CONTINUOUS
 10
630.938660
 20
30.423531
  0
VERTEX
  8
OSA
 62
     2
  6
CONTINUOUS
 10
630.946411
 20
29.794624
  0
VERTEX
  8
OSA
 62
     2
  6
CONTINUOUS
 10
630.984375
 20
29.156075
  0
VERTEX
  8
OSA
 62
     2
  6
CONTINUOUS
 10
631.055054
 20
28.505928
  0
VERTEX
  8
OSA
 62
     2
  6
CONTINUOUS
 10
631.162048
 20
27.844429
  0
VERTEX
  8
OSA
 62
     2
  6
CONTINUOUS
 10
631.309021
 20
27.176826
  0
VERTEX
  8
OSA
 62
     2
  6
CONTINUOUS
 10
631.498901
 20
26.513374
  0
VERTEX
  8
OSA
 62
     2
  6
CONTINUOUS
 10
631.731995
 20
25.870064
  0
VERTEX
  8
OSA
 62
     2
  6
CONTINUOUS
 10
632.004883
 20
25.266182
  0
VERTEX
  8
OSA
 62
     2
  6
CONTINUOUS
 10
632.309937
 20
24.721504
  0
VERTEX
  8
OSA
 62
     2
  6
CONTINUOUS
 10
632.635437
 20
24.251167
  0
VERTEX
  8
OSA
 62
     2
  6
CONTINUOUS
 10
632.967957
 20
23.863594
  0
VERTEX
  8
OSA
 62
     2
  6
CONTINUOUS
 10
633.294434
 20
23.558784
  0
VERTEX
  8
OSA
 62
     2
  6
CONTINUOUS
 10
633.604309
 20
23.329659
  0
VERTEX
  8
OSA
 62
     2
  6
CONTINUOUS
 10
633.890259
 20
23.165352
  0
VERTEX
  8
OSA
 62
     2
  6
CONTINUOUS
 10
634.148438
 20
23.053047
  0
VERTEX
  8
OSA
 62
     2
  6
CONTINUOUS
 10
634.377563
 20
22.980782
  0
VERTEX
  8
OSA
 62
     2
  6
CONTINUOUS
 10
634.578491
 20
22.937935
  0
VERTEX
  8
OSA
 62
     2
  6
CONTINUOUS
 10
634.753235
 20
22.915962
  0
VERTEX
  8
OSA
 62
     2
  6
CONTINUOUS
 10
634.904175
 20
22.908394
  0
VERTEX
  8
OSA
 62
     2
  6
CONTINUOUS
 10
634.937866
 20
22.908150
  0
SEQEND
  8
OSA
  0
LINE
  8
OSA
 62
     2
  6
CONTINUOUS
 10
634.937831
 20
22.908126
 11
647.937828
 21
22.908126
  0
LINE
  8
OSA
 62
     2
  6
CONTINUOUS
 10
634.937831
 20
37.645218
 11
647.937828
 21
37.645218
  0
LINE
  8
OSA
 62
     2
  6
CONTINUOUS
 10
634.937828
 20
1.145220
 11
647.937828
 21
1.145220
  0
LINE
  8
OSA
 62
     2
  6
CONTINUOUS
 10
634.937828
 20
1.145220
 11
634.837093
 21
1.143340
  0
LINE
  8
OSA
 62
     2
  6
CONTINUOUS
 10
634.837093
 20
1.143340
 11
634.722426
 21
1.136620
  0
LINE
  8
OSA
 62
     2
  6
CONTINUOUS
 10
634.722426
 20
1.136620
 11
634.592173
 21
1.123050
  0
LINE
  8
OSA
 62
     2
  6
CONTINUOUS
 10
634.592173
 20
1.123050
 11
634.444656
 21
1.100000
  0
LINE
  8
OSA
 62
     2
  6
CONTINUOUS
 10
634.444656
 20
1.100000
 11
634.278272
 21
1.064094
  0
LINE
  8
OSA
 62
     2
  6
CONTINUOUS
 10
634.278272
 20
1.064094
 11
634.091662
 21
1.011089
  0
LINE
  8
OSA
 62
     2
  6
CONTINUOUS
 10
634.091662
 20
1.011089
 11
633.883933
 21
0.935803
  0
LINE
  8
OSA
 62
     2
  6
CONTINUOUS
 10
633.883933
 20
0.935803
 11
633.654968
 21
0.832137
  0
LINE
  8
OSA
 62
     2
  6
CONTINUOUS
 10
633.654968
 20
0.832137
 11
633.405786
 21
0.693259
  0
LINE
  8
OSA
 62
     2
  6
CONTINUOUS
 10
633.405786
 20
0.693259
 11
633.138926
 21
0.512032
  0
LINE
  8
OSA
 62
     2
  6
CONTINUOUS
 10
633.138926
 20
0.512032
 11
632.858743
 21
0.281705
  0
LINE
  8
OSA
 62
     2
  6
CONTINUOUS
 10
632.858743
 20
0.281705
 11
632.571507
 21
-0.003137
  0
LINE
  8
OSA
 62
     2
  6
CONTINUOUS
 10
632.571507
 20
-0.003137
 11
632.285162
 21
-0.345559
  0
LINE
  8
OSA
 62
     2
  6
CONTINUOUS
 10
632.285162
 20
-0.345559
 11
632.008692
 21
-0.745460
  0
LINE
  8
OSA
 62
     2
  6
CONTINUOUS
 10
632.008692
 20
-0.745460
 11
631.751180
 21
-1.199307
  0
LINE
  8
OSA
 62
     2
  6
CONTINUOUS
 10
631.751180
 20
-1.199307
 11
631.520790
 21
-1.700594
  0
LINE
  8
OSA
 62
     2
  6
CONTINUOUS
 10
631.520790
 20
-1.700594
 11
631.323989
 21
-2.240969
  0
LINE
  8
OSA
 62
     2
  6
CONTINUOUS
 10
631.323989
 20
-2.240969
 11
631.165249
 21
-2.811674
  0
LINE
  8
OSA
 62
     2
  6
CONTINUOUS
 10
631.165249
 20
-2.811674
 11
631.047257
 21
-3.404813
  0
LINE
  8
OSA
 62
     2
  6
CONTINUOUS
 10
631.047257
 20
-3.404813
 11
630.971514
 21
-4.014088
  0
LINE
  8
OSA
 62
     2
  6
CONTINUOUS
 10
630.971514
 20
-4.014088
 11
630.939056
 21
-4.634799
  0
LINE
  8
OSA
 62
     2
  6
CONTINUOUS
 10
630.939056
 20
-4.634799
 11
630.951050
 21
-5.263175
  0
LINE
  8
OSA
 62
     2
  6
CONTINUOUS
 10
630.951050
 20
-5.263175
 11
631.009057
 21
-5.895188
  0
LINE
  8
OSA
 62
     2
  6
CONTINUOUS
 10
631.009057
 20
-5.895188
 11
631.114814
 21
-6.525174
  0
LINE
  8
OSA
 62
     2
  6
CONTINUOUS
 10
631.114814
 20
-6.525174
 11
631.269485
 21
-7.144658
  0
LINE
  8
OSA
 62
     2
  6
CONTINUOUS
 10
631.269485
 20
-7.144658
 11
631.472482
 21
-7.741916
  0
LINE
  8
OSA
 62
     2
  6
CONTINUOUS
 10
631.472482
 20
-7.741916
 11
631.919502
 21
-8.753881
  0
LINE
  8
OSA
 62
     2
  6
CONTINUOUS
 10
631.720218
 20
-8.302740
 11
632.005330
 21
-8.812511
  0
LINE
  8
OSA
 62
     2
  6
CONTINUOUS
 10
632.005330
 20
-8.812511
 11
632.316918
 21
-9.259025
  0
LINE
  8
OSA
 62
     2
  6
CONTINUOUS
 10
632.316918
 20
-9.259025
 11
632.641894
 21
-9.634999
  0
LINE
  8
OSA
 62
     2
  6
CONTINUOUS
 10
632.641894
 20
-9.634999
 11
632.967015
 21
-9.939229
  0
LINE
  8
OSA
 62
     2
  6
CONTINUOUS
 10
632.967015
 20
-9.939229
 11
633.280798
 21
-10.176082
  0
LINE
  8
OSA
 62
     2
  6
CONTINUOUS
 10
633.280798
 20
-10.176082
 11
633.574721
 21
-10.353797
  0
LINE
  8
OSA
 62
     2
  6
CONTINUOUS
 10
633.574721
 20
-10.353797
 11
633.843521
 21
-10.482445
  0
LINE
  8
OSA
 62
     2
  6
CONTINUOUS
 10
633.843521
 20
-10.482445
 11
634.084821
 21
-10.572220
  0
LINE
  8
OSA
 62
     2
  6
CONTINUOUS
 10
634.084821
 20
-10.572220
 11
634.298425
 21
-10.632342
  0
LINE
  8
OSA
 62
     2
  6
CONTINUOUS
 10
634.298425
 20
-10.632342
 11
634.485586
 21
-10.670552
  0
LINE
  8
OSA
 62
     2
  6
CONTINUOUS
 10
634.485586
 20
-10.670552
 11
634.648381
 21
-10.693017
  0
LINE
  8
OSA
 62
     2
  6
CONTINUOUS
 10
634.648381
 20
-10.693017
 11
634.789261
 21
-10.704465
  0
LINE
  8
OSA
 62
     2
  6
CONTINUOUS
 10
634.789261
 20
-10.704465
 11
634.910754
 21
-10.708419
  0
LINE
  8
OSA
 62
     2
  6
CONTINUOUS
 10
634.910754
 20
-10.708419
 11
634.937828
 21
-10.708555
  0
ARC
  8
OSA
 62
     2
  6
CONTINUOUS
 10
590.937828
 20
-9.966084
 40
3.000000
 50
90.000000
 51
180.000000
  0
LINE
  8
OSA
 62
     2
  6
CONTINUOUS
 10
629.175315
 20
-6.966084
 11
590.937828
 21
-6.966084
  0
ARC
  8
OSA
 62
     2
  6
CONTINUOUS
 10
629.175315
 20
-9.966084
 40
3.000000
 50
23.832713
 51
90.000000
  0
ARC
  8
OSA
 62
     2
  6
CONTINUOUS
 10
570.937828
 20
98.277467
 40
2.000000
 50
311.888704
 51
360.000000
  0
ARC
  8
OSA
 62
     2
  6
CONTINUOUS
 10
570.937828
 20
101.741238
 40
2.000000
 50
298.545372
 51
360.000000
  0
LINE
  8
OSA
 62
     2
  6
CONTINUOUS
 10
572.937828
 20
120.775087
 11
572.937828
 21
53.033916
  0
ARC
  8
OSA
 62
     2
  6
CONTINUOUS
 10
574.937828
 20
120.775087
 40
2.000000
 50
92.000000
 51
180.000000
  0
ARC
  8
OSA
 62
     2
  6
CONTINUOUS
 10
570.937828
 20
118.862343
 40
2.000000
 50
315.000000
 51
360.000000
  0
LINE
  8
OSA
 62
     2
  6
CONTINUOUS
 10
572.937828
 20
24.159264
 11
572.937828
 21
53.033916
  0
LINE
  8
OSA
 62
     2
  6
CONTINUOUS
 10
572.937828
 20
55.273856
 11
571.937828
 21
55.514041
  0
LINE
  8
OSA
 62
     2
  6
CONTINUOUS
 10
572.937828
 20
50.793976
 11
571.937828
 21
50.553791
  0
LINE
  8
OSA
 62
     2
  6
CONTINUOUS
 10
582.937828
 20
123.055673
 11
574.868029
 21
122.773869
  0
LINE
  8
OSA
 62
     2
  6
CONTINUOUS
 10
582.937828
 20
131.033916
 11
582.937828
 21
123.033916
  0
LINE
  8
OSA
 62
     2
  6
CONTINUOUS
 10
584.937828
 20
123.033916
 11
582.937828
 21
123.033916
  0
ENDBLK
  8
OSA
  0
BLOCK
  8
OSA
  2
M10x1__12
 70
   66
 10
617.937828
 20
-8.966084
  0
LINE
  8
OSA
 10
617.937828
 20
0.362818
 11
617.937828
 21
-13.411432
  0
LINE
  8
OSA
 62
     2
  6
CONTINUOUS
 10
624.937828
 20
-8.966084
 11
610.937828
 21
-8.966084
  0
LINE
  8
OSA
 62
     2
  6
CONTINUOUS
 10
610.937828
 20
-8.966084
 11
610.937828
 21
-10.966084
  0
LINE
  8
OSA
 62
     2
  6
CONTINUOUS
 10
624.937828
 20
-8.966084
 11
624.937828
 21
-10.966084
  0
ARC
  8
OSA
 62
     2
  6
CONTINUOUS
 10
611.937828
 20
-10.966084
 40
1.000000
 50
180.000000
 51
270.000000
  0
LINE
  8
OSA
 62
     2
  6
CONTINUOUS
 10
623.937828
 20
-11.966084
 11
611.937828
 21
-11.966084
  0
ARC
  8
OSA
 62
     2
  6
CONTINUOUS
 10
623.937828
 20
-10.966084
 40
1.000000
 50
270.000000
 51
360.000000
  0
ENDBLK
  8
OSA
  0
BLOCK
  8
OSA
  2
Sroub_M10x16__13
 70
   66
 10
617.937828
 20
53.033916
  0
LINE
  8
OSA
 62
     2
  6
CONTINUOUS
 10
620.247243
 20
57.033916
 11
615.628412
 21
57.033916
  0
LINE
  8
OSA
 62
     2
  6
CONTINUOUS
 10
615.628412
 20
57.033916
 11
613.318997
 21
53.033916
  0
LINE
  8
OSA
 62
     2
  6
CONTINUOUS
 10
613.318997
 20
53.033916
 11
615.628412
 21
49.033916
  0
LINE
  8
OSA
 62
     2
  6
CONTINUOUS
 10
615.628412
 20
49.033916
 11
620.247243
 21
49.033916
  0
LINE
  8
OSA
 62
     2
  6
CONTINUOUS
 10
620.247243
 20
49.033916
 11
622.556659
 21
53.033916
  0
LINE
  8
OSA
 62
     2
  6
CONTINUOUS
 10
622.556659
 20
53.033916
 11
620.247243
 21
57.033916
  0
CIRCLE
  8
OSA
 62
     2
  6
CONTINUOUS
 10
617.937828
 20
53.033916
 40
4.618831
  0
CIRCLE
  8
OSA
 62
     2
  6
CONTINUOUS
 10
617.937828
 20
53.033916
 40
8.000000
  0
ENDBLK
  8
OSA
  0
BLOCK
  8
OSA
  2
_20
 70
   64
 10
178.417914
 20
-6.966084
  0
LINE
  8
OSA
 62
     2
  6
CONTINUOUS
 10
181.417914
 20
3.321617
 11
181.417914
 21
-21.966084
  0
LINE
  8
OSA
 62
     2
  6
CONTINUOUS
 10
175.417914
 20
3.321617
 11
175.417914
 21
-21.966084
  0
LINE
  8
OSA
 62
     2
  6
CONTINUOUS
 10
140.417914
 20
123.033916
 11
143.417914
 21
123.033916
  0
LINE
  8
OSA
 62
     2
  6
CONTINUOUS
 10
140.417914
 20
-16.966084
 11
143.417914
 21
-16.966084
  0
LINE
  8
OSA
 62
     2
  6
CONTINUOUS
 10
213.417914
 20
123.275006
 11
221.487713
 21
122.773869
  0
LINE
  8
OSA
 62
     2
  6
CONTINUOUS
 10
143.417914
 20
-21.966084
 11
143.417914
 21
131.033916
  0
LINE
  8
OSA
 62
     2
  6
CONTINUOUS
 10
213.417914
 20
-21.966084
 11
143.417914
 21
-21.966084
  0
LINE
  8
OSA
 62
     2
  6
CONTINUOUS
 10
213.417914
 20
10.747513
 11
143.417914
 21
10.747513
  0
LINE
  8
OSA
 62
     2
  6
CONTINUOUS
 10
213.417914
 20
95.320320
 11
143.417914
 21
95.320320
  0
LINE
  8
OSA
 62
     2
  6
CONTINUOUS
 10
181.417914
 20
102.746221
 11
181.417914
 21
131.626749
  0
LINE
  8
OSA
 62
     2
  6
CONTINUOUS
 10
175.417914
 20
102.746221
 11
175.417914
 21
131.626749
  0
LINE
  8
OSA
 62
     2
  6
CONTINUOUS
 10
213.417914
 20
131.033916
 11
213.417914
 21
-21.966084
  0
POLYLINE
  8
OSA
 62
     2
  6
CONTINUOUS
 66
    1
  0
VERTEX
  8
OSA
 62
     2
  6
CONTINUOUS
 10
213.432693
 20
103.321671
  0
VERTEX
  8
OSA
 62
     2
  6
CONTINUOUS
 10
213.432693
 20
103.321671
  0
VERTEX
  8
OSA
 62
     2
  6
CONTINUOUS
 10
212.687454
 20
102.622025
  0
VERTEX
  8
OSA
 62
     2
  6
CONTINUOUS
 10
212.417908
 20
102.475601
  0
VERTEX
  8
OSA
 62
     2
  6
CONTINUOUS
 10
205.503799
 20
97.581009
  0
VERTEX
  8
OSA
 62
     2
  6
CONTINUOUS
 10
199.018112
 20
95.457840
  0
VERTEX
  8
OSA
 62
     2
  6
CONTINUOUS
 10
192.699387
 20
95.873306
  0
VERTEX
  8
OSA
 62
     2
  6
CONTINUOUS
 10
186.040802
 20
98.911942
  0
VERTEX
  8
OSA
 62
     2
  6
CONTINUOUS
 10
181.417923
 20
102.746231
  0
VERTEX
  8
OSA
 62
     2
  6
CONTINUOUS
 10
180.272018
 20
103.434402
  0
VERTEX
  8
OSA
 62
     2
  6
CONTINUOUS
 10
179.045090
 20
103.676773
  0
VERTEX
  8
OSA
 62
     2
  6
CONTINUOUS
 10
178.417923
 20
103.569839
  0
VERTEX
  8
OSA
 62
     2
  6
CONTINUOUS
 10
177.790741
 20
103.676773
  0
VERTEX
  8
OSA
 62
     2
  6
CONTINUOUS
 10
176.563812
 20
103.434402
  0
VERTEX
  8
OSA
 62
     2
  6
CONTINUOUS
 10
175.417923
 20
102.746231
  0
VERTEX
  8
OSA
 62
     2
  6
CONTINUOUS
 10
170.795029
 20
98.911942
  0
VERTEX
  8
OSA
 62
     2
  6
CONTINUOUS
 10
164.136444
 20
95.873306
  0
VERTEX
  8
OSA
 62
     2
  6
CONTINUOUS
 10
157.817719
 20
95.457840
  0
VERTEX
  8
OSA
 62
     2
  6
CONTINUOUS
 10
151.332031
 20
97.581009
  0
VERTEX
  8
OSA
 62
     2
  6
CONTINUOUS
 10
144.417923
 20
102.475601
  0
VERTEX
  8
OSA
 62
     2
  6
CONTINUOUS
 10
144.148376
 20
102.622025
  0
VERTEX
  8
OSA
 62
     2
  6
CONTINUOUS
 10
143.403137
 20
103.321671
  0
SEQEND
  8
OSA
  0
POLYLINE
  8
OSA
 62
     2
  6
CONTINUOUS
 66
    1
  0
VERTEX
  8
OSA
 62
     2
  6
CONTINUOUS
 10
213.432693
 20
2.746163
  0
VERTEX
  8
OSA
 62
     2
  6
CONTINUOUS
 10
213.432693
 20
2.746163
  0
VERTEX
  8
OSA
 62
     2
  6
CONTINUOUS
 10
212.687454
 20
3.445809
  0
VERTEX
  8
OSA
 62
     2
  6
CONTINUOUS
 10
212.417908
 20
3.592232
  0
VERTEX
  8
OSA
 62
     2
  6
CONTINUOUS
 10
205.503799
 20
8.486824
  0
VERTEX
  8
OSA
 62
     2
  6
CONTINUOUS
 10
199.018112
 20
10.609993
  0
VERTEX
  8
OSA
 62
     2
  6
CONTINUOUS
 10
192.699387
 20
10.194527
  0
VERTEX
  8
OSA
 62
     2
  6
CONTINUOUS
 10
186.040802
 20
7.155892
  0
VERTEX
  8
OSA
 62
     2
  6
CONTINUOUS
 10
181.417923
 20
3.321602
  0
VERTEX
  8
OSA
 62
     2
  6
CONTINUOUS
 10
180.272018
 20
2.633431
  0
VERTEX
  8
OSA
 62
     2
  6
CONTINUOUS
 10
179.045090
 20
2.391060
  0
VERTEX
  8
OSA
 62
     2
  6
CONTINUOUS
 10
178.417923
 20
2.498055
  0
VERTEX
  8
OSA
 62
     2
  6
CONTINUOUS
 10
177.790741
 20
2.391060
  0
VERTEX
  8
OSA
 62
     2
  6
CONTINUOUS
 10
176.563812
 20
2.633431
  0
VERTEX
  8
OSA
 62
     2
  6
CONTINUOUS
 10
175.417923
 20
3.321602
  0
VERTEX
  8
OSA
 62
     2
  6
CONTINUOUS
 10
170.795029
 20
7.155892
  0
VERTEX
  8
OSA
 62
     2
  6
CONTINUOUS
 10
164.136444
 20
10.194527
  0
VERTEX
  8
OSA
 62
     2
  6
CONTINUOUS
 10
157.817719
 20
10.609993
  0
VERTEX
  8
OSA
 62
     2
  6
CONTINUOUS
 10
151.332031
 20
8.486824
  0
VERTEX
  8
OSA
 62
     2
  6
CONTINUOUS
 10
144.417923
 20
3.592232
  0
VERTEX
  8
OSA
 62
     2
  6
CONTINUOUS
 10
144.148376
 20
3.445809
  0
VERTEX
  8
OSA
 62
     2
  6
CONTINUOUS
 10
143.403137
 20
2.746163
  0
SEQEND
  8
OSA
  0
LINE
  8
OSA
 62
     2
  6
CONTINUOUS
 10
213.417914
 20
131.033916
 11
143.417914
 21
131.033916
  0
ARC
  8
OSA
 62
     2
  6
CONTINUOUS
 10
225.417914
 20
118.862343
 40
2.000000
 50
180.000000
 51
225.000000
  0
ARC
  8
OSA
 62
     2
  6
CONTINUOUS
 10
225.417914
 20
101.741238
 40
2.000000
 50
180.000000
 51
241.454628
  0
ARC
  8
OSA
 62
     2
  6
CONTINUOUS
 10
225.417914
 20
98.277467
 40
2.000000
 50
180.000000
 51
228.111296
  0
LINE
  8
OSA
 62
     2
  6
CONTINUOUS
 10
140.417914
 20
53.033916
 11
140.417914
 21
-16.966084
  0
ARC
  8
OSA
 62
     2
  6
CONTINUOUS
 10
221.417914
 20
120.775087
 40
2.000000
 50
0.000000
 51
88.000000
  0
LINE
  8
OSA
 62
     2
  6
CONTINUOUS
 10
223.417914
 20
120.775087
 11
223.417914
 21
53.033916
  0
LINE
  8
OSA
 10
136.417914
 20
53.033916
 11
251.606623
 21
53.033916
  0
LINE
  8
OSA
 62
     2
  6
CONTINUOUS
 10
140.417914
 20
-16.966084
 11
140.417914
 21
53.033916
  0
LINE
  8
OSA
 62
     2
  6
CONTINUOUS
 10
140.417914
 20
53.033916
 11
140.417914
 21
123.033916
  0
LINE
  8
OSA
 62
     2
  6
CONTINUOUS
 10
223.417914
 20
50.793976
 11
224.417914
 21
50.553791
  0
LINE
  8
OSA
 62
     2
  6
CONTINUOUS
 10
223.417914
 20
55.273856
 11
224.417914
 21
55.514041
  0
LINE
  8
OSA
 62
     2
  6
CONTINUOUS
 10
224.417914
 20
96.487789
 11
224.082543
 21
96.788581
  0
LINE
  8
OSA
 62
     2
  6
CONTINUOUS
 10
224.417914
 20
117.033916
 11
224.003701
 21
117.448130
  0
LINE
  8
OSA
 10
178.417914
 20
-26.047912
 11
178.417914
 21
150.179963
  0
LINE
  8
OSA
 62
     2
  6
CONTINUOUS
 10
223.417914
 20
24.159264
 11
223.417914
 21
53.033916
  0
LINE
  8
OSA
 62
     2
  6
CONTINUOUS
 10
213.417914
 20
-17.207174
 11
216.917914
 21
-16.989823
  0
ENDBLK
  8
OSA
  0
BLOCK
  8
OBRYS
  2
_21
 70
   64
 10
854.513579
 20
53.033916
  0
ARC
  8
OBRYS
 10
749.513579
 20
53.033916
 40
70.000000
 50
353.678944
 51
6.321056
  0
ARC
  8
OBRYS
 10
854.513579
 20
158.033916
 40
70.000000
 50
263.678944
 51
276.321056
  0
ARC
  8
OBRYS
 10
959.513579
 20
53.033916
 40
70.000000
 50
173.678944
 51
186.321056
  0
ARC
  8
OBRYS
 10
854.513579
 20
-51.966084
 40
70.000000
 50
83.678944
 51
96.321056
  0
ARC
  8
OBRYS
 10
854.513579
 20
53.033916
 40
35.000000
 50
196.040442
 51
253.959558
  0
ARC
  8
OBRYS
 10
854.513579
 20
53.033916
 40
35.000000
 50
106.040442
 51
163.959558
  0
ARC
  8
OBRYS
 10
854.513579
 20
53.033916
 40
35.000000
 50
16.040442
 51
73.959558
  0
ARC
  8
OBRYS
 10
854.513579
 20
53.033916
 40
35.000000
 50
286.040442
 51
343.959558
  0
ARC
  8
OBRYS
 10
854.513579
 20
53.033916
 40
70.000000
 50
166.068055
 51
180.000000
  0
ARC
  8
OBRYS
 10
854.513579
 20
53.033916
 40
70.000000
 50
121.068055
 51
148.931945
  0
ARC
  8
OBRYS
 10
854.513579
 20
53.033916
 40
70.000000
 50
76.068055
 51
103.931945
  0
ARC
  8
OBRYS
 10
854.513579
 20
53.033916
 40
70.000000
 50
31.068055
 51
58.931945
  0
LINE
  8
OSA
 10
789.102908
 20
80.127903
 11
804.439308
 21
73.775358
  0
ARC
  8
OBRYS
 10
796.771108
 20
76.951631
 40
7.500000
 50
257.377756
 51
57.622244
  0
ARC
  8
OBRYS
 10
796.267843
 20
88.125714
 40
2.000000
 50
148.931945
 51
240.617358
  0
LINE
  8
OBRYS
 10
800.787350
 20
83.285650
 11
795.286563
 21
86.382989
  0
LINE
  8
OBRYS
 10
795.132192
 20
69.632891
 11
789.052399
 21
71.332385
  0
ARC
  8
OBRYS
 10
788.513976
 20
69.406223
 40
2.000000
 50
74.382642
 51
166.068055
  0
ARC
  8
OBRYS
 10
838.141272
 20
119.033519
 40
2.000000
 50
103.931945
 51
195.617358
  0
LINE
  8
OBRYS
 10
837.914604
 20
112.415303
 11
836.215110
 21
118.495096
  0
LINE
  8
OBRYS
 10
824.261845
 20
106.760145
 11
821.164506
 21
112.260932
  0
ARC
  8
OBRYS
 10
819.421781
 20
111.279652
 40
2.000000
 50
29.382642
 51
121.068055
  0
ARC
  8
OBRYS
 10
830.595864
 20
110.776387
 40
7.500000
 50
212.377756
 51
12.622244
  0
LINE
  8
OSA
 10
827.419592
 20
118.444587
 11
833.772137
 21
103.108187
  0
LINE
  8
OSA
 10
881.607566
 20
118.444587
 11
875.255021
 21
103.108187
  0
ARC
  8
OBRYS
 10
878.431293
 20
110.776387
 40
7.500000
 50
167.377756
 51
327.622244
  0
ARC
  8
OBRYS
 10
889.605376
 20
111.279652
 40
2.000000
 50
58.931945
 51
150.617358
  0
LINE
  8
OBRYS
 10
884.765312
 20
106.760145
 11
887.862651
 21
112.260932
  0
LINE
  8
OBRYS
 10
871.112553
 20
112.415303
 11
872.812048
 21
118.495096
  0
ARC
  8
OBRYS
 10
870.885885
 20
119.033519
 40
2.000000
 50
344.382642
 51
76.068055
  0
ARC
  8
OBRYS
 10
920.513182
 20
69.406223
 40
2.000000
 50
13.931945
 51
105.617358
  0
LINE
  8
OBRYS
 10
913.894965
 20
69.632891
 11
919.974758
 21
71.332385
  0
LINE
  8
OBRYS
 10
908.239807
 20
83.285650
 11
913.740594
 21
86.382989
  0
ARC
  8
OBRYS
 10
912.759315
 20
88.125714
 40
2.000000
 50
299.382642
 51
31.068055
  0
ARC
  8
OBRYS
 10
912.256049
 20
76.951631
 40
7.500000
 50
122.377756
 51
282.622244
  0
ARC
  8
OBRYS
 10
854.513579
 20
53.033916
 40
61.657725
 50
344.382642
 51
15.617358
  0
ARC
  8
OBRYS
 10
854.513579
 20
53.033916
 40
61.657725
 50
29.382642
 51
61.082778
  0
ARC
  8
OBRYS
 10
854.513579
 20
53.033916
 40
61.657725
 50
299.382642
 51
330.617358
  0
ARC
  8
OBRYS
 10
854.513579
 20
53.033916
 40
61.657725
 50
254.382642
 51
285.617358
  0
ARC
  8
OBRYS
 10
854.513579
 20
53.033916
 40
61.657725
 50
209.382642
 51
240.617358
  0
CIRCLE
  8
OBRYS
 10
912.256049
 20
29.116202
 40
7.500000
  0
CIRCLE
  8
OBRYS
 10
878.431293
 20
-4.708555
 40
7.500000
  0
CIRCLE
  8
OBRYS
 10
830.595864
 20
-4.708555
 40
7.500000
  0
ARC
  8
OBRYS
 10
854.513579
 20
53.033916
 40
61.657725
 50
163.917222
 51
195.617358
  0
CIRCLE
  8
OBRYS
 10
796.771108
 20
29.116202
 40
7.500000
  0
INSERT
  8
OBRYS
  2
__15
 62
     7
 10
854.513579
 20
-29.479497
  0
LINE
  8
OSA
 10
895.951402
 20
-22.966084
 11
915.575752
 21
-22.966084
  0
LINE
  8
OSA
 10
815.304357
 20
-24.066084
 11
794.913579
 21
-24.066085
  0
ARC
  8
OBRYS
 10
854.513579
 20
53.033916
 40
70.000000
 50
0.000000
 51
14.394101
  0
LINE
  8
OBRYS
 10
908.075756
 20
-22.966084
 11
908.075756
 21
-34.966084
  0
LINE
  8
OBRYS
 10
895.951402
 20
-22.966084
 11
895.951402
 21
-34.966084
  0
ARC
  8
OBRYS
 10
902.013579
 20
-22.966084
 40
6.062177
 50
0.000000
 51
179.999995
  0
LINE
  8
OSA
 10
919.924250
 20
80.127903
 11
904.587849
 21
73.775358
  0
CIRCLE
  8
OSA
 10
854.513579
 20
53.033916
 40
42.500000
  0
CIRCLE
  8
OSA
 10
854.513579
 20
53.033916
 40
62.500000
  0
LINE
  8
OSA
 10
789.102908
 20
25.939929
 11
804.439308
 21
32.292474
  0
LINE
  8
OSA
 10
827.419592
 20
-12.376755
 11
833.772137
 21
2.959645
  0
LINE
  8
OSA
 10
881.607566
 20
-12.376755
 11
875.255021
 21
2.959645
  0
LINE
  8
OSA
 10
919.924250
 20
25.939929
 11
904.587849
 21
32.292474
  0
LINE
  8
KOTA
 62
     2
 10
784.513579
 20
-46.966084
 11
830.513579
 21
-46.966084
  0
LINE
  8
KOTA
 62
     2
 10
830.513579
 20
-44.966084
 11
854.513579
 21
-44.966084
  0
LINE
  8
NEVIDI
 10
801.513579
 20
-34.966084
 11
801.513579
 21
-46.966084
  0
LINE
  8
NEVIDI
 10
812.513579
 20
-34.966084
 11
812.513579
 21
-46.966084
  0
LINE
  8
KOTA
 62
     2
 10
878.513579
 20
-44.966084
 11
854.513579
 21
-44.966084
  0
LINE
  8
KOTA
 62
     2
 10
924.513579
 20
-46.966084
 11
878.513579
 21
-46.966084
  0
LINE
  8
NEVIDI
 10
896.513579
 20
-34.966084
 11
896.513579
 21
-46.966084
  0
LINE
  8
NEVIDI
 10
907.513579
 20
-34.966084
 11
907.513579
 21
-46.966084
  0
LINE
  8
OBRYS
 10
924.513579
 20
53.033916
 11
924.513579
 21
-46.966084
  0
LINE
  8
OBRYS
 10
784.513579
 20
53.033916
 11
784.513579
 21
-46.966084
  0
LINE
  8
OSA
 10
854.513579
 20
53.033916
 11
854.513579
 21
-46.966084
  0
LINE
  8
OSA
 10
854.513579
 20
53.033916
 11
854.513579
 21
128.033916
  0
LINE
  8
OSA
 10
854.513579
 20
53.033916
 11
779.513579
 21
53.033916
  0
LINE
  8
OSA
 10
854.513579
 20
53.033916
 11
929.513579
 21
53.033916
  0
ARC
  8
OBRYS
 10
812.013579
 20
53.033916
 40
7.500000
 50
90.000000
 51
270.000000
  0
LINE
  8
OBRYS
 10
812.013579
 20
60.533916
 11
817.993037
 21
60.533916
  0
ARC
  8
OBRYS
 10
817.993037
 20
63.533916
 40
3.000000
 50
270.000000
 51
343.959558
  0
LINE
  8
OBRYS
 10
812.013579
 20
45.533916
 11
817.993037
 21
45.533916
  0
ARC
  8
OBRYS
 10
817.993037
 20
42.533916
 40
3.000000
 50
16.040442
 51
90.000000
  0
ARC
  8
OBRYS
 10
844.013579
 20
89.554458
 40
3.000000
 50
286.040442
 51
360.000000
  0
ARC
  8
OBRYS
 10
891.034121
 20
63.533916
 40
3.000000
 50
196.040442
 51
270.000000
  0
ARC
  8
OBRYS
 10
865.013579
 20
16.513374
 40
3.000000
 50
106.040442
 51
180.000000
  0
LINE
  8
OBRYS
 10
847.013579
 20
95.533916
 11
847.013579
 21
89.554458
  0
LINE
  8
OBRYS
 10
897.013579
 20
60.533916
 11
891.034121
 21
60.533916
  0
LINE
  8
OBRYS
 10
862.013579
 20
10.533916
 11
862.013579
 21
16.513374
  0
ARC
  8
OBRYS
 10
865.013579
 20
89.554458
 40
3.000000
 50
180.000000
 51
253.959558
  0
ARC
  8
OBRYS
 10
891.034121
 20
42.533916
 40
3.000000
 50
90.000000
 51
163.959558
  0
ARC
  8
OBRYS
 10
844.013579
 20
16.513374
 40
3.000000
 50
0.000000
 51
73.959558
  0
LINE
  8
OBRYS
 10
862.013579
 20
95.533916
 11
862.013579
 21
89.554458
  0
LINE
  8
OBRYS
 10
897.013579
 20
45.533916
 11
891.034121
 21
45.533916
  0
LINE
  8
OBRYS
 10
847.013579
 20
10.533916
 11
847.013579
 21
16.513374
  0
ARC
  8
OBRYS
 10
854.513579
 20
95.533916
 40
7.500000
 50
0.000000
 51
180.000000
  0
ARC
  8
OBRYS
 10
897.013579
 20
53.033916
 40
7.500000
 50
270.000000
 51
90.000000
  0
ARC
  8
OBRYS
 10
854.513579
 20
10.533916
 40
7.500000
 50
180.000000
 51
360.000000
  0
ARC
  8
KOTA
 62
     2
 10
887.513579
 20
-30.966084
 40
4.000000
 50
180.000000
 51
270.000000
  0
ARC
  8
KOTA
 62
     2
 10
821.513579
 20
-30.966084
 40
4.000000
 50
270.000000
 51
360.000000
  0
LINE
  8
KOTA
 62
     2
 10
878.513579
 20
-40.966084
 11
854.513579
 21
-40.966084
  0
LINE
  8
KOTA
 62
     2
 10
830.513579
 20
-40.966084
 11
854.513579
 21
-40.966084
  0
ARC
  8
OBRYS
 10
854.513579
 20
53.033916
 40
61.657725
 50
118.917222
 51
151.082778
  0
ARC
  8
OBRYS
 10
854.513579
 20
53.033916
 40
61.657725
 50
73.917222
 51
106.082778
  0
LINE
  8
KOTA
 62
     2
 10
922.513579
 20
-34.966084
 11
887.513579
 21
-34.966084
  0
ARC
  8
KOTA
 62
     2
 10
922.513579
 20
-36.966084
 40
2.000000
 50
0.000000
 51
90.000000
  0
LINE
  8
KOTA
 62
     2
 10
786.513579
 20
-34.966084
 11
821.513579
 21
-34.966084
  0
ARC
  8
KOTA
 62
     2
 10
786.513579
 20
-36.966084
 40
2.000000
 50
90.000000
 51
180.000000
  0
LINE
  8
OSA
 10
902.013579
 20
-46.966084
 11
902.013579
 21
-14.865607
  0
LINE
  8
OBRYS
 10
825.513579
 20
-34.966084
 11
829.113945
 21
-34.966084
  0
LINE
  8
OBRYS
 10
883.513579
 20
-34.966084
 11
879.913212
 21
-34.966084
  0
ARC
  8
KOTA
 62
     2
 10
822.513579
 20
-15.349196
 40
3.000000
 50
0.000000
 51
64.922672
  0
LINE
  8
OBRYS
 10
830.513579
 20
-46.966084
 11
830.513579
 21
-19.486771
  0
ARC
  8
OBRYS
 10
833.513579
 20
-19.486771
 40
3.000000
 50
73.850435
 51
180.000000
  0
ARC
  8
OBRYS
 10
875.513579
 20
-19.486771
 40
3.000000
 50
0.000000
 51
106.149565
  0
LINE
  8
OBRYS
 10
878.513579
 20
-46.966084
 11
878.513579
 21
-19.486771
  0
ARC
  8
KOTA
 62
     2
 10
886.513579
 20
-15.349196
 40
3.000000
 50
115.077328
 51
180.000000
  0
LINE
  8
KOTA
 62
     2
 10
883.513579
 20
-15.349196
 11
883.513579
 21
-30.966084
  0
LINE
  8
KOTA
 62
     2
 10
825.513579
 20
-15.349196
 11
825.513579
 21
-30.966084
  0
ARC
  8
OBRYS
 10
854.513579
 20
53.033916
 40
74.278193
 50
247.842415
 51
250.754515
  0
ARC
  8
OBRYS
 10
854.513579
 20
53.033916
 40
74.278193
 50
289.245485
 51
292.157585
  0
LINE
  8
OBRYS
 10
857.013579
 20
114.640937
 11
857.013579
 21
122.989259
  0
LINE
  8
OBRYS
 10
852.013579
 20
114.640937
 11
852.013579
 21
122.989259
  0
LINE
  8
OBRYS
 10
809.183069
 20
94.828891
 11
803.279914
 21
100.732046
  0
LINE
  8
OBRYS
 10
812.718603
 20
98.364425
 11
806.815448
 21
104.267580
  0
LINE
  8
OBRYS
 10
792.906558
 20
50.533916
 11
784.558236
 21
50.533916
  0
LINE
  8
OBRYS
 10
792.906558
 20
55.533916
 11
784.558236
 21
55.533916
  0
LINE
  8
OBRYS
 10
916.120600
 20
55.533916
 11
924.468922
 21
55.533916
  0
LINE
  8
OBRYS
 10
916.120600
 20
50.533916
 11
924.468922
 21
50.533916
  0
LINE
  8
OBRYS
 10
896.308554
 20
98.364425
 11
902.211709
 21
104.267580
  0
LINE
  8
OBRYS
 10
899.844088
 20
94.828891
 11
905.747243
 21
100.732046
  0
LINE
  8
OBRYS
 10
812.718603
 20
7.703407
 11
801.233649
 21
-3.781547
  0
LINE
  8
OBRYS
 10
809.183069
 20
11.238941
 11
797.698115
 21
-0.246013
  0
LINE
  8
OBRYS
 10
896.308554
 20
7.703407
 11
907.793508
 21
-3.781547
  0
LINE
  8
OBRYS
 10
899.844088
 20
11.238941
 11
911.329042
 21
-0.246013
  0
ARC
  8
OBRYS
 10
854.513579
 20
53.033916
 40
82.513413
 50
211.967675
 51
249.423480
  0
LINE
  8
OSA
 10
807.013579
 20
-46.966084
 11
807.013579
 21
-14.965607
  0
LINE
  8
KOTA
 62
     2
 10
814.113579
 20
-24.066082
 11
814.113579
 21
-34.966084
  0
LINE
  8
KOTA
 62
     2
 10
799.913579
 20
-24.066083
 11
799.913579
 21
-34.966084
  0
ARC
  8
KOTA
 62
     2
 10
807.013579
 20
-24.066084
 40
7.100000
 50
0.000000
 51
180.000000
  0
INSERT
  8
OBRYS
  2
Srouby_s_valcovou_hlavou___16
 62
     7
 10
854.513579
 20
95.533916
  0
INSERT
  8
OBRYS
  2
Srouby_s_valcovou_hlavou___17
 62
     7
 10
812.013579
 20
53.033916
  0
INSERT
  8
OBRYS
  2
Srouby_s_valcovou_hlavou___18
 62
     7
 10
854.513579
 20
10.533916
  0
INSERT
  8
OBRYS
  2
Srouby_s_valcovou_hlavou___19
 62
     7
 10
897.013579
 20
53.033916
  0
LINE
  8
OBRYS
 10
854.513579
 20
68.833916
 11
858.513579
 21
68.833916
  0
ARC
  8
OBRYS
 10
854.513579
 20
53.033916
 40
12.500000
 50
108.662925
 51
71.337075
  0
LINE
  8
OBRYS
 10
858.513579
 20
68.833916
 11
858.513579
 21
64.876635
  0
LINE
  8
OBRYS
 10
854.513579
 20
68.833916
 11
850.513579
 21
68.833916
  0
LINE
  8
OBRYS
 10
850.513579
 20
68.833916
 11
850.513579
 21
64.876635
  0
CIRCLE
  8
OBRYS
 10
854.513579
 20
53.033916
 40
20.000000
  0
CIRCLE
  8
OBRYS
 10
854.513579
 20
53.033916
 40
27.500000
  0
ARC
  8
OBRYS
 10
854.513579
 20
151.033916
 40
65.000000
 50
261.620667
 51
278.379333
  0
ARC
  8
OBRYS
 10
756.513579
 20
53.033916
 40
65.000000
 50
351.620667
 51
8.379333
  0
ARC
  8
OBRYS
 10
854.513579
 20
-44.966084
 40
65.000000
 50
81.620667
 51
98.379333
  0
ARC
  8
OBRYS
 10
952.513579
 20
53.033916
 40
65.000000
 50
171.620667
 51
188.379333
  0
ARC
  8
OBRYS
 10
854.513579
 20
53.033916
 40
70.000000
 50
0.000000
 51
180.000000
  0
ARC
  8
OBRYS
 10
854.513579
 20
53.033916
 40
65.000000
 50
60.617358
 51
74.382642
  0
ARC
  8
OBRYS
 10
854.513579
 20
53.033916
 40
65.000000
 50
105.617358
 51
119.382642
  0
ARC
  8
OBRYS
 10
854.513579
 20
53.033916
 40
65.000000
 50
150.617358
 51
164.382642
  0
ARC
  8
OBRYS
 10
854.513579
 20
53.033916
 40
65.000000
 50
15.617358
 51
29.382642
  0
ARC
  8
OBRYS
 10
854.513579
 20
53.033916
 40
65.000000
 50
331.140340
 51
343.859660
  0
ARC
  8
OBRYS
 10
854.513579
 20
53.033916
 40
65.000000
 50
286.140340
 51
298.859660
  0
ARC
  8
OBRYS
 10
854.513579
 20
53.033916
 40
65.000000
 50
241.140340
 51
253.859660
  0
ARC
  8
OBRYS
 10
854.513579
 20
53.033916
 40
65.000000
 50
196.140340
 51
208.859660
  0
ARC
  8
OBRYS
 10
854.513579
 20
53.033916
 40
82.513413
 50
253.090442
 51
286.909558
  0
ARC
  8
OBRYS
 10
854.513579
 20
53.033916
 40
82.513413
 50
290.576520
 51
328.032325
  0
ENDBLK
  8
OBRYS
  0
BLOCK
  8
OBRYS
  2
__15
 70
   64
 10
854.513579
 20
-29.479497
  0
INSERT
  8
OBRYS
  2
*X__20
 10
0.000000
 20
0.000000
  0
INSERT
  8
OBRYS
  2
*X__21
 10
0.000000
 20
0.000000
  0
LINE
  8
OBRYS
 10
859.505522
 20
-25.479497
 11
859.505522
 21
-15.479497
  0
LINE
  8
OBRYS
 10
858.736292
 20
-15.479497
 11
858.736292
 21
-25.479497
  0
ARC
  8
OBRYS
 10
858.736292
 20
-18.556420
 40
3.076923
 50
90.000000
 51
180.000000
  0
LINE
  8
OBRYS
 10
855.659369
 20
-18.556420
 11
855.659369
 21
-22.402574
  0
ARC
  8
OBRYS
 10
858.736292
 20
-22.402574
 40
3.076923
 50
180.000000
 51
270.000000
  0
ARC
  8
OBRYS
 10
859.505522
 20
-18.556420
 40
3.076923
 50
0.000000
 51
90.000000
  0
LINE
  8
OBRYS
 10
862.582446
 20
-22.402574
 11
862.582446
 21
-18.556420
  0
ARC
  8
OBRYS
 10
859.505522
 20
-22.402574
 40
3.076923
 50
270.000000
 51
360.000000
  0
LINE
  8
OBRYS
 10
850.274753
 20
-21.633343
 11
850.274753
 21
-24.710266
  0
ARC
  8
OBRYS
 10
850.274753
 20
-22.402574
 40
3.076923
 50
0.000000
 51
90.000000
  0
LINE
  8
OBRYS
 10
850.274766
 20
-25.479497
 11
850.274753
 21
-19.325650
  0
ARC
  8
OBRYS
 10
850.274753
 20
-22.402574
 40
3.076923
 50
270.000247
 51
360.000000
  0
CIRCLE
  8
OBRYS
 10
851.620906
 20
-16.825653
 40
1.346156
  0
ARC
  8
OBRYS
 10
849.505555
 20
-22.402551
 40
3.076945
 50
180.000000
 51
270.000000
  0
LINE
  8
OBRYS
 10
849.505555
 20
-25.479497
 11
849.505555
 21
-16.825653
  0
LINE
  8
OBRYS
 10
849.989166
 20
-15.479497
 11
849.505555
 21
-15.479497
  0
ARC
  8
OBRYS
 10
851.620906
 20
-16.825653
 40
2.115351
 50
140.477989
 51
180.000000
  0
ARC
  8
OBRYS
 10
849.505587
 20
-18.556410
 40
3.076945
 50
90.000000
 51
180.000000
  0
LINE
  8
OBRYS
 10
846.428642
 20
-22.416662
 11
846.428642
 21
-18.556410
  0
INSERT
  8
OBRYS
  2
*X__22
 10
0.000000
 20
0.000000
  0
INSERT
  8
OBRYS
  2
*X__23
 10
0.000000
 20
0.000000
  0
INSERT
  8
OBRYS
  2
*X__24
 10
0.000000
 20
0.000000
  0
ENDBLK
  8
OBRYS
  0
BLOCK
  8
OBRYS
  2
Srouby_s_valcovou_hlavou___16
 70
   66
 10
854.513579
 20
95.533916
  0
LINE
  8
OBRYS
 10
851.513579
 20
93.801854
 11
851.513579
 21
97.265978
  0
LINE
  8
OBRYS
 10
851.513579
 20
97.265978
 11
854.513579
 21
98.998039
  0
LINE
  8
OBRYS
 10
854.513579
 20
98.998039
 11
857.513579
 21
97.265978
  0
LINE
  8
OBRYS
 10
857.513579
 20
97.265978
 11
857.513579
 21
93.801854
  0
LINE
  8
OBRYS
 10
857.513579
 20
93.801854
 11
854.513579
 21
92.069793
  0
LINE
  8
OBRYS
 10
854.513579
 20
92.069793
 11
851.513579
 21
93.801854
  0
CIRCLE
  8
OBRYS
 10
854.513579
 20
95.533916
 40
3.464123
  0
CIRCLE
  8
OBRYS
 10
854.513579
 20
95.533916
 40
6.500000
  0
ENDBLK
  8
OBRYS
  0
BLOCK
  8
OBRYS
  2
Srouby_s_valcovou_hlavou___17
 70
   66
 10
812.013579
 20
53.033916
  0
LINE
  8
OBRYS
 10
809.013579
 20
51.301854
 11
809.013579
 21
54.765978
  0
LINE
  8
OBRYS
 10
809.013579
 20
54.765978
 11
812.013579
 21
56.498039
  0
LINE
  8
OBRYS
 10
812.013579
 20
56.498039
 11
815.013579
 21
54.765978
  0
LINE
  8
OBRYS
 10
815.013579
 20
54.765978
 11
815.013579
 21
51.301854
  0
LINE
  8
OBRYS
 10
815.013579
 20
51.301854
 11
812.013579
 21
49.569793
  0
LINE
  8
OBRYS
 10
812.013579
 20
49.569793
 11
809.013579
 21
51.301854
  0
CIRCLE
  8
OBRYS
 10
812.013579
 20
53.033916
 40
3.464123
  0
CIRCLE
  8
OBRYS
 10
812.013579
 20
53.033916
 40
6.500000
  0
ENDBLK
  8
OBRYS
  0
BLOCK
  8
OBRYS
  2
Srouby_s_valcovou_hlavou___18
 70
   66
 10
854.513579
 20
10.533916
  0
LINE
  8
OBRYS
 10
851.513579
 20
8.801854
 11
851.513579
 21
12.265978
  0
LINE
  8
OBRYS
 10
851.513579
 20
12.265978
 11
854.513579
 21
13.998039
  0
LINE
  8
OBRYS
 10
854.513579
 20
13.998039
 11
857.513579
 21
12.265978
  0
LINE
  8
OBRYS
 10
857.513579
 20
12.265978
 11
857.513579
 21
8.801854
  0
LINE
  8
OBRYS
 10
857.513579
 20
8.801854
 11
854.513579
 21
7.069793
  0
LINE
  8
OBRYS
 10
854.513579
 20
7.069793
 11
851.513579
 21
8.801854
  0
CIRCLE
  8
OBRYS
 10
854.513579
 20
10.533916
 40
3.464123
  0
CIRCLE
  8
OBRYS
 10
854.513579
 20
10.533916
 40
6.500000
  0
ENDBLK
  8
OBRYS
  0
BLOCK
  8
OBRYS
  2
Srouby_s_valcovou_hlavou___19
 70
   66
 10
897.013579
 20
53.033916
  0
LINE
  8
OBRYS
 10
894.013579
 20
51.301854
 11
894.013579
 21
54.765978
  0
LINE
  8
OBRYS
 10
894.013579
 20
54.765978
 11
897.013579
 21
56.498039
  0
LINE
  8
OBRYS
 10
897.013579
 20
56.498039
 11
900.013579
 21
54.765978
  0
LINE
  8
OBRYS
 10
900.013579
 20
54.765978
 11
900.013579
 21
51.301854
  0
LINE
  8
OBRYS
 10
900.013579
 20
51.301854
 11
897.013579
 21
49.569793
  0
LINE
  8
OBRYS
 10
897.013579
 20
49.569793
 11
894.013579
 21
51.301854
  0
CIRCLE
  8
OBRYS
 10
897.013579
 20
53.033916
 40
3.464123
  0
CIRCLE
  8
OBRYS
 10
897.013579
 20
53.033916
 40
6.500000
  0
ENDBLK
  8
OBRYS
  0
BLOCK
  8
OBRYS
  2
*X__20
 70
   65
 10
0.0
 20
0.0
  0
LINE
  8
OBRYS
 62
     0
 10
858.735474
 20
-25.359032
 11
858.616699
 21
-25.477806
  0
LINE
  8
OBRYS
 62
     0
 10
858.340942
 20
-25.453758
 11
858.734070
 21
-25.060600
  0
LINE
  8
OBRYS
 62
     0
 10
858.735474
 20
-24.762230
 11
858.086365
 21
-25.411308
  0
LINE
  8
OBRYS
 62
     0
 10
857.848755
 20
-25.349098
 11
858.734070
 21
-24.463799
  0
LINE
  8
OBRYS
 62
     0
 10
858.735474
 20
-24.165428
 11
857.626770
 21
-25.274147
  0
LINE
  8
OBRYS
 62
     0
 10
857.417419
 20
-25.183647
 11
858.734070
 21
-23.866997
  0
LINE
  8
OBRYS
 62
     0
 10
858.735474
 20
-23.568611
 11
857.222290
 21
-25.081841
  0
LINE
  8
OBRYS
 62
     0
 10
857.035583
 20
-24.968681
 11
858.735474
 21
-23.268806
  0
LINE
  8
OBRYS
 62
     0
 10
858.734070
 20
-22.970390
 11
856.861633
 21
-24.842827
  0
LINE
  8
OBRYS
 62
     0
 10
856.699036
 20
-24.708473
 11
858.735474
 21
-22.672005
  0
LINE
  8
OBRYS
 62
     0
 10
858.734070
 20
-22.373589
 11
856.544861
 21
-24.562798
  0
LINE
  8
OBRYS
 62
     0
 10
856.402039
 20
-24.408623
 11
858.735474
 21
-22.075203
  0
LINE
  8
OBRYS
 62
     0
 10
858.734070
 20
-21.776787
 11
856.269104
 21
-24.241753
  0
LINE
  8
OBRYS
 62
     0
 10
856.147461
 20
-24.066429
 11
858.735474
 21
-21.478401
  0
LINE
  8
OBRYS
 62
     0
 10
858.734070
 20
-21.179985
 11
856.035767
 21
-23.878349
  0
LINE
  8
OBRYS
 62
     0
 10
855.936768
 20
-23.680351
 11
858.735474
 21
-20.881599
  0
LINE
  8
OBRYS
 62
     0
 10
858.735474
 20
-20.581795
 11
855.849060
 21
-23.468193
  0
LINE
  8
OBRYS
 62
     0
 10
855.774109
 20
-23.243340
 11
858.734070
 21
-20.283379
  0
LINE
  8
OBRYS
 62
     0
 10
858.735474
 20
-19.984993
 11
855.717529
 21
-23.002937
  0
LINE
  8
OBRYS
 62
     0
 10
855.676514
 20
-22.744118
 11
858.734070
 21
-19.686577
  0
LINE
  8
OBRYS
 62
     0
 10
858.735474
 20
-19.388191
 11
855.658142
 21
-22.465508
  0
LINE
  8
OBRYS
 62
     0
 10
855.658142
 20
-22.165703
 11
858.734070
 21
-19.089775
  0
LINE
  8
OBRYS
 62
     0
 10
858.735474
 20
-18.791389
 11
855.658142
 21
-21.868706
  0
LINE
  8
OBRYS
 62
     0
 10
855.658142
 20
-21.568901
 11
858.734070
 21
-18.492973
  0
LINE
  8
OBRYS
 62
     0
 10
858.735474
 20
-18.194588
 11
855.658142
 21
-21.271904
  0
LINE
  8
OBRYS
 62
     0
 10
855.658142
 20
-20.972099
 11
858.734070
 21
-17.896172
  0
LINE
  8
OBRYS
 62
     0
 10
858.735474
 20
-17.597786
 11
855.658142
 21
-20.675102
  0
LINE
  8
OBRYS
 62
     0
 10
855.658142
 20
-20.375298
 11
858.735474
 21
-17.297981
  0
LINE
  8
OBRYS
 62
     0
 10
858.734070
 20
-16.999565
 11
855.656738
 21
-20.076912
  0
LINE
  8
OBRYS
 62
     0
 10
855.658142
 20
-19.778496
 11
858.735474
 21
-16.701180
  0
LINE
  8
OBRYS
 62
     0
 10
858.734070
 20
-16.402763
 11
855.658142
 21
-19.478691
  0
LINE
  8
OBRYS
 62
     0
 10
855.658142
 20
-19.181694
 11
858.735474
 21
-16.104378
  0
LINE
  8
OBRYS
 62
     0
 10
858.734070
 20
-15.805962
 11
855.658142
 21
-18.881889
  0
LINE
  8
OBRYS
 62
     0
 10
855.658142
 20
-18.584892
 11
858.735474
 21
-15.507576
  0
LINE
  8
OBRYS
 62
     0
 10
858.451233
 20
-15.492043
 11
855.670898
 21
-18.272392
  0
LINE
  8
OBRYS
 62
     0
 10
855.724609
 20
-17.921638
 11
858.099060
 21
-15.547173
  0
LINE
  8
OBRYS
 62
     0
 10
857.680481
 20
-15.665993
 11
855.844849
 21
-17.501640
  0
LINE
  8
OBRYS
 62
     0
 10
856.130493
 20
-16.916145
 11
857.093567
 21
-15.953056
  0
LINE
  8
OBRYS
 62
     0
 10
856.830566
 20
-24.820213
 11
856.317200
 21
-24.306816
  0
LINE
  8
OBRYS
 62
     0
 10
855.894348
 20
-23.584160
 11
857.553223
 21
-25.243065
  0
LINE
  8
OBRYS
 62
     0
 10
857.997253
 20
-25.390114
 11
855.747253
 21
-23.140114
  0
LINE
  8
OBRYS
 62
     0
 10
855.680786
 20
-22.773811
 11
858.363525
 21
-25.456596
  0
LINE
  8
OBRYS
 62
     0
 10
858.684570
 20
-25.477806
 11
855.659546
 21
-22.452812
  0
LINE
  8
OBRYS
 62
     0
 10
855.658142
 20
-22.154396
 11
858.734070
 21
-25.230324
  0
LINE
  8
OBRYS
 62
     0
 10
858.735474
 20
-24.931938
 11
855.658142
 21
-21.854591
  0
LINE
  8
OBRYS
 62
     0
 10
855.658142
 20
-21.557594
 11
858.734070
 21
-24.633522
  0
LINE
  8
OBRYS
 62
     0
 10
858.735474
 20
-24.335136
 11
855.658142
 21
-21.257790
  0
LINE
  8
OBRYS
 62
     0
 10
855.658142
 20
-20.960793
 11
858.734070
 21
-24.036720
  0
LINE
  8
OBRYS
 62
     0
 10
858.735474
 20
-23.738335
 11
855.658142
 21
-20.660988
  0
LINE
  8
OBRYS
 62
     0
 10
855.656738
 20
-20.362602
 11
858.734070
 21
-23.439919
  0
LINE
  8
OBRYS
 62
     0
 10
858.735474
 20
-23.141533
 11
855.658142
 21
-20.064186
  0
LINE
  8
OBRYS
 62
     0
 10
855.656738
 20
-19.765800
 11
858.734070
 21
-22.843117
  0
LINE
  8
OBRYS
 62
     0
 10
858.734070
 20
-22.543312
 11
855.658142
 21
-19.467384
  0
LINE
  8
OBRYS
 62
     0
 10
855.658142
 20
-19.167580
 11
858.735474
 21
-22.244926
  0
LINE
  8
OBRYS
 62
     0
 10
858.734070
 20
-21.946510
 11
855.658142
 21
-18.870583
  0
LINE
  8
OBRYS
 62
     0
 10
855.658142
 20
-18.570778
 11
858.735474
 21
-21.648125
  0
LINE
  8
OBRYS
 62
     0
 10
858.734070
 20
-21.349709
 11
855.669495
 21
-18.285088
  0
LINE
  8
OBRYS
 62
     0
 10
855.704834
 20
-18.020638
 11
858.735474
 21
-21.051323
  0
LINE
  8
OBRYS
 62
     0
 10
858.734070
 20
-20.752907
 11
855.758545
 21
-17.777397
  0
LINE
  8
OBRYS
 62
     0
 10
855.827881
 20
-17.546883
 11
858.735474
 21
-20.454521
  0
LINE
  8
OBRYS
 62
     0
 10
858.734070
 20
-20.156105
 11
855.911316
 21
-17.333351
  0
LINE
  8
OBRYS
 62
     0
 10
856.008850
 20
-17.131111
 11
858.735474
 21
-19.857719
  0
LINE
  8
OBRYS
 62
     0
 10
858.735474
 20
-19.557915
 11
856.117798
 21
-16.940193
  0
LINE
  8
OBRYS
 62
     0
 10
856.235168
 20
-16.760597
 11
858.734070
 21
-19.259499
  0
LINE
  8
OBRYS
 62
     0
 10
858.735474
 20
-18.961113
 11
856.366699
 21
-16.592293
  0
LINE
  8
OBRYS
 62
     0
 10
856.506653
 20
-16.435310
 11
858.734070
 21
-18.662697
  0
LINE
  8
OBRYS
 62
     0
 10
858.735474
 20
-18.364311
 11
856.658020
 21
-16.286797
  0
LINE
  8
OBRYS
 62
     0
 10
856.817810
 20
-16.149635
 11
858.734070
 21
-18.065895
  0
LINE
  8
OBRYS
 62
     0
 10
858.735474
 20
-17.767509
 11
856.990356
 21
-16.022392
  0
LINE
  8
OBRYS
 62
     0
 10
857.171387
 20
-15.906425
 11
858.734070
 21
-17.469093
  0
LINE
  8
OBRYS
 62
     0
 10
858.735474
 20
-17.170708
 11
857.365112
 21
-15.800346
  0
LINE
  8
OBRYS
 62
     0
 10
857.571594
 20
-15.707008
 11
858.735474
 21
-16.870903
  0
LINE
  8
OBRYS
 62
     0
 10
858.734070
 20
-16.572487
 11
857.789368
 21
-15.627785
  0
LINE
  8
OBRYS
 62
     0
 10
858.024109
 20
-15.562752
 11
858.735474
 21
-16.274101
  0
LINE
  8
OBRYS
 62
     0
 10
858.734070
 20
-15.975685
 11
858.273010
 21
-15.514656
  0
LINE
  8
OBRYS
 62
     0
 10
858.543152
 20
-15.484962
 11
858.735474
 21
-15.677299
  0
ENDBLK
  8
OBRYS
  0
BLOCK
  8
OBRYS
  2
*X__21
 70
   65
 10
0.0
 20
0.0
  0
LINE
  8
OBRYS
 62
     0
 10
862.043335
 20
-24.141380
 11
861.242859
 21
-24.941826
  0
LINE
  8
OBRYS
 62
     0
 10
860.612122
 20
-25.272758
 11
862.374268
 21
-23.510628
  0
LINE
  8
OBRYS
 62
     0
 10
862.505798
 20
-23.082130
 11
860.183655
 21
-25.404228
  0
LINE
  8
OBRYS
 62
     0
 10
859.825867
 20
-25.462212
 11
862.563782
 21
-22.724297
  0
LINE
  8
OBRYS
 62
     0
 10
862.582153
 20
-22.408943
 11
859.510498
 21
-25.480644
  0
LINE
  8
OBRYS
 62
     0
 10
859.503418
 20
-25.187889
 11
862.580750
 21
-22.110527
  0
LINE
  8
OBRYS
 62
     0
 10
862.580750
 20
-21.810722
 11
859.503418
 21
-24.888084
  0
LINE
  8
OBRYS
 62
     0
 10
859.504822
 20
-24.589653
 11
862.580750
 21
-21.513771
  0
LINE
  8
OBRYS
 62
     0
 10
862.580750
 20
-21.213921
 11
859.503418
 21
-24.291283
  0
LINE
  8
OBRYS
 62
     0
 10
859.504822
 20
-23.992851
 11
862.580750
 21
-20.916969
  0
LINE
  8
OBRYS
 62
     0
 10
862.580750
 20
-20.617119
 11
859.503418
 21
-23.694481
  0
LINE
  8
OBRYS
 62
     0
 10
859.504822
 20
-23.396049
 11
862.582153
 21
-20.318733
  0
LINE
  8
OBRYS
 62
     0
 10
862.580750
 20
-20.020317
 11
859.503418
 21
-23.097664
  0
LINE
  8
OBRYS
 62
     0
 10
859.504822
 20
-22.799248
 11
862.582153
 21
-19.721977
  0
LINE
  8
OBRYS
 62
     0
 10
862.580750
 20
-19.423561
 11
859.503418
 21
-22.500862
  0
LINE
  8
OBRYS
 62
     0
 10
859.503418
 20
-22.201057
 11
862.580750
 21
-19.123711
  0
LINE
  8
OBRYS
 62
     0
 10
862.580750
 20
-18.826759
 11
859.504822
 21
-21.902641
  0
LINE
  8
OBRYS
 62
     0
 10
859.503418
 20
-21.604256
 11
862.580750
 21
-18.526909
  0
LINE
  8
OBRYS
 62
     0
 10
862.565186
 20
-18.245537
 11
859.504822
 21
-21.305840
  0
LINE
  8
OBRYS
 62
     0
 10
859.503418
 20
-21.007454
 11
862.526978
 21
-17.983864
  0
LINE
  8
OBRYS
 62
     0
 10
862.471863
 20
-17.742043
 11
859.504822
 21
-20.709084
  0
LINE
  8
OBRYS
 62
     0
 10
859.503418
 20
-20.410698
 11
862.399719
 21
-17.514336
  0
LINE
  8
OBRYS
 62
     0
 10
862.314880
 20
-17.302223
 11
859.504822
 21
-20.112282
  0
LINE
  8
OBRYS
 62
     0
 10
859.503418
 20
-19.813896
 11
862.215881
 21
-17.101418
  0
LINE
  8
OBRYS
 62
     0
 10
862.104126
 20
-16.913307
 11
859.503418
 21
-19.514046
  0
LINE
  8
OBRYS
 62
     0
 10
859.504822
 20
-19.215630
 11
861.983948
 21
-16.736549
  0
LINE
  8
OBRYS
 62
     0
 10
861.852417
 20
-16.568245
 11
859.503418
 21
-18.917290
  0
LINE
  8
OBRYS
 62
     0
 10
859.504822
 20
-18.618874
 11
861.710999
 21
-16.412697
  0
LINE
  8
OBRYS
 62
     0
 10
861.558228
 20
-16.265602
 11
859.503418
 21
-18.320488
  0
LINE
  8
OBRYS
 62
     0
 10
859.504822
 20
-18.022072
 11
861.397034
 21
-16.129860
  0
LINE
  8
OBRYS
 62
     0
 10
861.223083
 20
-16.003960
 11
859.503418
 21
-17.723686
  0
LINE
  8
OBRYS
 62
     0
 10
859.504822
 20
-17.425270
 11
861.039246
 21
-15.890846
  0
LINE
  8
OBRYS
 62
     0
 10
860.844055
 20
-15.786186
 11
859.503418
 21
-17.126884
  0
LINE
  8
OBRYS
 62
     0
 10
859.504822
 20
-16.828468
 11
860.637573
 21
-15.695686
  0
LINE
  8
OBRYS
 62
     0
 10
860.415588
 20
-15.617897
 11
859.504822
 21
-16.528664
  0
LINE
  8
OBRYS
 62
     0
 10
859.503418
 20
-16.230278
 11
860.179382
 21
-15.554253
  0
LINE
  8
OBRYS
 62
     0
 10
859.927673
 20
-15.509010
 11
859.504822
 21
-15.931862
  0
LINE
  8
OBRYS
 62
     0
 10
859.503418
 20
-15.633476
 11
859.654724
 21
-15.482109
  0
LINE
  8
OBRYS
 62
     0
 10
859.579773
 20
-25.479225
 11
859.503418
 21
-25.402855
  0
LINE
  8
OBRYS
 62
     0
 10
859.504822
 20
-25.104424
 11
859.858398
 21
-25.457985
  0
LINE
  8
OBRYS
 62
     0
 10
860.115784
 20
-25.418388
 11
859.503418
 21
-24.806053
  0
LINE
  8
OBRYS
 62
     0
 10
859.504822
 20
-24.507622
 11
860.356201
 21
-25.359032
  0
LINE
  8
OBRYS
 62
     0
 10
860.579590
 20
-25.285454
 11
859.503418
 21
-24.209251
  0
LINE
  8
OBRYS
 62
     0
 10
859.504822
 20
-23.910820
 11
860.791748
 21
-25.197807
  0
LINE
  8
OBRYS
 62
     0
 10
860.988342
 20
-25.097343
 11
859.503418
 21
-23.612434
  0
LINE
  8
OBRYS
 62
     0
 10
859.503418
 20
-23.312630
 11
861.176392
 21
-24.985649
  0
LINE
  8
OBRYS
 62
     0
 10
861.353210
 20
-24.862602
 11
859.504822
 21
-23.014214
  0
LINE
  8
OBRYS
 62
     0
 10
859.503418
 20
-22.715828
 11
861.517212
 21
-24.729668
  0
LINE
  8
OBRYS
 62
     0
 10
861.672791
 20
-24.585426
 11
859.504822
 21
-22.417412
  0
LINE
  8
OBRYS
 62
     0
 10
859.503418
 20
-22.119026
 11
861.817078
 21
-24.432671
  0
LINE
  8
OBRYS
 62
     0
 10
861.951416
 20
-24.267235
 11
859.504822
 21
-21.820610
  0
LINE
  8
OBRYS
 62
     0
 10
859.503418
 20
-21.522270
 11
862.074463
 21
-24.093285
  0
LINE
  8
OBRYS
 62
     0
 10
862.187561
 20
-23.906593
 11
859.504822
 21
-21.223854
  0
LINE
  8
OBRYS
 62
     0
 10
859.503418
 20
-20.925468
 11
862.289429
 21
-23.711449
  0
LINE
  8
OBRYS
 62
     0
 10
862.378479
 20
-23.500740
 11
859.503418
 21
-20.625618
  0
LINE
  8
OBRYS
 62
     0
 10
859.504822
 20
-20.327202
 11
862.454895
 21
-23.277275
  0
LINE
  8
OBRYS
 62
     0
 10
862.514282
 20
-23.039680
 11
859.503418
 21
-20.028862
  0
LINE
  8
OBRYS
 62
     0
 10
859.504822
 20
-19.730446
 11
862.558105
 21
-22.783745
  0
LINE
  8
OBRYS
 62
     0
 10
862.579346
 20
-22.507942
 11
859.503418
 21
-19.432060
  0
LINE
  8
OBRYS
 62
     0
 10
859.504822
 20
-19.133644
 11
862.580750
 21
-22.209526
  0
LINE
  8
OBRYS
 62
     0
 10
862.580750
 20
-21.912575
 11
859.503418
 21
-18.835258
  0
LINE
  8
OBRYS
 62
     0
 10
859.504822
 20
-18.536842
 11
862.580750
 21
-21.612724
  0
LINE
  8
OBRYS
 62
     0
 10
862.580750
 20
-21.315773
 11
859.503418
 21
-18.238457
  0
LINE
  8
OBRYS
 62
     0
 10
859.503418
 20
-17.938652
 11
862.580750
 21
-21.015923
  0
LINE
  8
OBRYS
 62
     0
 10
862.582153
 20
-20.717583
 11
859.504822
 21
-17.640236
  0
LINE
  8
OBRYS
 62
     0
 10
859.503418
 20
-17.341850
 11
862.580750
 21
-20.419167
  0
LINE
  8
OBRYS
 62
     0
 10
862.582153
 20
-20.120781
 11
859.504822
 21
-17.043434
  0
LINE
  8
OBRYS
 62
     0
 10
859.503418
 20
-16.745049
 11
862.580750
 21
-19.822365
  0
LINE
  8
OBRYS
 62
     0
 10
862.580750
 20
-19.522514
 11
859.504822
 21
-16.446632
  0
LINE
  8
OBRYS
 62
     0
 10
859.503418
 20
-16.148247
 11
862.580750
 21
-19.225563
  0
LINE
  8
OBRYS
 62
     0
 10
862.580750
 20
-18.925758
 11
859.504822
 21
-15.849831
  0
LINE
  8
OBRYS
 62
     0
 10
859.503418
 20
-15.551445
 11
862.580750
 21
-18.628761
  0
LINE
  8
OBRYS
 62
     0
 10
862.572266
 20
-18.320488
 11
859.740967
 21
-15.489189
  0
LINE
  8
OBRYS
 62
     0
 10
860.086060
 20
-15.534477
 11
862.525574
 21
-17.973976
  0
LINE
  8
OBRYS
 62
     0
 10
862.418091
 20
-17.569511
 11
860.490540
 21
-15.641945
  0
LINE
  8
OBRYS
 62
     0
 10
861.034973
 20
-15.886604
 11
862.173462
 21
-17.025032
  0
ENDBLK
  8
OBRYS
  0
BLOCK
  8
OBRYS
  2
*X__22
 70
   65
 10
0.0
 20
0.0
  0
LINE
  8
OBRYS
 62
     0
 10
852.904663
 20
-17.225075
 11
852.019348
 21
-18.110374
  0
LINE
  8
OBRYS
 62
     0
 10
851.661560
 20
-18.171196
 11
852.965454
 21
-16.867287
  0
LINE
  8
OBRYS
 62
     0
 10
852.944275
 20
-16.588692
 11
851.382996
 21
-18.149971
  0
LINE
  8
OBRYS
 62
     0
 10
851.148193
 20
-18.087746
 11
852.880615
 21
-16.355339
  0
LINE
  8
OBRYS
 62
     0
 10
852.784485
 20
-16.151695
 11
850.945984
 21
-17.990166
  0
LINE
  8
OBRYS
 62
     0
 10
850.769226
 20
-17.869957
 11
852.662842
 21
-15.976326
  0
LINE
  8
OBRYS
 62
     0
 10
852.517151
 20
-15.822182
 11
850.616455
 21
-17.722878
  0
LINE
  8
OBRYS
 62
     0
 10
850.486389
 20
-17.553185
 11
852.347473
 21
-15.692070
  0
LINE
  8
OBRYS
 62
     0
 10
852.152283
 20
-15.590248
 11
850.383118
 21
-17.359428
  0
LINE
  8
OBRYS
 62
     0
 10
850.308167
 20
-17.134575
 11
851.927429
 21
-15.515297
  0
LINE
  8
OBRYS
 62
     0
 10
851.665833
 20
-15.479942
 11
850.274231
 21
-16.871529
  0
LINE
  8
OBRYS
 62
     0
 10
850.302490
 20
-16.543434
 11
851.336304
 21
-15.509636
  0
LINE
  8
OBRYS
 62
     0
 10
850.750793
 20
-15.798134
 11
850.592407
 21
-15.956535
  0
LINE
  8
OBRYS
 62
     0
 10
850.906372
 20
-17.967537
 11
850.477905
 21
-17.539040
  0
LINE
  8
OBRYS
 62
     0
 10
850.294006
 20
-17.055382
 11
851.390076
 21
-18.151390
  0
LINE
  8
OBRYS
 62
     0
 10
851.705444
 20
-18.169777
 11
850.275635
 21
-16.739998
  0
LINE
  8
OBRYS
 62
     0
 10
850.318054
 20
-16.482613
 11
851.962830
 21
-18.127342
  0
LINE
  8
OBRYS
 62
     0
 10
852.182007
 20
-18.049568
 11
850.395874
 21
-16.263420
  0
LINE
  8
OBRYS
 62
     0
 10
850.504761
 20
-16.072502
 11
852.372925
 21
-17.940666
  0
LINE
  8
OBRYS
 62
     0
 10
852.538391
 20
-17.809151
 11
850.636292
 21
-15.907036
  0
LINE
  8
OBRYS
 62
     0
 10
850.791809
 20
-15.762779
 11
852.681213
 21
-17.652168
  0
LINE
  8
OBRYS
 62
     0
 10
852.798584
 20
-17.472572
 11
850.971436
 21
-15.645409
  0
LINE
  8
OBRYS
 62
     0
 10
851.179321
 20
-15.553474
 11
852.891968
 21
-17.266090
  0
LINE
  8
OBRYS
 62
     0
 10
852.951355
 20
-17.025673
 11
851.419739
 21
-15.494087
  0
LINE
  8
OBRYS
 62
     0
 10
851.705444
 20
-15.482765
 11
852.962646
 21
-16.739998
  0
LINE
  8
OBRYS
 62
     0
 10
852.883484
 20
-16.361000
 11
852.084412
 21
-15.561958
  0
ENDBLK
  8
OBRYS
  0
BLOCK
  8
OBRYS
  2
*X__23
 70
   65
 10
0.0
 20
0.0
  0
LINE
  8
OBRYS
 62
     0
 10
849.503479
 20
-25.403481
 11
849.428528
 21
-25.478432
  0
LINE
  8
OBRYS
 62
     0
 10
849.149902
 20
-25.460045
 11
849.504883
 21
-25.105080
  0
LINE
  8
OBRYS
 62
     0
 10
849.503479
 20
-24.806679
 11
848.892517
 21
-25.417625
  0
LINE
  8
OBRYS
 62
     0
 10
848.652100
 20
-25.358223
 11
849.503479
 21
-24.506859
  0
LINE
  8
OBRYS
 62
     0
 10
849.504883
 20
-24.208473
 11
848.428711
 21
-25.284691
  0
LINE
  8
OBRYS
 62
     0
 10
848.216553
 20
-25.196999
 11
849.503479
 21
-23.910072
  0
LINE
  8
OBRYS
 62
     0
 10
849.504883
 20
-23.611671
 11
848.018555
 21
-25.098015
  0
LINE
  8
OBRYS
 62
     0
 10
847.831909
 20
-24.984871
 11
849.503479
 21
-23.313271
  0
LINE
  8
OBRYS
 62
     0
 10
849.504883
 20
-23.014870
 11
847.656494
 21
-24.863243
  0
LINE
  8
OBRYS
 62
     0
 10
847.491089
 20
-24.728905
 11
849.503479
 21
-22.716469
  0
LINE
  8
OBRYS
 62
     0
 10
849.504883
 20
-22.418068
 11
847.336914
 21
-24.586067
  0
LINE
  8
OBRYS
 62
     0
 10
847.191223
 20
-24.431908
 11
849.503479
 21
-22.119667
  0
LINE
  8
OBRYS
 62
     0
 10
849.503479
 20
-21.819862
 11
847.056885
 21
-24.266457
  0
LINE
  8
OBRYS
 62
     0
 10
846.933838
 20
-24.092506
 11
849.504883
 21
-21.521461
  0
LINE
  8
OBRYS
 62
     0
 10
849.503479
 20
-21.223061
 11
846.819336
 21
-23.907234
  0
LINE
  8
OBRYS
 62
     0
 10
846.718872
 20
-23.710670
 11
849.504883
 21
-20.924660
  0
LINE
  8
OBRYS
 62
     0
 10
849.503479
 20
-20.626259
 11
846.629822
 21
-23.499947
  0
LINE
  8
OBRYS
 62
     0
 10
846.554871
 20
-23.277916
 11
849.504883
 21
-20.327858
  0
LINE
  8
OBRYS
 62
     0
 10
849.503479
 20
-20.029472
 11
846.494019
 21
-23.038918
  0
LINE
  8
OBRYS
 62
     0
 10
846.451599
 20
-22.784355
 11
849.504883
 21
-19.731071
  0
LINE
  8
OBRYS
 62
     0
 10
849.503479
 20
-19.432671
 11
846.428955
 21
-22.507164
  0
LINE
  8
OBRYS
 62
     0
 10
846.427551
 20
-22.211601
 11
849.504883
 21
-19.134270
  0
LINE
  8
OBRYS
 62
     0
 10
849.503479
 20
-18.835869
 11
846.427551
 21
-21.911781
  0
LINE
  8
OBRYS
 62
     0
 10
846.426147
 20
-21.613380
 11
849.503479
 21
-18.536049
  0
LINE
  8
OBRYS
 62
     0
 10
849.504883
 20
-18.237663
 11
846.427551
 21
-21.314980
  0
LINE
  8
OBRYS
 62
     0
 10
846.426147
 20
-21.016594
 11
849.503479
 21
-17.939262
  0
LINE
  8
OBRYS
 62
     0
 10
849.504883
 20
-17.640862
 11
846.427551
 21
-20.718193
  0
LINE
  8
OBRYS
 62
     0
 10
846.427551
 20
-20.418373
 11
849.503479
 21
-17.342461
  0
LINE
  8
OBRYS
 62
     0
 10
849.504883
 20
-17.044060
 11
846.427551
 21
-20.121391
  0
LINE
  8
OBRYS
 62
     0
 10
846.427551
 20
-19.821571
 11
849.504883
 21
-16.744255
  0
LINE
  8
OBRYS
 62
     0
 10
849.547302
 20
-16.404839
 11
846.427551
 21
-19.524590
  0
LINE
  8
OBRYS
 62
     0
 10
846.427551
 20
-19.224785
 11
849.687317
 21
-15.965019
  0
LINE
  8
OBRYS
 62
     0
 10
849.874023
 20
-15.478523
 11
846.426147
 21
-18.926384
  0
LINE
  8
OBRYS
 62
     0
 10
846.427551
 20
-18.627983
 11
849.575623
 21
-15.479942
  0
LINE
  8
OBRYS
 62
     0
 10
849.267334
 20
-15.488426
 11
846.436035
 21
-18.319679
  0
LINE
  8
OBRYS
 62
     0
 10
846.482727
 20
-17.976021
 11
848.923645
 21
-15.535088
  0
LINE
  8
OBRYS
 62
     0
 10
848.517761
 20
-15.641167
 11
846.588806
 21
-17.570152
  0
LINE
  8
OBRYS
 62
     0
 10
846.834839
 20
-17.027092
 11
847.974731
 21
-15.887230
  0
LINE
  8
OBRYS
 62
     0
 10
847.635315
 20
-24.847694
 11
847.059753
 21
-24.272102
  0
LINE
  8
OBRYS
 62
     0
 10
846.658081
 20
-23.570656
 11
848.336731
 21
-25.249321
  0
LINE
  8
OBRYS
 62
     0
 10
848.778015
 20
-25.393578
 11
846.513855
 21
-23.129417
  0
LINE
  8
OBRYS
 62
     0
 10
846.448792
 20
-22.764549
 11
849.142883
 21
-25.458626
  0
LINE
  8
OBRYS
 62
     0
 10
849.461060
 20
-25.479851
 11
846.426147
 21
-22.444939
  0
LINE
  8
OBRYS
 62
     0
 10
846.427551
 20
-22.146538
 11
849.503479
 21
-25.222466
  0
LINE
  8
OBRYS
 62
     0
 10
849.504883
 20
-24.924065
 11
846.427551
 21
-21.846733
  0
LINE
  8
OBRYS
 62
     0
 10
846.427551
 20
-21.549751
 11
849.503479
 21
-24.625664
  0
LINE
  8
OBRYS
 62
     0
 10
849.504883
 20
-24.327263
 11
846.427551
 21
-21.249931
  0
LINE
  8
OBRYS
 62
     0
 10
846.426147
 20
-20.951530
 11
849.503479
 21
-24.028862
  0
LINE
  8
OBRYS
 62
     0
 10
849.504883
 20
-23.730461
 11
846.427551
 21
-20.653130
  0
LINE
  8
OBRYS
 62
     0
 10
846.426147
 20
-20.354729
 11
849.503479
 21
-23.432060
  0
LINE
  8
OBRYS
 62
     0
 10
849.504883
 20
-23.133659
 11
846.427551
 21
-20.056343
  0
LINE
  8
OBRYS
 62
     0
 10
846.426147
 20
-19.757942
 11
849.503479
 21
-22.835258
  0
LINE
  8
OBRYS
 62
     0
 10
849.503479
 20
-22.535454
 11
846.427551
 21
-19.459541
  0
LINE
  8
OBRYS
 62
     0
 10
846.427551
 20
-19.159721
 11
849.504883
 21
-22.237053
  0
LINE
  8
OBRYS
 62
     0
 10
849.503479
 20
-21.938652
 11
846.427551
 21
-18.862740
  0
LINE
  8
OBRYS
 62
     0
 10
846.427551
 20
-18.562920
 11
849.504883
 21
-21.640251
  0
LINE
  8
OBRYS
 62
     0
 10
849.503479
 20
-21.341850
 11
846.438904
 21
-18.277260
  0
LINE
  8
OBRYS
 62
     0
 10
846.475647
 20
-18.014214
 11
849.504883
 21
-21.043449
  0
LINE
  8
OBRYS
 62
     0
 10
849.503479
 20
-20.745064
 11
846.529419
 21
-17.770973
  0
LINE
  8
OBRYS
 62
     0
 10
846.600098
 20
-17.541862
 11
849.504883
 21
-20.446663
  0
LINE
  8
OBRYS
 62
     0
 10
849.503479
 20
-20.148262
 11
846.683533
 21
-17.328316
  0
LINE
  8
OBRYS
 62
     0
 10
846.779724
 20
-17.124672
 11
849.503479
 21
-19.848442
  0
LINE
  8
OBRYS
 62
     0
 10
849.504883
 20
-19.550041
 11
846.890015
 21
-16.935173
  0
LINE
  8
OBRYS
 62
     0
 10
847.008789
 20
-16.756981
 11
849.503479
 21
-19.251656
  0
LINE
  8
OBRYS
 62
     0
 10
849.504883
 20
-18.953255
 11
847.138916
 21
-16.587273
  0
LINE
  8
OBRYS
 62
     0
 10
847.278931
 20
-16.430290
 11
849.503479
 21
-18.654854
  0
LINE
  8
OBRYS
 62
     0
 10
849.504883
 20
-18.356453
 11
847.431641
 21
-16.283211
  0
LINE
  8
OBRYS
 62
     0
 10
847.591492
 20
-16.146034
 11
849.503479
 21
-18.058052
  0
LINE
  8
OBRYS
 62
     0
 10
849.504883
 20
-17.759651
 11
847.763977
 21
-16.018761
  0
LINE
  8
OBRYS
 62
     0
 10
847.946411
 20
-15.904198
 11
849.503479
 21
-17.461250
  0
LINE
  8
OBRYS
 62
     0
 10
849.503479
 20
-17.161446
 11
848.140198
 21
-15.798134
  0
LINE
  8
OBRYS
 62
     0
 10
848.346680
 20
-15.704796
 11
849.504883
 21
-16.863045
  0
LINE
  8
OBRYS
 62
     0
 10
849.519043
 20
-16.580193
 11
848.565857
 21
-15.627022
  0
LINE
  8
OBRYS
 62
     0
 10
848.799194
 20
-15.560555
 11
849.564270
 21
-16.325645
  0
LINE
  8
OBRYS
 62
     0
 10
849.633606
 20
-16.097954
 11
849.049500
 21
-15.513878
  0
LINE
  8
OBRYS
 62
     0
 10
849.319641
 20
-15.484184
 11
849.724121
 21
-15.888649
  0
LINE
  8
OBRYS
 62
     0
 10
849.830139
 20
-15.697731
 11
849.612366
 21
-15.479942
  0
LINE
  8
OBRYS
 62
     0
 10
849.912170
 20
-15.479942
 11
849.953186
 21
-15.520958
  0
ENDBLK
  8
OBRYS
  0
BLOCK
  8
OBRYS
  2
*X__24
 70
   65
 10
0.0
 20
0.0
  0
LINE
  8
OBRYS
 62
     0
 10
852.689697
 20
-24.307457
 11
852.177734
 21
-24.819405
  0
LINE
  8
OBRYS
 62
     0
 10
851.455078
 20
-25.242256
 11
853.113953
 21
-23.583382
  0
LINE
  8
OBRYS
 62
     0
 10
853.261047
 20
-23.139320
 11
851.009644
 21
-25.390755
  0
LINE
  8
OBRYS
 62
     0
 10
850.643372
 20
-25.457222
 11
853.327515
 21
-22.773033
  0
LINE
  8
OBRYS
 62
     0
 10
853.350159
 20
-22.453423
 11
850.323730
 21
-25.479851
  0
LINE
  8
OBRYS
 62
     0
 10
850.272827
 20
-25.230949
 11
853.340271
 21
-22.163521
  0
LINE
  8
OBRYS
 62
     0
 10
853.309143
 20
-21.897636
 11
850.274231
 21
-24.932549
  0
LINE
  8
OBRYS
 62
     0
 10
850.272827
 20
-24.634148
 11
853.256836
 21
-21.650154
  0
LINE
  8
OBRYS
 62
     0
 10
853.190369
 20
-21.419640
 11
850.274231
 21
-24.335747
  0
LINE
  8
OBRYS
 62
     0
 10
850.272827
 20
-24.037346
 11
853.106873
 21
-21.203270
  0
LINE
  8
OBRYS
 62
     0
 10
853.010742
 20
-20.999611
 11
850.272827
 21
-23.737541
  0
LINE
  8
OBRYS
 62
     0
 10
850.272827
 20
-23.440544
 11
852.904663
 21
-20.808693
  0
LINE
  8
OBRYS
 62
     0
 10
852.785889
 20
-20.627678
 11
850.272827
 21
-23.140739
  0
LINE
  8
OBRYS
 62
     0
 10
850.274231
 20
-22.842339
 11
852.658569
 21
-20.457970
  0
LINE
  8
OBRYS
 62
     0
 10
852.518616
 20
-20.298164
 11
850.272827
 21
-22.543938
  0
LINE
  8
OBRYS
 62
     0
 10
850.274231
 20
-22.245537
 11
852.370117
 21
-20.149681
  0
LINE
  8
OBRYS
 62
     0
 10
852.208862
 20
-20.011086
 11
850.272827
 21
-21.947136
  0
LINE
  8
OBRYS
 62
     0
 10
850.274231
 20
-21.648735
 11
852.039185
 21
-19.883797
  0
LINE
  8
OBRYS
 62
     0
 10
851.858154
 20
-19.765007
 11
850.272827
 21
-21.350334
  0
LINE
  8
OBRYS
 62
     0
 10
850.272827
 20
-21.050529
 11
851.665833
 21
-19.657524
  0
LINE
  8
OBRYS
 62
     0
 10
851.462158
 20
-19.564186
 11
850.272827
 21
-20.753548
  0
LINE
  8
OBRYS
 62
     0
 10
850.272827
 20
-20.453728
 11
851.244385
 21
-19.482170
  0
LINE
  8
OBRYS
 62
     0
 10
851.013855
 20
-19.415703
 11
850.274231
 21
-20.155327
  0
LINE
  8
OBRYS
 62
     0
 10
850.272827
 20
-19.856926
 11
850.764954
 21
-19.364784
  0
LINE
  8
OBRYS
 62
     0
 10
850.499084
 20
-19.333672
 11
850.274231
 21
-19.558525
  0
LINE
  8
OBRYS
 62
     0
 10
850.356262
 20
-25.478432
 11
850.272827
 21
-25.394997
  0
LINE
  8
OBRYS
 62
     0
 10
850.274231
 20
-25.096596
 11
850.634827
 21
-25.457222
  0
LINE
  8
OBRYS
 62
     0
 10
850.892273
 20
-25.417625
 11
850.272827
 21
-24.798195
  0
LINE
  8
OBRYS
 62
     0
 10
850.274231
 20
-24.499794
 11
851.131226
 21
-25.356804
  0
LINE
  8
OBRYS
 62
     0
 10
851.354675
 20
-25.283272
 11
850.272827
 21
-24.201393
  0
LINE
  8
OBRYS
 62
     0
 10
850.272827
 20
-23.901588
 11
851.565430
 21
-25.194176
  0
LINE
  8
OBRYS
 62
     0
 10
851.763428
 20
-25.095177
 11
850.272827
 21
-23.604591
  0
LINE
  8
OBRYS
 62
     0
 10
850.272827
 20
-23.304787
 11
851.950073
 21
-24.982048
  0
LINE
  8
OBRYS
 62
     0
 10
852.126831
 20
-24.859001
 11
850.274231
 21
-23.006386
  0
LINE
  8
OBRYS
 62
     0
 10
850.272827
 20
-22.707985
 11
852.290894
 21
-24.726067
  0
LINE
  8
OBRYS
 62
     0
 10
852.446472
 20
-24.581825
 11
850.274231
 21
-22.409584
  0
LINE
  8
OBRYS
 62
     0
 10
850.272827
 20
-22.111183
 11
852.589294
 21
-24.427666
  0
LINE
  8
OBRYS
 62
     0
 10
852.723633
 20
-24.262199
 11
850.274231
 21
-21.812782
  0
LINE
  8
OBRYS
 62
     0
 10
850.272827
 20
-21.514397
 11
852.846680
 21
-24.088264
  0
LINE
  8
OBRYS
 62
     0
 10
852.959839
 20
-23.901588
 11
850.272827
 21
-21.214577
  0
LINE
  8
OBRYS
 62
     0
 10
850.272827
 20
-20.917595
 11
853.060242
 21
-23.705009
  0
LINE
  8
OBRYS
 62
     0
 10
853.149353
 20
-23.494286
 11
850.272827
 21
-20.617775
  0
LINE
  8
OBRYS
 62
     0
 10
850.274231
 20
-20.319374
 11
853.225708
 21
-23.270836
  0
LINE
  8
OBRYS
 62
     0
 10
853.285095
 20
-23.033257
 11
850.272827
 21
-20.020973
  0
LINE
  8
OBRYS
 62
     0
 10
850.274231
 20
-19.722588
 11
853.327515
 21
-22.775871
  0
LINE
  8
OBRYS
 62
     0
 10
853.348755
 20
-22.500099
 11
850.272827
 21
-19.424187
  0
LINE
  8
OBRYS
 62
     0
 10
850.480713
 20
-19.332253
 11
853.343079
 21
-22.194633
  0
LINE
  8
OBRYS
 62
     0
 10
853.300659
 20
-21.855217
 11
850.820129
 21
-19.374687
  0
LINE
  8
OBRYS
 62
     0
 10
851.220337
 20
-19.475090
 11
853.201660
 21
-21.456413
  0
LINE
  8
OBRYS
 62
     0
 10
852.976807
 20
-20.934563
 11
851.742188
 21
-19.699959
  0
ENDBLK
  8
OBRYS
  0
BLOCK
  8
OBRYS
  2
_22
 70
   64
 10
378.707303
 20
53.033916
  0
ARC
  8
OBRYS
 10
378.707303
 20
53.033916
 40
70.000000
 50
0.000000
 51
180.000000
  0
INSERT
  8
OBRYS
  2
Srouby_s_valcovou_hlavou___26
 62
     7
 10
796.771108
 20
29.116202
  0
INSERT
  8
OBRYS
  2
Srouby_s_valcovou_hlavou___27
 62
     7
 10
830.595864
 20
-4.708555
  0
INSERT
  8
OBRYS
  2
Srouby_s_valcovou_hlavou___28
 62
     7
 10
878.431293
 20
-4.708555
  0
INSERT
  8
OBRYS
  2
Srouby_s_valcovou_hlavou___29
 62
     7
 10
912.256049
 20
29.116202
  0
INSERT
  8
OBRYS
  2
Srouby_s_valcovou_hlavou___30
 62
     7
 10
912.256049
 20
76.951631
  0
INSERT
  8
OBRYS
  2
Srouby_s_valcovou_hlavou___31
 62
     7
 10
878.431293
 20
110.776387
  0
INSERT
  8
OBRYS
  2
Srouby_s_valcovou_hlavou___32
 62
     7
 10
830.595864
 20
110.776387
  0
INSERT
  8
OBRYS
  2
Srouby_s_valcovou_hlavou___33
 62
     7
 10
796.771108
 20
76.951631
  0
ARC
  8
OBRYS
 10
273.707303
 20
53.033916
 40
70.000000
 50
353.678944
 51
6.321056
  0
ARC
  8
OBRYS
 10
378.707303
 20
158.033916
 40
70.000000
 50
263.678944
 51
276.321056
  0
ARC
  8
OBRYS
 10
483.707303
 20
53.033916
 40
70.000000
 50
173.678944
 51
186.321056
  0
ARC
  8
OBRYS
 10
378.707303
 20
-51.966084
 40
70.000000
 50
83.678944
 51
96.321056
  0
ARC
  8
OBRYS
 10
378.707303
 20
53.033916
 40
35.000000
 50
196.040442
 51
253.959558
  0
ARC
  8
OBRYS
 10
378.707303
 20
53.033916
 40
35.000000
 50
106.040442
 51
163.959558
  0
ARC
  8
OBRYS
 10
378.707303
 20
53.033916
 40
35.000000
 50
16.040442
 51
73.959558
  0
ARC
  8
OBRYS
 10
378.707303
 20
53.033916
 40
35.000000
 50
286.040442
 51
343.959558
  0
ARC
  8
OBRYS
 10
378.707303
 20
53.033916
 40
70.000000
 50
166.068055
 51
180.000000
  0
ARC
  8
OBRYS
 10
378.707303
 20
53.033916
 40
70.000000
 50
121.068055
 51
148.931945
  0
ARC
  8
OBRYS
 10
378.707303
 20
53.033916
 40
70.000000
 50
76.068055
 51
103.931945
  0
ARC
  8
OBRYS
 10
378.707303
 20
53.033916
 40
70.000000
 50
31.068055
 51
58.931945
  0
LINE
  8
OBRYS
 62
     7
  6
DASHDOT
 10
313.296632
 20
80.127903
 11
328.633032
 21
73.775358
  0
ARC
  8
OBRYS
 10
320.964832
 20
76.951631
 40
7.500000
 50
257.377756
 51
57.622244
  0
ARC
  8
OBRYS
 10
320.461567
 20
88.125714
 40
2.000000
 50
148.931945
 51
240.617358
  0
LINE
  8
OBRYS
 10
324.981074
 20
83.285650
 11
319.480288
 21
86.382989
  0
LINE
  8
OBRYS
 10
319.325916
 20
69.632891
 11
313.246123
 21
71.332385
  0
ARC
  8
OBRYS
 10
312.707700
 20
69.406223
 40
2.000000
 50
74.382642
 51
166.068055
  0
ARC
  8
OBRYS
 10
362.334996
 20
119.033519
 40
2.000000
 50
103.931945
 51
195.617358
  0
LINE
  8
OBRYS
 10
362.108329
 20
112.415303
 11
360.408834
 21
118.495096
  0
LINE
  8
OBRYS
 10
348.455569
 20
106.760145
 11
345.358231
 21
112.260932
  0
ARC
  8
OBRYS
 10
343.615506
 20
111.279652
 40
2.000000
 50
29.382642
 51
121.068055
  0
ARC
  8
OBRYS
 10
354.789589
 20
110.776387
 40
7.500000
 50
212.377756
 51
12.622244
  0
LINE
  8
OBRYS
 62
     7
  6
DASHDOT
 10
351.613316
 20
118.444587
 11
357.965861
 21
103.108187
  0
LINE
  8
OBRYS
 62
     7
  6
DASHDOT
 10
405.801290
 20
118.444587
 11
399.448745
 21
103.108187
  0
ARC
  8
OBRYS
 10
402.625018
 20
110.776387
 40
7.500000
 50
167.377756
 51
327.622244
  0
ARC
  8
OBRYS
 10
413.799101
 20
111.279652
 40
2.000000
 50
58.931945
 51
150.617358
  0
LINE
  8
OBRYS
 10
408.959037
 20
106.760145
 11
412.056376
 21
112.260932
  0
LINE
  8
OBRYS
 10
395.306278
 20
112.415303
 11
397.005772
 21
118.495096
  0
ARC
  8
OBRYS
 10
395.079610
 20
119.033519
 40
2.000000
 50
344.382642
 51
76.068055
  0
ARC
  8
OBRYS
 10
444.706906
 20
69.406223
 40
2.000000
 50
13.931945
 51
105.617358
  0
LINE
  8
OBRYS
 10
438.088690
 20
69.632891
 11
444.168483
 21
71.332385
  0
LINE
  8
OBRYS
 10
432.433532
 20
83.285650
 11
437.934319
 21
86.382989
  0
ARC
  8
OBRYS
 10
436.953039
 20
88.125714
 40
2.000000
 50
299.382642
 51
31.068055
  0
ARC
  8
OBRYS
 10
436.449774
 20
76.951631
 40
7.500000
 50
122.377756
 51
282.622244
  0
ARC
  8
OBRYS
 10
378.707303
 20
53.033916
 40
61.657725
 50
344.382642
 51
15.617358
  0
ARC
  8
OBRYS
 10
378.707303
 20
53.033916
 40
61.657725
 50
29.382642
 51
61.082778
  0
ARC
  8
OBRYS
 10
378.707303
 20
53.033916
 40
61.657725
 50
299.382642
 51
330.617358
  0
ARC
  8
OBRYS
 10
378.707303
 20
53.033916
 40
61.657725
 50
254.382642
 51
285.617358
  0
ARC
  8
OBRYS
 10
378.707303
 20
53.033916
 40
61.657725
 50
209.382642
 51
240.617358
  0
CIRCLE
  8
OBRYS
 10
436.449774
 20
29.116202
 40
7.500000
  0
CIRCLE
  8
OBRYS
 10
402.625018
 20
-4.708555
 40
7.500000
  0
CIRCLE
  8
OBRYS
 10
354.789589
 20
-4.708555
 40
7.500000
  0
ARC
  8
OBRYS
 10
378.707303
 20
53.033916
 40
61.657725
 50
163.917222
 51
195.617358
  0
CIRCLE
  8
OBRYS
 10
320.964832
 20
29.116202
 40
7.500000
  0
INSERT
  8
OBRYS
  2
__34
 62
     7
 10
378.707303
 20
-29.479497
  0
LINE
  8
OBRYS
 62
     7
  6
DASHDOT
 10
420.145126
 20
-22.966084
 11
439.769476
 21
-22.966084
  0
LINE
  8
OBRYS
 62
     7
  6
DASHDOT
 10
339.498081
 20
-24.066084
 11
319.107303
 21
-24.066085
  0
ARC
  8
OBRYS
 10
378.707303
 20
53.033916
 40
70.000000
 50
0.000000
 51
14.394101
  0
LINE
  8
OBRYS
 10
432.269480
 20
-22.966084
 11
432.269480
 21
-34.966084
  0
LINE
  8
OBRYS
 10
420.145126
 20
-22.966084
 11
420.145126
 21
-34.966084
  0
ARC
  8
OBRYS
 10
426.207303
 20
-22.966084
 40
6.062177
 50
0.000000
 51
179.999995
  0
LINE
  8
OBRYS
 62
     7
  6
DASHDOT
 10
444.117974
 20
80.127903
 11
428.781574
 21
73.775358
  0
CIRCLE
  8
OBRYS
 62
     7
  6
DASHDOT
 10
378.707303
 20
53.033916
 40
42.500000
  0
CIRCLE
  8
OBRYS
 62
     7
  6
DASHDOT
 10
378.707303
 20
53.033916
 40
62.500000
  0
LINE
  8
OBRYS
 62
     7
  6
DASHDOT
 10
313.296632
 20
25.939929
 11
328.633032
 21
32.292474
  0
LINE
  8
OBRYS
 62
     7
  6
DASHDOT
 10
351.613316
 20
-12.376755
 11
357.965861
 21
2.959645
  0
LINE
  8
OBRYS
 62
     7
  6
DASHDOT
 10
405.801290
 20
-12.376755
 11
399.448745
 21
2.959645
  0
LINE
  8
OBRYS
 62
     7
  6
DASHDOT
 10
444.117974
 20
25.939929
 11
428.781574
 21
32.292474
  0
LINE
  8
OBRYS
 10
308.707303
 20
-46.966084
 11
354.707303
 21
-46.966084
  0
LINE
  8
OBRYS
 10
354.707303
 20
-44.966084
 11
378.707303
 21
-44.966084
  0
LINE
  8
OBRYS
 62
     4
  6
DASHED
 10
325.707303
 20
-34.966084
 11
325.707303
 21
-46.966084
  0
LINE
  8
OBRYS
 62
     4
  6
DASHED
 10
336.707303
 20
-34.966084
 11
336.707303
 21
-46.966084
  0
LINE
  8
OBRYS
 10
402.707303
 20
-44.966084
 11
378.707303
 21
-44.966084
  0
LINE
  8
OBRYS
 10
448.707303
 20
-46.966084
 11
402.707303
 21
-46.966084
  0
LINE
  8
OBRYS
 62
     4
  6
DASHED
 10
420.707303
 20
-34.966084
 11
420.707303
 21
-46.966084
  0
LINE
  8
OBRYS
 62
     4
  6
DASHED
 10
431.707303
 20
-34.966084
 11
431.707303
 21
-46.966084
  0
LINE
  8
OBRYS
 10
448.707303
 20
53.033916
 11
448.707303
 21
-46.966084
  0
LINE
  8
OBRYS
 10
308.707303
 20
53.033916
 11
308.707303
 21
-46.966084
  0
LINE
  8
OBRYS
 62
     7
  6
DASHDOT
 10
378.707303
 20
53.033916
 11
378.707303
 21
-46.966084
  0
LINE
  8
OBRYS
 62
     7
  6
DASHDOT
 10
378.707303
 20
53.033916
 11
378.707303
 21
128.033916
  0
LINE
  8
OBRYS
 62
     7
  6
DASHDOT
 10
378.707303
 20
53.033916
 11
303.707303
 21
53.033916
  0
LINE
  8
OBRYS
 62
     7
  6
DASHDOT
 10
378.707303
 20
53.033916
 11
453.707303
 21
53.033916
  0
ARC
  8
OBRYS
 10
336.207303
 20
53.033916
 40
7.500000
 50
90.000000
 51
270.000000
  0
LINE
  8
OBRYS
 10
336.207303
 20
60.533916
 11
342.186761
 21
60.533916
  0
ARC
  8
OBRYS
 10
342.186761
 20
63.533916
 40
3.000000
 50
270.000000
 51
343.959558
  0
LINE
  8
OBRYS
 10
336.207303
 20
45.533916
 11
342.186761
 21
45.533916
  0
ARC
  8
OBRYS
 10
342.186761
 20
42.533916
 40
3.000000
 50
16.040442
 51
90.000000
  0
ARC
  8
OBRYS
 10
368.207303
 20
89.554458
 40
3.000000
 50
286.040442
 51
360.000000
  0
ARC
  8
OBRYS
 10
415.227845
 20
63.533916
 40
3.000000
 50
196.040442
 51
270.000000
  0
ARC
  8
OBRYS
 10
389.207303
 20
16.513374
 40
3.000000
 50
106.040442
 51
180.000000
  0
LINE
  8
OBRYS
 10
371.207303
 20
95.533916
 11
371.207303
 21
89.554458
  0
LINE
  8
OBRYS
 10
421.207303
 20
60.533916
 11
415.227845
 21
60.533916
  0
LINE
  8
OBRYS
 10
386.207303
 20
10.533916
 11
386.207303
 21
16.513374
  0
ARC
  8
OBRYS
 10
389.207303
 20
89.554458
 40
3.000000
 50
180.000000
 51
253.959558
  0
ARC
  8
OBRYS
 10
415.227845
 20
42.533916
 40
3.000000
 50
90.000000
 51
163.959558
  0
ARC
  8
OBRYS
 10
368.207303
 20
16.513374
 40
3.000000
 50
0.000000
 51
73.959558
  0
LINE
  8
OBRYS
 10
386.207303
 20
95.533916
 11
386.207303
 21
89.554458
  0
LINE
  8
OBRYS
 10
421.207303
 20
45.533916
 11
415.227845
 21
45.533916
  0
LINE
  8
OBRYS
 10
371.207303
 20
10.533916
 11
371.207303
 21
16.513374
  0
ARC
  8
OBRYS
 10
378.707303
 20
95.533916
 40
7.500000
 50
0.000000
 51
180.000000
  0
ARC
  8
OBRYS
 10
421.207303
 20
53.033916
 40
7.500000
 50
270.000000
 51
90.000000
  0
ARC
  8
OBRYS
 10
378.707303
 20
10.533916
 40
7.500000
 50
180.000000
 51
360.000000
  0
ARC
  8
OBRYS
 10
411.707303
 20
-30.966084
 40
4.000000
 50
180.000000
 51
270.000000
  0
ARC
  8
OBRYS
 10
345.707303
 20
-30.966084
 40
4.000000
 50
270.000000
 51
360.000000
  0
LINE
  8
OBRYS
 10
402.707303
 20
-40.966084
 11
378.707303
 21
-40.966084
  0
LINE
  8
OBRYS
 10
354.707303
 20
-40.966084
 11
378.707303
 21
-40.966084
  0
ARC
  8
OBRYS
 10
378.707303
 20
53.033916
 40
61.657725
 50
118.917222
 51
151.082778
  0
ARC
  8
OBRYS
 10
378.707303
 20
53.033916
 40
61.657725
 50
73.917222
 51
106.082778
  0
LINE
  8
OBRYS
 10
446.707303
 20
-34.966084
 11
411.707303
 21
-34.966084
  0
ARC
  8
OBRYS
 10
446.707303
 20
-36.966084
 40
2.000000
 50
0.000000
 51
90.000000
  0
LINE
  8
OBRYS
 10
310.707303
 20
-34.966084
 11
345.707303
 21
-34.966084
  0
ARC
  8
OBRYS
 10
310.707303
 20
-36.966084
 40
2.000000
 50
90.000000
 51
180.000000
  0
LINE
  8
OBRYS
 62
     7
  6
DASHDOT
 10
426.207303
 20
-46.966084
 11
426.207303
 21
-14.865607
  0
LINE
  8
OBRYS
 10
349.707303
 20
-34.966084
 11
353.307670
 21
-34.966084
  0
LINE
  8
OBRYS
 10
407.707303
 20
-34.966084
 11
404.106937
 21
-34.966084
  0
ARC
  8
OBRYS
 10
346.707303
 20
-15.349196
 40
3.000000
 50
0.000000
 51
64.922672
  0
LINE
  8
OBRYS
 10
354.707303
 20
-46.966084
 11
354.707303
 21
-19.486771
  0
ARC
  8
OBRYS
 10
357.707303
 20
-19.486771
 40
3.000000
 50
73.850435
 51
180.000000
  0
ARC
  8
OBRYS
 10
399.707303
 20
-19.486771
 40
3.000000
 50
0.000000
 51
106.149565
  0
LINE
  8
OBRYS
 10
402.707303
 20
-46.966084
 11
402.707303
 21
-19.486771
  0
ARC
  8
OBRYS
 10
410.707303
 20
-15.349196
 40
3.000000
 50
115.077328
 51
180.000000
  0
LINE
  8
OBRYS
 10
407.707303
 20
-15.349196
 11
407.707303
 21
-30.966084
  0
LINE
  8
OBRYS
 10
349.707303
 20
-15.349196
 11
349.707303
 21
-30.966084
  0
ARC
  8
OBRYS
 10
378.707303
 20
53.033916
 40
74.278193
 50
247.842415
 51
250.754515
  0
ARC
  8
OBRYS
 10
378.707303
 20
53.033916
 40
74.278193
 50
289.245485
 51
292.157585
  0
LINE
  8
OBRYS
 10
381.207303
 20
114.640937
 11
381.207303
 21
122.989259
  0
LINE
  8
OBRYS
 10
376.207303
 20
114.640937
 11
376.207303
 21
122.989259
  0
LINE
  8
OBRYS
 10
333.376794
 20
94.828891
 11
327.473639
 21
100.732046
  0
LINE
  8
OBRYS
 10
336.912328
 20
98.364425
 11
331.009173
 21
104.267580
  0
LINE
  8
OBRYS
 10
317.100282
 20
50.533916
 11
308.751960
 21
50.533916
  0
LINE
  8
OBRYS
 10
317.100282
 20
55.533916
 11
308.751960
 21
55.533916
  0
LINE
  8
OBRYS
 10
440.314324
 20
55.533916
 11
448.662646
 21
55.533916
  0
LINE
  8
OBRYS
 10
440.314324
 20
50.533916
 11
448.662646
 21
50.533916
  0
LINE
  8
OBRYS
 10
420.502278
 20
98.364425
 11
426.405433
 21
104.267580
  0
LINE
  8
OBRYS
 10
424.037812
 20
94.828891
 11
429.940967
 21
100.732046
  0
LINE
  8
OBRYS
 10
336.912328
 20
7.703407
 11
325.427374
 21
-3.781547
  0
LINE
  8
OBRYS
 10
333.376794
 20
11.238941
 11
321.891840
 21
-0.246013
  0
LINE
  8
OBRYS
 10
420.502278
 20
7.703407
 11
431.987233
 21
-3.781547
  0
LINE
  8
OBRYS
 10
424.037812
 20
11.238941
 11
435.522766
 21
-0.246013
  0
ARC
  8
OBRYS
 10
378.707303
 20
53.033916
 40
82.513413
 50
211.967675
 51
249.423480
  0
LINE
  8
OBRYS
 62
     7
  6
DASHDOT
 10
331.207303
 20
-46.966084
 11
331.207303
 21
-14.965607
  0
LINE
  8
OBRYS
 10
338.307303
 20
-24.066082
 11
338.307303
 21
-34.966084
  0
LINE
  8
OBRYS
 10
324.107303
 20
-24.066083
 11
324.107303
 21
-34.966084
  0
ARC
  8
OBRYS
 10
331.207303
 20
-24.066084
 40
7.100000
 50
0.000000
 51
180.000000
  0
INSERT
  8
OBRYS
  2
Srouby_s_valcovou_hlavou___35
 62
     7
 10
378.707303
 20
95.533916
  0
INSERT
  8
OBRYS
  2
Srouby_s_valcovou_hlavou___36
 62
     7
 10
336.207303
 20
53.033916
  0
INSERT
  8
OBRYS
  2
Srouby_s_valcovou_hlavou___37
 62
     7
 10
378.707303
 20
10.533916
  0
INSERT
  8
OBRYS
  2
Srouby_s_valcovou_hlavou___38
 62
     7
 10
421.207303
 20
53.033916
  0
LINE
  8
OBRYS
 10
378.707303
 20
68.833916
 11
382.707303
 21
68.833916
  0
ARC
  8
OBRYS
 10
378.707303
 20
53.033916
 40
12.500000
 50
108.662925
 51
71.337075
  0
LINE
  8
OBRYS
 10
382.707303
 20
68.833916
 11
382.707303
 21
64.876635
  0
LINE
  8
OBRYS
 10
378.707303
 20
68.833916
 11
374.707303
 21
68.833916
  0
LINE
  8
OBRYS
 10
374.707303
 20
68.833916
 11
374.707303
 21
64.876635
  0
CIRCLE
  8
OBRYS
 10
378.707303
 20
53.033916
 40
20.000000
  0
CIRCLE
  8
OBRYS
 10
378.707303
 20
53.033916
 40
27.500000
  0
ARC
  8
OBRYS
 10
378.707303
 20
151.033916
 40
65.000000
 50
261.620667
 51
278.379333
  0
ARC
  8
OBRYS
 10
280.707303
 20
53.033916
 40
65.000000
 50
351.620667
 51
8.379333
  0
ARC
  8
OBRYS
 10
378.707303
 20
-44.966084
 40
65.000000
 50
81.620667
 51
98.379333
  0
ARC
  8
OBRYS
 10
476.707303
 20
53.033916
 40
65.000000
 50
171.620667
 51
188.379333
  0
ARC
  8
OBRYS
 10
378.707303
 20
53.033916
 40
82.513413
 50
253.090442
 51
286.909558
  0
ARC
  8
OBRYS
 10
378.707303
 20
53.033916
 40
82.513413
 50
290.576520
 51
328.032325
  0
ENDBLK
  8
OBRYS
  0
BLOCK
  8
OBRYS
  2
Srouby_s_valcovou_hlavou___26
 70
   66
 10
796.771108
 20
29.116202
  0
LINE
  8
OBRYS
 10
318.464832
 20
27.672817
 11
318.464832
 21
30.559586
  0
LINE
  8
OBRYS
 10
318.464832
 20
30.559586
 11
320.964832
 21
32.002971
  0
LINE
  8
OBRYS
 10
320.964832
 20
32.002971
 11
323.464832
 21
30.559586
  0
LINE
  8
OBRYS
 10
323.464832
 20
30.559586
 11
323.464832
 21
27.672817
  0
LINE
  8
OBRYS
 10
323.464832
 20
27.672817
 11
320.964832
 21
26.229432
  0
LINE
  8
OBRYS
 10
320.964832
 20
26.229432
 11
318.464832
 21
27.672817
  0
CIRCLE
  8
OBRYS
 10
320.964832
 20
29.116202
 40
2.886769
  0
CIRCLE
  8
OBRYS
 10
320.964832
 20
29.116202
 40
5.000000
  0
ENDBLK
  8
OBRYS
  0
BLOCK
  8
OBRYS
  2
Srouby_s_valcovou_hlavou___27
 70
   66
 10
830.595864
 20
-4.708555
  0
LINE
  8
OBRYS
 10
352.289589
 20
-6.151939
 11
352.289589
 21
-3.265170
  0
LINE
  8
OBRYS
 10
352.289589
 20
-3.265170
 11
354.789589
 21
-1.821785
  0
LINE
  8
OBRYS
 10
354.789589
 20
-1.821785
 11
357.289589
 21
-3.265170
  0
LINE
  8
OBRYS
 10
357.289589
 20
-3.265170
 11
357.289589
 21
-6.151939
  0
LINE
  8
OBRYS
 10
357.289589
 20
-6.151939
 11
354.789589
 21
-7.595324
  0
LINE
  8
OBRYS
 10
354.789589
 20
-7.595324
 11
352.289589
 21
-6.151939
  0
CIRCLE
  8
OBRYS
 10
354.789589
 20
-4.708555
 40
2.886769
  0
CIRCLE
  8
OBRYS
 10
354.789589
 20
-4.708555
 40
5.000000
  0
ENDBLK
  8
OBRYS
  0
BLOCK
  8
OBRYS
  2
Srouby_s_valcovou_hlavou___28
 70
   66
 10
878.431293
 20
-4.708555
  0
LINE
  8
OBRYS
 10
400.125018
 20
-6.151939
 11
400.125018
 21
-3.265170
  0
LINE
  8
OBRYS
 10
400.125018
 20
-3.265170
 11
402.625018
 21
-1.821785
  0
LINE
  8
OBRYS
 10
402.625018
 20
-1.821785
 11
405.125018
 21
-3.265170
  0
LINE
  8
OBRYS
 10
405.125018
 20
-3.265170
 11
405.125018
 21
-6.151939
  0
LINE
  8
OBRYS
 10
405.125018
 20
-6.151939
 11
402.625018
 21
-7.595324
  0
LINE
  8
OBRYS
 10
402.625018
 20
-7.595324
 11
400.125018
 21
-6.151939
  0
CIRCLE
  8
OBRYS
 10
402.625018
 20
-4.708555
 40
2.886769
  0
CIRCLE
  8
OBRYS
 10
402.625018
 20
-4.708555
 40
5.000000
  0
ENDBLK
  8
OBRYS
  0
BLOCK
  8
OBRYS
  2
Srouby_s_valcovou_hlavou___29
 70
   66
 10
912.256049
 20
29.116202
  0
LINE
  8
OBRYS
 10
433.949774
 20
27.672817
 11
433.949774
 21
30.559586
  0
LINE
  8
OBRYS
 10
433.949774
 20
30.559586
 11
436.449774
 21
32.002971
  0
LINE
  8
OBRYS
 10
436.449774
 20
32.002971
 11
438.949774
 21
30.559586
  0
LINE
  8
OBRYS
 10
438.949774
 20
30.559586
 11
438.949774
 21
27.672817
  0
LINE
  8
OBRYS
 10
438.949774
 20
27.672817
 11
436.449774
 21
26.229432
  0
LINE
  8
OBRYS
 10
436.449774
 20
26.229432
 11
433.949774
 21
27.672817
  0
CIRCLE
  8
OBRYS
 10
436.449774
 20
29.116202
 40
2.886769
  0
CIRCLE
  8
OBRYS
 10
436.449774
 20
29.116202
 40
5.000000
  0
ENDBLK
  8
OBRYS
  0
BLOCK
  8
OBRYS
  2
Srouby_s_valcovou_hlavou___30
 70
   66
 10
912.256049
 20
76.951631
  0
LINE
  8
OBRYS
 10
433.949774
 20
75.508246
 11
433.949774
 21
78.395015
  0
LINE
  8
OBRYS
 10
433.949774
 20
78.395015
 11
436.449774
 21
79.838400
  0
LINE
  8
OBRYS
 10
436.449774
 20
79.838400
 11
438.949774
 21
78.395015
  0
LINE
  8
OBRYS
 10
438.949774
 20
78.395015
 11
438.949774
 21
75.508246
  0
LINE
  8
OBRYS
 10
438.949774
 20
75.508246
 11
436.449774
 21
74.064861
  0
LINE
  8
OBRYS
 10
436.449774
 20
74.064861
 11
433.949774
 21
75.508246
  0
CIRCLE
  8
OBRYS
 10
436.449774
 20
76.951631
 40
2.886769
  0
CIRCLE
  8
OBRYS
 10
436.449774
 20
76.951631
 40
5.000000
  0
ENDBLK
  8
OBRYS
  0
BLOCK
  8
OBRYS
  2
Srouby_s_valcovou_hlavou___31
 70
   66
 10
878.431293
 20
110.776387
  0
LINE
  8
OBRYS
 10
400.125018
 20
109.333002
 11
400.125018
 21
112.219772
  0
LINE
  8
OBRYS
 10
400.125018
 20
112.219772
 11
402.625018
 21
113.663156
  0
LINE
  8
OBRYS
 10
402.625018
 20
113.663156
 11
405.125018
 21
112.219772
  0
LINE
  8
OBRYS
 10
405.125018
 20
112.219772
 11
405.125018
 21
109.333002
  0
LINE
  8
OBRYS
 10
405.125018
 20
109.333002
 11
402.625018
 21
107.889618
  0
LINE
  8
OBRYS
 10
402.625018
 20
107.889618
 11
400.125018
 21
109.333002
  0
CIRCLE
  8
OBRYS
 10
402.625018
 20
110.776387
 40
2.886769
  0
CIRCLE
  8
OBRYS
 10
402.625018
 20
110.776387
 40
5.000000
  0
ENDBLK
  8
OBRYS
  0
BLOCK
  8
OBRYS
  2
Srouby_s_valcovou_hlavou___32
 70
   66
 10
830.595864
 20
110.776387
  0
LINE
  8
OBRYS
 10
352.289589
 20
109.333002
 11
352.289589
 21
112.219772
  0
LINE
  8
OBRYS
 10
352.289589
 20
112.219772
 11
354.789589
 21
113.663156
  0
LINE
  8
OBRYS
 10
354.789589
 20
113.663156
 11
357.289589
 21
112.219772
  0
LINE
  8
OBRYS
 10
357.289589
 20
112.219772
 11
357.289589
 21
109.333002
  0
LINE
  8
OBRYS
 10
357.289589
 20
109.333002
 11
354.789589
 21
107.889618
  0
LINE
  8
OBRYS
 10
354.789589
 20
107.889618
 11
352.289589
 21
109.333002
  0
CIRCLE
  8
OBRYS
 10
354.789589
 20
110.776387
 40
2.886769
  0
CIRCLE
  8
OBRYS
 10
354.789589
 20
110.776387
 40
5.000000
  0
ENDBLK
  8
OBRYS
  0
BLOCK
  8
OBRYS
  2
Srouby_s_valcovou_hlavou___33
 70
   66
 10
796.771108
 20
76.951631
  0
LINE
  8
OBRYS
 10
318.464832
 20
75.508246
 11
318.464832
 21
78.395015
  0
LINE
  8
OBRYS
 10
318.464832
 20
78.395015
 11
320.964832
 21
79.838400
  0
LINE
  8
OBRYS
 10
320.964832
 20
79.838400
 11
323.464832
 21
78.395015
  0
LINE
  8
OBRYS
 10
323.464832
 20
78.395015
 11
323.464832
 21
75.508246
  0
LINE
  8
OBRYS
 10
323.464832
 20
75.508246
 11
320.964832
 21
74.064861
  0
LINE
  8
OBRYS
 10
320.964832
 20
74.064861
 11
318.464832
 21
75.508246
  0
CIRCLE
  8
OBRYS
 10
320.964832
 20
76.951631
 40
2.886769
  0
CIRCLE
  8
OBRYS
 10
320.964832
 20
76.951631
 40
5.000000
  0
ENDBLK
  8
OBRYS
  0
BLOCK
  8
OBRYS
  2
__34
 70
   64
 10
378.707303
 20
-29.479497
  0
INSERT
  8
OBRYS
  2
*X__39
 10
0.000000
 20
0.000000
  0
INSERT
  8
OBRYS
  2
*X__40
 10
0.000000
 20
0.000000
  0
LINE
  8
OBRYS
 10
383.699247
 20
-25.479497
 11
383.699247
 21
-15.479497
  0
LINE
  8
OBRYS
 10
382.930016
 20
-15.479497
 11
382.930016
 21
-25.479497
  0
ARC
  8
OBRYS
 10
382.930016
 20
-18.556420
 40
3.076923
 50
90.000000
 51
180.000000
  0
LINE
  8
OBRYS
 10
379.853093
 20
-18.556420
 11
379.853093
 21
-22.402574
  0
ARC
  8
OBRYS
 10
382.930016
 20
-22.402574
 40
3.076923
 50
180.000000
 51
270.000000
  0
ARC
  8
OBRYS
 10
383.699247
 20
-18.556420
 40
3.076923
 50
0.000000
 51
90.000000
  0
LINE
  8
OBRYS
 10
386.776170
 20
-22.402574
 11
386.776170
 21
-18.556420
  0
ARC
  8
OBRYS
 10
383.699247
 20
-22.402574
 40
3.076923
 50
270.000000
 51
360.000000
  0
LINE
  8
OBRYS
 10
374.468478
 20
-21.633343
 11
374.468478
 21
-24.710266
  0
ARC
  8
OBRYS
 10
374.468478
 20
-22.402574
 40
3.076923
 50
0.000000
 51
90.000000
  0
LINE
  8
OBRYS
 10
374.468491
 20
-25.479497
 11
374.468478
 21
-19.325650
  0
ARC
  8
OBRYS
 10
374.468478
 20
-22.402574
 40
3.076923
 50
270.000247
 51
360.000000
  0
CIRCLE
  8
OBRYS
 10
375.814631
 20
-16.825653
 40
1.346156
  0
ARC
  8
OBRYS
 10
373.699279
 20
-22.402551
 40
3.076945
 50
180.000000
 51
270.000000
  0
LINE
  8
OBRYS
 10
373.699279
 20
-25.479497
 11
373.699279
 21
-16.825653
  0
LINE
  8
OBRYS
 10
374.182890
 20
-15.479497
 11
373.699279
 21
-15.479497
  0
ARC
  8
OBRYS
 10
375.814631
 20
-16.825653
 40
2.115351
 50
140.477989
 51
180.000000
  0
ARC
  8
OBRYS
 10
373.699312
 20
-18.556410
 40
3.076945
 50
90.000000
 51
180.000000
  0
LINE
  8
OBRYS
 10
370.622366
 20
-22.416662
 11
370.622366
 21
-18.556410
  0
INSERT
  8
OBRYS
  2
*X__41
 10
0.000000
 20
0.000000
  0
INSERT
  8
OBRYS
  2
*X__42
 10
0.000000
 20
0.000000
  0
INSERT
  8
OBRYS
  2
*X__43
 10
0.000000
 20
0.000000
  0
ENDBLK
  8
OBRYS
  0
BLOCK
  8
OBRYS
  2
Srouby_s_valcovou_hlavou___35
 70
   66
 10
378.707303
 20
95.533916
  0
LINE
  8
OBRYS
 10
375.707303
 20
93.801854
 11
375.707303
 21
97.265978
  0
LINE
  8
OBRYS
 10
375.707303
 20
97.265978
 11
378.707303
 21
98.998039
  0
LINE
  8
OBRYS
 10
378.707303
 20
98.998039
 11
381.707303
 21
97.265978
  0
LINE
  8
OBRYS
 10
381.707303
 20
97.265978
 11
381.707303
 21
93.801854
  0
LINE
  8
OBRYS
 10
381.707303
 20
93.801854
 11
378.707303
 21
92.069793
  0
LINE
  8
OBRYS
 10
378.707303
 20
92.069793
 11
375.707303
 21
93.801854
  0
CIRCLE
  8
OBRYS
 10
378.707303
 20
95.533916
 40
3.464123
  0
CIRCLE
  8
OBRYS
 10
378.707303
 20
95.533916
 40
6.500000
  0
ENDBLK
  8
OBRYS
  0
BLOCK
  8
OBRYS
  2
Srouby_s_valcovou_hlavou___36
 70
   66
 10
336.207303
 20
53.033916
  0
LINE
  8
OBRYS
 10
333.207303
 20
51.301854
 11
333.207303
 21
54.765978
  0
LINE
  8
OBRYS
 10
333.207303
 20
54.765978
 11
336.207303
 21
56.498039
  0
LINE
  8
OBRYS
 10
336.207303
 20
56.498039
 11
339.207303
 21
54.765978
  0
LINE
  8
OBRYS
 10
339.207303
 20
54.765978
 11
339.207303
 21
51.301854
  0
LINE
  8
OBRYS
 10
339.207303
 20
51.301854
 11
336.207303
 21
49.569793
  0
LINE
  8
OBRYS
 10
336.207303
 20
49.569793
 11
333.207303
 21
51.301854
  0
CIRCLE
  8
OBRYS
 10
336.207303
 20
53.033916
 40
3.464123
  0
CIRCLE
  8
OBRYS
 10
336.207303
 20
53.033916
 40
6.500000
  0
ENDBLK
  8
OBRYS
  0
BLOCK
  8
OBRYS
  2
Srouby_s_valcovou_hlavou___37
 70
   66
 10
378.707303
 20
10.533916
  0
LINE
  8
OBRYS
 10
375.707303
 20
8.801854
 11
375.707303
 21
12.265978
  0
LINE
  8
OBRYS
 10
375.707303
 20
12.265978
 11
378.707303
 21
13.998039
  0
LINE
  8
OBRYS
 10
378.707303
 20
13.998039
 11
381.707303
 21
12.265978
  0
LINE
  8
OBRYS
 10
381.707303
 20
12.265978
 11
381.707303
 21
8.801854
  0
LINE
  8
OBRYS
 10
381.707303
 20
8.801854
 11
378.707303
 21
7.069793
  0
LINE
  8
OBRYS
 10
378.707303
 20
7.069793
 11
375.707303
 21
8.801854
  0
CIRCLE
  8
OBRYS
 10
378.707303
 20
10.533916
 40
3.464123
  0
CIRCLE
  8
OBRYS
 10
378.707303
 20
10.533916
 40
6.500000
  0
ENDBLK
  8
OBRYS
  0
BLOCK
  8
OBRYS
  2
Srouby_s_valcovou_hlavou___38
 70
   66
 10
421.207303
 20
53.033916
  0
LINE
  8
OBRYS
 10
418.207303
 20
51.301854
 11
418.207303
 21
54.765978
  0
LINE
  8
OBRYS
 10
418.207303
 20
54.765978
 11
421.207303
 21
56.498039
  0
LINE
  8
OBRYS
 10
421.207303
 20
56.498039
 11
424.207303
 21
54.765978
  0
LINE
  8
OBRYS
 10
424.207303
 20
54.765978
 11
424.207303
 21
51.301854
  0
LINE
  8
OBRYS
 10
424.207303
 20
51.301854
 11
421.207303
 21
49.569793
  0
LINE
  8
OBRYS
 10
421.207303
 20
49.569793
 11
418.207303
 21
51.301854
  0
CIRCLE
  8
OBRYS
 10
421.207303
 20
53.033916
 40
3.464123
  0
CIRCLE
  8
OBRYS
 10
421.207303
 20
53.033916
 40
6.500000
  0
ENDBLK
  8
OBRYS
  0
BLOCK
  8
OBRYS
  2
*X__39
 70
   65
 10
0.0
 20
0.0
  0
LINE
  8
OBRYS
 62
     0
 10
382.929230
 20
-25.359032
 11
382.810425
 21
-25.477806
  0
LINE
  8
OBRYS
 62
     0
 10
382.534668
 20
-25.453758
 11
382.927795
 21
-25.060600
  0
LINE
  8
OBRYS
 62
     0
 10
382.929230
 20
-24.762230
 11
382.280090
 21
-25.411308
  0
LINE
  8
OBRYS
 62
     0
 10
382.042511
 20
-25.349098
 11
382.927795
 21
-24.463799
  0
LINE
  8
OBRYS
 62
     0
 10
382.929230
 20
-24.165428
 11
381.820496
 21
-25.274147
  0
LINE
  8
OBRYS
 62
     0
 10
381.611176
 20
-25.183647
 11
382.927795
 21
-23.866997
  0
LINE
  8
OBRYS
 62
     0
 10
382.929230
 20
-23.568611
 11
381.416016
 21
-25.081841
  0
LINE
  8
OBRYS
 62
     0
 10
381.229340
 20
-24.968681
 11
382.929230
 21
-23.268806
  0
LINE
  8
OBRYS
 62
     0
 10
382.927795
 20
-22.970390
 11
381.055389
 21
-24.842827
  0
LINE
  8
OBRYS
 62
     0
 10
380.892761
 20
-24.708473
 11
382.929230
 21
-22.672005
  0
LINE
  8
OBRYS
 62
     0
 10
382.927795
 20
-22.373589
 11
380.738617
 21
-24.562798
  0
LINE
  8
OBRYS
 62
     0
 10
380.595764
 20
-24.408623
 11
382.929230
 21
-22.075203
  0
LINE
  8
OBRYS
 62
     0
 10
382.927795
 20
-21.776787
 11
380.462830
 21
-24.241753
  0
LINE
  8
OBRYS
 62
     0
 10
380.341217
 20
-24.066429
 11
382.929230
 21
-21.478401
  0
LINE
  8
OBRYS
 62
     0
 10
382.927795
 20
-21.179985
 11
380.229492
 21
-23.878349
  0
LINE
  8
OBRYS
 62
     0
 10
380.130493
 20
-23.680351
 11
382.929230
 21
-20.881599
  0
LINE
  8
OBRYS
 62
     0
 10
382.929230
 20
-20.581795
 11
380.042816
 21
-23.468193
  0
LINE
  8
OBRYS
 62
     0
 10
379.967865
 20
-23.243340
 11
382.927795
 21
-20.283379
  0
LINE
  8
OBRYS
 62
     0
 10
382.929230
 20
-19.984993
 11
379.911285
 21
-23.002937
  0
LINE
  8
OBRYS
 62
     0
 10
379.870270
 20
-22.744118
 11
382.927795
 21
-19.686577
  0
LINE
  8
OBRYS
 62
     0
 10
382.929230
 20
-19.388191
 11
379.851898
 21
-22.465508
  0
LINE
  8
OBRYS
 62
     0
 10
379.851898
 20
-22.165703
 11
382.927795
 21
-19.089775
  0
LINE
  8
OBRYS
 62
     0
 10
382.929230
 20
-18.791389
 11
379.851898
 21
-21.868706
  0
LINE
  8
OBRYS
 62
     0
 10
379.851898
 20
-21.568901
 11
382.927795
 21
-18.492973
  0
LINE
  8
OBRYS
 62
     0
 10
382.929230
 20
-18.194588
 11
379.851898
 21
-21.271904
  0
LINE
  8
OBRYS
 62
     0
 10
379.851898
 20
-20.972099
 11
382.927795
 21
-17.896172
  0
LINE
  8
OBRYS
 62
     0
 10
382.929230
 20
-17.597786
 11
379.851898
 21
-20.675102
  0
LINE
  8
OBRYS
 62
     0
 10
379.851898
 20
-20.375298
 11
382.929230
 21
-17.297981
  0
LINE
  8
OBRYS
 62
     0
 10
382.927795
 20
-16.999565
 11
379.850494
 21
-20.076912
  0
LINE
  8
OBRYS
 62
     0
 10
379.851898
 20
-19.778496
 11
382.929230
 21
-16.701180
  0
LINE
  8
OBRYS
 62
     0
 10
382.927795
 20
-16.402763
 11
379.851898
 21
-19.478691
  0
LINE
  8
OBRYS
 62
     0
 10
379.851898
 20
-19.181694
 11
382.929230
 21
-16.104378
  0
LINE
  8
OBRYS
 62
     0
 10
382.927795
 20
-15.805962
 11
379.851898
 21
-18.881889
  0
LINE
  8
OBRYS
 62
     0
 10
379.851898
 20
-18.584892
 11
382.929230
 21
-15.507576
  0
LINE
  8
OBRYS
 62
     0
 10
382.644958
 20
-15.492043
 11
379.864655
 21
-18.272392
  0
LINE
  8
OBRYS
 62
     0
 10
379.918365
 20
-17.921638
 11
382.292816
 21
-15.547173
  0
LINE
  8
OBRYS
 62
     0
 10
381.874207
 20
-15.665993
 11
380.038574
 21
-17.501640
  0
LINE
  8
OBRYS
 62
     0
 10
380.324249
 20
-16.916145
 11
381.287323
 21
-15.953056
  0
LINE
  8
OBRYS
 62
     0
 10
381.024292
 20
-24.820213
 11
380.510925
 21
-24.306816
  0
LINE
  8
OBRYS
 62
     0
 10
380.088074
 20
-23.584160
 11
381.746948
 21
-25.243065
  0
LINE
  8
OBRYS
 62
     0
 10
382.191010
 20
-25.390114
 11
379.940979
 21
-23.140114
  0
LINE
  8
OBRYS
 62
     0
 10
379.874512
 20
-22.773811
 11
382.557281
 21
-25.456596
  0
LINE
  8
OBRYS
 62
     0
 10
382.878326
 20
-25.477806
 11
379.853302
 21
-22.452812
  0
LINE
  8
OBRYS
 62
     0
 10
379.851898
 20
-22.154396
 11
382.927795
 21
-25.230324
  0
LINE
  8
OBRYS
 62
     0
 10
382.929230
 20
-24.931938
 11
379.851898
 21
-21.854591
  0
LINE
  8
OBRYS
 62
     0
 10
379.851898
 20
-21.557594
 11
382.927795
 21
-24.633522
  0
LINE
  8
OBRYS
 62
     0
 10
382.929230
 20
-24.335136
 11
379.851898
 21
-21.257790
  0
LINE
  8
OBRYS
 62
     0
 10
379.851898
 20
-20.960793
 11
382.927795
 21
-24.036720
  0
LINE
  8
OBRYS
 62
     0
 10
382.929230
 20
-23.738335
 11
379.851898
 21
-20.660988
  0
LINE
  8
OBRYS
 62
     0
 10
379.850494
 20
-20.362602
 11
382.927795
 21
-23.439919
  0
LINE
  8
OBRYS
 62
     0
 10
382.929230
 20
-23.141533
 11
379.851898
 21
-20.064186
  0
LINE
  8
OBRYS
 62
     0
 10
379.850494
 20
-19.765800
 11
382.927795
 21
-22.843117
  0
LINE
  8
OBRYS
 62
     0
 10
382.927795
 20
-22.543312
 11
379.851898
 21
-19.467384
  0
LINE
  8
OBRYS
 62
     0
 10
379.851898
 20
-19.167580
 11
382.929230
 21
-22.244926
  0
LINE
  8
OBRYS
 62
     0
 10
382.927795
 20
-21.946510
 11
379.851898
 21
-18.870583
  0
LINE
  8
OBRYS
 62
     0
 10
379.851898
 20
-18.570778
 11
382.929230
 21
-21.648125
  0
LINE
  8
OBRYS
 62
     0
 10
382.927795
 20
-21.349709
 11
379.863251
 21
-18.285088
  0
LINE
  8
OBRYS
 62
     0
 10
379.898560
 20
-18.020638
 11
382.929230
 21
-21.051323
  0
LINE
  8
OBRYS
 62
     0
 10
382.927795
 20
-20.752907
 11
379.952301
 21
-17.777397
  0
LINE
  8
OBRYS
 62
     0
 10
380.021606
 20
-17.546883
 11
382.929230
 21
-20.454521
  0
LINE
  8
OBRYS
 62
     0
 10
382.927795
 20
-20.156105
 11
380.105042
 21
-17.333351
  0
LINE
  8
OBRYS
 62
     0
 10
380.202606
 20
-17.131111
 11
382.929230
 21
-19.857719
  0
LINE
  8
OBRYS
 62
     0
 10
382.929230
 20
-19.557915
 11
380.311523
 21
-16.940193
  0
LINE
  8
OBRYS
 62
     0
 10
380.428894
 20
-16.760597
 11
382.927795
 21
-19.259499
  0
LINE
  8
OBRYS
 62
     0
 10
382.929230
 20
-18.961113
 11
380.560425
 21
-16.592293
  0
LINE
  8
OBRYS
 62
     0
 10
380.700409
 20
-16.435310
 11
382.927795
 21
-18.662697
  0
LINE
  8
OBRYS
 62
     0
 10
382.929230
 20
-18.364311
 11
380.851746
 21
-16.286797
  0
LINE
  8
OBRYS
 62
     0
 10
381.011566
 20
-16.149635
 11
382.927795
 21
-18.065895
  0
LINE
  8
OBRYS
 62
     0
 10
382.929230
 20
-17.767509
 11
381.184082
 21
-16.022392
  0
LINE
  8
OBRYS
 62
     0
 10
381.365112
 20
-15.906425
 11
382.927795
 21
-17.469093
  0
LINE
  8
OBRYS
 62
     0
 10
382.929230
 20
-17.170708
 11
381.558838
 21
-15.800346
  0
LINE
  8
OBRYS
 62
     0
 10
381.765320
 20
-15.707008
 11
382.929230
 21
-16.870903
  0
LINE
  8
OBRYS
 62
     0
 10
382.927795
 20
-16.572487
 11
381.983124
 21
-15.627785
  0
LINE
  8
OBRYS
 62
     0
 10
382.217865
 20
-15.562752
 11
382.929230
 21
-16.274101
  0
LINE
  8
OBRYS
 62
     0
 10
382.927795
 20
-15.975685
 11
382.466766
 21
-15.514656
  0
LINE
  8
OBRYS
 62
     0
 10
382.736877
 20
-15.484962
 11
382.929230
 21
-15.677299
  0
ENDBLK
  8
OBRYS
  0
BLOCK
  8
OBRYS
  2
*X__40
 70
   65
 10
0.0
 20
0.0
  0
LINE
  8
OBRYS
 62
     0
 10
386.237061
 20
-24.141380
 11
385.436615
 21
-24.941826
  0
LINE
  8
OBRYS
 62
     0
 10
384.805878
 20
-25.272758
 11
386.567993
 21
-23.510628
  0
LINE
  8
OBRYS
 62
     0
 10
386.699524
 20
-23.082130
 11
384.377380
 21
-25.404228
  0
LINE
  8
OBRYS
 62
     0
 10
384.019592
 20
-25.462212
 11
386.757507
 21
-22.724297
  0
LINE
  8
OBRYS
 62
     0
 10
386.775879
 20
-22.408943
 11
383.704224
 21
-25.480644
  0
LINE
  8
OBRYS
 62
     0
 10
383.697144
 20
-25.187889
 11
386.774475
 21
-22.110527
  0
LINE
  8
OBRYS
 62
     0
 10
386.774475
 20
-21.810722
 11
383.697144
 21
-24.888084
  0
LINE
  8
OBRYS
 62
     0
 10
383.698547
 20
-24.589653
 11
386.774475
 21
-21.513771
  0
LINE
  8
OBRYS
 62
     0
 10
386.774475
 20
-21.213921
 11
383.697144
 21
-24.291283
  0
LINE
  8
OBRYS
 62
     0
 10
383.698547
 20
-23.992851
 11
386.774475
 21
-20.916969
  0
LINE
  8
OBRYS
 62
     0
 10
386.774475
 20
-20.617119
 11
383.697144
 21
-23.694481
  0
LINE
  8
OBRYS
 62
     0
 10
383.698547
 20
-23.396049
 11
386.775879
 21
-20.318733
  0
LINE
  8
OBRYS
 62
     0
 10
386.774475
 20
-20.020317
 11
383.697144
 21
-23.097664
  0
LINE
  8
OBRYS
 62
     0
 10
383.698547
 20
-22.799248
 11
386.775879
 21
-19.721977
  0
LINE
  8
OBRYS
 62
     0
 10
386.774475
 20
-19.423561
 11
383.697144
 21
-22.500862
  0
LINE
  8
OBRYS
 62
     0
 10
383.697144
 20
-22.201057
 11
386.774475
 21
-19.123711
  0
LINE
  8
OBRYS
 62
     0
 10
386.774475
 20
-18.826759
 11
383.698547
 21
-21.902641
  0
LINE
  8
OBRYS
 62
     0
 10
383.697144
 20
-21.604256
 11
386.774475
 21
-18.526909
  0
LINE
  8
OBRYS
 62
     0
 10
386.758911
 20
-18.245537
 11
383.698547
 21
-21.305840
  0
LINE
  8
OBRYS
 62
     0
 10
383.697144
 20
-21.007454
 11
386.720734
 21
-17.983864
  0
LINE
  8
OBRYS
 62
     0
 10
386.665588
 20
-17.742043
 11
383.698547
 21
-20.709084
  0
LINE
  8
OBRYS
 62
     0
 10
383.697144
 20
-20.410698
 11
386.593445
 21
-17.514336
  0
LINE
  8
OBRYS
 62
     0
 10
386.508606
 20
-17.302223
 11
383.698547
 21
-20.112282
  0
LINE
  8
OBRYS
 62
     0
 10
383.697144
 20
-19.813896
 11
386.409607
 21
-17.101418
  0
LINE
  8
OBRYS
 62
     0
 10
386.297882
 20
-16.913307
 11
383.697144
 21
-19.514046
  0
LINE
  8
OBRYS
 62
     0
 10
383.698547
 20
-19.215630
 11
386.177673
 21
-16.736549
  0
LINE
  8
OBRYS
 62
     0
 10
386.046143
 20
-16.568245
 11
383.697144
 21
-18.917290
  0
LINE
  8
OBRYS
 62
     0
 10
383.698547
 20
-18.618874
 11
385.904724
 21
-16.412697
  0
LINE
  8
OBRYS
 62
     0
 10
385.751984
 20
-16.265602
 11
383.697144
 21
-18.320488
  0
LINE
  8
OBRYS
 62
     0
 10
383.698547
 20
-18.022072
 11
385.590759
 21
-16.129860
  0
LINE
  8
OBRYS
 62
     0
 10
385.416840
 20
-16.003960
 11
383.697144
 21
-17.723686
  0
LINE
  8
OBRYS
 62
     0
 10
383.698547
 20
-17.425270
 11
385.232971
 21
-15.890846
  0
LINE
  8
OBRYS
 62
     0
 10
385.037811
 20
-15.786186
 11
383.697144
 21
-17.126884
  0
LINE
  8
OBRYS
 62
     0
 10
383.698547
 20
-16.828468
 11
384.831329
 21
-15.695686
  0
LINE
  8
OBRYS
 62
     0
 10
384.609314
 20
-15.617897
 11
383.698547
 21
-16.528664
  0
LINE
  8
OBRYS
 62
     0
 10
383.697144
 20
-16.230278
 11
384.373138
 21
-15.554253
  0
LINE
  8
OBRYS
 62
     0
 10
384.121399
 20
-15.509010
 11
383.698547
 21
-15.931862
  0
LINE
  8
OBRYS
 62
     0
 10
383.697144
 20
-15.633476
 11
383.848450
 21
-15.482109
  0
LINE
  8
OBRYS
 62
     0
 10
383.773499
 20
-25.479225
 11
383.697144
 21
-25.402855
  0
LINE
  8
OBRYS
 62
     0
 10
383.698547
 20
-25.104424
 11
384.052124
 21
-25.457985
  0
LINE
  8
OBRYS
 62
     0
 10
384.309509
 20
-25.418388
 11
383.697144
 21
-24.806053
  0
LINE
  8
OBRYS
 62
     0
 10
383.698547
 20
-24.507622
 11
384.549927
 21
-25.359032
  0
LINE
  8
OBRYS
 62
     0
 10
384.773346
 20
-25.285454
 11
383.697144
 21
-24.209251
  0
LINE
  8
OBRYS
 62
     0
 10
383.698547
 20
-23.910820
 11
384.985504
 21
-25.197807
  0
LINE
  8
OBRYS
 62
     0
 10
385.182068
 20
-25.097343
 11
383.697144
 21
-23.612434
  0
LINE
  8
OBRYS
 62
     0
 10
383.697144
 20
-23.312630
 11
385.370148
 21
-24.985649
  0
LINE
  8
OBRYS
 62
     0
 10
385.546936
 20
-24.862602
 11
383.698547
 21
-23.014214
  0
LINE
  8
OBRYS
 62
     0
 10
383.697144
 20
-22.715828
 11
385.710968
 21
-24.729668
  0
LINE
  8
OBRYS
 62
     0
 10
385.866547
 20
-24.585426
 11
383.698547
 21
-22.417412
  0
LINE
  8
OBRYS
 62
     0
 10
383.697144
 20
-22.119026
 11
386.010803
 21
-24.432671
  0
LINE
  8
OBRYS
 62
     0
 10
386.145142
 20
-24.267235
 11
383.698547
 21
-21.820610
  0
LINE
  8
OBRYS
 62
     0
 10
383.697144
 20
-21.522270
 11
386.268188
 21
-24.093285
  0
LINE
  8
OBRYS
 62
     0
 10
386.381317
 20
-23.906593
 11
383.698547
 21
-21.223854
  0
LINE
  8
OBRYS
 62
     0
 10
383.697144
 20
-20.925468
 11
386.483154
 21
-23.711449
  0
LINE
  8
OBRYS
 62
     0
 10
386.572235
 20
-23.500740
 11
383.697144
 21
-20.625618
  0
LINE
  8
OBRYS
 62
     0
 10
383.698547
 20
-20.327202
 11
386.648621
 21
-23.277275
  0
LINE
  8
OBRYS
 62
     0
 10
386.708008
 20
-23.039680
 11
383.697144
 21
-20.028862
  0
LINE
  8
OBRYS
 62
     0
 10
383.698547
 20
-19.730446
 11
386.751831
 21
-22.783745
  0
LINE
  8
OBRYS
 62
     0
 10
386.773071
 20
-22.507942
 11
383.697144
 21
-19.432060
  0
LINE
  8
OBRYS
 62
     0
 10
383.698547
 20
-19.133644
 11
386.774475
 21
-22.209526
  0
LINE
  8
OBRYS
 62
     0
 10
386.774475
 20
-21.912575
 11
383.697144
 21
-18.835258
  0
LINE
  8
OBRYS
 62
     0
 10
383.698547
 20
-18.536842
 11
386.774475
 21
-21.612724
  0
LINE
  8
OBRYS
 62
     0
 10
386.774475
 20
-21.315773
 11
383.697144
 21
-18.238457
  0
LINE
  8
OBRYS
 62
     0
 10
383.697144
 20
-17.938652
 11
386.774475
 21
-21.015923
  0
LINE
  8
OBRYS
 62
     0
 10
386.775879
 20
-20.717583
 11
383.698547
 21
-17.640236
  0
LINE
  8
OBRYS
 62
     0
 10
383.697144
 20
-17.341850
 11
386.774475
 21
-20.419167
  0
LINE
  8
OBRYS
 62
     0
 10
386.775879
 20
-20.120781
 11
383.698547
 21
-17.043434
  0
LINE
  8
OBRYS
 62
     0
 10
383.697144
 20
-16.745049
 11
386.774475
 21
-19.822365
  0
LINE
  8
OBRYS
 62
     0
 10
386.774475
 20
-19.522514
 11
383.698547
 21
-16.446632
  0
LINE
  8
OBRYS
 62
     0
 10
383.697144
 20
-16.148247
 11
386.774475
 21
-19.225563
  0
LINE
  8
OBRYS
 62
     0
 10
386.774475
 20
-18.925758
 11
383.698547
 21
-15.849831
  0
LINE
  8
OBRYS
 62
     0
 10
383.697144
 20
-15.551445
 11
386.774475
 21
-18.628761
  0
LINE
  8
OBRYS
 62
     0
 10
386.765991
 20
-18.320488
 11
383.934723
 21
-15.489189
  0
LINE
  8
OBRYS
 62
     0
 10
384.279785
 20
-15.534477
 11
386.719330
 21
-17.973976
  0
LINE
  8
OBRYS
 62
     0
 10
386.611847
 20
-17.569511
 11
384.684265
 21
-15.641945
  0
LINE
  8
OBRYS
 62
     0
 10
385.228729
 20
-15.886604
 11
386.367188
 21
-17.025032
  0
ENDBLK
  8
OBRYS
  0
BLOCK
  8
OBRYS
  2
*X__41
 70
   65
 10
0.0
 20
0.0
  0
LINE
  8
OBRYS
 62
     0
 10
377.098419
 20
-17.225075
 11
376.213104
 21
-18.110374
  0
LINE
  8
OBRYS
 62
     0
 10
375.855316
 20
-18.171196
 11
377.159210
 21
-16.867287
  0
LINE
  8
OBRYS
 62
     0
 10
377.138000
 20
-16.588692
 11
375.576721
 21
-18.149971
  0
LINE
  8
OBRYS
 62
     0
 10
375.341949
 20
-18.087746
 11
377.074371
 21
-16.355339
  0
LINE
  8
OBRYS
 62
     0
 10
376.978210
 20
-16.151695
 11
375.139709
 21
-17.990166
  0
LINE
  8
OBRYS
 62
     0
 10
374.962952
 20
-17.869957
 11
376.856567
 21
-15.976326
  0
LINE
  8
OBRYS
 62
     0
 10
376.710907
 20
-15.822182
 11
374.810211
 21
-17.722878
  0
LINE
  8
OBRYS
 62
     0
 10
374.680115
 20
-17.553185
 11
376.541199
 21
-15.692070
  0
LINE
  8
OBRYS
 62
     0
 10
376.346039
 20
-15.590248
 11
374.576874
 21
-17.359428
  0
LINE
  8
OBRYS
 62
     0
 10
374.501923
 20
-17.134575
 11
376.121185
 21
-15.515297
  0
LINE
  8
OBRYS
 62
     0
 10
375.859558
 20
-15.479942
 11
374.467987
 21
-16.871529
  0
LINE
  8
OBRYS
 62
     0
 10
374.496246
 20
-16.543434
 11
375.530060
 21
-15.509636
  0
LINE
  8
OBRYS
 62
     0
 10
374.944550
 20
-15.798134
 11
374.786163
 21
-15.956535
  0
LINE
  8
OBRYS
 62
     0
 10
375.100128
 20
-17.967537
 11
374.671631
 21
-17.539040
  0
LINE
  8
OBRYS
 62
     0
 10
374.487762
 20
-17.055382
 11
375.583801
 21
-18.151390
  0
LINE
  8
OBRYS
 62
     0
 10
375.899170
 20
-18.169777
 11
374.469391
 21
-16.739998
  0
LINE
  8
OBRYS
 62
     0
 10
374.511810
 20
-16.482613
 11
376.156555
 21
-18.127342
  0
LINE
  8
OBRYS
 62
     0
 10
376.375732
 20
-18.049568
 11
374.589600
 21
-16.263420
  0
LINE
  8
OBRYS
 62
     0
 10
374.698486
 20
-16.072502
 11
376.566650
 21
-17.940666
  0
LINE
  8
OBRYS
 62
     0
 10
376.732117
 20
-17.809151
 11
374.830017
 21
-15.907036
  0
LINE
  8
OBRYS
 62
     0
 10
374.985565
 20
-15.762779
 11
376.874969
 21
-17.652168
  0
LINE
  8
OBRYS
 62
     0
 10
376.992340
 20
-17.472572
 11
375.165192
 21
-15.645409
  0
LINE
  8
OBRYS
 62
     0
 10
375.373077
 20
-15.553474
 11
377.085693
 21
-17.266090
  0
LINE
  8
OBRYS
 62
     0
 10
377.145081
 20
-17.025673
 11
375.613495
 21
-15.494087
  0
LINE
  8
OBRYS
 62
     0
 10
375.899170
 20
-15.482765
 11
377.156403
 21
-16.739998
  0
LINE
  8
OBRYS
 62
     0
 10
377.077209
 20
-16.361000
 11
376.278168
 21
-15.561958
  0
ENDBLK
  8
OBRYS
  0
BLOCK
  8
OBRYS
  2
*X__42
 70
   65
 10
0.0
 20
0.0
  0
LINE
  8
OBRYS
 62
     0
 10
373.697235
 20
-25.403481
 11
373.622284
 21
-25.478432
  0
LINE
  8
OBRYS
 62
     0
 10
373.343658
 20
-25.460045
 11
373.698639
 21
-25.105080
  0
LINE
  8
OBRYS
 62
     0
 10
373.697235
 20
-24.806679
 11
373.086273
 21
-25.417625
  0
LINE
  8
OBRYS
 62
     0
 10
372.845856
 20
-25.358223
 11
373.697235
 21
-24.506859
  0
LINE
  8
OBRYS
 62
     0
 10
373.698639
 20
-24.208473
 11
372.622437
 21
-25.284691
  0
LINE
  8
OBRYS
 62
     0
 10
372.410278
 20
-25.196999
 11
373.697235
 21
-23.910072
  0
LINE
  8
OBRYS
 62
     0
 10
373.698639
 20
-23.611671
 11
372.212311
 21
-25.098015
  0
LINE
  8
OBRYS
 62
     0
 10
372.025635
 20
-24.984871
 11
373.697235
 21
-23.313271
  0
LINE
  8
OBRYS
 62
     0
 10
373.698639
 20
-23.014870
 11
371.850250
 21
-24.863243
  0
LINE
  8
OBRYS
 62
     0
 10
371.684814
 20
-24.728905
 11
373.697235
 21
-22.716469
  0
LINE
  8
OBRYS
 62
     0
 10
373.698639
 20
-22.418068
 11
371.530640
 21
-24.586067
  0
LINE
  8
OBRYS
 62
     0
 10
371.384979
 20
-24.431908
 11
373.697235
 21
-22.119667
  0
LINE
  8
OBRYS
 62
     0
 10
373.697235
 20
-21.819862
 11
371.250641
 21
-24.266457
  0
LINE
  8
OBRYS
 62
     0
 10
371.127594
 20
-24.092506
 11
373.698639
 21
-21.521461
  0
LINE
  8
OBRYS
 62
     0
 10
373.697235
 20
-21.223061
 11
371.013062
 21
-23.907234
  0
LINE
  8
OBRYS
 62
     0
 10
370.912628
 20
-23.710670
 11
373.698639
 21
-20.924660
  0
LINE
  8
OBRYS
 62
     0
 10
373.697235
 20
-20.626259
 11
370.823547
 21
-23.499947
  0
LINE
  8
OBRYS
 62
     0
 10
370.748596
 20
-23.277916
 11
373.698639
 21
-20.327858
  0
LINE
  8
OBRYS
 62
     0
 10
373.697235
 20
-20.029472
 11
370.687775
 21
-23.038918
  0
LINE
  8
OBRYS
 62
     0
 10
370.645355
 20
-22.784355
 11
373.698639
 21
-19.731071
  0
LINE
  8
OBRYS
 62
     0
 10
373.697235
 20
-19.432671
 11
370.622711
 21
-22.507164
  0
LINE
  8
OBRYS
 62
     0
 10
370.621307
 20
-22.211601
 11
373.698639
 21
-19.134270
  0
LINE
  8
OBRYS
 62
     0
 10
373.697235
 20
-18.835869
 11
370.621307
 21
-21.911781
  0
LINE
  8
OBRYS
 62
     0
 10
370.619904
 20
-21.613380
 11
373.697235
 21
-18.536049
  0
LINE
  8
OBRYS
 62
     0
 10
373.698639
 20
-18.237663
 11
370.621307
 21
-21.314980
  0
LINE
  8
OBRYS
 62
     0
 10
370.619904
 20
-21.016594
 11
373.697235
 21
-17.939262
  0
LINE
  8
OBRYS
 62
     0
 10
373.698639
 20
-17.640862
 11
370.621307
 21
-20.718193
  0
LINE
  8
OBRYS
 62
     0
 10
370.621307
 20
-20.418373
 11
373.697235
 21
-17.342461
  0
LINE
  8
OBRYS
 62
     0
 10
373.698639
 20
-17.044060
 11
370.621307
 21
-20.121391
  0
LINE
  8
OBRYS
 62
     0
 10
370.621307
 20
-19.821571
 11
373.698639
 21
-16.744255
  0
LINE
  8
OBRYS
 62
     0
 10
373.741058
 20
-16.404839
 11
370.621307
 21
-19.524590
  0
LINE
  8
OBRYS
 62
     0
 10
370.621307
 20
-19.224785
 11
373.881073
 21
-15.965019
  0
LINE
  8
OBRYS
 62
     0
 10
374.067749
 20
-15.478523
 11
370.619904
 21
-18.926384
  0
LINE
  8
OBRYS
 62
     0
 10
370.621307
 20
-18.627983
 11
373.769348
 21
-15.479942
  0
LINE
  8
OBRYS
 62
     0
 10
373.461060
 20
-15.488426
 11
370.629791
 21
-18.319679
  0
LINE
  8
OBRYS
 62
     0
 10
370.676453
 20
-17.976021
 11
373.117401
 21
-15.535088
  0
LINE
  8
OBRYS
 62
     0
 10
372.711517
 20
-15.641167
 11
370.782532
 21
-17.570152
  0
LINE
  8
OBRYS
 62
     0
 10
371.028595
 20
-17.027092
 11
372.168457
 21
-15.887230
  0
LINE
  8
OBRYS
 62
     0
 10
371.829041
 20
-24.847694
 11
371.253479
 21
-24.272102
  0
LINE
  8
OBRYS
 62
     0
 10
370.851837
 20
-23.570656
 11
372.530487
 21
-25.249321
  0
LINE
  8
OBRYS
 62
     0
 10
372.971741
 20
-25.393578
 11
370.707581
 21
-23.129417
  0
LINE
  8
OBRYS
 62
     0
 10
370.642517
 20
-22.764549
 11
373.336609
 21
-25.458626
  0
LINE
  8
OBRYS
 62
     0
 10
373.654785
 20
-25.479851
 11
370.619904
 21
-22.444939
  0
LINE
  8
OBRYS
 62
     0
 10
370.621307
 20
-22.146538
 11
373.697235
 21
-25.222466
  0
LINE
  8
OBRYS
 62
     0
 10
373.698639
 20
-24.924065
 11
370.621307
 21
-21.846733
  0
LINE
  8
OBRYS
 62
     0
 10
370.621307
 20
-21.549751
 11
373.697235
 21
-24.625664
  0
LINE
  8
OBRYS
 62
     0
 10
373.698639
 20
-24.327263
 11
370.621307
 21
-21.249931
  0
LINE
  8
OBRYS
 62
     0
 10
370.619904
 20
-20.951530
 11
373.697235
 21
-24.028862
  0
LINE
  8
OBRYS
 62
     0
 10
373.698639
 20
-23.730461
 11
370.621307
 21
-20.653130
  0
LINE
  8
OBRYS
 62
     0
 10
370.619904
 20
-20.354729
 11
373.697235
 21
-23.432060
  0
LINE
  8
OBRYS
 62
     0
 10
373.698639
 20
-23.133659
 11
370.621307
 21
-20.056343
  0
LINE
  8
OBRYS
 62
     0
 10
370.619904
 20
-19.757942
 11
373.697235
 21
-22.835258
  0
LINE
  8
OBRYS
 62
     0
 10
373.697235
 20
-22.535454
 11
370.621307
 21
-19.459541
  0
LINE
  8
OBRYS
 62
     0
 10
370.621307
 20
-19.159721
 11
373.698639
 21
-22.237053
  0
LINE
  8
OBRYS
 62
     0
 10
373.697235
 20
-21.938652
 11
370.621307
 21
-18.862740
  0
LINE
  8
OBRYS
 62
     0
 10
370.621307
 20
-18.562920
 11
373.698639
 21
-21.640251
  0
LINE
  8
OBRYS
 62
     0
 10
373.697235
 20
-21.341850
 11
370.632629
 21
-18.277260
  0
LINE
  8
OBRYS
 62
     0
 10
370.669403
 20
-18.014214
 11
373.698639
 21
-21.043449
  0
LINE
  8
OBRYS
 62
     0
 10
373.697235
 20
-20.745064
 11
370.723145
 21
-17.770973
  0
LINE
  8
OBRYS
 62
     0
 10
370.793854
 20
-17.541862
 11
373.698639
 21
-20.446663
  0
LINE
  8
OBRYS
 62
     0
 10
373.697235
 20
-20.148262
 11
370.877289
 21
-17.328316
  0
LINE
  8
OBRYS
 62
     0
 10
370.973450
 20
-17.124672
 11
373.697235
 21
-19.848442
  0
LINE
  8
OBRYS
 62
     0
 10
373.698639
 20
-19.550041
 11
371.083771
 21
-16.935173
  0
LINE
  8
OBRYS
 62
     0
 10
371.202545
 20
-16.756981
 11
373.697235
 21
-19.251656
  0
LINE
  8
OBRYS
 62
     0
 10
373.698639
 20
-18.953255
 11
371.332672
 21
-16.587273
  0
LINE
  8
OBRYS
 62
     0
 10
371.472656
 20
-16.430290
 11
373.697235
 21
-18.654854
  0
LINE
  8
OBRYS
 62
     0
 10
373.698639
 20
-18.356453
 11
371.625397
 21
-16.283211
  0
LINE
  8
OBRYS
 62
     0
 10
371.785217
 20
-16.146034
 11
373.697235
 21
-18.058052
  0
LINE
  8
OBRYS
 62
     0
 10
373.698639
 20
-17.759651
 11
371.957733
 21
-16.018761
  0
LINE
  8
OBRYS
 62
     0
 10
372.140167
 20
-15.904198
 11
373.697235
 21
-17.461250
  0
LINE
  8
OBRYS
 62
     0
 10
373.697235
 20
-17.161446
 11
372.333923
 21
-15.798134
  0
LINE
  8
OBRYS
 62
     0
 10
372.540405
 20
-15.704796
 11
373.698639
 21
-16.863045
  0
LINE
  8
OBRYS
 62
     0
 10
373.712769
 20
-16.580193
 11
372.759613
 21
-15.627022
  0
LINE
  8
OBRYS
 62
     0
 10
372.992950
 20
-15.560555
 11
373.758026
 21
-16.325645
  0
LINE
  8
OBRYS
 62
     0
 10
373.827332
 20
-16.097954
 11
373.243256
 21
-15.513878
  0
LINE
  8
OBRYS
 62
     0
 10
373.513367
 20
-15.484184
 11
373.917847
 21
-15.888649
  0
LINE
  8
OBRYS
 62
     0
 10
374.023895
 20
-15.697731
 11
373.806122
 21
-15.479942
  0
LINE
  8
OBRYS
 62
     0
 10
374.105927
 20
-15.479942
 11
374.146942
 21
-15.520958
  0
ENDBLK
  8
OBRYS
  0
BLOCK
  8
OBRYS
  2
*X__43
 70
   65
 10
0.0
 20
0.0
  0
LINE
  8
OBRYS
 62
     0
 10
376.883453
 20
-24.307457
 11
376.371490
 21
-24.819405
  0
LINE
  8
OBRYS
 62
     0
 10
375.648834
 20
-25.242256
 11
377.307709
 21
-23.583382
  0
LINE
  8
OBRYS
 62
     0
 10
377.454803
 20
-23.139320
 11
375.203369
 21
-25.390755
  0
LINE
  8
OBRYS
 62
     0
 10
374.837097
 20
-25.457222
 11
377.521271
 21
-22.773033
  0
LINE
  8
OBRYS
 62
     0
 10
377.543884
 20
-22.453423
 11
374.517456
 21
-25.479851
  0
LINE
  8
OBRYS
 62
     0
 10
374.466553
 20
-25.230949
 11
377.533997
 21
-22.163521
  0
LINE
  8
OBRYS
 62
     0
 10
377.502869
 20
-21.897636
 11
374.467987
 21
-24.932549
  0
LINE
  8
OBRYS
 62
     0
 10
374.466553
 20
-24.634148
 11
377.450562
 21
-21.650154
  0
LINE
  8
OBRYS
 62
     0
 10
377.384094
 20
-21.419640
 11
374.467987
 21
-24.335747
  0
LINE
  8
OBRYS
 62
     0
 10
374.466553
 20
-24.037346
 11
377.300629
 21
-21.203270
  0
LINE
  8
OBRYS
 62
     0
 10
377.204468
 20
-20.999611
 11
374.466553
 21
-23.737541
  0
LINE
  8
OBRYS
 62
     0
 10
374.466553
 20
-23.440544
 11
377.098419
 21
-20.808693
  0
LINE
  8
OBRYS
 62
     0
 10
376.979614
 20
-20.627678
 11
374.466553
 21
-23.140739
  0
LINE
  8
OBRYS
 62
     0
 10
374.467987
 20
-22.842339
 11
376.852325
 21
-20.457970
  0
LINE
  8
OBRYS
 62
     0
 10
376.712341
 20
-20.298164
 11
374.466553
 21
-22.543938
  0
LINE
  8
OBRYS
 62
     0
 10
374.467987
 20
-22.245537
 11
376.563843
 21
-20.149681
  0
LINE
  8
OBRYS
 62
     0
 10
376.402618
 20
-20.011086
 11
374.466553
 21
-21.947136
  0
LINE
  8
OBRYS
 62
     0
 10
374.467987
 20
-21.648735
 11
376.232910
 21
-19.883797
  0
LINE
  8
OBRYS
 62
     0
 10
376.051880
 20
-19.765007
 11
374.466553
 21
-21.350334
  0
LINE
  8
OBRYS
 62
     0
 10
374.466553
 20
-21.050529
 11
375.859558
 21
-19.657524
  0
LINE
  8
OBRYS
 62
     0
 10
375.655914
 20
-19.564186
 11
374.466553
 21
-20.753548
  0
LINE
  8
OBRYS
 62
     0
 10
374.466553
 20
-20.453728
 11
375.438110
 21
-19.482170
  0
LINE
  8
OBRYS
 62
     0
 10
375.207611
 20
-19.415703
 11
374.467987
 21
-20.155327
  0
LINE
  8
OBRYS
 62
     0
 10
374.466553
 20
-19.856926
 11
374.958710
 21
-19.364784
  0
LINE
  8
OBRYS
 62
     0
 10
374.692841
 20
-19.333672
 11
374.467987
 21
-19.558525
  0
LINE
  8
OBRYS
 62
     0
 10
374.549988
 20
-25.478432
 11
374.466553
 21
-25.394997
  0
LINE
  8
OBRYS
 62
     0
 10
374.467987
 20
-25.096596
 11
374.828583
 21
-25.457222
  0
LINE
  8
OBRYS
 62
     0
 10
375.085999
 20
-25.417625
 11
374.466553
 21
-24.798195
  0
LINE
  8
OBRYS
 62
     0
 10
374.467987
 20
-24.499794
 11
375.324982
 21
-25.356804
  0
LINE
  8
OBRYS
 62
     0
 10
375.548431
 20
-25.283272
 11
374.466553
 21
-24.201393
  0
LINE
  8
OBRYS
 62
     0
 10
374.466553
 20
-23.901588
 11
375.759155
 21
-25.194176
  0
LINE
  8
OBRYS
 62
     0
 10
375.957153
 20
-25.095177
 11
374.466553
 21
-23.604591
  0
LINE
  8
OBRYS
 62
     0
 10
374.466553
 20
-23.304787
 11
376.143829
 21
-24.982048
  0
LINE
  8
OBRYS
 62
     0
 10
376.320587
 20
-24.859001
 11
374.467987
 21
-23.006386
  0
LINE
  8
OBRYS
 62
     0
 10
374.466553
 20
-22.707985
 11
376.484650
 21
-24.726067
  0
LINE
  8
OBRYS
 62
     0
 10
376.640198
 20
-24.581825
 11
374.467987
 21
-22.409584
  0
LINE
  8
OBRYS
 62
     0
 10
374.466553
 20
-22.111183
 11
376.783051
 21
-24.427666
  0
LINE
  8
OBRYS
 62
     0
 10
376.917389
 20
-24.262199
 11
374.467987
 21
-21.812782
  0
LINE
  8
OBRYS
 62
     0
 10
374.466553
 20
-21.514397
 11
377.040436
 21
-24.088264
  0
LINE
  8
OBRYS
 62
     0
 10
377.153564
 20
-23.901588
 11
374.466553
 21
-21.214577
  0
LINE
  8
OBRYS
 62
     0
 10
374.466553
 20
-20.917595
 11
377.253967
 21
-23.705009
  0
LINE
  8
OBRYS
 62
     0
 10
377.343079
 20
-23.494286
 11
374.466553
 21
-20.617775
  0
LINE
  8
OBRYS
 62
     0
 10
374.467987
 20
-20.319374
 11
377.419434
 21
-23.270836
  0
LINE
  8
OBRYS
 62
     0
 10
377.478821
 20
-23.033257
 11
374.466553
 21
-20.020973
  0
LINE
  8
OBRYS
 62
     0
 10
374.467987
 20
-19.722588
 11
377.521271
 21
-22.775871
  0
LINE
  8
OBRYS
 62
     0
 10
377.542480
 20
-22.500099
 11
374.466553
 21
-19.424187
  0
LINE
  8
OBRYS
 62
     0
 10
374.674438
 20
-19.332253
 11
377.536804
 21
-22.194633
  0
LINE
  8
OBRYS
 62
     0
 10
377.494385
 20
-21.855217
 11
375.013855
 21
-19.374687
  0
LINE
  8
OBRYS
 62
     0
 10
375.414093
 20
-19.475090
 11
377.395386
 21
-21.456413
  0
LINE
  8
OBRYS
 62
     0
 10
377.170532
 20
-20.934563
 11
375.935913
 21
-19.699959
  0
ENDBLK
  8
OBRYS
  0
BLOCK
  8
OBRYS
  2
_23
 70
   64
 10
238.417914
 20
53.033916
  0
ARC
  8
OSA
 62
     2
  6
CONTINUOUS
 10
219.917914
 20
20.395332
 40
3.000000
 50
90.000000
 51
180.000000
  0
LINE
  8
OSA
 62
     2
  6
CONTINUOUS
 10
216.917914
 20
20.395332
 11
216.917914
 21
-46.966084
  0
LINE
  8
OBRYS
 10
246.039235
 20
-35.844764
 11
231.419302
 21
-21.224831
  0
LINE
  8
OSA
 62
     2
  6
CONTINUOUS
 10
246.917914
 20
-37.966084
 11
246.917914
 21
-46.966084
  0
LINE
  8
OSA
 62
     2
  6
CONTINUOUS
 10
246.917914
 20
-46.966084
 11
216.917914
 21
-46.966084
  0
ARC
  8
OBRYS
 10
243.917914
 20
-37.966084
 40
3.000000
 50
0.000000
 51
45.000000
  0
ARC
  8
OSA
 62
     2
  6
CONTINUOUS
 10
243.917914
 20
-37.966084
 40
3.000000
 50
45.000000
 51
90.000000
  0
LINE
  8
OSA
 10
243.417914
 20
95.533916
 11
224.417914
 21
95.533916
  0
LINE
  8
OSA
 10
243.417914
 20
10.533916
 11
224.417914
 21
10.533916
  0
ARC
  8
OBRYS
 10
229.086376
 20
118.033916
 40
5.000000
 50
40.000000
 51
90.000000
  0
LINE
  8
OBRYS
 10
232.916598
 20
121.247854
 11
237.248136
 21
116.085728
  0
ARC
  8
OBRYS
 10
233.417914
 20
112.871790
 40
5.000000
 50
0.000000
 51
40.000000
  0
LINE
  8
OSA
 10
243.417914
 20
53.033916
 11
219.417914
 21
53.033916
  0
LINE
  8
NEVIDI
  6
HIDDEN2
 10
239.417914
 20
-34.966084
 11
239.417914
 21
-46.966084
  0
LINE
  8
OSA
 10
233.917914
 20
-27.366084
 11
233.917914
 21
-56.366084
  0
LINE
  8
NEVIDI
  6
HIDDEN2
 10
228.417914
 20
-34.966084
 11
228.417914
 21
-46.966084
  0
ARC
  8
OBRYS
 10
233.417914
 20
-6.803958
 40
5.000000
 50
320.000000
 51
360.000000
  0
LINE
  8
OBRYS
 10
231.324399
 20
123.033916
 11
224.417914
 21
123.033916
  0
ARC
  8
OBRYS
 10
231.324399
 20
120.033916
 40
3.000000
 50
40.000000
 51
90.000000
  0
LINE
  8
OBRYS
 10
233.622532
 20
121.962279
 11
237.716048
 21
117.083817
  0
ARC
  8
OBRYS
 10
235.417914
 20
115.155454
 40
3.000000
 50
0.000000
 51
40.000000
  0
LINE
  8
OBRYS
 10
224.417914
 20
123.033916
 11
224.417914
 21
53.033916
  0
ARC
  8
OBRYS
 10
233.540622
 20
-19.103511
 40
3.000000
 50
140.000000
 51
225.000000
  0
LINE
  8
OBRYS
 10
238.417914
 20
-6.803959
 11
238.417914
 21
53.033916
  0
LINE
  8
OBRYS
 10
226.578446
 20
24.038967
 11
230.267189
 21
39.110050
  0
LINE
  8
OBRYS
 10
230.267189
 20
39.110050
 11
231.417914
 21
53.033916
  0
LINE
  8
OBRYS
 10
224.417914
 20
26.395332
 11
224.417914
 21
53.033916
  0
ARC
  8
OBRYS
 10
221.417914
 20
26.395332
 40
3.000000
 50
270.000000
 51
360.000000
  0
LINE
  8
OBRYS
 10
221.417914
 20
23.395332
 11
219.917914
 21
23.395332
  0
LINE
  8
OBRYS
 10
231.417914
 20
55.533916
 11
238.417914
 21
55.533916
  0
LINE
  8
OBRYS
 10
231.417914
 20
50.533916
 11
238.417914
 21
50.533916
  0
LINE
  8
OBRYS
 10
238.308070
 20
110.930342
 11
238.417914
 21
110.266474
  0
LINE
  8
OBRYS
 10
238.116377
 20
112.020905
 11
238.308070
 21
110.930342
  0
LINE
  8
OBRYS
 10
237.889386
 20
112.415303
 11
238.116377
 21
112.020905
  0
LINE
  8
OBRYS
 10
237.248136
 20
113.480080
 11
237.889386
 21
112.415303
  0
POLYLINE
  8
OBRYS
 66
    1
  0
VERTEX
  8
OBRYS
 10
231.659760
 20
-12.208553
  0
VERTEX
  8
OBRYS
 10
232.134155
 20
-12.064445
  0
VERTEX
  8
OBRYS
 10
232.822876
 20
-11.637653
  0
VERTEX
  8
OBRYS
 10
233.699448
 20
-10.944576
  0
VERTEX
  8
OBRYS
 10
234.730194
 20
-10.011856
  0
VERTEX
  8
OBRYS
 10
235.875488
 20
-8.875332
  0
VERTEX
  8
OBRYS
 10
237.091324
 20
-7.578681
  0
VERTEX
  8
OBRYS
 10
237.248138
 20
-7.400714
  0
VERTEX
  8
OBRYS
 10
237.993210
 20
-6.171733
  0
VERTEX
  8
OBRYS
 10
238.116379
 20
-5.956302
  0
VERTEX
  8
OBRYS
 10
238.334259
 20
-4.708553
  0
VERTEX
  8
OBRYS
 10
238.417908
 20
-4.199939
  0
VERTEX
  8
OBRYS
 10
238.417908
 20
-3.245376
  0
VERTEX
  8
OBRYS
 10
238.417908
 20
-1.838428
  0
VERTEX
  8
OBRYS
 10
238.417908
 20
-0.541778
  0
VERTEX
  8
OBRYS
 10
238.417908
 20
0.594750
  0
VERTEX
  8
OBRYS
 10
238.417908
 20
1.527466
  0
VERTEX
  8
OBRYS
 10
238.417908
 20
2.220543
  0
VERTEX
  8
OBRYS
 10
238.417908
 20
2.647331
  0
VERTEX
  8
OBRYS
 10
238.417908
 20
2.791443
  0
SEQEND
  8
OBRYS
  0
POLYLINE
  8
OBRYS
 66
    1
  0
VERTEX
  8
OBRYS
 10
234.730194
 20
21.616203
  0
VERTEX
  8
OBRYS
 10
235.875488
 20
21.760315
  0
VERTEX
  8
OBRYS
 10
237.091324
 20
22.187103
  0
VERTEX
  8
OBRYS
 10
237.248138
 20
22.274773
  0
VERTEX
  8
OBRYS
 10
237.993210
 20
22.880180
  0
VERTEX
  8
OBRYS
 10
238.116379
 20
23.017509
  0
VERTEX
  8
OBRYS
 10
238.334259
 20
23.812897
  0
VERTEX
  8
OBRYS
 10
238.417908
 20
24.207970
  0
VERTEX
  8
OBRYS
 10
238.417908
 20
24.949425
  0
VERTEX
  8
OBRYS
 10
238.417908
 20
26.246078
  0
VERTEX
  8
OBRYS
 10
238.417908
 20
27.653023
  0
VERTEX
  8
OBRYS
 10
238.417908
 20
29.116203
  0
VERTEX
  8
OBRYS
 10
238.417908
 20
30.579376
  0
VERTEX
  8
OBRYS
 10
238.417908
 20
31.986328
  0
VERTEX
  8
OBRYS
 10
238.417908
 20
33.282974
  0
VERTEX
  8
OBRYS
 10
238.417908
 20
34.419502
  0
VERTEX
  8
OBRYS
 10
238.417908
 20
35.352226
  0
VERTEX
  8
OBRYS
 10
238.417908
 20
36.045296
  0
VERTEX
  8
OBRYS
 10
238.417908
 20
36.472092
  0
VERTEX
  8
OBRYS
 10
238.417908
 20
36.566109
  0
VERTEX
  8
OBRYS
 10
238.334259
 20
36.616203
  0
SEQEND
  8
OBRYS
  0
POLYLINE
  8
OBRYS
 66
    1
  0
VERTEX
  8
OBRYS
 10
238.417908
 20
0.918968
  0
VERTEX
  8
OBRYS
 10
238.334259
 20
0.594750
  0
VERTEX
  8
OBRYS
 10
238.116379
 20
-0.374443
  0
VERTEX
  8
OBRYS
 10
237.993210
 20
-0.541778
  0
VERTEX
  8
OBRYS
 10
237.248138
 20
-1.674415
  0
VERTEX
  8
OBRYS
 10
237.091324
 20
-1.838428
  0
VERTEX
  8
OBRYS
 10
235.875488
 20
-3.245376
  0
VERTEX
  8
OBRYS
 10
234.730194
 20
-4.708553
  0
VERTEX
  8
OBRYS
 10
233.699448
 20
-6.171733
  0
VERTEX
  8
OBRYS
 10
232.822876
 20
-7.578681
  0
VERTEX
  8
OBRYS
 10
232.134155
 20
-8.875332
  0
VERTEX
  8
OBRYS
 10
231.659760
 20
-10.011856
  0
VERTEX
  8
OBRYS
 10
231.417908
 20
-10.944576
  0
VERTEX
  8
OBRYS
 10
231.417908
 20
-11.637653
  0
VERTEX
  8
OBRYS
 10
231.417908
 20
-12.064445
  0
VERTEX
  8
OBRYS
 10
231.659760
 20
-12.208553
  0
SEQEND
  8
OBRYS
  0
POLYLINE
  8
OBRYS
 66
    1
  0
VERTEX
  8
OBRYS
 10
238.334259
 20
36.616203
  0
VERTEX
  8
OBRYS
 10
238.116379
 20
36.493309
  0
VERTEX
  8
OBRYS
 10
237.993210
 20
36.472092
  0
VERTEX
  8
OBRYS
 10
237.248138
 20
36.099281
  0
VERTEX
  8
OBRYS
 10
237.091324
 20
36.045296
  0
VERTEX
  8
OBRYS
 10
235.875488
 20
35.352226
  0
VERTEX
  8
OBRYS
 10
234.730194
 20
34.419502
  0
VERTEX
  8
OBRYS
 10
233.699448
 20
33.282974
  0
VERTEX
  8
OBRYS
 10
232.822876
 20
31.986328
  0
VERTEX
  8
OBRYS
 10
232.134155
 20
30.579376
  0
VERTEX
  8
OBRYS
 10
231.659760
 20
29.116203
  0
VERTEX
  8
OBRYS
 10
231.417908
 20
27.653023
  0
VERTEX
  8
OBRYS
 10
231.417908
 20
26.246078
  0
VERTEX
  8
OBRYS
 10
231.417908
 20
24.949425
  0
VERTEX
  8
OBRYS
 10
231.659760
 20
23.812897
  0
VERTEX
  8
OBRYS
 10
232.134155
 20
22.880180
  0
VERTEX
  8
OBRYS
 10
232.822876
 20
22.187103
  0
VERTEX
  8
OBRYS
 10
233.699448
 20
21.760315
  0
VERTEX
  8
OBRYS
 10
234.730194
 20
21.616203
  0
SEQEND
  8
OBRYS
  0
LINE
  8
OBRYS
 10
229.786901
 20
120.449590
 11
224.417914
 21
120.449590
  0
LINE
  8
OBRYS
 10
232.044329
 20
119.425450
 11
237.248136
 21
113.480080
  0
ARC
  8
OBRYS
 10
229.786901
 20
117.449590
 40
3.000000
 50
41.194706
 51
90.000000
  0
LINE
  8
OBRYS
 10
224.417914
 20
114.029290
 11
229.876071
 21
114.029290
  0
LINE
  8
OBRYS
 10
238.417914
 20
105.150971
 11
238.308070
 21
105.583066
  0
LINE
  8
OBRYS
 10
238.308070
 20
105.583066
 11
238.116377
 21
106.447519
  0
LINE
  8
OBRYS
 10
238.116377
 20
106.447519
 11
237.889386
 21
106.760145
  0
LINE
  8
OBRYS
 10
237.889386
 20
106.760145
 11
237.248136
 21
107.723518
  0
LINE
  8
OBRYS
 10
237.248136
 20
107.723518
 11
232.032245
 21
113.115175
  0
ARC
  8
OBRYS
 10
229.876071
 20
111.029290
 40
3.000000
 50
44.050707
 51
90.000000
  0
LINE
  8
OBRYS
 10
230.338428
 20
87.378702
 11
224.417914
 21
87.378702
  0
ARC
  8
OBRYS
 10
230.338428
 20
84.378702
 40
3.000000
 50
59.798611
 51
90.000000
  0
LINE
  8
OBRYS
 10
238.417914
 20
115.155454
 11
238.417914
 21
53.033916
  0
LINE
  8
OBRYS
 10
231.847550
 20
86.971490
 11
237.672476
 21
83.581113
  0
ARC
  8
OBRYS
 10
236.917914
 20
82.284719
 40
1.500000
 50
0.000000
 51
59.798611
  0
ARC
  8
OBRYS
 10
236.917914
 20
68.461352
 40
1.500000
 50
0.000000
 51
72.288290
  0
LINE
  8
OBRYS
 10
222.417914
 20
13.571239
 11
226.578446
 21
24.038967
  0
LINE
  8
OSA
 62
     2
  6
CONTINUOUS
 10
243.917914
 20
-34.966084
 11
225.417914
 21
-34.966084
  0
LINE
  8
OBRYS
 10
222.417914
 20
-31.966084
 11
222.417914
 21
13.571239
  0
ARC
  8
OSA
 62
     2
  6
CONTINUOUS
 10
225.417914
 20
-31.966084
 40
3.000000
 50
180.000000
 51
270.000000
  0
LINE
  8
OBRYS
 10
223.119781
 20
-26.855414
 11
237.248136
 21
-10.017896
  0
ARC
  8
OBRYS
 10
225.417914
 20
-28.783777
 40
3.000000
 50
140.000000
 51
180.000000
  0
LINE
  8
OBRYS
 10
231.184204
 20
71.792504
 11
224.417914
 21
71.792504
  0
LINE
  8
OBRYS
 10
237.374256
 20
69.890251
 11
231.640546
 21
71.721403
  0
ARC
  8
OBRYS
 10
231.184204
 20
70.292504
 40
1.500000
 50
72.288290
 51
90.000000
  0
LINE
  8
OBRYS
 10
231.417914
 20
122.134317
 11
231.417914
 21
120.603417
  0
LINE
  8
OBRYS
 10
231.417914
 20
112.650205
 11
231.417914
 21
88.408301
  0
LINE
  8
OBRYS
 10
231.417914
 20
69.822908
 11
231.417914
 21
53.033916
  0
ENDBLK
  8
OBRYS
  0
BLOCK
  8
OSA
  2
_24
 70
   64
 10
140.417914
 20
53.033916
  0
ARC
  8
OSA
 62
     2
  6
CONTINUOUS
 10
131.417914
 20
98.277467
 40
2.000000
 50
311.888704
 51
360.000000
  0
ARC
  8
OSA
 62
     2
  6
CONTINUOUS
 10
131.417914
 20
101.741238
 40
2.000000
 50
298.545372
 51
360.000000
  0
LINE
  8
OSA
 62
     2
  6
CONTINUOUS
 10
133.417914
 20
120.775087
 11
133.417914
 21
53.033916
  0
ARC
  8
OSA
 62
     2
  6
CONTINUOUS
 10
135.417914
 20
120.775087
 40
2.000000
 50
92.000000
 51
180.000000
  0
ARC
  8
OSA
 62
     2
  6
CONTINUOUS
 10
131.417914
 20
118.862343
 40
2.000000
 50
315.000000
 51
360.000000
  0
LINE
  8
OSA
 62
     2
  6
CONTINUOUS
 10
140.417914
 20
53.033916
 11
140.417914
 21
-16.966084
  0
LINE
  8
OSA
 10
145.417914
 20
53.033916
 11
113.417914
 21
53.033916
  0
LINE
  8
OSA
 62
     2
  6
CONTINUOUS
 10
140.417914
 20
122.950910
 11
135.348115
 21
122.773869
  0
LINE
  8
OSA
 62
     2
  6
CONTINUOUS
 10
140.417914
 20
122.950910
 11
140.417914
 21
53.033916
  0
LINE
  8
OSA
 62
     2
  6
CONTINUOUS
 10
140.417914
 20
-17.020873
 11
139.917914
 21
-16.989823
  0
LINE
  8
OSA
 62
     2
  6
CONTINUOUS
 10
133.417914
 20
24.159264
 11
133.417914
 21
53.033916
  0
LINE
  8
OSA
 62
     2
  6
CONTINUOUS
 10
133.417914
 20
55.273856
 11
132.417914
 21
55.514041
  0
LINE
  8
OSA
 62
     2
  6
CONTINUOUS
 10
133.417914
 20
50.793976
 11
132.417914
 21
50.553791
  0
LINE
  8
OSA
 62
     2
  6
CONTINUOUS
 10
132.417914
 20
96.487789
 11
132.753286
 21
96.788581
  0
LINE
  8
OSA
 62
     2
  6
CONTINUOUS
 10
132.417914
 20
117.033916
 11
132.832128
 21
117.448130
  0
ENDBLK
  8
OSA
  0
BLOCK
  8
OBRYS
  2
_25
 70
   64
 10
118.417914
 20
53.033916
  0
ARC
  8
OSA
 62
     2
  6
CONTINUOUS
 10
136.917914
 20
20.395332
 40
3.000000
 50
0.000000
 51
90.000000
  0
LINE
  8
OSA
 62
     2
  6
CONTINUOUS
 10
139.917914
 20
20.395332
 11
139.917914
 21
-46.966084
  0
LINE
  8
OBRYS
 10
110.796594
 20
-35.844764
 11
125.416527
 21
-21.224831
  0
LINE
  8
OSA
 62
     2
  6
CONTINUOUS
 10
109.917914
 20
-37.966084
 11
109.917914
 21
-46.966084
  0
LINE
  8
OSA
 62
     2
  6
CONTINUOUS
 10
109.917914
 20
-46.966084
 11
139.917914
 21
-46.966084
  0
ARC
  8
OBRYS
 10
112.917914
 20
-37.966084
 40
3.000000
 50
135.000000
 51
180.000000
  0
ARC
  8
OSA
 62
     2
  6
CONTINUOUS
 10
112.917914
 20
-37.966084
 40
3.000000
 50
90.000000
 51
135.000000
  0
LINE
  8
OSA
 10
113.417914
 20
95.533916
 11
132.417914
 21
95.533916
  0
LINE
  8
OSA
 10
113.417914
 20
10.533916
 11
132.417914
 21
10.533916
  0
ARC
  8
OBRYS
 10
127.749453
 20
118.033916
 40
5.000000
 50
90.000000
 51
140.000000
  0
LINE
  8
OBRYS
 10
123.919230
 20
121.247854
 11
119.587692
 21
116.085728
  0
ARC
  8
OBRYS
 10
123.417914
 20
112.871790
 40
5.000000
 50
140.000000
 51
180.000000
  0
LINE
  8
OSA
 10
113.417914
 20
53.033916
 11
137.417914
 21
53.033916
  0
LINE
  8
NEVIDI
  6
HIDDEN2
 10
117.417914
 20
-34.966084
 11
117.417914
 21
-46.966084
  0
LINE
  8
OSA
 10
122.917914
 20
-27.366084
 11
122.917914
 21
-56.366084
  0
LINE
  8
NEVIDI
  6
HIDDEN2
 10
128.417914
 20
-34.966084
 11
128.417914
 21
-46.966084
  0
ARC
  8
OBRYS
 10
123.417914
 20
-6.803958
 40
5.000000
 50
180.000000
 51
220.000000
  0
LINE
  8
OBRYS
 10
125.511430
 20
123.033916
 11
132.417914
 21
123.033916
  0
ARC
  8
OBRYS
 10
125.511430
 20
120.033916
 40
3.000000
 50
90.000000
 51
140.000000
  0
LINE
  8
OBRYS
 10
123.213297
 20
121.962279
 11
119.119781
 21
117.083817
  0
ARC
  8
OBRYS
 10
121.417914
 20
115.155454
 40
3.000000
 50
140.000000
 51
180.000000
  0
LINE
  8
OBRYS
 10
132.417914
 20
123.033916
 11
132.417914
 21
53.033916
  0
ARC
  8
OBRYS
 10
123.295206
 20
-19.103511
 40
3.000000
 50
315.000000
 51
40.000000
  0
LINE
  8
OBRYS
 10
118.417914
 20
-6.803959
 11
118.417914
 21
53.033916
  0
LINE
  8
OBRYS
 10
130.257383
 20
24.038967
 11
126.568640
 21
39.110050
  0
LINE
  8
OBRYS
 10
126.568640
 20
39.110050
 11
125.417914
 21
53.033916
  0
LINE
  8
OBRYS
 10
132.417914
 20
26.395332
 11
132.417914
 21
53.033916
  0
ARC
  8
OBRYS
 10
135.417914
 20
26.395332
 40
3.000000
 50
180.000000
 51
270.000000
  0
LINE
  8
OBRYS
 10
135.417914
 20
23.395332
 11
136.917914
 21
23.395332
  0
LINE
  8
OBRYS
 10
125.417914
 20
55.533916
 11
118.417914
 21
55.533916
  0
LINE
  8
OBRYS
 10
125.417914
 20
50.533916
 11
118.417914
 21
50.533916
  0
LINE
  8
OBRYS
 10
118.527758
 20
110.930342
 11
118.417914
 21
110.266474
  0
LINE
  8
OBRYS
 10
118.719451
 20
112.020905
 11
118.527758
 21
110.930342
  0
LINE
  8
OBRYS
 10
118.946443
 20
112.415303
 11
118.719451
 21
112.020905
  0
LINE
  8
OBRYS
 10
119.587692
 20
113.480080
 11
118.946443
 21
112.415303
  0
POLYLINE
  8
OBRYS
 66
    1
  0
VERTEX
  8
OBRYS
 10
125.176071
 20
-12.208553
  0
VERTEX
  8
OBRYS
 10
124.701668
 20
-12.064445
  0
VERTEX
  8
OBRYS
 10
124.012955
 20
-11.637653
  0
VERTEX
  8
OBRYS
 10
123.136375
 20
-10.944576
  0
VERTEX
  8
OBRYS
 10
122.105637
 20
-10.011856
  0
VERTEX
  8
OBRYS
 10
120.960342
 20
-8.875332
  0
VERTEX
  8
OBRYS
 10
119.744499
 20
-7.578681
  0
VERTEX
  8
OBRYS
 10
119.587692
 20
-7.400714
  0
VERTEX
  8
OBRYS
 10
118.842621
 20
-6.171733
  0
VERTEX
  8
OBRYS
 10
118.719452
 20
-5.956302
  0
VERTEX
  8
OBRYS
 10
118.501572
 20
-4.708553
  0
VERTEX
  8
OBRYS
 10
118.417915
 20
-4.199939
  0
VERTEX
  8
OBRYS
 10
118.417915
 20
-3.245376
  0
VERTEX
  8
OBRYS
 10
118.417915
 20
-1.838428
  0
VERTEX
  8
OBRYS
 10
118.417915
 20
-0.541778
  0
VERTEX
  8
OBRYS
 10
118.417915
 20
0.594750
  0
VERTEX
  8
OBRYS
 10
118.417915
 20
1.527466
  0
VERTEX
  8
OBRYS
 10
118.417915
 20
2.220543
  0
VERTEX
  8
OBRYS
 10
118.417915
 20
2.647331
  0
VERTEX
  8
OBRYS
 10
118.417915
 20
2.791443
  0
SEQEND
  8
OBRYS
  0
POLYLINE
  8
OBRYS
 66
    1
  0
VERTEX
  8
OBRYS
 10
122.105637
 20
21.616203
  0
VERTEX
  8
OBRYS
 10
120.960342
 20
21.760315
  0
VERTEX
  8
OBRYS
 10
119.744499
 20
22.187103
  0
VERTEX
  8
OBRYS
 10
119.587692
 20
22.274773
  0
VERTEX
  8
OBRYS
 10
118.842621
 20
22.880180
  0
VERTEX
  8
OBRYS
 10
118.719452
 20
23.017509
  0
VERTEX
  8
OBRYS
 10
118.501572
 20
23.812897
  0
VERTEX
  8
OBRYS
 10
118.417915
 20
24.207970
  0
VERTEX
  8
OBRYS
 10
118.417915
 20
24.949425
  0
VERTEX
  8
OBRYS
 10
118.417915
 20
26.246078
  0
VERTEX
  8
OBRYS
 10
118.417915
 20
27.653023
  0
VERTEX
  8
OBRYS
 10
118.417915
 20
29.116203
  0
VERTEX
  8
OBRYS
 10
118.417915
 20
30.579376
  0
VERTEX
  8
OBRYS
 10
118.417915
 20
31.986328
  0
VERTEX
  8
OBRYS
 10
118.417915
 20
33.282974
  0
VERTEX
  8
OBRYS
 10
118.417915
 20
34.419502
  0
VERTEX
  8
OBRYS
 10
118.417915
 20
35.352226
  0
VERTEX
  8
OBRYS
 10
118.417915
 20
36.045296
  0
VERTEX
  8
OBRYS
 10
118.417915
 20
36.472092
  0
VERTEX
  8
OBRYS
 10
118.417915
 20
36.566109
  0
VERTEX
  8
OBRYS
 10
118.501572
 20
36.616203
  0
SEQEND
  8
OBRYS
  0
POLYLINE
  8
OBRYS
 66
    1
  0
VERTEX
  8
OBRYS
 10
118.417915
 20
0.918968
  0
VERTEX
  8
OBRYS
 10
118.501572
 20
0.594750
  0
VERTEX
  8
OBRYS
 10
118.719452
 20
-0.374443
  0
VERTEX
  8
OBRYS
 10
118.842621
 20
-0.541778
  0
VERTEX
  8
OBRYS
 10
119.587692
 20
-1.674415
  0
VERTEX
  8
OBRYS
 10
119.744499
 20
-1.838428
  0
VERTEX
  8
OBRYS
 10
120.960342
 20
-3.245376
  0
VERTEX
  8
OBRYS
 10
122.105637
 20
-4.708553
  0
VERTEX
  8
OBRYS
 10
123.136375
 20
-6.171733
  0
VERTEX
  8
OBRYS
 10
124.012955
 20
-7.578681
  0
VERTEX
  8
OBRYS
 10
124.701668
 20
-8.875332
  0
VERTEX
  8
OBRYS
 10
125.176071
 20
-10.011856
  0
VERTEX
  8
OBRYS
 10
125.417915
 20
-10.944576
  0
VERTEX
  8
OBRYS
 10
125.417915
 20
-11.637653
  0
VERTEX
  8
OBRYS
 10
125.417915
 20
-12.064445
  0
VERTEX
  8
OBRYS
 10
125.176071
 20
-12.208553
  0
SEQEND
  8
OBRYS
  0
POLYLINE
  8
OBRYS
 66
    1
  0
VERTEX
  8
OBRYS
 10
118.501572
 20
36.616203
  0
VERTEX
  8
OBRYS
 10
118.719452
 20
36.493309
  0
VERTEX
  8
OBRYS
 10
118.842621
 20
36.472092
  0
VERTEX
  8
OBRYS
 10
119.587692
 20
36.099281
  0
VERTEX
  8
OBRYS
 10
119.744499
 20
36.045296
  0
VERTEX
  8
OBRYS
 10
120.960342
 20
35.352226
  0
VERTEX
  8
OBRYS
 10
122.105637
 20
34.419502
  0
VERTEX
  8
OBRYS
 10
123.136375
 20
33.282974
  0
VERTEX
  8
OBRYS
 10
124.012955
 20
31.986328
  0
VERTEX
  8
OBRYS
 10
124.701668
 20
30.579376
  0
VERTEX
  8
OBRYS
 10
125.176071
 20
29.116203
  0
VERTEX
  8
OBRYS
 10
125.417915
 20
27.653023
  0
VERTEX
  8
OBRYS
 10
125.417915
 20
26.246078
  0
VERTEX
  8
OBRYS
 10
125.417915
 20
24.949425
  0
VERTEX
  8
OBRYS
 10
125.176071
 20
23.812897
  0
VERTEX
  8
OBRYS
 10
124.701668
 20
22.880180
  0
VERTEX
  8
OBRYS
 10
124.012955
 20
22.187103
  0
VERTEX
  8
OBRYS
 10
123.136375
 20
21.760315
  0
VERTEX
  8
OBRYS
 10
122.105637
 20
21.616203
  0
SEQEND
  8
OBRYS
  0
LINE
  8
OBRYS
 10
127.048927
 20
120.449590
 11
132.417914
 21
120.449590
  0
LINE
  8
OBRYS
 10
124.791500
 20
119.425450
 11
119.587692
 21
113.480080
  0
ARC
  8
OBRYS
 10
127.048927
 20
117.449590
 40
3.000000
 50
90.000000
 51
138.805294
  0
LINE
  8
OBRYS
 10
132.417914
 20
114.029290
 11
126.959758
 21
114.029290
  0
LINE
  8
OBRYS
 10
118.417914
 20
105.150971
 11
118.527758
 21
105.583066
  0
LINE
  8
OBRYS
 10
118.527758
 20
105.583066
 11
118.719451
 21
106.447519
  0
LINE
  8
OBRYS
 10
118.719451
 20
106.447519
 11
118.946443
 21
106.760145
  0
LINE
  8
OBRYS
 10
118.946443
 20
106.760145
 11
119.587692
 21
107.723518
  0
LINE
  8
OBRYS
 10
119.587692
 20
107.723518
 11
124.803583
 21
113.115175
  0
ARC
  8
OBRYS
 10
126.959758
 20
111.029290
 40
3.000000
 50
90.000000
 51
135.949293
  0
LINE
  8
OBRYS
 10
126.497401
 20
87.378702
 11
132.417914
 21
87.378702
  0
ARC
  8
OBRYS
 10
126.497401
 20
84.378702
 40
3.000000
 50
90.000000
 51
120.201389
  0
LINE
  8
OBRYS
 10
118.417914
 20
115.155454
 11
118.417914
 21
53.033916
  0
LINE
  8
OBRYS
 10
124.988278
 20
86.971490
 11
119.163353
 21
83.581113
  0
ARC
  8
OBRYS
 10
119.917914
 20
82.284719
 40
1.500000
 50
120.201389
 51
180.000000
  0
ARC
  8
OBRYS
 10
119.917914
 20
68.461352
 40
1.500000
 50
107.711710
 51
180.000000
  0
LINE
  8
OBRYS
 10
134.417914
 20
13.571239
 11
130.257383
 21
24.038967
  0
LINE
  8
OSA
 62
     2
  6
CONTINUOUS
 10
112.917914
 20
-34.966084
 11
131.417914
 21
-34.966084
  0
LINE
  8
OBRYS
 10
134.417914
 20
-31.966084
 11
134.417914
 21
13.571239
  0
ARC
  8
OSA
 62
     2
  6
CONTINUOUS
 10
131.417914
 20
-31.966084
 40
3.000000
 50
270.000000
 51
360.000000
  0
LINE
  8
OBRYS
 10
133.716048
 20
-26.855414
 11
119.587692
 21
-10.017896
  0
ARC
  8
OBRYS
 10
131.417914
 20
-28.783777
 40
3.000000
 50
0.000000
 51
40.000000
  0
LINE
  8
OBRYS
 10
125.651624
 20
71.792504
 11
132.417914
 21
71.792504
  0
LINE
  8
OBRYS
 10
119.461573
 20
69.890251
 11
125.195282
 21
71.721403
  0
ARC
  8
OBRYS
 10
125.651624
 20
70.292504
 40
1.500000
 50
90.000000
 51
107.711710
  0
LINE
  8
OBRYS
 10
125.417914
 20
122.134317
 11
125.417914
 21
120.603417
  0
LINE
  8
OBRYS
 10
125.417914
 20
112.650205
 11
125.417914
 21
88.408301
  0
LINE
  8
OBRYS
 10
125.417914
 20
69.822908
 11
125.417914
 21
53.033916
  0
ENDBLK
  8
OBRYS
  0
ENDSEC
  0
SECTION
  2
ENTITIES
  0
ARC
  8
OBRYS
 10
376.707303
 20
317.022081
 40
70.000000
 50
251.682302
 51
291.803748
  0
ARC
  8
OBRYS
 10
376.707303
 20
317.022081
 40
70.000000
 50
68.196252
 51
108.317698
  0
ARC
  8
OBRYS
 10
438.707303
 20
317.022081
 40
60.000000
 50
279.594068
 51
291.101147
  0
ARC
  8
OBRYS
 10
438.707303
 20
317.022081
 40
60.000000
 50
68.898853
 51
80.405932
  0
ARC
  8
OBRYS
 10
438.707303
 20
317.022081
 40
60.000000
 50
8.898853
 51
19.216664
  0
LINE
  8
TLUST_
 62
     2
 10
495.364144
 20
336.770559
 11
488.428707
 21
356.667787
  0
LINE
  8
TLUST_
 62
     2
 10
473.953823
 20
373.617612
 11
487.454818
 21
358.332086
  0
ARC
  8
OBRYS
 10
468.707303
 20
368.983605
 40
7.000000
 50
50.000000
 51
137.046122
  0
ARC
  8
OBRYS
 10
468.707303
 20
265.060557
 40
7.000000
 50
222.953878
 51
310.000000
  0
LINE
  8
TLUST_
 62
     2
 10
473.953823
 20
260.426549
 11
487.454818
 21
275.712076
  0
LINE
  8
TLUST_
 62
     2
 10
495.364144
 20
297.273603
 11
488.428707
 21
277.376374
  0
ARC
  8
OBRYS
 10
438.707303
 20
317.022081
 40
60.000000
 50
340.783336
 51
351.101147
  0
ARC
  8
OBRYS
 10
483.707303
 20
279.022081
 40
5.000000
 50
318.547337
 51
340.783336
  0
ARC
  8
OBRYS
 10
500.948970
 20
326.767589
 40
3.000000
 50
188.898853
 51
257.046120
  0
ARC
  8
OBRYS
 10
500.948970
 20
307.276573
 40
3.000000
 50
102.953880
 51
171.101147
  0
ARC
  8
OBRYS
 10
461.388279
 20
258.246462
 40
3.000000
 50
42.953880
 51
111.101147
  0
ARC
  8
OBRYS
 10
461.388279
 20
375.797700
 40
3.000000
 50
248.898853
 51
317.046120
  0
ARC
  8
OBRYS
 10
498.707303
 20
317.022081
 40
7.000000
 50
282.953880
 51
77.046120
  0
INSERT
  8
OBRYS
  2
_0
 62
     7
 10
378.707303
 20
-264.916596
  0
INSERT
  8
OBRYS
  2
_1
 62
     7
 10
378.707303
 20
-172.916596
  0
INSERT
  8
OSA
  2
_2
  6
CONTINUOUS
 10
378.707303
 20
-256.916596
  0
ARC
  8
OSA
 62
     2
  6
CONTINUOUS
 10
311.964832
 20
-245.916596
 40
3.000000
 50
270.000000
 51
296.669096
  0
LINE
  8
OSA
 62
     2
  6
CONTINUOUS
 10
310.707303
 20
-173.916596
 11
323.088277
 21
-173.916596
  0
LINE
  8
OSA
 62
     2
  6
CONTINUOUS
 10
313.461750
 20
-188.916596
 11
311.707303
 21
-188.916596
  0
LINE
  8
OSA
 62
     2
  6
CONTINUOUS
 10
313.461750
 20
-248.916596
 11
311.707303
 21
-248.916596
  0
LINE
  8
OSA
 62
     2
  6
CONTINUOUS
 10
317.919549
 20
-256.916596
 11
308.707303
 21
-256.916596
  0
INSERT
  8
OBRYS
  2
_3
 62
     7
 10
438.707303
 20
-218.916596
  0
LINE
  8
OSA
 10
654.000274
 20
260.698389
 11
673.799264
 21
240.899399
  0
LINE
  8
OSA
 10
581.875382
 20
260.698389
 11
562.076392
 21
240.899399
  0
LINE
  8
OSA
 10
581.875382
 20
332.823281
 11
562.076392
 21
352.622271
  0
LINE
  8
OSA
 10
654.000274
 20
332.823281
 11
673.799264
 21
352.622271
  0
LINE
  8
OSA
 10
617.937828
 20
339.260835
 11
617.937828
 21
316.760835
  0
LINE
  8
OSA
 10
617.937828
 20
296.760835
 11
617.937828
 21
274.260835
  0
LINE
  8
OSA
 10
617.937828
 20
296.760835
 11
617.937828
 21
319.260835
  0
LINE
  8
OSA
 10
617.937828
 20
296.760835
 11
595.437828
 21
296.760835
  0
LINE
  8
OSA
 10
617.937828
 20
296.760835
 11
640.437828
 21
296.760835
  0
CIRCLE
  8
OBRYS
 10
617.937828
 20
296.760835
 40
12.500000
  0
ARC
  8
OBRYS
 10
617.937828
 20
296.760835
 40
7.000000
 50
110.924832
 51
69.075168
  0
LINE
  8
OBRYS
 10
615.437828
 20
303.299183
 11
615.437828
 21
305.960835
  0
LINE
  8
OBRYS
 10
620.437828
 20
303.299183
 11
620.437828
 21
305.960835
  0
LINE
  8
OBRYS
 10
615.437828
 20
305.960835
 11
620.437828
 21
305.960835
  0
CIRCLE
  8
OBRYS
 10
617.937828
 20
296.760835
 40
80.000000
  0
CIRCLE
  8
OBRYS
 10
617.937828
 20
296.760835
 40
55.000000
  0
LINE
  8
OSA
 10
617.937828
 20
296.760835
 11
702.937828
 21
296.760835
  0
LINE
  8
OSA
 10
617.937828
 20
296.760835
 11
532.937828
 21
296.760835
  0
LINE
  8
OSA
 10
617.937828
 20
296.760835
 11
617.937828
 21
381.760835
  0
LINE
  8
OSA
 10
617.937828
 20
296.760835
 11
617.937828
 21
211.760835
  0
CIRCLE
  8
OSA
 10
617.937828
 20
296.760835
 40
65.000000
  0
INSERT
  8
OBRYS
 66
     1
  2
Vnitrni_metricky_zavit_M8_4
 62
     7
 10
571.975887
 20
250.798894
  0
ATTRIB
  8
OBRYS
 10
62.192768
 20
-69.092140
 40
25.000000
  1
CSN 02 1034
  2
norma roz.
 70
     1
  0
ATTRIB
  8
OBRYS
 10
62.192768
 20
-69.092140
 40
25.000000
  1
1.25
  2
roztec
 70
     1
  0
ATTRIB
  8
OBRYS
 10
62.192768
 20
-69.092140
 40
25.000000
  1
*NB
  2
puvod
 70
     1
  0
ATTRIB
  8
OBRYS
 10
62.192768
 20
-69.092140
 40
25.000000
  1
02 1034
  2
tridici znak
 70
     1
  0
SEQEND
  8
OBRYS
  0
INSERT
  8
OBRYS
 66
     1
  2
Vnitrni_metricky_zavit_M8_5
 62
     7
 10
663.899769
 20
250.798894
  0
ATTRIB
  8
OBRYS
 10
62.192768
 20
-69.092140
 40
25.000000
  1
CSN 02 1034
  2
norma roz.
 70
     1
  0
ATTRIB
  8
OBRYS
 10
62.192768
 20
-69.092140
 40
25.000000
  1
1.25
  2
roztec
 70
     1
  0
ATTRIB
  8
OBRYS
 10
62.192768
 20
-69.092140
 40
25.000000
  1
*NB
  2
puvod
 70
     1
  0
ATTRIB
  8
OBRYS
 10
62.192768
 20
-69.092140
 40
25.000000
  1
02 1034
  2
tridici znak
 70
     1
  0
SEQEND
  8
OBRYS
  0
INSERT
  8
OBRYS
 66
     1
  2
Vnitrni_metricky_zavit_M8_6
 62
     7
 10
663.899769
 20
342.722776
  0
ATTRIB
  8
OBRYS
 10
62.192768
 20
-69.092140
 40
25.000000
  1
CSN 02 1034
  2
norma roz.
 70
     1
  0
ATTRIB
  8
OBRYS
 10
62.192768
 20
-69.092140
 40
25.000000
  1
1.25
  2
roztec
 70
     1
  0
ATTRIB
  8
OBRYS
 10
62.192768
 20
-69.092140
 40
25.000000
  1
*NB
  2
puvod
 70
     1
  0
ATTRIB
  8
OBRYS
 10
62.192768
 20
-69.092140
 40
25.000000
  1
02 1034
  2
tridici znak
 70
     1
  0
SEQEND
  8
OBRYS
  0
INSERT
  8
OBRYS
 66
     1
  2
Vnitrni_metricky_zavit_M8_7
 62
     7
 10
571.975887
 20
342.722776
  0
ATTRIB
  8
OBRYS
 10
62.192768
 20
-69.092140
 40
25.000000
  1
CSN 02 1034
  2
norma roz.
 70
     1
  0
ATTRIB
  8
OBRYS
 10
62.192768
 20
-69.092140
 40
25.000000
  1
1.25
  2
roztec
 70
     1
  0
ATTRIB
  8
OBRYS
 10
62.192768
 20
-69.092140
 40
25.000000
  1
*NB
  2
puvod
 70
     1
  0
ATTRIB
  8
OBRYS
 10
62.192768
 20
-69.092140
 40
25.000000
  1
02 1034
  2
tridici znak
 70
     1
  0
SEQEND
  8
OBRYS
  0
LINE
  8
OBRYS
 10
615.437828
 20
-135.870518
 11
620.437828
 21
-135.870518
  0
LINE
  8
OBRYS
 10
620.437828
 20
-138.532170
 11
620.437828
 21
-135.870518
  0
LINE
  8
OBRYS
 10
615.437828
 20
-138.532170
 11
615.437828
 21
-135.870518
  0
ARC
  8
OBRYS
 10
617.937828
 20
-145.070518
 40
7.000000
 50
110.924832
 51
69.075168
  0
CIRCLE
  8
OBRYS
 10
617.937828
 20
-145.070518
 40
12.500000
  0
LINE
  8
OSA
 10
617.937828
 20
-145.070518
 11
640.437828
 21
-145.070518
  0
LINE
  8
OSA
 10
617.937828
 20
-145.070518
 11
595.437828
 21
-145.070518
  0
LINE
  8
OSA
 10
617.937828
 20
-145.070518
 11
617.937828
 21
-122.570518
  0
LINE
  8
OSA
 10
617.937828
 20
-145.070518
 11
617.937828
 21
-167.570518
  0
CIRCLE
  8
OBRYS
 10
617.937828
 20
-102.570518
 40
12.500000
  0
ARC
  8
OBRYS
 10
617.937828
 20
-102.570518
 40
5.500000
 50
110.654018
 51
68.003576
  0
LINE
  8
OBRYS
 10
619.997846
 20
-97.470878
 11
619.997846
 21
-95.381558
  0
LINE
  8
OBRYS
 10
615.997846
 20
-97.424018
 11
615.997846
 21
-95.381558
  0
LINE
  8
OBRYS
 10
615.997846
 20
-95.381558
 11
619.997846
 21
-95.381558
  0
LINE
  8
OSA
 10
617.937828
 20
-102.570518
 11
640.437828
 21
-102.570518
  0
LINE
  8
OSA
 10
617.937828
 20
-102.570518
 11
595.437828
 21
-102.570518
  0
LINE
  8
OSA
 10
617.937828
 20
-102.570518
 11
617.937828
 21
-80.070518
  0
LINE
  8
OSA
 10
617.937828
 20
-102.570518
 11
617.937828
 21
-125.070518
  0
INSERT
  8
OBRYS
  2
_8
 62
     7
 10
178.417914
 20
131.033916
  0
INSERT
  8
OBRYS
  2
_9
 62
     7
 10
617.937828
 20
131.033916
  0
INSERT
  8
OBRYS
  2
_10
 62
     7
 10
794.513579
 20
131.033916
  0
INSERT
  8
OBRYS
  2
_11
 62
     7
 10
438.707303
 20
131.033916
  0
TEXT
  8
NEVIDI
 62
     2
  6
CONTINUOUS
 10
171.886246
 20
484.679413
 40
15.000000
  1
MRP 60A - FT + 2x adaptér
 50
0.00
 51
0.00
 41
0.80
  0
TEXT
  8
NEVIDI
 62
     2
  6
CONTINUOUS
 10
165.944824
 20
522.629150
 40
15.000000
  1
MRP 60A - V
 50
0.00
 51
0.00
 41
0.80
  0
INSERT
  8
OBRYS
  2
_12
 62
     7
 10
378.707303
 20
377.022081
  0
INSERT
  8
OBRYS
 66
     1
  2
M10x1_13
 62
     7
 10
316.707303
 20
317.022081
  0
ATTRIB
  8
0
 62
     2
 10
0.000000
 20
0.000000
 40
3.749998
  1
DIN 908
  2
norma roz.
 70
     1
  0
SEQEND
  8
OBRYS
  0
INSERT
  8
OBRYS
  2
_14
 62
     7
 10
378.707303
 20
257.022081
  0
INSERT
  8
OSA
  2
_15
  6
CONTINUOUS
 10
438.707303
 20
317.022081
  0
LINE
  8
OSA
 10
378.707303
 20
-260.916596
 11
378.707303
 21
-145.727887
  0
LINE
  8
OSA
 10
435.707303
 20
-218.916596
 11
477.207303
 21
-218.916596
  0
LINE
  8
OSA
 10
438.707303
 20
-218.916596
 11
438.707303
 21
-181.916596
  0
LINE
  8
OSA
 10
438.707303
 20
-218.916596
 11
438.707303
 21
-255.916596
  0
ARC
  8
OSA
 62
     2
  6
CONTINUOUS
 10
311.707303
 20
-185.916596
 40
3.000000
 50
180.000000
 51
270.000000
  0
LINE
  8
OSA
 62
     2
  6
CONTINUOUS
 10
308.707303
 20
-256.916596
 11
308.707303
 21
-251.916596
  0
ARC
  8
OSA
 62
     2
  6
CONTINUOUS
 10
311.707303
 20
-251.916596
 40
3.000000
 50
90.000000
 51
180.000000
  0
LINE
  8
OSA
 10
438.707303
 20
-218.916596
 11
308.707303
 21
-218.916596
  0
LINE
  8
OSA
 62
     2
  6
CONTINUOUS
 10
308.707303
 20
-185.916596
 11
308.707303
 21
-175.916596
  0
ARC
  8
OSA
 62
     2
  6
CONTINUOUS
 10
310.707303
 20
-175.916596
 40
2.000000
 50
90.000000
 51
180.000000
  0
LINE
  8
OBRYS
 10
794.513579
 20
131.033916
 11
833.999894
 21
131.033916
  0
LINE
  8
OBRYS
 10
794.513579
 20
131.033916
 11
755.027263
 21
131.033916
  0
LINE
  8
0
 62
     2
 10
755.060132
 20
131.033916
 11
755.060132
 21
103.140906
  0
LINE
  8
0
 62
     2
 10
755.831111
 20
102.210318
 11
755.831111
 21
131.033916
  0
LINE
  8
0
 62
     2
 10
772.574268
 20
101.974024
 11
772.574268
 21
131.033916
  0
LINE
  8
0
 62
     2
 10
777.770421
 20
102.157515
 11
777.770421
 21
131.033916
  0
LINE
  8
OBRYS
 10
759.513579
 20
95.320320
 11
759.513579
 21
10.747513
  0
LINE
  8
0
 62
     2
 10
798.729530
 20
95.320320
 11
759.513579
 21
95.320320
  0
LINE
  8
0
 62
     2
 10
759.513579
 20
95.320320
 11
755.060132
 21
103.033916
  0
POLYLINE
  8
0
 62
     2
 66
    1
  0
VERTEX
  8
0
 62
     2
 10
755.060120
 20
103.033936
  0
VERTEX
  8
0
 62
     2
 10
755.060120
 20
103.140869
  0
VERTEX
  8
0
 62
     2
 10
755.320923
 20
102.898499
  0
VERTEX
  8
0
 62
     2
 10
755.831116
 20
102.210327
  0
VERTEX
  8
0
 62
     2
 10
758.262207
 20
98.717834
  0
VERTEX
  8
0
 62
     2
 10
761.898743
 20
95.843384
  0
VERTEX
  8
0
 62
     2
 10
765.349670
 20
95.450378
  0
VERTEX
  8
0
 62
     2
 10
768.891785
 20
97.458801
  0
VERTEX
  8
0
 62
     2
 10
772.574280
 20
101.973999
  0
VERTEX
  8
0
 62
     2
 10
772.864746
 20
102.191162
  0
VERTEX
  8
0
 62
     2
 10
773.311523
 20
102.768555
  0
VERTEX
  8
0
 62
     2
 10
774.243713
 20
103.292053
  0
VERTEX
  8
0
 62
     2
 10
775.330017
 20
103.363525
  0
VERTEX
  8
0
 62
     2
 10
776.522949
 20
102.979736
  0
VERTEX
  8
0
 62
     2
 10
777.770386
 20
102.157532
  0
VERTEX
  8
0
 62
     2
 10
780.016113
 20
100.315063
  0
VERTEX
  8
0
 62
     2
 10
787.551636
 20
96.507935
  0
VERTEX
  8
0
 62
     2
 10
794.513550
 20
95.320313
  0
VERTEX
  8
0
 62
     2
 10
799.366943
 20
96.148254
  0
SEQEND
  8
0
  0
LINE
  8
0
 62
     2
 10
755.831111
 20
3.857514
 11
755.831111
 21
-21.966084
  0
LINE
  8
0
 62
     2
 10
755.060132
 20
-21.966084
 11
755.060132
 21
2.926926
  0
LINE
  8
0
 62
     2
 10
772.574268
 20
4.093808
 11
772.574268
 21
-21.966084
  0
LINE
  8
0
 62
     2
 10
777.770421
 20
3.910317
 11
777.770421
 21
-21.966084
  0
LINE
  8
0
 62
     2
 10
759.513579
 20
10.747513
 11
755.060132
 21
3.033916
  0
LINE
  8
0
 62
     2
 10
833.967026
 20
131.033916
 11
833.967026
 21
119.950574
  0
LINE
  8
OBRYS
 10
755.060132
 20
131.033916
 11
833.967026
 21
131.033916
  0
LINE
  8
0
 62
     2
 10
833.196047
 20
119.708970
 11
833.196047
 21
131.033916
  0
LINE
  8
0
 62
     2
 10
816.452889
 20
111.782396
 11
816.452889
 21
131.033916
  0
LINE
  8
0
 62
     2
 10
811.256737
 20
108.068865
 11
811.256737
 21
131.033916
  0
LINE
  8
OBRYS
 10
755.060132
 20
131.033916
 11
833.967026
 21
131.033916
  0
LINE
  8
OBRYS
 10
755.060132
 20
-21.966084
 11
784.513579
 21
-21.966084
  0
LINE
  8
0
 62
     2
 10
784.513579
 20
10.747513
 11
759.513579
 21
10.747513
  0
POLYLINE
  8
0
 62
     2
 66
    1
  0
VERTEX
  8
0
 62
     2
 10
755.060120
 20
3.033936
  0
VERTEX
  8
0
 62
     2
 10
755.060120
 20
2.926941
  0
VERTEX
  8
0
 62
     2
 10
755.320923
 20
3.169312
  0
VERTEX
  8
0
 62
     2
 10
755.831116
 20
3.857483
  0
VERTEX
  8
0
 62
     2
 10
758.262207
 20
7.350037
  0
VERTEX
  8
0
 62
     2
 10
761.898743
 20
10.224426
  0
VERTEX
  8
0
 62
     2
 10
765.349670
 20
10.617432
  0
VERTEX
  8
0
 62
     2
 10
768.891785
 20
8.609009
  0
VERTEX
  8
0
 62
     2
 10
772.574280
 20
4.093812
  0
VERTEX
  8
0
 62
     2
 10
772.864746
 20
3.876648
  0
VERTEX
  8
0
 62
     2
 10
773.311523
 20
3.299256
  0
VERTEX
  8
0
 62
     2
 10
774.243713
 20
2.775757
  0
VERTEX
  8
0
 62
     2
 10
775.330017
 20
2.704285
  0
VERTEX
  8
0
 62
     2
 10
776.522949
 20
3.088074
  0
VERTEX
  8
0
 62
     2
 10
777.770386
 20
3.910279
  0
VERTEX
  8
0
 62
     2
 10
780.016113
 20
5.752747
  0
VERTEX
  8
0
 62
     2
 10
784.513550
 20
8.024979
  0
SEQEND
  8
0
  0
LINE
  8
OSA
 10
794.513579
 20
-20.966084
 11
794.513579
 21
148.628137
  0
INSERT
  8
OSA
  2
_16
  6
CONTINUOUS
 10
655.937828
 20
53.033916
  0
INSERT
  8
OBRYS
  2
_17
 62
     7
 10
677.937828
 20
53.033916
  0
INSERT
  8
OBRYS
  2
_18
 62
     7
 10
557.937828
 20
53.033916
  0
LINE
  8
OSA
 62
     2
  6
CONTINUOUS
 10
571.937828
 20
117.033916
 11
572.352041
 21
117.448130
  0
INSERT
  8
OSA
  2
_19
  6
CONTINUOUS
 10
617.937828
 20
-6.966084
  0
INSERT
  8
OSA
  2
_20
  6
CONTINUOUS
 10
178.417914
 20
-6.966084
  0
LINE
  8
OBRYS
 10
438.707303
 20
131.033916
 11
478.193619
 21
131.033916
  0
LINE
  8
OBRYS
 10
438.707303
 20
131.033916
 11
399.220987
 21
131.033916
  0
LINE
  8
OSA
 10
438.707303
 20
-20.966084
 11
438.707303
 21
130.783916
  0
LINE
  8
0
 62
     2
 10
421.964145
 20
108.068865
 11
421.964145
 21
131.033916
  0
LINE
  8
0
 62
     2
 10
416.767993
 20
111.782396
 11
416.767993
 21
131.033916
  0
LINE
  8
0
 62
     2
 10
400.024835
 20
119.708970
 11
400.024835
 21
131.033916
  0
LINE
  8
0
 62
     2
 10
399.253856
 20
131.033916
 11
399.253856
 21
119.950574
  0
LINE
  8
0
 62
     2
 10
473.707303
 20
10.747513
 11
478.160750
 21
3.033916
  0
LINE
  8
0
 62
     2
 10
455.450461
 20
3.910317
 11
455.450461
 21
-21.966084
  0
LINE
  8
0
 62
     2
 10
460.646613
 20
4.093808
 11
460.646613
 21
-21.966084
  0
LINE
  8
0
 62
     2
 10
478.160750
 20
-21.966084
 11
478.160750
 21
2.926926
  0
LINE
  8
0
 62
     2
 10
477.389771
 20
3.857514
 11
477.389771
 21
-21.966084
  0
POLYLINE
  8
0
 62
     2
 66
    1
  0
VERTEX
  8
0
 62
     2
 10
478.160736
 20
103.033951
  0
VERTEX
  8
0
 62
     2
 10
478.160736
 20
103.140884
  0
VERTEX
  8
0
 62
     2
 10
477.899963
 20
102.898514
  0
VERTEX
  8
0
 62
     2
 10
477.389771
 20
102.210342
  0
VERTEX
  8
0
 62
     2
 10
474.958649
 20
98.717850
  0
VERTEX
  8
0
 62
     2
 10
471.322113
 20
95.843399
  0
VERTEX
  8
0
 62
     2
 10
467.871185
 20
95.450394
  0
VERTEX
  8
0
 62
     2
 10
464.329071
 20
97.458817
  0
VERTEX
  8
0
 62
     2
 10
460.646606
 20
101.974014
  0
VERTEX
  8
0
 62
     2
 10
460.356140
 20
102.191177
  0
VERTEX
  8
0
 62
     2
 10
459.909332
 20
102.768570
  0
VERTEX
  8
0
 62
     2
 10
458.977173
 20
103.292068
  0
VERTEX
  8
0
 62
     2
 10
457.890869
 20
103.363541
  0
VERTEX
  8
0
 62
     2
 10
456.697937
 20
102.979752
  0
VERTEX
  8
0
 62
     2
 10
455.450470
 20
102.157547
  0
VERTEX
  8
0
 62
     2
 10
453.204773
 20
100.315079
  0
VERTEX
  8
0
 62
     2
 10
445.669250
 20
96.507950
  0
VERTEX
  8
0
 62
     2
 10
438.707306
 20
95.320328
  0
VERTEX
  8
0
 62
     2
 10
433.853943
 20
96.148270
  0
SEQEND
  8
0
  0
LINE
  8
0
 62
     2
 10
473.707303
 20
95.320320
 11
478.160750
 21
103.033916
  0
LINE
  8
0
 62
     2
 10
434.491352
 20
95.320320
 11
473.707303
 21
95.320320
  0
LINE
  8
OBRYS
 10
473.707303
 20
95.320320
 11
473.707303
 21
10.747513
  0
LINE
  8
0
 62
     2
 10
455.450461
 20
102.157515
 11
455.450461
 21
131.033916
  0
LINE
  8
0
 62
     2
 10
460.646613
 20
101.974024
 11
460.646613
 21
131.033916
  0
LINE
  8
0
 62
     2
 10
477.389771
 20
102.210318
 11
477.389771
 21
131.033916
  0
LINE
  8
0
 62
     2
 10
478.160750
 20
131.033916
 11
478.160750
 21
103.140906
  0
LINE
  8
OBRYS
 10
478.160750
 20
131.033916
 11
399.253856
 21
131.033916
  0
POLYLINE
  8
0
 62
     2
 66
    1
  0
VERTEX
  8
0
 62
     2
 10
478.160736
 20
3.033943
  0
VERTEX
  8
0
 62
     2
 10
478.160736
 20
2.926949
  0
VERTEX
  8
0
 62
     2
 10
477.899963
 20
3.169319
  0
VERTEX
  8
0
 62
     2
 10
477.389771
 20
3.857491
  0
VERTEX
  8
0
 62
     2
 10
474.958649
 20
7.350045
  0
VERTEX
  8
0
 62
     2
 10
471.322113
 20
10.224434
  0
VERTEX
  8
0
 62
     2
 10
467.871185
 20
10.617439
  0
VERTEX
  8
0
 62
     2
 10
464.329071
 20
8.609016
  0
VERTEX
  8
0
 62
     2
 10
460.646606
 20
4.093819
  0
VERTEX
  8
0
 62
     2
 10
460.356140
 20
3.876656
  0
VERTEX
  8
0
 62
     2
 10
459.909332
 20
3.299263
  0
VERTEX
  8
0
 62
     2
 10
458.977173
 20
2.775765
  0
VERTEX
  8
0
 62
     2
 10
457.890869
 20
2.704293
  0
VERTEX
  8
0
 62
     2
 10
456.697937
 20
3.088082
  0
VERTEX
  8
0
 62
     2
 10
455.450470
 20
3.910286
  0
VERTEX
  8
0
 62
     2
 10
453.204773
 20
5.752755
  0
VERTEX
  8
0
 62
     2
 10
448.707306
 20
8.024986
  0
SEQEND
  8
0
  0
LINE
  8
0
 62
     2
 10
448.707303
 20
10.747513
 11
473.707303
 21
10.747513
  0
LINE
  8
OBRYS
 10
478.160750
 20
-21.966084
 11
448.707303
 21
-21.966084
  0
LINE
  8
OSA
 10
854.513579
 20
53.033916
 11
774.513579
 21
53.033916
  0
LINE
  8
OSA
 10
854.513579
 20
53.033916
 11
934.513579
 21
53.033916
  0
ARC
  8
OBRYS
 10
938.513579
 20
55.349422
 40
2.000000
 50
180.000000
 51
268.000000
  0
LINE
  8
OBRYS
 10
947.513579
 20
53.033916
 11
938.443780
 21
53.350640
  0
LINE
  8
OSA
 10
378.707303
 20
53.033916
 11
458.707303
 21
53.033916
  0
LINE
  8
OSA
 10
378.707303
 20
53.033916
 11
298.707303
 21
53.033916
  0
INSERT
  8
OBRYS
  2
_21
 62
     7
 10
854.513579
 20
53.033916
  0
INSERT
  8
OBRYS
  2
_22
 62
     7
 10
378.707303
 20
53.033916
  0
INSERT
  8
OBRYS
  2
_23
 62
     7
 10
238.417914
 20
53.033916
  0
INSERT
  8
OSA
  2
_24
  6
CONTINUOUS
 10
140.417914
 20
53.033916
  0
INSERT
  8
OBRYS
  2
_25
 62
     7
 10
118.417914
 20
53.033916
  0
ENDSEC
  0
EOF

