  0
SECTION
  2
HEADER
  9
$ACADVER
  1
AC1009
  9
$INSBASE
 10
0.0
 20
0.0
 30
0.0
  9
$LIMMIN
 10
0.0
 20
0.0
  9
$LIMMAX
 10
430.0000
 20
307.0000
  9
$EXTMIN
 10
99999999999999998000000000000000000000.0000
 20
99999999999999998000000000000000000000.0000
  9
$EXTMAX
 10
99999999999999998000000000000000000000.0000
 20
99999999999999998000000000000000000000.0000
  9
$VIEWCTR
 10
-75.2253
 20
267.3611
  9
$VIEWSIZE
 40
1493.3564
  9
$DIMLFAC
 40
0.6667
  9
$MEASUREMENT
 70
     1
  9
$DWGCODEPAGE
 3
ANSI_1250
  9
$CLAYER
  8
OBRYS
  9
$CELTYPE
  6
BYLAYER
  9
$CECOLOR
 62
  256
  9
$ORTHOMODE
 70
     0
  9
$REGENMODE
 70
     1
  9
$FILLMODE
 70
     1
  9
$QTEXTMODE
 70
     0
  9
$MIRRTEXT
 70
     1
  9
$DRAGMODE
 70
     2
  9
$LTSCALE
 40
1.0
  9
$OSMODE
 70
    37
  9
$ATTMODE
 70
     1
  9
$TEXTSIZE
 40
2.5
  9
$TRACEWID
 40
1.0
  9
$TEXTSTYLE
  7
STANDARD
  9
$CLAYER
  8
0
  9
$CELTYPE
  6
BYLAYER
  9
$CECOLOR
 62
   256
  9
$DIMSCALE
 40
1.0
  9
$DIMASZ
 40
2.5
  9
$DIMEXO
 40
0.625
  9
$DIMDLI
 40
3.75
  9
$DIMRND
 40
0.0
  9
$DIMDLE
 40
0.0
  9
$DIMEXE
 40
1.25
  9
$DIMTP
 40
0.0
  9
$DIMTM
 40
0.0
  9
$DIMTXT
 40
2.5
  9
$DIMCEN
 40
2.5
  9
$DIMTSZ
 40
0.0
  9
$DIMTOL
 70
     0
  9
$DIMLIM
 70
     0
  9
$DIMTIH
 70
     0
  9
$DIMTOH
 70
     0
  9
$DIMSE1
 70
     0
  9
$DIMSE2
 70
     0
  9
$DIMTAD
 70
     1
  9
$DIMZIN
 70
     8
  9
$DIMBLK
  1

  9
$DIMASO
 70
     1
  9
$DIMSHO
 70
     1
  9
$DIMPOST
  1

  9
$DIMAPOST
  1

  9
$DIMALT
 70
     0
  9
$DIMALTD
 70
     3
  9
$DIMALTF
 40
0.03937007874016
  9
$DIMTOFL
 70
     1
  9
$DIMTVP
 40
0.0
  9
$DIMTIX
 70
     0
  9
$DIMSOXD
 70
     0
  9
$DIMSAH
 70
     0
  9
$DIMBLK1
  1

  9
$DIMBLK2
  1

  9
$DIMSTYLE
  2
ISO-25
  9
$DIMCLRD
 70
     0
  9
$DIMCLRE
 70
     0
  9
$DIMCLRT
 70
     0
  9
$DIMTFAC
 40
1.0
  9
$DIMGAP
 40
0.625
  9
$LUNITS
 70
     2
  9
$LUPREC
 70
     4
  9
$SKETCHINC
 40
1.0
  9
$FILLETRAD
 40
10.0
  9
$AUNITS
 70
     0
  9
$AUPREC
 70
     0
  9
$MENU
  1
.
  9
$ELEVATION
 40
0.0
  9
$PELEVATION
 40
0.0
  9
$THICKNESS
 40
0.0
  9
$LIMCHECK
 70
     0
  9
$BLIPMODE
 70
     0
  9
$CHAMFERA
 40
10.0
  9
$CHAMFERB
 40
10.0
  9
$SKPOLY
 70
     0
  9
$TDCREATE
 40
2451579.5163292708
  9
$TDUPDATE
 40
2451579.6904035881
  9
$TDINDWG
 40
0.0082924769
  9
$TDUSRTIMER
 40
0.0082825116
  9
$USRTIMER
 70
     1
  9
$ANGBASE
 50
0.0
  9
$ANGDIR
 70
     0
  9
$PDMODE
 70
     0
  9
$PDSIZE
 40
0.0
  9
$PLINEWID
 40
0.0
  9
$COORDS
 70
     1
  9
$SPLFRAME
 70
     0
  9
$SPLINETYPE
 70
     6
  9
$SPLINESEGS
 70
     8
  9
$ATTDIA
 70
     0
  9
$ATTREQ
 70
     1
  9
$SURFTAB1
 70
     6
  9
$SURFTAB2
 70
     6
  9
$SURFTYPE
 70
     6
  9
$SURFU
 70
     6
  9
$SURFV
 70
     6
  9
$UCSNAME
  2

  9
$UCSORG
 10
0.0
 20
0.0
 30
0.0
  9
$UCSXDIR
 10
1.0
 20
0.0
 30
0.0
  9
$UCSYDIR
 10
0.0
 20
1.0
 30
0.0
  9
$PUCSNAME
  2

  9
$PUCSORG
 10
0.0
 20
0.0
 30
0.0
  9
$PUCSXDIR
 10
1.0
 20
0.0
 30
0.0
  9
$PUCSYDIR
 10
0.0
 20
1.0
 30
0.0
  9
$USERI1
 70
     0
  9
$USERI2
 70
     0
  9
$USERI3
 70
     0
  9
$USERI4
 70
     0
  9
$USERI5
 70
     0
  9
$USERR1
 40
0.0
  9
$USERR2
 40
0.0
  9
$USERR3
 40
0.0
  9
$USERR4
 40
0.0
  9
$USERR5
 40
0.0
  9
$WORLDVIEW
 70
     1
  9
$SHADEDGE
 70
     3
  9
$SHADEDIF
 70
    70
  9
$TILEMODE
 70
     1
  9
$MAXACTVP
 70
    64
  9
$PLIMCHECK
 70
     0
  9
$PEXTMIN
 10
1.0000000000000000E+020
 20
1.0000000000000000E+020
 30
1.0000000000000000E+020
  9
$PEXTMAX
 10
-1.0000000000000000E+020
 20
-1.0000000000000000E+020
 30
-1.0000000000000000E+020
  9
$PLIMMIN
 10
0.0
 20
0.0
  9
$PLIMMAX
 10
420.0
 20
297.0
  9
$UNITMODE
 70
     0
  9
$VISRETAIN
 70
     1
  9
$PLINEGEN
 70
     0
  9
$PSLTSCALE
 70
     1
  0
ENDSEC
  0
SECTION
  2
TABLES
  0
TABLE
  2
VPORT
 70
     2
  0
VPORT
  2
*ACTIVE
 70
     0
 10
0.0
 20
0.0
 11
1.0
 21
1.0
 12
-75.2253
 22
267.3611
 13
0.0
 23
0.0
 14
10.0
 24
10.0
 15
10.0
 25
10.0
 16
0.0
 26
0.0
 36
1.0
 17
0.0
 27
0.0
 37
0.0
 40
1493.3564
 41
1.6916
 42
50.0
 43
0.0
 44
0.0
 50
0.0
 51
0.0
 71
     0
 72
   100
 73
     1
 74
     3
 75
     0
 76
     0
 77
     0
 78
     0
  0
ENDTAB
  0
TABLE
  2
LTYPE
 70
     7
  0
LTYPE
  2
CONTINUOUS
 70
     0
  3
Solid line
 72
    65
 73
     0
 40
0.0
  0
LTYPE
  2
HIDDEN2
 70
     0
  3
Hidden (.5x) _ _ _ _ _ _ _ _ _ _ _ _ _ _ _ _ _
 72
    65
 73
     2
 40
5.1
 49
3.5
 49
-1.6
  0
LTYPE
  2
DASHDOT
 70
     0
  3
Dash dot __ . __ . __ . __ . __ . __ . __ . __
 72
    65
 73
     4
 40
10.4
 49
6.2
 49
-2.1
 49
0.0
 49
-2.1
  0
LTYPE
  2
DOT
 70
     0
  3
Dot . . . . . . . . . . . . . . . . . . . . . .
 72
    65
 73
     2
 40
2.2
 49
1.1
 49
-1.1
  0
LTYPE
  2
DASHED
 70
     0
  3
Dashed __ __ __ __ __ __ __ __ __ __ __ __ __ _
 72
    65
 73
     2
 40
11.049999999999979
 49
8.699999999999999
 49
-2.3499999999999979
  0
LTYPE
  2
PHANTOM2
 70
     0
  3
Phantom (.5x) ___ _ _ ___ _ _ ___ _ _ ___ _ _
 72
    65
 73
     6
 40
18.3
 49
7.8
 49
-2.1
 49
2.1
 49
-2.1
 49
2.1
 49
-2.1
  0
LTYPE
  2
CENTER
 70
     0
  3
Center ____ _ ____ _ ____ _ ____ _ ____ _ ____
 72
    65
 73
     4
 40
14.1
 49
7.8
 49
-2.1
 49
2.1
 49
-2.1
  0
ENDTAB
  0
TABLE
  2
LAYER
 70
     7
  0
LAYER
  2
0
 70
    64
 62
     7
  6
CONTINUOUS
  0
LAYER
  2
OBRYS
 70
    64
 62
     2
  6
CONTINUOUS
  0
LAYER
  2
OSA
 70
    64
 62
     7
  6
DASHDOT
  0
LAYER
  2
KOTA
 70
    64
 62
     3
  6
CONTINUOUS
  0
LAYER
  2
SRAFY
 70
    64
 62
     7
  6
CONTINUOUS
  0
LAYER
  2
POMOC
 70
    64
 62
     1
  6
DOT
  0
LAYER
  2
NEVIDITELNA
 70
    64
 62
     4
  6
HIDDEN2
  0
ENDTAB
  0
TABLE
  2
STYLE
 70
     1
  0
STYLE
  2
STANDARD
 70
     0
 40
0.0
 41
1.0
 50
0.0
 71
     0
 42
2.5
  3
txt
  4

  0
ENDTAB
  0
TABLE
  2
VIEW
 70
     0
  0
ENDTAB
  0
TABLE
  2
UCS
 70
     0
  0
ENDTAB
  0
TABLE
  2
APPID
 70
     1
  0
APPID
  2
ACAD
 70
     0
  0
ENDTAB
  0
TABLE
  2
DIMSTYLE
 70
     1
  0
DIMSTYLE
  2
ISO-25
 70
     0
  3

  4

  5

  6

  7

 40
1.0
 41
2.5
 42
0.625
 43
3.75
 44
1.25
 45
0.0
 46
0.0
 47
0.0
 48
0.0
140
2.5
141
2.5
142
0.0
143
0.03937007874016
144
1.0
145
0.0
146
1.0
147
0.625
 71
     0
 72
     0
 73
     0
 74
     0
 75
     0
 76
     0
 77
     1
 78
     8
170
     0
171
     3
172
     1
173
     0
174
     0
175
     0
176
     0
177
     0
178
     0
  0
ENDTAB
  0
ENDSEC
  0
SECTION
  2
BLOCKS
  0
BLOCK
  8
0
  2
$MODEL_SPACE
 70
     0
 10
0.0
 20
0.0
 30
0.0
  3
$MODEL_SPACE
  1

  0
ENDBLK
  8
0
  0
BLOCK
 67
     1
  8
0
  2
$PAPER_SPACE
 70
     0
 10
0.0
 20
0.0
 30
0.0
  3
$PAPER_SPACE
  1

  0
ENDBLK
 67
     1
  8
0
  0
BLOCK
  8
OBRYS
  2
_0
 70
   64
 10
-485.791246
 20
305.431907
  0
LINE
  8
OBRYS
 10
-434.988975
 20
404.718102
 11
-476.312994
 21
373.816609
  0
LINE
  8
OBRYS
 10
-437.616935
 20
371.774505
 11
-476.710147
 21
368.354292
  0
LINE
  8
OBRYS
 62
     7
  6
DASHDOT
 10
-493.291243
 20
305.431907
 11
-417.291250
 21
305.431907
  0
LINE
  8
OBRYS
 62
     7
  6
DASHDOT
 10
-443.291243
 20
387.931907
 11
-417.291250
 21
387.931907
  0
ARC
  8
OBRYS
 10
-433.791246
 20
403.116401
 40
2.000000
 50
92.000000
 51
180.000000
  0
LINE
  8
OBRYS
 10
-424.791246
 20
405.431907
 11
-433.861045
 21
405.115183
  0
LINE
  8
OBRYS
 10
-424.791246
 20
305.431907
 11
-424.791246
 21
405.431907
  0
LINE
  8
OBRYS
 62
     4
  6
HIDDEN2
 10
-428.991246
 20
370.431907
 11
-424.791246
 21
370.431907
  0
LINE
  8
OBRYS
 62
     4
  6
HIDDEN2
 10
-429.791246
 20
305.431907
 11
-429.791246
 21
369.631907
  0
ARC
  8
OBRYS
 62
     4
  6
HIDDEN2
 10
-428.991246
 20
369.631907
 40
0.800000
 50
90.000000
 51
180.000000
  0
ARC
  8
OBRYS
 10
-437.791246
 20
373.766894
 40
2.000000
 50
275.000000
 51
360.000000
  0
LINE
  8
OBRYS
 10
-435.791246
 20
305.431907
 11
-435.791246
 21
403.116401
  0
ARC
  8
OBRYS
 10
-437.791246
 20
309.931907
 40
2.000000
 50
270.000000
 51
360.000000
  0
ARC
  8
OBRYS
 10
-437.791246
 20
300.931907
 40
2.000000
 50
0.000000
 51
90.000000
  0
LINE
  8
OBRYS
 10
-478.791246
 20
256.822006
 11
-478.791246
 21
266.163390
  0
ARC
  8
OBRYS
 10
-479.791246
 20
256.822006
 40
1.000000
 50
267.797105
 51
360.000000
  0
LINE
  8
OBRYS
 10
-485.791246
 20
256.052067
 11
-479.829685
 21
255.822745
  0
LINE
  8
OBRYS
 10
-435.791246
 20
305.431907
 11
-435.791246
 21
207.747413
  0
LINE
  8
OBRYS
 10
-434.988975
 20
206.145712
 11
-484.988975
 21
243.534976
  0
ARC
  8
OBRYS
 10
-483.791246
 20
245.136677
 40
2.000000
 50
180.000000
 51
265.000000
  0
LINE
  8
OBRYS
 10
-437.616935
 20
239.089309
 11
-483.965558
 21
243.144288
  0
ARC
  8
OBRYS
 10
-437.791246
 20
237.096920
 40
2.000000
 50
0.000000
 51
85.000000
  0
ARC
  8
OBRYS
 62
     4
  6
HIDDEN2
 10
-428.991246
 20
241.231907
 40
0.800000
 50
180.000000
 51
270.000000
  0
LINE
  8
OBRYS
 62
     4
  6
HIDDEN2
 10
-429.791246
 20
305.431907
 11
-429.791246
 21
241.231907
  0
LINE
  8
OBRYS
 62
     4
  6
HIDDEN2
 10
-428.991246
 20
240.431907
 11
-424.791246
 21
240.431907
  0
LINE
  8
OBRYS
 10
-424.791246
 20
305.431907
 11
-424.791246
 21
205.431907
  0
LINE
  8
OBRYS
 10
-424.791246
 20
205.431907
 11
-433.861045
 21
205.748631
  0
ARC
  8
OBRYS
 10
-433.791246
 20
207.747413
 40
2.000000
 50
180.000000
 51
268.000000
  0
LINE
  8
OBRYS
 62
     7
  6
DASHDOT
 10
-443.291243
 20
222.931907
 11
-417.291250
 21
222.931907
  0
LINE
  8
OBRYS
 10
-485.791246
 20
256.052067
 11
-485.791246
 21
245.136677
  0
LINE
  8
OBRYS
 10
-426.291246
 20
295.431907
 11
-424.791246
 21
295.431907
  0
LINE
  8
OBRYS
 10
-426.291246
 20
315.431907
 11
-424.791246
 21
315.431907
  0
ARC
  8
OBRYS
 10
-426.291246
 20
297.431907
 40
2.000000
 50
180.000000
 51
270.000000
  0
LINE
  8
OBRYS
 10
-428.291246
 20
297.431907
 11
-428.291246
 21
313.431907
  0
ARC
  8
OBRYS
 10
-426.291246
 20
313.431907
 40
2.000000
 50
90.000000
 51
180.000000
  0
LINE
  8
OBRYS
 10
-437.791246
 20
302.931907
 11
-467.083227
 21
302.931907
  0
LINE
  8
OBRYS
 10
-437.791246
 20
307.931907
 11
-466.507652
 21
307.931907
  0
ARC
  8
OBRYS
 10
-479.791246
 20
266.163390
 40
1.000000
 50
0.000000
 51
84.655709
  0
LINE
  8
OBRYS
 10
-483.458899
 20
267.510854
 11
-479.698106
 21
267.159043
  0
ENDBLK
  8
OBRYS
  0
BLOCK
  8
OBRYS
  2
_1
 70
   64
 10
-536.291246
 20
375.431907
  0
ARC
  8
OBRYS
 10
-536.291246
 20
313.431907
 40
6.654700
 50
106.949013
 51
71.967383
  0
LINE
  8
OBRYS
 10
-538.231228
 20
320.620868
 11
-534.231228
 21
320.620868
  0
LINE
  8
OBRYS
 10
-538.231228
 20
318.578408
 11
-538.231228
 21
320.620868
  0
LINE
  8
OBRYS
 10
-534.231228
 20
318.531547
 11
-534.231228
 21
320.620868
  0
ARC
  8
OBRYS
 10
-536.291246
 20
313.431907
 40
5.500000
 50
110.654018
 51
68.003576
  0
CIRCLE
  8
OBRYS
 10
-536.291246
 20
313.431907
 40
12.500000
  0
ARC
  8
OBRYS
 10
-574.291246
 20
420.431907
 40
5.000000
 50
109.216664
 51
131.452663
  0
ARC
  8
OBRYS
 10
-536.291246
 20
375.431907
 40
60.000000
 50
98.898853
 51
109.216664
  0
LINE
  8
OBRYS
 10
-556.039724
 20
432.088748
 11
-575.936953
 21
425.153310
  0
LINE
  8
OBRYS
 10
-592.886778
 20
410.678427
 11
-577.601252
 21
424.179422
  0
ARC
  8
OBRYS
 10
-588.252771
 20
405.431907
 40
7.000000
 50
140.000000
 51
227.046122
  0
LINE
  8
OBRYS
 10
-592.886778
 20
410.678427
 11
-593.615082
 21
409.931420
  0
LINE
  8
OBRYS
 62
     7
  6
DASHDOT
 10
-560.291246
 20
299.431907
 11
-560.291246
 21
291.431907
  0
LINE
  8
OBRYS
 62
     7
  6
DASHDOT
 10
-560.291246
 20
299.431907
 11
-552.291246
 21
299.431907
  0
LINE
  8
OBRYS
 62
     7
  6
DASHDOT
 10
-560.291246
 20
299.431907
 11
-568.291246
 21
299.431907
  0
CIRCLE
  8
OBRYS
 10
-560.291246
 20
299.431907
 40
3.000000
  0
LINE
  8
OBRYS
 10
-479.695715
 20
410.678427
 11
-478.967411
 21
409.931420
  0
ARC
  8
OBRYS
 10
-484.329722
 20
405.431907
 40
7.000000
 50
312.953878
 51
40.000000
  0
CIRCLE
  8
OBRYS
 10
-498.291246
 20
420.431907
 40
3.000000
  0
LINE
  8
OBRYS
 10
-479.695715
 20
410.678427
 11
-494.981241
 21
424.179422
  0
LINE
  8
OBRYS
 10
-516.542768
 20
432.088748
 11
-496.645540
 21
425.153310
  0
ARC
  8
OBRYS
 10
-536.291246
 20
375.431907
 40
60.000000
 50
70.783336
 51
81.101147
  0
ARC
  8
OBRYS
 10
-498.291246
 20
420.431907
 40
5.000000
 50
48.547337
 51
70.783336
  0
LINE
  8
OBRYS
 62
     7
  6
DASHDOT
 10
-498.291246
 20
420.431907
 11
-506.291246
 21
420.431907
  0
LINE
  8
OBRYS
 62
     7
  6
DASHDOT
 10
-498.291246
 20
420.431907
 11
-490.291246
 21
420.431907
  0
LINE
  8
OBRYS
 62
     7
  6
DASHDOT
 10
-498.291246
 20
420.431907
 11
-498.291246
 21
428.431907
  0
LINE
  8
OBRYS
 62
     7
  6
DASHDOT
 10
-498.291246
 20
420.431907
 11
-498.291246
 21
412.431907
  0
ARC
  8
OBRYS
 10
-536.291246
 20
313.431907
 40
81.000000
 50
42.650065
 51
137.349935
  0
ARC
  8
OBRYS
 10
-536.291246
 20
313.431907
 40
21.000000
 50
180.000000
 51
239.612032
  0
ARC
  8
OBRYS
 10
-536.291246
 20
313.431907
 40
21.000000
 50
239.612032
 51
180.000000
  0
ARC
  8
OBRYS
 10
-546.036755
 20
437.673574
 40
3.000000
 50
278.898853
 51
347.046120
  0
ARC
  8
OBRYS
 10
-526.545738
 20
437.673574
 40
3.000000
 50
192.953880
 51
261.101147
  0
ARC
  8
OBRYS
 10
-477.515628
 20
398.112883
 40
3.000000
 50
132.953880
 51
201.101147
  0
ARC
  8
OBRYS
 10
-595.066865
 20
398.112883
 40
3.000000
 50
338.898853
 51
47.046120
  0
ARC
  8
OBRYS
 10
-536.291246
 20
375.431907
 40
60.000000
 50
158.898853
 51
180.000000
  0
ARC
  8
OBRYS
 10
-536.291246
 20
435.431907
 40
7.000000
 50
12.953880
 51
167.046120
  0
LINE
  8
OBRYS
 62
     7
  6
DASHDOT
 10
-588.252771
 20
405.431907
 11
-595.902771
 21
405.431907
  0
LINE
  8
OBRYS
 62
     7
  6
DASHDOT
 10
-588.252771
 20
405.431907
 11
-580.602771
 21
405.431907
  0
LINE
  8
OBRYS
 62
     7
  6
DASHDOT
 10
-588.252771
 20
405.431907
 11
-588.252771
 21
413.081907
  0
LINE
  8
OBRYS
 62
     7
  6
DASHDOT
 10
-588.252771
 20
405.431907
 11
-588.252771
 21
397.781907
  0
LINE
  8
OBRYS
 62
     7
  6
DASHDOT
 10
-588.252771
 20
345.431907
 11
-595.902771
 21
345.431907
  0
LINE
  8
OBRYS
 62
     7
  6
DASHDOT
 10
-588.252771
 20
345.431907
 11
-580.602771
 21
345.431907
  0
LINE
  8
OBRYS
 62
     7
  6
DASHDOT
 10
-588.252771
 20
345.431907
 11
-588.252771
 21
353.081907
  0
LINE
  8
OBRYS
 62
     7
  6
DASHDOT
 10
-588.252771
 20
345.431907
 11
-588.252771
 21
337.781907
  0
LINE
  8
OBRYS
 62
     7
  6
DASHDOT
 10
-484.329722
 20
345.431907
 11
-491.979722
 21
345.431907
  0
LINE
  8
OBRYS
 62
     7
  6
DASHDOT
 10
-484.329722
 20
345.431907
 11
-476.679722
 21
345.431907
  0
LINE
  8
OBRYS
 62
     7
  6
DASHDOT
 10
-484.329722
 20
345.431907
 11
-484.329722
 21
353.081907
  0
LINE
  8
OBRYS
 62
     7
  6
DASHDOT
 10
-484.329722
 20
345.431907
 11
-484.329722
 21
337.781907
  0
LINE
  8
OBRYS
 62
     7
  6
DASHDOT
 10
-484.329722
 20
405.431907
 11
-491.979722
 21
405.431907
  0
LINE
  8
OBRYS
 62
     7
  6
DASHDOT
 10
-484.329722
 20
405.431907
 11
-476.679722
 21
405.431907
  0
LINE
  8
OBRYS
 62
     7
  6
DASHDOT
 10
-484.329722
 20
405.431907
 11
-484.329722
 21
413.081907
  0
LINE
  8
OBRYS
 62
     7
  6
DASHDOT
 10
-484.329722
 20
405.431907
 11
-484.329722
 21
397.781907
  0
LINE
  8
OBRYS
 62
     7
  6
DASHDOT
 10
-536.291246
 20
435.431907
 11
-543.941246
 21
435.431907
  0
LINE
  8
OBRYS
 62
     7
  6
DASHDOT
 10
-536.291246
 20
435.431907
 11
-528.641246
 21
435.431907
  0
LINE
  8
OBRYS
 62
     7
  6
DASHDOT
 10
-536.291246
 20
435.431907
 11
-536.291246
 21
443.081907
  0
LINE
  8
OBRYS
 62
     7
  6
DASHDOT
 10
-536.291246
 20
435.431907
 11
-536.291246
 21
427.781907
  0
LINE
  8
OBRYS
 62
     7
  6
DASHDOT
 10
-536.291245
 20
285.431907
 11
-543.941245
 21
285.431907
  0
LINE
  8
OBRYS
 62
     7
  6
DASHDOT
 10
-536.291245
 20
285.431907
 11
-528.641245
 21
285.431907
  0
LINE
  8
OBRYS
 62
     7
  6
DASHDOT
 10
-536.291245
 20
285.431907
 11
-536.291245
 21
293.081907
  0
LINE
  8
OBRYS
 62
     7
  6
DASHDOT
 10
-536.291245
 20
285.431907
 11
-536.291245
 21
277.781907
  0
ARC
  8
OBRYS
 10
-588.252771
 20
405.431907
 40
7.000000
 50
122.047113
 51
180.000000
  0
CIRCLE
  8
OBRYS
 10
-536.291246
 20
313.431907
 40
70.000000
  0
CIRCLE
  8
OBRYS
 10
-536.291245
 20
285.431907
 40
5.000000
  0
CIRCLE
  8
OBRYS
 10
-536.291246
 20
313.431907
 40
47.500000
  0
CIRCLE
  8
OBRYS
 10
-484.329722
 20
345.431907
 40
5.000000
  0
CIRCLE
  8
OBRYS
 10
-588.252771
 20
345.431907
 40
5.000000
  0
ARC
  8
OBRYS
 10
-536.291246
 20
375.431907
 40
60.000000
 50
180.000000
 51
199.994838
  0
ARC
  8
OBRYS
 10
-536.291246
 20
375.431907
 40
60.000000
 50
340.005162
 51
21.101147
  0
ARC
  8
OBRYS
 10
-506.507554
 20
334.666363
 40
8.500000
 50
294.117511
 51
360.000000
  0
ARC
  8
OBRYS
 10
-565.953562
 20
334.666363
 40
8.500000
 50
143.470940
 51
238.024118
  0
ARC
  8
OBRYS
 10
-565.953562
 20
334.666363
 40
8.500000
 50
238.024118
 51
324.665849
  0
ARC
  8
OBRYS
 10
-536.291246
 20
313.431907
 40
28.000000
 50
35.315423
 51
143.187187
  0
ARC
  8
OBRYS
 10
-536.291246
 20
313.431907
 40
45.000000
 50
35.425214
 51
142.841004
  0
ARC
  8
OBRYS
 10
-506.507554
 20
334.666363
 40
8.500000
 50
0.000000
 51
30.200786
  0
ARC
  8
OBRYS
 10
-506.507554
 20
334.666363
 40
8.500000
 50
214.445674
 51
294.117511
  0
LINE
  8
OBRYS
 10
-499.621971
 20
339.515699
 11
-499.161277
 21
338.942133
  0
LINE
  8
OBRYS
 10
-572.783780
 20
339.725822
 11
-572.154554
 21
340.613209
  0
LINE
  8
OBRYS
 10
-559.019321
 20
329.750439
 11
-558.754054
 21
330.147836
  0
CIRCLE
  8
OBRYS
 10
-484.329722
 20
405.431907
 40
5.000000
  0
CIRCLE
  8
OBRYS
 10
-536.291246
 20
435.431907
 40
5.000000
  0
CIRCLE
  8
OBRYS
 10
-588.252771
 20
405.431907
 40
5.000000
  0
CIRCLE
  8
OBRYS
 62
     7
  6
DASHDOT
 10
-536.291246
 20
313.431907
 40
57.500000
  0
CIRCLE
  8
OBRYS
 10
-495.632606
 20
272.773267
 40
4.500000
  0
CIRCLE
  8
OBRYS
 10
-576.949886
 20
272.773267
 40
4.500000
  0
INSERT
  8
OBRYS
  2
Vnitrni_metricky_zavit_M8__1
 62
     7
 10
-576.949886
 20
354.090547
  0
INSERT
  8
OBRYS
  2
Vnitrni_metricky_zavit_M8__2
 62
     7
 10
-495.632606
 20
354.090547
  0
LINE
  8
OBRYS
 62
     7
  6
DASHDOT
 10
-501.316038
 20
348.407116
 11
-489.368930
 21
360.354224
  0
LINE
  8
OBRYS
 62
     7
  6
DASHDOT
 10
-584.232534
 20
265.490619
 11
-569.610700
 21
280.112453
  0
LINE
  8
OBRYS
 62
     7
  6
DASHDOT
 10
-583.441131
 20
360.581792
 11
-572.563913
 21
349.704574
  0
LINE
  8
OBRYS
 62
     7
  6
DASHDOT
 10
-502.664415
 20
279.805076
 11
-486.437746
 21
263.578407
  0
LINE
  8
OBRYS
 62
     7
  6
DASHDOT
 10
-536.291246
 20
446.777960
 11
-536.291246
 21
239.436536
  0
LINE
  8
OBRYS
 62
     7
  6
DASHDOT
 10
-599.545002
 20
375.431907
 11
-472.221264
 21
375.431907
  0
LINE
  8
OBRYS
 62
     7
  6
DASHDOT
 10
-609.610120
 20
313.431907
 11
-462.156146
 21
313.431907
  0
LINE
  8
OBRYS
 62
     7
  6
DASHDOT
 10
-560.291246
 20
299.431907
 11
-560.291246
 21
307.431907
  0
INSERT
  8
OBRYS
  2
Srouby_s_valcovou_hlavou___3
 62
     7
 10
-484.329722
 20
405.431907
  0
INSERT
  8
OBRYS
  2
Srouby_s_valcovou_hlavou___4
 62
     7
 10
-588.252771
 20
405.431907
  0
INSERT
  8
OBRYS
  2
Srouby_s_valcovou_hlavou___5
 62
     7
 10
-588.252771
 20
345.431907
  0
INSERT
  8
OBRYS
  2
Srouby_s_valcovou_hlavou___6
 62
     7
 10
-484.329722
 20
345.431907
  0
INSERT
  8
OBRYS
  2
Srouby_s_valcovou_hlavou___7
 62
     7
 10
-536.291246
 20
285.431907
  0
INSERT
  8
OBRYS
  2
Srouby_s_valcovou_hlavou___8
 62
     7
 10
-536.291246
 20
435.431907
  0
ENDBLK
  8
OBRYS
  0
BLOCK
  8
OBRYS
  2
Vnitrni_metricky_zavit_M8__1
 70
   66
 10
-576.949886
 20
354.090547
  0
CIRCLE
  8
OBRYS
 10
-576.949886
 20
354.090547
 40
3.323500
  0
ARC
  8
OBRYS
 62
     7
 10
-576.949886
 20
354.090547
 40
4.000000
 50
355.000000
 51
275.000000
  0
ENDBLK
  8
OBRYS
  0
BLOCK
  8
OBRYS
  2
Vnitrni_metricky_zavit_M8__2
 70
   66
 10
-495.632606
 20
354.090547
  0
CIRCLE
  8
OBRYS
 10
-495.632606
 20
354.090547
 40
3.323500
  0
ARC
  8
OBRYS
 62
     7
 10
-495.632606
 20
354.090547
 40
4.000000
 50
355.000000
 51
275.000000
  0
ENDBLK
  8
OBRYS
  0
BLOCK
  8
OBRYS
  2
Srouby_s_valcovou_hlavou___3
 70
   66
 10
-484.329722
 20
405.431907
  0
LINE
  8
OBRYS
 10
-486.329722
 20
404.277199
 11
-486.329722
 21
406.586615
  0
LINE
  8
OBRYS
 10
-486.329722
 20
406.586615
 11
-484.329722
 21
407.741323
  0
LINE
  8
OBRYS
 10
-484.329722
 20
407.741323
 11
-482.329722
 21
406.586615
  0
LINE
  8
OBRYS
 10
-482.329722
 20
406.586615
 11
-482.329722
 21
404.277199
  0
LINE
  8
OBRYS
 10
-482.329722
 20
404.277199
 11
-484.329722
 21
403.122492
  0
LINE
  8
OBRYS
 10
-484.329722
 20
403.122492
 11
-486.329722
 21
404.277199
  0
CIRCLE
  8
OBRYS
 10
-484.329722
 20
405.431907
 40
2.309415
  0
CIRCLE
  8
OBRYS
 10
-484.329722
 20
405.431907
 40
4.250000
  0
ENDBLK
  8
OBRYS
  0
BLOCK
  8
OBRYS
  2
Srouby_s_valcovou_hlavou___4
 70
   66
 10
-588.252771
 20
405.431907
  0
LINE
  8
OBRYS
 10
-590.252771
 20
404.277199
 11
-590.252771
 21
406.586615
  0
LINE
  8
OBRYS
 10
-590.252771
 20
406.586615
 11
-588.252771
 21
407.741323
  0
LINE
  8
OBRYS
 10
-588.252771
 20
407.741323
 11
-586.252771
 21
406.586615
  0
LINE
  8
OBRYS
 10
-586.252771
 20
406.586615
 11
-586.252771
 21
404.277199
  0
LINE
  8
OBRYS
 10
-586.252771
 20
404.277199
 11
-588.252771
 21
403.122492
  0
LINE
  8
OBRYS
 10
-588.252771
 20
403.122492
 11
-590.252771
 21
404.277199
  0
CIRCLE
  8
OBRYS
 10
-588.252771
 20
405.431907
 40
2.309415
  0
CIRCLE
  8
OBRYS
 10
-588.252771
 20
405.431907
 40
4.250000
  0
ENDBLK
  8
OBRYS
  0
BLOCK
  8
OBRYS
  2
Srouby_s_valcovou_hlavou___5
 70
   66
 10
-588.252771
 20
345.431907
  0
LINE
  8
OBRYS
 10
-590.252771
 20
344.277199
 11
-590.252771
 21
346.586615
  0
LINE
  8
OBRYS
 10
-590.252771
 20
346.586615
 11
-588.252771
 21
347.741323
  0
LINE
  8
OBRYS
 10
-588.252771
 20
347.741323
 11
-586.252771
 21
346.586615
  0
LINE
  8
OBRYS
 10
-586.252771
 20
346.586615
 11
-586.252771
 21
344.277199
  0
LINE
  8
OBRYS
 10
-586.252771
 20
344.277199
 11
-588.252771
 21
343.122492
  0
LINE
  8
OBRYS
 10
-588.252771
 20
343.122492
 11
-590.252771
 21
344.277199
  0
CIRCLE
  8
OBRYS
 10
-588.252771
 20
345.431907
 40
2.309415
  0
CIRCLE
  8
OBRYS
 10
-588.252771
 20
345.431907
 40
4.250000
  0
ENDBLK
  8
OBRYS
  0
BLOCK
  8
OBRYS
  2
Srouby_s_valcovou_hlavou___6
 70
   66
 10
-484.329722
 20
345.431907
  0
LINE
  8
OBRYS
 10
-486.329722
 20
344.277199
 11
-486.329722
 21
346.586615
  0
LINE
  8
OBRYS
 10
-486.329722
 20
346.586615
 11
-484.329722
 21
347.741323
  0
LINE
  8
OBRYS
 10
-484.329722
 20
347.741323
 11
-482.329722
 21
346.586615
  0
LINE
  8
OBRYS
 10
-482.329722
 20
346.586615
 11
-482.329722
 21
344.277199
  0
LINE
  8
OBRYS
 10
-482.329722
 20
344.277199
 11
-484.329722
 21
343.122492
  0
LINE
  8
OBRYS
 10
-484.329722
 20
343.122492
 11
-486.329722
 21
344.277199
  0
CIRCLE
  8
OBRYS
 10
-484.329722
 20
345.431907
 40
2.309415
  0
CIRCLE
  8
OBRYS
 10
-484.329722
 20
345.431907
 40
4.250000
  0
ENDBLK
  8
OBRYS
  0
BLOCK
  8
OBRYS
  2
Srouby_s_valcovou_hlavou___7
 70
   66
 10
-536.291246
 20
285.431907
  0
LINE
  8
OBRYS
 10
-538.291246
 20
284.277199
 11
-538.291246
 21
286.586615
  0
LINE
  8
OBRYS
 10
-538.291246
 20
286.586615
 11
-536.291246
 21
287.741323
  0
LINE
  8
OBRYS
 10
-536.291246
 20
287.741323
 11
-534.291246
 21
286.586615
  0
LINE
  8
OBRYS
 10
-534.291246
 20
286.586615
 11
-534.291246
 21
284.277199
  0
LINE
  8
OBRYS
 10
-534.291246
 20
284.277199
 11
-536.291246
 21
283.122492
  0
LINE
  8
OBRYS
 10
-536.291246
 20
283.122492
 11
-538.291246
 21
284.277199
  0
CIRCLE
  8
OBRYS
 10
-536.291246
 20
285.431907
 40
2.309415
  0
CIRCLE
  8
OBRYS
 10
-536.291246
 20
285.431907
 40
4.250000
  0
ENDBLK
  8
OBRYS
  0
BLOCK
  8
OBRYS
  2
Srouby_s_valcovou_hlavou___8
 70
   66
 10
-536.291246
 20
435.431907
  0
LINE
  8
OBRYS
 10
-538.291246
 20
434.277199
 11
-538.291246
 21
436.586615
  0
LINE
  8
OBRYS
 10
-538.291246
 20
436.586615
 11
-536.291246
 21
437.741323
  0
LINE
  8
OBRYS
 10
-536.291246
 20
437.741323
 11
-534.291246
 21
436.586615
  0
LINE
  8
OBRYS
 10
-534.291246
 20
436.586615
 11
-534.291246
 21
434.277199
  0
LINE
  8
OBRYS
 10
-534.291246
 20
434.277199
 11
-536.291246
 21
433.122492
  0
LINE
  8
OBRYS
 10
-536.291246
 20
433.122492
 11
-538.291246
 21
434.277199
  0
CIRCLE
  8
OBRYS
 10
-536.291246
 20
435.431907
 40
2.309415
  0
CIRCLE
  8
OBRYS
 10
-536.291246
 20
435.431907
 40
4.250000
  0
ENDBLK
  8
OBRYS
  0
BLOCK
  8
OSA
  2
Srouby_s_valcovou_hlavou__2
 70
   64
 10
-1090.706441
 20
279.409434
  0
LINE
  8
OSA
 62
     2
  6
CONTINUOUS
 10
-479.291246
 20
267.029416
 11
-479.291246
 21
260.369998
  0
LINE
  8
OSA
 62
     2
  6
CONTINUOUS
 10
-481.837962
 20
267.359220
 11
-491.291246
 21
258.613483
  0
LINE
  8
OSA
 62
     2
  6
CONTINUOUS
 10
-479.291246
 20
343.834398
 11
-479.291246
 21
350.493816
  0
LINE
  8
OSA
 62
     2
  6
CONTINUOUS
 10
-479.291246
 20
350.493816
 11
-481.258851
 21
351.527190
  0
LINE
  8
OSA
 62
     2
  6
CONTINUOUS
 10
-485.791246
 20
241.431907
 11
-486.291246
 21
240.931907
  0
INSERT
  8
OSA
  2
Srouby_s_valcovou_hlavou___10
  6
CONTINUOUS
 10
-1090.706441
 20
242.608099
  0
LINE
  8
OSA
 62
     2
  6
CONTINUOUS
 10
-498.291246
 20
229.431907
 11
-493.221447
 21
229.608948
  0
ARC
  8
OSA
 62
     2
  6
CONTINUOUS
 10
-493.291246
 20
231.607730
 40
2.000000
 50
272.000000
 51
360.000000
  0
LINE
  8
OSA
 62
     2
  6
CONTINUOUS
 10
-485.791246
 20
241.431907
 11
-485.791246
 21
256.956236
  0
ARC
  8
OSA
 62
     2
  6
CONTINUOUS
 10
-489.291246
 20
235.103480
 40
2.000000
 50
135.000000
 51
180.000000
  0
LINE
  8
OSA
 62
     2
  6
CONTINUOUS
 10
-479.291246
 20
260.369998
 11
-491.291246
 21
254.067667
  0
LINE
  8
OSA
 10
-505.791243
 20
305.431907
 11
-468.291250
 21
305.431907
  0
LINE
  8
OSA
 62
     2
  6
CONTINUOUS
 10
-498.291246
 20
229.431907
 11
-498.291246
 21
254.644153
  0
LINE
  8
OSA
 62
     2
  6
CONTINUOUS
 10
-491.291246
 20
259.812881
 11
-491.291246
 21
231.607730
  0
ENDBLK
  8
OSA
  0
BLOCK
  8
OSA
  2
Srouby_s_valcovou_hlavou___10
 70
   66
 10
-1090.706441
 20
242.608099
  0
LINE
  8
OSA
 62
     2
  6
CONTINUOUS
 10
-486.291246
 20
236.908099
 11
-486.291246
 21
248.308099
  0
LINE
  8
OSA
 62
     2
  6
CONTINUOUS
 10
-487.091246
 20
236.108099
 11
-491.291246
 21
236.108099
  0
LINE
  8
OSA
 62
     2
  6
CONTINUOUS
 10
-491.291246
 20
236.108099
 11
-491.291246
 21
249.108099
  0
LINE
  8
OSA
 62
     2
  6
CONTINUOUS
 10
-491.291246
 20
249.108099
 11
-487.091246
 21
249.108099
  0
ARC
  8
OSA
 62
     2
  6
CONTINUOUS
 10
-487.091246
 20
236.908099
 40
0.800000
 50
270.000000
 51
360.000000
  0
ARC
  8
OSA
 62
     2
  6
CONTINUOUS
 10
-487.091246
 20
248.308099
 40
0.800000
 50
0.000000
 51
90.000000
  0
LINE
  8
OSA
  6
DOT
 10
-486.291246
 20
239.143976
 11
-488.791246
 21
239.143976
  0
LINE
  8
OSA
  6
DOT
 10
-486.291246
 20
240.876037
 11
-488.791246
 21
240.876037
  0
LINE
  8
OSA
  6
DOT
 10
-486.291246
 20
244.340160
 11
-488.791246
 21
244.340160
  0
LINE
  8
OSA
  6
DOT
 10
-486.291246
 20
246.072222
 11
-488.791246
 21
246.072222
  0
ARC
  8
OSA
  6
DOT
 10
-485.791237
 20
240.010006
 40
1.000009
 50
120.000310
 51
239.999690
  0
ARC
  8
OSA
  6
DOT
 10
-483.541209
 20
242.608099
 40
3.250037
 50
147.795963
 51
212.204037
  0
ARC
  8
OSA
  6
DOT
 10
-485.791237
 20
245.206191
 40
1.000009
 50
120.000310
 51
239.999690
  0
ARC
  8
OSA
  6
DOT
 10
-488.291237
 20
240.010006
 40
1.000009
 50
120.000310
 51
239.999690
  0
ARC
  8
OSA
  6
DOT
 10
-486.041209
 20
242.608099
 40
3.250037
 50
147.795963
 51
212.204037
  0
ARC
  8
OSA
  6
DOT
 10
-488.291237
 20
245.206191
 40
1.000009
 50
120.000310
 51
239.999690
  0
LINE
  8
OSA
  6
DOT
 10
-489.291246
 20
240.010006
 11
-491.023308
 21
242.608099
  0
LINE
  8
OSA
  6
DOT
 10
-491.023308
 20
242.608099
 11
-489.291246
 21
245.206191
  0
ENDBLK
  8
OSA
  0
BLOCK
  8
OSA
  2
_3
 70
   64
 10
-536.291246
 20
305.431907
  0
LINE
  8
OSA
 10
-567.291243
 20
375.431907
 11
-505.291250
 21
375.431907
  0
LINE
  8
OSA
 10
-473.065357
 20
305.431907
 11
-609.479955
 21
305.431907
  0
INSERT
  8
OSA
  2
M10x1__12
  6
CONTINUOUS
 10
-1045.706441
 20
233.931907
  0
LINE
  8
OSA
 10
-536.291246
 20
419.494993
 11
-536.291246
 21
229.804261
  0
ARC
  8
OSA
 62
     2
  6
CONTINUOUS
 10
-506.291246
 20
232.574352
 40
2.000000
 50
0.000000
 51
90.000000
  0
LINE
  8
OSA
 62
     2
  6
CONTINUOUS
 10
-515.464774
 20
234.574352
 11
-506.291246
 21
234.574352
  0
LINE
  8
OSA
 62
     2
  6
CONTINUOUS
 10
-520.891727
 20
236.931907
 11
-536.291246
 21
236.931907
  0
POLYLINE
  8
OSA
 62
     2
  6
CONTINUOUS
 66
    1
  0
VERTEX
  8
OSA
 62
     2
  6
CONTINUOUS
 10
-515.464722
 20
234.574371
  0
VERTEX
  8
OSA
 62
     2
  6
CONTINUOUS
 10
-516.046448
 20
234.596313
  0
VERTEX
  8
OSA
 62
     2
  6
CONTINUOUS
 10
-516.605713
 20
234.661224
  0
VERTEX
  8
OSA
 62
     2
  6
CONTINUOUS
 10
-517.121216
 20
234.766663
  0
VERTEX
  8
OSA
 62
     2
  6
CONTINUOUS
 10
-517.572998
 20
234.908569
  0
VERTEX
  8
OSA
 62
     2
  6
CONTINUOUS
 10
-517.943848
 20
235.081482
  0
SEQEND
  8
OSA
  0
LINE
  8
OSA
 62
     2
  6
CONTINUOUS
 10
-515.464774
 20
246.037260
 11
-504.291246
 21
246.037260
  0
LINE
  8
OSA
 62
     2
  6
CONTINUOUS
 10
-522.612178
 20
238.982851
 11
-524.117452
 21
242.002507
  0
POLYLINE
  8
OSA
 62
     2
  6
CONTINUOUS
 66
    1
  0
VERTEX
  8
OSA
 62
     2
  6
CONTINUOUS
 10
-524.117432
 20
242.002502
  0
VERTEX
  8
OSA
 62
     2
  6
CONTINUOUS
 10
-524.286926
 20
242.661133
  0
VERTEX
  8
OSA
 62
     2
  6
CONTINUOUS
 10
-524.117432
 20
243.319794
  0
VERTEX
  8
OSA
 62
     2
  6
CONTINUOUS
 10
-523.615417
 20
243.953125
  0
VERTEX
  8
OSA
 62
     2
  6
CONTINUOUS
 10
-522.800110
 20
244.536804
  0
VERTEX
  8
OSA
 62
     2
  6
CONTINUOUS
 10
-521.703003
 20
245.048401
  0
VERTEX
  8
OSA
 62
     2
  6
CONTINUOUS
 10
-520.366089
 20
245.468292
  0
VERTEX
  8
OSA
 62
     2
  6
CONTINUOUS
 10
-518.840881
 20
245.780273
  0
VERTEX
  8
OSA
 62
     2
  6
CONTINUOUS
 10
-517.185852
 20
245.972382
  0
VERTEX
  8
OSA
 62
     2
  6
CONTINUOUS
 10
-515.464722
 20
246.037262
  0
SEQEND
  8
OSA
  0
LINE
  8
OSA
 62
     2
  6
CONTINUOUS
 10
-520.891727
 20
236.823508
 11
-522.612178
 21
238.982851
  0
LINE
  8
OSA
 62
     2
  6
CONTINUOUS
 10
-517.943851
 20
235.081444
 11
-520.065523
 21
236.060195
  0
POLYLINE
  8
OSA
 62
     2
  6
CONTINUOUS
 66
    1
  0
VERTEX
  8
OSA
 62
     2
  6
CONTINUOUS
 10
-520.065491
 20
236.060211
  0
VERTEX
  8
OSA
 62
     2
  6
CONTINUOUS
 10
-520.576843
 20
236.426300
  0
VERTEX
  8
OSA
 62
     2
  6
CONTINUOUS
 10
-520.891724
 20
236.823547
  0
SEQEND
  8
OSA
  0
LINE
  8
OSA
 62
     2
  6
CONTINUOUS
 10
-593.291246
 20
260.369998
 11
-581.291246
 21
254.067667
  0
LINE
  8
OSA
 62
     2
  6
CONTINUOUS
 10
-586.791246
 20
241.431907
 11
-581.877033
 21
236.517693
  0
ARC
  8
OSA
 62
     2
  6
CONTINUOUS
 10
-583.291246
 20
235.103480
 40
2.000000
 50
0.000000
 51
45.000000
  0
LINE
  8
OSA
 62
     2
  6
CONTINUOUS
 10
-593.291246
 20
269.715323
 11
-581.291246
 21
258.613483
  0
LINE
  8
OSA
 62
     2
  6
CONTINUOUS
 10
-586.791246
 20
241.431907
 11
-586.791246
 21
256.956236
  0
ARC
  8
OSA
 62
     2
  6
CONTINUOUS
 10
-525.291247
 20
234.931907
 40
2.000000
 50
90.000000
 51
180.003913
  0
LINE
  8
OSA
 62
     2
  6
CONTINUOUS
 10
-527.291179
 20
233.931907
 11
-527.291247
 21
234.931770
  0
ARC
  8
OSA
 62
     2
  6
CONTINUOUS
 10
-547.291245
 20
234.931907
 40
2.000000
 50
359.996087
 51
90.000000
  0
LINE
  8
OSA
 62
     2
  6
CONTINUOUS
 10
-545.291314
 20
233.931907
 11
-545.291245
 21
234.931770
  0
LINE
  8
OSA
 62
     2
  6
CONTINUOUS
 10
-527.291179
 20
233.931907
 11
-545.291314
 21
233.931907
  0
ARC
  8
OSA
 62
     2
  6
CONTINUOUS
 10
-579.291246
 20
231.607730
 40
2.000000
 50
180.000000
 51
268.000000
  0
LINE
  8
OSA
 62
     2
  6
CONTINUOUS
 10
-574.291246
 20
229.431907
 11
-579.361045
 21
229.608948
  0
LINE
  8
OSA
 62
     2
  6
CONTINUOUS
 10
-574.291246
 20
229.431907
 11
-570.291246
 21
229.431907
  0
ARC
  8
OSA
 62
     2
  6
CONTINUOUS
 10
-570.291246
 20
231.431907
 40
2.000000
 50
270.000000
 51
360.000000
  0
ARC
  8
OSA
 62
     2
  6
CONTINUOUS
 10
-502.291246
 20
231.431907
 40
2.000000
 50
180.000000
 51
270.000000
  0
LINE
  8
OSA
 62
     2
  6
CONTINUOUS
 10
-498.291246
 20
229.431907
 11
-502.291246
 21
229.431907
  0
ARC
  8
OSA
 62
     2
  6
CONTINUOUS
 10
-566.291246
 20
234.931907
 40
2.000000
 50
90.000000
 51
180.000000
  0
ARC
  8
OSA
 62
     2
  6
CONTINUOUS
 10
-583.291246
 20
235.103480
 40
2.000000
 50
0.000000
 51
45.000000
  0
LINE
  8
OSA
 62
     2
  6
CONTINUOUS
 10
-593.291246
 20
265.431907
 11
-596.291246
 21
265.431907
  0
LINE
  8
OSA
 62
     2
  6
CONTINUOUS
 10
-596.791246
 20
265.931907
 11
-596.291246
 21
265.431907
  0
LINE
  8
OSA
 62
     2
  6
CONTINUOUS
 10
-536.291246
 20
236.931907
 11
-566.291246
 21
236.931907
  0
LINE
  8
OSA
 62
     2
  6
CONTINUOUS
 10
-568.291246
 20
231.431907
 11
-568.291246
 21
251.174377
  0
LINE
  8
OSA
 62
     2
  6
CONTINUOUS
 10
-581.291246
 20
259.812881
 11
-581.291246
 21
231.607730
  0
LINE
  8
OSA
 62
     2
  6
CONTINUOUS
 10
-593.291246
 20
272.799408
 11
-593.291246
 21
260.369998
  0
LINE
  8
OSA
 62
     2
  6
CONTINUOUS
 10
-596.791246
 20
278.221823
 11
-596.791246
 21
265.931907
  0
LINE
  8
OSA
 62
     2
  6
CONTINUOUS
 10
-596.291246
 20
265.431907
 11
-596.291246
 21
277.376394
  0
LINE
  8
OSA
 62
     2
  6
CONTINUOUS
 10
-504.291246
 20
231.431907
 11
-504.291246
 21
251.174377
  0
LINE
  8
OSA
 62
     2
  6
CONTINUOUS
 10
-498.291246
 20
229.431907
 11
-498.291246
 21
254.644153
  0
ENDBLK
  8
OSA
  0
BLOCK
  8
OSA
  2
M10x1__12
 70
   66
 10
-1045.706441
 20
233.931907
  0
LINE
  8
OSA
 10
-536.291246
 20
243.260809
 11
-536.291246
 21
229.486559
  0
LINE
  8
OSA
 62
     2
  6
CONTINUOUS
 10
-529.291246
 20
233.931907
 11
-543.291246
 21
233.931907
  0
LINE
  8
OSA
 62
     2
  6
CONTINUOUS
 10
-543.291246
 20
233.931907
 11
-543.291246
 21
231.931907
  0
LINE
  8
OSA
 62
     2
  6
CONTINUOUS
 10
-529.291246
 20
233.931907
 11
-529.291246
 21
231.931907
  0
ARC
  8
OSA
 62
     2
  6
CONTINUOUS
 10
-542.291246
 20
231.931907
 40
1.000000
 50
180.000000
 51
270.000000
  0
LINE
  8
OSA
 62
     2
  6
CONTINUOUS
 10
-530.291246
 20
230.931907
 11
-542.291246
 21
230.931907
  0
ARC
  8
OSA
 62
     2
  6
CONTINUOUS
 10
-530.291246
 20
231.931907
 40
1.000000
 50
270.000000
 51
360.000000
  0
ENDBLK
  8
OSA
  0
BLOCK
  8
OBRYS
  2
Vnitrni_metricky_zavit_M8_4
 70
   66
 10
-582.253187
 20
511.196885
  0
CIRCLE
  8
OBRYS
 10
-582.253187
 20
511.196885
 40
3.323500
  0
ARC
  8
OBRYS
 62
     7
 10
-582.253187
 20
511.196885
 40
4.000000
 50
355.000000
 51
275.000000
  0
ENDBLK
  8
OBRYS
  0
BLOCK
  8
OBRYS
  2
Vnitrni_metricky_zavit_M8_5
 70
   66
 10
-490.329306
 20
511.196885
  0
CIRCLE
  8
OBRYS
 10
-490.329306
 20
511.196885
 40
3.323500
  0
ARC
  8
OBRYS
 62
     7
 10
-490.329306
 20
511.196885
 40
4.000000
 50
355.000000
 51
275.000000
  0
ENDBLK
  8
OBRYS
  0
BLOCK
  8
OBRYS
  2
Vnitrni_metricky_zavit_M8_6
 70
   66
 10
-490.329306
 20
603.120767
  0
CIRCLE
  8
OBRYS
 10
-490.329306
 20
603.120767
 40
3.323500
  0
ARC
  8
OBRYS
 62
     7
 10
-490.329306
 20
603.120767
 40
4.000000
 50
355.000000
 51
275.000000
  0
ENDBLK
  8
OBRYS
  0
BLOCK
  8
OBRYS
  2
Vnitrni_metricky_zavit_M8_7
 70
   66
 10
-582.253187
 20
603.120767
  0
CIRCLE
  8
OBRYS
 10
-582.253187
 20
603.120767
 40
3.323500
  0
ARC
  8
OBRYS
 62
     7
 10
-582.253187
 20
603.120767
 40
4.000000
 50
355.000000
 51
275.000000
  0
ENDBLK
  8
OBRYS
  0
BLOCK
  8
OBRYS
  2
_8
 70
   64
 10
-876.998844
 20
375.431907
  0
LINE
  8
OBRYS
 10
-905.998844
 20
337.450598
 11
-905.998844
 21
282.549676
  0
LINE
  8
OBRYS
 10
-909.998844
 20
442.431907
 11
-909.998844
 21
278.431907
  0
LINE
  8
OBRYS
 10
-923.153571
 20
355.763997
 11
-884.475872
 21
355.763997
  0
LINE
  8
OBRYS
 10
-905.998844
 20
399.308592
 11
-905.998844
 21
355.763997
  0
LINE
  8
OBRYS
 10
-923.153571
 20
383.431907
 11
-923.153571
 21
246.431907
  0
LINE
  8
OBRYS
 10
-918.998844
 20
400.308592
 11
-906.998844
 21
400.308592
  0
LINE
  8
OBRYS
 10
-905.998844
 20
395.099818
 11
-884.475872
 21
395.099818
  0
LINE
  8
OBRYS
 10
-918.998844
 20
434.709684
 11
-892.591349
 21
434.709684
  0
LINE
  8
OBRYS
 10
-918.998844
 20
424.829899
 11
-892.591349
 21
424.829899
  0
LINE
  8
OBRYS
 10
-881.998844
 20
430.301507
 11
-881.998844
 21
375.431907
  0
LINE
  8
OBRYS
 10
-876.998844
 20
414.984166
 11
-876.998844
 21
375.431907
  0
ARC
  8
OBRYS
 10
-892.591349
 20
439.431907
 40
3.000000
 50
39.745666
 51
90.000000
  0
LINE
  8
OBRYS
 10
-909.998844
 20
442.431907
 11
-892.591349
 21
442.431907
  0
LINE
  8
OBRYS
 62
     7
  6
DASHDOT
 10
-871.998844
 20
375.431907
 11
-909.998844
 21
375.431907
  0
LINE
  8
OBRYS
 62
     7
  6
DASHDOT
 10
-884.998844
 20
313.431907
 11
-902.146815
 21
313.431907
  0
LINE
  8
OBRYS
 62
     7
  6
DASHDOT
 10
-909.045324
 20
313.431907
 11
-909.998844
 21
313.431907
  0
LINE
  8
OBRYS
 10
-882.692173
 20
432.219650
 11
-890.284678
 21
441.350050
  0
ARC
  8
OBRYS
 10
-884.998844
 20
430.301507
 40
3.000000
 50
0.000000
 51
39.745666
  0
LINE
  8
OBRYS
 10
-909.998844
 20
278.431907
 11
-889.998844
 21
278.431907
  0
LINE
  8
OBRYS
 62
     7
 10
-888.909900
 20
278.490433
 11
-888.891403
 21
278.508929
  0
LINE
  8
OBRYS
 62
     7
 10
-888.891403
 20
278.508929
 11
-888.909900
 21
278.490433
  0
LINE
  8
OBRYS
 10
-876.998844
 20
414.984166
 11
-880.517166
 21
417.048757
  0
ARC
  8
OBRYS
 10
-878.998844
 20
419.636169
 40
3.000000
 50
180.000000
 51
239.595105
  0
LINE
  8
OBRYS
 62
     7
  6
DASHDOT
 10
-912.998844
 20
313.431907
 11
-934.153571
 21
313.431907
  0
LINE
  8
OBRYS
 10
-915.998844
 20
442.431907
 11
-909.998844
 21
442.431907
  0
ARC
  8
OBRYS
 10
-915.998844
 20
439.431907
 40
3.000000
 50
90.000000
 51
180.000000
  0
LINE
  8
OBRYS
 10
-918.998844
 20
394.686977
 11
-918.998844
 21
439.431907
  0
ARC
  8
OBRYS
 10
-921.998844
 20
394.686977
 40
3.000000
 50
331.296591
 51
360.000000
  0
LINE
  8
OBRYS
 10
-919.367491
 20
393.246150
 11
-923.887648
 21
384.991080
  0
ARC
  8
OBRYS
 10
-926.519001
 20
386.431907
 40
3.000000
 50
270.000000
 51
331.296591
  0
LINE
  8
OBRYS
 10
-932.153571
 20
383.431907
 11
-932.153571
 21
243.431907
  0
LINE
  8
OBRYS
 10
-926.519001
 20
383.431907
 11
-932.153571
 21
383.431907
  0
LINE
  8
OBRYS
 10
-926.153571
 20
243.431907
 11
-932.153571
 21
243.431907
  0
ARC
  8
OBRYS
 10
-926.153571
 20
246.431907
 40
3.000000
 50
270.000000
 51
360.000000
  0
LINE
  8
OBRYS
 10
-909.998844
 20
278.431907
 11
-920.153571
 21
278.431907
  0
ARC
  8
OBRYS
 10
-920.153571
 20
275.431907
 40
3.000000
 50
90.000000
 51
180.000000
  0
LINE
  8
OBRYS
 10
-923.153571
 20
338.450598
 11
-885.390401
 21
338.450598
  0
LINE
  8
OBRYS
 10
-876.998844
 20
375.431907
 11
-876.998844
 21
356.461310
  0
LINE
  8
OBRYS
 10
-881.998844
 20
346.892732
 11
-881.998844
 21
375.431907
  0
ARC
  8
OBRYS
 10
-889.998844
 20
286.431907
 40
8.000000
 50
270.000000
 51
288.918826
  0
LINE
  8
OBRYS
 10
-904.998844
 20
281.549676
 11
-888.105172
 21
281.549676
  0
ENDBLK
  8
OBRYS
  0
BLOCK
  8
OBRYS
  2
_9
 70
   64
 10
-195.583649
 20
375.431907
  0
ARC
  8
OBRYS
 10
-152.428922
 20
275.431907
 40
3.000000
 50
0.000000
 51
90.000000
  0
LINE
  8
OBRYS
 10
-162.583649
 20
278.431907
 11
-152.428922
 21
278.431907
  0
ARC
  8
OBRYS
 10
-146.428922
 20
246.431907
 40
3.000000
 50
180.000000
 51
270.000000
  0
LINE
  8
OBRYS
 10
-146.428922
 20
243.431907
 11
-140.428922
 21
243.431907
  0
LINE
  8
OBRYS
 10
-146.063492
 20
383.431907
 11
-140.428922
 21
383.431907
  0
LINE
  8
OBRYS
 10
-140.428922
 20
383.431907
 11
-140.428922
 21
243.431907
  0
ARC
  8
OBRYS
 10
-146.063492
 20
386.431907
 40
3.000000
 50
208.703409
 51
270.000000
  0
LINE
  8
OBRYS
 10
-153.215002
 20
393.246150
 11
-148.694844
 21
384.991080
  0
ARC
  8
OBRYS
 10
-150.583649
 20
394.686977
 40
3.000000
 50
180.000000
 51
208.703409
  0
LINE
  8
OBRYS
 10
-153.583649
 20
394.686977
 11
-153.583649
 21
439.431907
  0
ARC
  8
OBRYS
 10
-156.583649
 20
439.431907
 40
3.000000
 50
0.000000
 51
90.000000
  0
LINE
  8
OBRYS
 10
-156.583649
 20
442.431907
 11
-162.583649
 21
442.431907
  0
LINE
  8
OBRYS
 62
     7
  6
DASHDOT
 10
-159.583649
 20
313.431907
 11
-138.428922
 21
313.431907
  0
ARC
  8
OBRYS
 10
-193.583649
 20
419.636169
 40
3.000000
 50
300.404895
 51
360.000000
  0
LINE
  8
OBRYS
 10
-195.583649
 20
414.984166
 11
-192.065327
 21
417.048757
  0
LINE
  8
OBRYS
 62
     7
 10
-183.691089
 20
278.508929
 11
-183.672593
 21
278.490433
  0
LINE
  8
OBRYS
 62
     7
 10
-183.672593
 20
278.490433
 11
-183.691089
 21
278.508929
  0
LINE
  8
OBRYS
 10
-162.583649
 20
278.431907
 11
-182.583649
 21
278.431907
  0
ARC
  8
OBRYS
 10
-182.583649
 20
286.431907
 40
8.000000
 50
180.000000
 51
270.000000
  0
ARC
  8
OBRYS
 10
-193.583649
 20
293.959771
 40
3.000000
 50
0.000000
 51
48.189685
  0
ARC
  8
OBRYS
 10
-189.583649
 20
298.431907
 40
3.000000
 50
180.000000
 51
228.189685
  0
ARC
  8
OBRYS
 10
-187.583649
 20
430.301507
 40
3.000000
 50
140.254334
 51
180.000000
  0
LINE
  8
OBRYS
 10
-189.890320
 20
432.219650
 11
-182.297815
 21
441.350050
  0
LINE
  8
OBRYS
 62
     7
  6
DASHDOT
 10
-163.537169
 20
313.431907
 11
-162.583649
 21
313.431907
  0
LINE
  8
OBRYS
 62
     7
  6
DASHDOT
 10
-187.583649
 20
313.431907
 11
-170.435678
 21
313.431907
  0
LINE
  8
OBRYS
 62
     7
  6
DASHDOT
 10
-200.583649
 20
375.431907
 11
-162.583649
 21
375.431907
  0
LINE
  8
OBRYS
 10
-162.583649
 20
442.431907
 11
-179.991144
 21
442.431907
  0
ARC
  8
OBRYS
 10
-179.991144
 20
439.431907
 40
3.000000
 50
90.000000
 51
140.254334
  0
LINE
  8
OBRYS
 10
-195.583649
 20
375.431907
 11
-195.583649
 21
335.945591
  0
LINE
  8
OBRYS
 10
-195.583649
 20
414.984166
 11
-195.583649
 21
375.431907
  0
LINE
  8
OBRYS
 10
-190.583649
 20
430.301507
 11
-190.583649
 21
375.431907
  0
LINE
  8
OBRYS
 10
-190.583649
 20
286.431907
 11
-190.583649
 21
375.431907
  0
LINE
  8
OBRYS
 10
-195.583649
 20
335.879648
 11
-192.583649
 21
332.879648
  0
LINE
  8
OBRYS
 10
-192.583649
 20
298.431907
 11
-192.583649
 21
332.879648
  0
LINE
  8
OBRYS
 10
-153.583649
 20
424.829899
 11
-179.991144
 21
424.829899
  0
LINE
  8
OBRYS
 10
-153.583649
 20
434.709684
 11
-179.991144
 21
434.709684
  0
LINE
  8
OBRYS
 10
-166.583649
 20
395.099818
 11
-188.106621
 21
395.099818
  0
LINE
  8
OBRYS
 10
-153.583649
 20
400.308592
 11
-165.583649
 21
400.308592
  0
LINE
  8
OBRYS
 10
-149.428922
 20
383.431907
 11
-149.428922
 21
246.431907
  0
LINE
  8
OBRYS
 10
-166.583649
 20
399.308592
 11
-166.583649
 21
355.763997
  0
LINE
  8
OBRYS
 10
-149.428922
 20
355.763997
 11
-188.106621
 21
355.763997
  0
LINE
  8
OBRYS
 10
-162.583649
 20
442.431907
 11
-162.583649
 21
278.431907
  0
LINE
  8
OBRYS
 10
-149.428922
 20
338.450598
 11
-188.106621
 21
338.450598
  0
LINE
  8
OBRYS
 10
-167.583649
 20
281.549676
 11
-186.686843
 21
281.549676
  0
LINE
  8
OBRYS
 10
-166.583649
 20
337.450598
 11
-166.583649
 21
282.549676
  0
ENDBLK
  8
OBRYS
  0
BLOCK
  8
OSA
  2
_10
 70
   64
 10
-876.998844
 20
50.724310
  0
ARC
  8
OBRYS
 10
-889.219767
 20
59.821240
 40
2.000000
 50
293.822528
 51
2.782366
  0
ARC
  8
OBRYS
 10
-889.219767
 20
41.627379
 40
2.000000
 50
357.217634
 51
66.177472
  0
ARC
  8
OBRYS
 10
-1076.400729
 20
50.724310
 40
189.401885
 50
348.136806
 51
357.032847
  0
LINE
  8
OBRYS
 10
-918.998844
 20
43.023743
 11
-889.250079
 21
43.023743
  0
ARC
  8
OBRYS
 10
-885.203269
 20
50.724310
 40
7.944164
 50
113.822528
 51
246.177472
  0
ARC
  8
OBRYS
 10
-1076.400729
 20
50.724310
 40
189.401885
 50
2.782366
 51
11.863194
  0
LINE
  8
OBRYS
 10
-918.998844
 20
58.424877
 11
-889.250079
 21
58.424877
  0
LINE
  8
SRAFY
 62
     2
 10
-876.998844
 20
85.724310
 11
-876.998844
 21
15.724310
  0
LINE
  8
OBRYS
 10
-879.998844
 20
15.724310
 11
-876.998844
 21
15.724310
  0
ARC
  8
OBRYS
 10
-879.998844
 20
13.724310
 40
2.000000
 50
90.000000
 51
180.000000
  0
LINE
  8
OBRYS
 10
-879.998844
 20
85.724310
 11
-876.998844
 21
85.724310
  0
ARC
  8
OBRYS
 10
-879.998844
 20
87.724310
 40
2.000000
 50
180.000000
 51
270.000000
  0
LINE
  8
OBRYS
 10
-918.998844
 20
10.199060
 11
-893.001515
 21
10.199060
  0
LINE
  8
OBRYS
 10
-891.385113
 20
-5.849204
 11
-891.385113
 21
8.199060
  0
LINE
  8
OBRYS
 10
-891.385113
 20
107.297824
 11
-891.385113
 21
93.249559
  0
LINE
  8
OBRYS
 10
-918.998844
 20
91.249559
 11
-893.385113
 21
91.249559
  0
LINE
  8
OBRYS
 10
-918.998844
 20
109.685834
 11
-918.998844
 21
-8.237214
  0
LINE
  8
OBRYS
 10
-932.153571
 20
-19.275690
 11
-932.153571
 21
120.724310
  0
LINE
  8
OBRYS
 10
-925.153571
 20
120.724310
 11
-932.153571
 21
120.724310
  0
ARC
  8
OBRYS
 10
-925.153571
 20
118.724310
 40
2.000000
 50
0.000000
 51
90.000000
  0
LINE
  8
OBRYS
 10
-925.153571
 20
-19.275690
 11
-932.153571
 21
-19.275690
  0
LINE
  8
OBRYS
 10
-923.153571
 20
-17.275690
 11
-923.153571
 21
118.724310
  0
ARC
  8
OBRYS
 10
-925.153571
 20
-17.275690
 40
2.000000
 50
270.000000
 51
360.000000
  0
ARC
  8
OBRYS
 10
-921.153571
 20
111.685834
 40
2.000000
 50
180.000000
 51
270.000000
  0
LINE
  8
OBRYS
 10
-921.153571
 20
109.685834
 11
-885.998844
 21
109.685834
  0
ARC
  8
OBRYS
 10
-885.998844
 20
105.685834
 40
4.000000
 50
0.000000
 51
90.000000
  0
ARC
  8
OBRYS
 10
-893.147433
 20
105.685834
 40
4.000000
 50
37.718185
 51
90.000000
  0
LINE
  8
OBRYS
 10
-889.983316
 20
108.132947
 11
-882.834726
 21
98.889817
  0
ARC
  8
OBRYS
 10
-885.998844
 20
96.442704
 40
4.000000
 50
0.000000
 51
37.718185
  0
LINE
  8
OBRYS
 10
-881.998844
 20
50.724310
 11
-881.998844
 21
105.685834
  0
LINE
  8
OBRYS
 10
-909.998844
 20
50.724310
 11
-909.998844
 21
109.685834
  0
LINE
  8
OBRYS
 10
-909.998844
 20
50.724310
 11
-909.998844
 21
-8.237214
  0
ARC
  8
OBRYS
 10
-885.998844
 20
5.005915
 40
4.000000
 50
322.281815
 51
360.000000
  0
LINE
  8
OBRYS
 10
-889.983316
 20
-6.684327
 11
-882.834726
 21
2.558803
  0
ARC
  8
OBRYS
 10
-893.147433
 20
-4.237214
 40
4.000000
 50
270.000000
 51
322.281815
  0
ARC
  8
OBRYS
 10
-885.998844
 20
-4.237214
 40
4.000000
 50
270.000000
 51
360.000000
  0
LINE
  8
OBRYS
 10
-921.153571
 20
-8.237214
 11
-885.998844
 21
-8.237214
  0
ARC
  8
OBRYS
 10
-921.153571
 20
-10.237214
 40
2.000000
 50
90.000000
 51
180.000000
  0
LINE
  8
OBRYS
 10
-881.998844
 20
50.724310
 11
-881.998844
 21
-4.237214
  0
LINE
  8
OSA
 10
-937.153571
 20
108.224310
 11
-921.722906
 21
108.224310
  0
LINE
  8
OSA
 10
-937.153571
 20
-6.775690
 11
-921.722906
 21
-6.775690
  0
LINE
  8
NEVIDITELNA
 10
-932.153571
 20
98.224310
 11
-928.153571
 21
98.224310
  0
LINE
  8
NEVIDITELNA
 10
-928.153571
 20
3.224310
 11
-928.153571
 21
98.224310
  0
LINE
  8
NEVIDITELNA
 10
-932.153571
 20
3.224310
 11
-928.153571
 21
3.224310
  0
LINE
  8
OSA
 10
-891.144890
 20
50.724310
 11
-937.153571
 21
50.724310
  0
ENDBLK
  8
OSA
  0
BLOCK
  8
OSA
  2
_11
 70
   64
 10
-876.998844
 20
560.139504
  0
LINE
  8
OSA
 10
-942.153571
 20
560.139504
 11
-885.411219
 21
560.139504
  0
LINE
  8
OBRYS
 10
-879.998844
 20
525.139504
 11
-876.998844
 21
525.139504
  0
ARC
  8
OBRYS
 10
-879.998844
 20
523.139504
 40
2.000000
 50
90.000000
 51
180.000000
  0
LINE
  8
SRAFY
 62
     2
 10
-876.998844
 20
595.139504
 11
-876.998844
 21
525.139504
  0
LINE
  8
OSA
 10
-899.998844
 20
542.639504
 11
-899.998844
 21
532.639504
  0
LINE
  8
OSA
 10
-899.998844
 20
542.639504
 11
-899.998844
 21
552.639504
  0
LINE
  8
OSA
 10
-899.998844
 20
542.639504
 11
-909.998844
 21
542.639504
  0
LINE
  8
OSA
 10
-899.998844
 20
542.639504
 11
-889.998844
 21
542.639504
  0
LINE
  8
OBRYS
 10
-923.153571
 20
509.252766
 11
-906.998844
 21
509.252766
  0
LINE
  8
OBRYS
 10
-905.998844
 20
510.252766
 11
-905.998844
 21
528.827232
  0
LINE
  8
OBRYS
 10
-881.998844
 20
560.139504
 11
-881.998844
 21
505.177980
  0
ARC
  8
OBRYS
 10
-921.153571
 20
499.177980
 40
2.000000
 50
90.000000
 51
180.000000
  0
LINE
  8
OBRYS
 10
-921.153571
 20
501.177980
 11
-885.998844
 21
501.177980
  0
ARC
  8
OBRYS
 10
-885.998844
 20
505.177980
 40
4.000000
 50
270.000000
 51
360.000000
  0
ARC
  8
OBRYS
 10
-893.147433
 20
505.177980
 40
4.000000
 50
270.000000
 51
322.281815
  0
LINE
  8
OBRYS
 10
-889.983316
 20
502.730868
 11
-882.834726
 21
511.973997
  0
ARC
  8
OBRYS
 10
-885.998844
 20
514.421110
 40
4.000000
 50
322.281815
 51
360.000000
  0
LINE
  8
OBRYS
 10
-904.998844
 20
513.054794
 11
-882.916944
 21
513.054794
  0
LINE
  8
OBRYS
 10
-909.998844
 20
560.139504
 11
-909.998844
 21
501.177980
  0
LINE
  8
OBRYS
 10
-879.998844
 20
595.139504
 11
-876.998844
 21
595.139504
  0
ARC
  8
OBRYS
 10
-879.998844
 20
597.139504
 40
2.000000
 50
180.000000
 51
270.000000
  0
LINE
  8
OBRYS
 10
-909.998844
 20
560.139504
 11
-909.998844
 21
619.101029
  0
LINE
  8
OBRYS
 10
-881.998844
 20
560.139504
 11
-881.998844
 21
615.101029
  0
LINE
  8
OBRYS
 10
-904.998844
 20
607.224215
 11
-882.916944
 21
607.224215
  0
ARC
  8
OBRYS
 10
-885.998844
 20
605.857899
 40
4.000000
 50
0.000000
 51
37.718185
  0
LINE
  8
OBRYS
 10
-889.983316
 20
617.548141
 11
-882.834726
 21
608.305011
  0
ARC
  8
OBRYS
 10
-893.147433
 20
615.101029
 40
4.000000
 50
37.718185
 51
90.000000
  0
ARC
  8
OBRYS
 10
-885.998844
 20
615.101029
 40
4.000000
 50
0.000000
 51
90.000000
  0
LINE
  8
OBRYS
 10
-921.153571
 20
619.101029
 11
-885.998844
 21
619.101029
  0
ARC
  8
OBRYS
 10
-921.153571
 20
621.101029
 40
2.000000
 50
180.000000
 51
270.000000
  0
LINE
  8
OBRYS
 10
-923.153571
 20
611.026243
 11
-906.998844
 21
611.026243
  0
LINE
  8
OBRYS
 10
-904.998844
 20
560.139504
 11
-885.998844
 21
560.139504
  0
LINE
  8
OBRYS
 10
-904.998844
 20
529.827232
 11
-885.998844
 21
529.827232
  0
ARC
  8
OBRYS
 10
-904.998844
 20
561.139504
 40
1.000000
 50
180.000000
 51
270.000000
  0
LINE
  8
OBRYS
 10
-905.998844
 20
561.139504
 11
-905.998844
 21
610.026243
  0
ARC
  8
OBRYS
 10
-904.998844
 20
528.827232
 40
1.000000
 50
90.000000
 51
180.000000
  0
ARC
  8
OBRYS
 10
-925.153571
 20
492.139504
 40
2.000000
 50
270.000000
 51
360.000000
  0
LINE
  8
OBRYS
 10
-923.153571
 20
492.139504
 11
-923.153571
 21
628.139504
  0
LINE
  8
OBRYS
 10
-925.153571
 20
490.139504
 11
-932.153571
 21
490.139504
  0
ARC
  8
OBRYS
 10
-925.153571
 20
628.139504
 40
2.000000
 50
0.000000
 51
90.000000
  0
LINE
  8
OBRYS
 10
-925.153571
 20
630.139504
 11
-932.153571
 21
630.139504
  0
LINE
  8
OBRYS
 10
-932.153571
 20
490.139504
 11
-932.153571
 21
630.139504
  0
ENDBLK
  8
OSA
  0
BLOCK
  8
OBRYS
  2
_12
 70
   64
 10
-281.583649
 20
305.431907
  0
LINE
  8
OSA
 10
-281.583649
 20
305.431907
 11
-196.083653
 21
305.431907
  0
INSERT
  8
OBRYS
  2
Vnitrni_metricky_zavit_M8__14
 62
     7
 10
-231.583649
 20
305.431907
  0
INSERT
  8
OBRYS
  2
Vnitrni_metricky_zavit_M8__15
 62
     7
 10
-246.228310
 20
270.076568
  0
CIRCLE
  8
OSA
 10
-281.583649
 20
305.431907
 40
50.000000
  0
LINE
  8
OSA
 10
-281.583649
 20
305.431907
 11
-281.583649
 21
219.931911
  0
LINE
  8
OSA
 10
-281.583649
 20
305.431907
 11
-367.083645
 21
305.431907
  0
CIRCLE
  8
OBRYS
 10
-281.583649
 20
305.431907
 40
40.000000
  0
CIRCLE
  8
OBRYS
 10
-281.583649
 20
305.431907
 40
30.000000
  0
ARC
  8
OBRYS
 10
-237.933581
 20
323.512357
 40
5.000000
 50
164.065930
 51
240.934070
  0
ARC
  8
OBRYS
 10
-237.933581
 20
287.351457
 40
5.000000
 50
119.065930
 51
195.934070
  0
LINE
  8
OBRYS
 10
-241.583649
 20
320.095194
 11
-241.583649
 21
290.768620
  0
ARC
  8
OBRYS
 10
-281.583649
 20
305.431907
 40
57.500000
 50
308.400746
 51
321.599254
  0
ARC
  8
OBRYS
 10
-281.583649
 20
305.431907
 40
64.000000
 50
355.926980
 51
4.073020
  0
ARC
  8
OBRYS
 10
-281.583649
 20
305.431907
 40
69.500000
 50
357.334468
 51
2.650877
  0
CIRCLE
  8
OBRYS
 10
-281.583649
 20
305.431907
 40
76.000000
  0
ARC
  8
OBRYS
 10
-146.583649
 20
297.431907
 40
100.000000
 50
148.188412
 51
164.065930
  0
ARC
  8
OBRYS
 10
-229.012900
 20
348.563292
 40
3.000000
 50
39.366980
 51
148.188412
  0
ARC
  8
OBRYS
 10
-191.781088
 20
406.548177
 40
100.000000
 50
240.934070
 51
256.811588
  0
ARC
  8
OBRYS
 10
-281.583649
 20
305.431907
 40
71.000000
 50
5.633020
 51
39.366980
  0
ARC
  8
OBRYS
 10
-213.912021
 20
312.106545
 40
3.000000
 50
256.811588
 51
5.633020
  0
ARC
  8
OBRYS
 10
-191.781088
 20
204.315637
 40
100.000000
 50
103.188412
 51
119.065930
  0
ARC
  8
OBRYS
 10
-213.912021
 20
298.757269
 40
3.000000
 50
354.366980
 51
103.188412
  0
ARC
  8
OBRYS
 10
-146.583649
 20
313.431907
 40
100.000000
 50
195.934070
 51
211.811588
  0
ARC
  8
OBRYS
 10
-281.583649
 20
305.431907
 40
71.000000
 50
320.633020
 51
354.366980
  0
ARC
  8
OBRYS
 10
-229.012900
 20
262.300522
 40
3.000000
 50
211.811588
 51
320.633020
  0
ARC
  8
OBRYS
 10
-238.452264
 20
358.002656
 40
3.000000
 50
301.811588
 51
50.633020
  0
ARC
  8
OBRYS
 10
-334.154398
 20
348.563292
 40
3.000000
 50
31.811588
 51
140.633020
  0
ARC
  8
OBRYS
 10
-324.715034
 20
252.861158
 40
3.000000
 50
121.811588
 51
230.633020
  0
ARC
  8
OBRYS
 10
-281.583649
 20
305.431907
 40
71.000000
 50
50.633020
 51
84.366980
  0
ARC
  8
OBRYS
 10
-281.583649
 20
305.431907
 40
71.000000
 50
140.633020
 51
174.366980
  0
ARC
  8
OBRYS
 10
-281.583649
 20
305.431907
 40
71.000000
 50
230.633020
 51
264.366980
  0
ARC
  8
OBRYS
 10
-289.583649
 20
440.431907
 40
100.000000
 50
285.934070
 51
301.811588
  0
ARC
  8
OBRYS
 10
-416.583649
 20
297.431907
 40
100.000000
 50
15.934070
 51
31.811588
  0
ARC
  8
OBRYS
 10
-273.583649
 20
170.431907
 40
100.000000
 50
105.934070
 51
121.811588
  0
ARC
  8
OBRYS
 10
-274.909011
 20
373.103535
 40
3.000000
 50
84.366980
 51
193.188412
  0
ARC
  8
OBRYS
 10
-349.255277
 20
312.106545
 40
3.000000
 50
174.366980
 51
283.188412
  0
ARC
  8
OBRYS
 10
-288.258287
 20
237.760279
 40
3.000000
 50
264.366980
 51
13.188412
  0
ARC
  8
OBRYS
 10
-180.467379
 20
395.234468
 40
100.000000
 50
193.188412
 51
209.065930
  0
ARC
  8
OBRYS
 10
-371.386210
 20
406.548177
 40
100.000000
 50
283.188412
 51
299.065930
  0
ARC
  8
OBRYS
 10
-382.699919
 20
215.629346
 40
100.000000
 50
13.188412
 51
29.065930
  0
ARC
  8
OBRYS
 10
-288.258287
 20
373.103535
 40
3.000000
 50
346.811588
 51
95.633020
  0
ARC
  8
OBRYS
 10
-349.255277
 20
298.757269
 40
3.000000
 50
76.811588
 51
185.633020
  0
ARC
  8
OBRYS
 10
-274.909011
 20
237.760279
 40
3.000000
 50
166.811588
 51
275.633020
  0
ARC
  8
OBRYS
 10
-281.583649
 20
305.431907
 40
71.000000
 50
95.633020
 51
129.366980
  0
ARC
  8
OBRYS
 10
-281.583649
 20
305.431907
 40
71.000000
 50
185.633020
 51
219.366980
  0
ARC
  8
OBRYS
 10
-281.583649
 20
305.431907
 40
71.000000
 50
275.633020
 51
309.366980
  0
ARC
  8
OBRYS
 10
-382.699919
 20
395.234468
 40
100.000000
 50
330.934070
 51
346.811588
  0
ARC
  8
OBRYS
 10
-371.386210
 20
204.315637
 40
100.000000
 50
60.934070
 51
76.811588
  0
ARC
  8
OBRYS
 10
-180.467379
 20
215.629346
 40
100.000000
 50
150.934070
 51
166.811588
  0
ARC
  8
OBRYS
 10
-324.715034
 20
358.002656
 40
3.000000
 50
129.366980
 51
238.188412
  0
ARC
  8
OBRYS
 10
-334.154398
 20
262.300522
 40
3.000000
 50
219.366980
 51
328.188412
  0
ARC
  8
OBRYS
 10
-238.452264
 20
252.861158
 40
3.000000
 50
309.366980
 51
58.188412
  0
ARC
  8
OBRYS
 10
-273.583649
 20
440.431907
 40
100.000000
 50
238.188412
 51
254.065930
  0
ARC
  8
OBRYS
 10
-416.583649
 20
313.431907
 40
100.000000
 50
328.188412
 51
344.065930
  0
ARC
  8
OBRYS
 10
-289.583649
 20
170.431907
 40
100.000000
 50
58.188412
 51
74.065930
  0
ARC
  8
OBRYS
 10
-281.583649
 20
305.431907
 40
69.500000
 50
87.334468
 51
92.650877
  0
ARC
  8
OBRYS
 10
-281.583649
 20
305.431907
 40
69.500000
 50
177.334468
 51
182.650877
  0
ARC
  8
OBRYS
 10
-281.583649
 20
305.431907
 40
69.500000
 50
267.334468
 51
272.650877
  0
ARC
  8
OBRYS
 10
-281.583649
 20
305.431907
 40
64.000000
 50
85.926980
 51
94.073020
  0
ARC
  8
OBRYS
 10
-281.583649
 20
305.431907
 40
64.000000
 50
175.926980
 51
184.073020
  0
ARC
  8
OBRYS
 10
-281.583649
 20
305.431907
 40
64.000000
 50
265.926980
 51
274.073020
  0
ARC
  8
OBRYS
 10
-281.583649
 20
305.431907
 40
57.500000
 50
128.400746
 51
141.599254
  0
LINE
  8
OBRYS
 10
-296.246936
 20
345.431907
 11
-266.920362
 21
345.431907
  0
LINE
  8
OBRYS
 10
-321.583649
 20
290.768620
 11
-321.583649
 21
320.095194
  0
LINE
  8
OBRYS
 10
-266.920362
 20
265.431907
 11
-296.246936
 21
265.431907
  0
ARC
  8
OBRYS
 10
-263.503199
 20
349.081975
 40
5.000000
 50
209.065930
 51
285.934070
  0
ARC
  8
OBRYS
 10
-325.233717
 20
323.512357
 40
5.000000
 50
299.065930
 51
15.934070
  0
ARC
  8
OBRYS
 10
-299.664099
 20
261.781839
 40
5.000000
 50
29.065930
 51
105.934070
  0
ARC
  8
OBRYS
 10
-299.664099
 20
349.081975
 40
5.000000
 50
254.065930
 51
330.934070
  0
ARC
  8
OBRYS
 10
-325.233717
 20
287.351457
 40
5.000000
 50
344.065930
 51
60.934070
  0
ARC
  8
OBRYS
 10
-263.503199
 20
261.781839
 40
5.000000
 50
74.065930
 51
150.934070
  0
INSERT
  8
OBRYS
  2
Vnitrni_metricky_zavit_M8__16
 62
     7
 10
-246.228310
 20
340.787246
  0
INSERT
  8
OBRYS
  2
Vnitrni_metricky_zavit_M8__17
 62
     7
 10
-316.938988
 20
340.787246
  0
INSERT
  8
OBRYS
  2
Vnitrni_metricky_zavit_M8__18
 62
     7
 10
-316.938988
 20
270.076568
  0
INSERT
  8
OBRYS
  2
Vnitrni_metricky_zavit_M8__19
 62
     7
 10
-281.583649
 20
355.431907
  0
INSERT
  8
OBRYS
  2
Vnitrni_metricky_zavit_M8__20
 62
     7
 10
-331.583649
 20
305.431907
  0
INSERT
  8
OBRYS
  2
Vnitrni_metricky_zavit_M8__21
 62
     7
 10
-281.583649
 20
255.431907
  0
ARC
  8
OBRYS
 10
-281.583649
 20
305.431907
 40
69.500000
 50
312.334468
 51
317.650877
  0
ARC
  8
OBRYS
 10
-281.583649
 20
305.431907
 40
69.500000
 50
222.334468
 51
227.650877
  0
ARC
  8
OBRYS
 10
-281.583649
 20
305.431907
 40
69.500000
 50
132.334468
 51
137.650877
  0
ARC
  8
OBRYS
 10
-281.583649
 20
305.431907
 40
69.500000
 50
42.334468
 51
47.650877
  0
ARC
  8
OBRYS
 10
-281.583649
 20
305.431907
 40
57.500000
 50
38.400746
 51
51.599254
  0
ARC
  8
OBRYS
 10
-281.583649
 20
305.431907
 40
57.500000
 50
218.400746
 51
231.599254
  0
CIRCLE
  8
OBRYS
 10
-281.583649
 20
305.431907
 40
22.500000
  0
LINE
  8
OBRYS
 10
-284.583649
 20
315.494213
 11
-284.583649
 21
318.406907
  0
LINE
  8
OBRYS
 10
-281.583649
 20
318.406907
 11
-284.583649
 21
318.406907
  0
LINE
  8
OBRYS
 10
-278.583649
 20
315.494213
 11
-278.583649
 21
318.406907
  0
LINE
  8
OBRYS
 10
-281.583649
 20
318.406907
 11
-278.583649
 21
318.406907
  0
ARC
  8
OBRYS
 10
-281.583649
 20
305.431907
 40
10.500000
 50
106.601550
 51
270.000000
  0
ARC
  8
OBRYS
 10
-281.583649
 20
305.431907
 40
10.500000
 50
270.000000
 51
73.398450
  0
LINE
  8
OSA
 10
-251.132722
 20
274.980980
 11
-241.704337
 21
265.552595
  0
LINE
  8
OSA
 10
-312.034576
 20
274.980980
 11
-321.462961
 21
265.552595
  0
LINE
  8
OSA
 10
-312.034576
 20
335.882834
 11
-321.462961
 21
345.311219
  0
LINE
  8
OSA
 10
-251.132722
 20
335.882834
 11
-241.704337
 21
345.311219
  0
ENDBLK
  8
OBRYS
  0
BLOCK
  8
OBRYS
  2
Vnitrni_metricky_zavit_M8__14
 70
   66
 10
-231.583649
 20
305.431907
  0
CIRCLE
  8
OBRYS
 10
-231.583649
 20
305.431907
 40
3.323500
  0
ARC
  8
OBRYS
 62
     7
 10
-231.583649
 20
305.431907
 40
4.000000
 50
130.000000
 51
50.000000
  0
ENDBLK
  8
OBRYS
  0
BLOCK
  8
OBRYS
  2
Vnitrni_metricky_zavit_M8__15
 70
   66
 10
-246.228310
 20
270.076568
  0
CIRCLE
  8
OBRYS
 10
-246.228310
 20
270.076568
 40
3.323500
  0
ARC
  8
OBRYS
 62
     7
 10
-246.228310
 20
270.076568
 40
4.000000
 50
85.000000
 51
5.000000
  0
ENDBLK
  8
OBRYS
  0
BLOCK
  8
OBRYS
  2
Vnitrni_metricky_zavit_M8__16
 70
   66
 10
-246.228310
 20
340.787246
  0
CIRCLE
  8
OBRYS
 10
-246.228310
 20
340.787246
 40
3.323500
  0
ARC
  8
OBRYS
 62
     7
 10
-246.228310
 20
340.787246
 40
4.000000
 50
175.000000
 51
95.000000
  0
ENDBLK
  8
OBRYS
  0
BLOCK
  8
OBRYS
  2
Vnitrni_metricky_zavit_M8__17
 70
   66
 10
-316.938988
 20
340.787246
  0
CIRCLE
  8
OBRYS
 10
-316.938988
 20
340.787246
 40
3.323500
  0
ARC
  8
OBRYS
 62
     7
 10
-316.938988
 20
340.787246
 40
4.000000
 50
265.000000
 51
185.000000
  0
ENDBLK
  8
OBRYS
  0
BLOCK
  8
OBRYS
  2
Vnitrni_metricky_zavit_M8__18
 70
   66
 10
-316.938988
 20
270.076568
  0
CIRCLE
  8
OBRYS
 10
-316.938988
 20
270.076568
 40
3.323500
  0
ARC
  8
OBRYS
 62
     7
 10
-316.938988
 20
270.076568
 40
4.000000
 50
355.000000
 51
275.000000
  0
ENDBLK
  8
OBRYS
  0
BLOCK
  8
OBRYS
  2
Vnitrni_metricky_zavit_M8__19
 70
   66
 10
-281.583649
 20
355.431907
  0
CIRCLE
  8
OBRYS
 10
-281.583649
 20
355.431907
 40
3.323500
  0
ARC
  8
OBRYS
 62
     7
 10
-281.583649
 20
355.431907
 40
4.000000
 50
220.000000
 51
140.000000
  0
ENDBLK
  8
OBRYS
  0
BLOCK
  8
OBRYS
  2
Vnitrni_metricky_zavit_M8__20
 70
   66
 10
-331.583649
 20
305.431907
  0
CIRCLE
  8
OBRYS
 10
-331.583649
 20
305.431907
 40
3.323500
  0
ARC
  8
OBRYS
 62
     7
 10
-331.583649
 20
305.431907
 40
4.000000
 50
310.000000
 51
230.000000
  0
ENDBLK
  8
OBRYS
  0
BLOCK
  8
OBRYS
  2
Vnitrni_metricky_zavit_M8__21
 70
   66
 10
-281.583649
 20
255.431907
  0
CIRCLE
  8
OBRYS
 10
-281.583649
 20
255.431907
 40
3.323500
  0
ARC
  8
OBRYS
 62
     7
 10
-281.583649
 20
255.431907
 40
4.000000
 50
40.000000
 51
320.000000
  0
ENDBLK
  8
OBRYS
  0
BLOCK
  8
OSA
  2
_13
 70
   64
 10
-1045.706441
 20
305.431907
  0
LINE
  8
OBRYS
 10
-1077.706441
 20
305.431907
 11
-1077.706441
 21
353.492597
  0
LINE
  8
OBRYS
 10
-995.206441
 20
320.095194
 11
-995.206441
 21
305.431907
  0
LINE
  8
OBRYS
 10
-988.706441
 20
350.493816
 11
-988.706441
 21
305.431907
  0
LINE
  8
OBRYS
 10
-985.706441
 20
305.431907
 11
-985.706441
 21
345.431907
  0
LINE
  8
OBRYS
 10
-985.206441
 20
344.931907
 11
-985.206441
 21
305.431907
  0
LINE
  8
OBRYS
 10
-1013.706441
 20
305.431907
 11
-1013.706441
 21
353.492597
  0
LINE
  8
OSA
 10
-1087.706441
 20
375.431907
 11
-1045.706441
 21
375.431907
  0
ARC
  8
OBRYS
 10
-1055.731517
 20
338.495968
 40
2.000000
 50
60.000000
 51
180.000000
  0
LINE
  8
OBRYS
 10
-1057.731517
 20
331.739814
 11
-1057.731517
 21
338.495968
  0
LINE
  8
OBRYS
 10
-1083.706441
 20
381.431907
 11
-1080.706441
 21
381.431907
  0
ARC
  8
OSA
 62
     2
  6
CONTINUOUS
 10
-1045.706441
 20
408.918223
 40
6.000000
 50
60.000000
 51
120.000000
  0
LINE
  8
OSA
 62
     2
  6
CONTINUOUS
 10
-1013.706441
 20
397.371217
 11
-1042.706441
 21
414.114375
  0
ARC
  8
OSA
 62
     2
  6
CONTINUOUS
 10
-1016.706441
 20
392.175065
 40
6.000000
 50
0.000000
 51
60.000000
  0
ARC
  8
OSA
 62
     2
  6
CONTINUOUS
 10
-1074.706441
 20
358.688749
 40
6.000000
 50
180.000000
 51
240.000000
  0
LINE
  8
OSA
 62
     2
  6
CONTINUOUS
 10
-1077.706441
 20
353.492597
 11
-1048.706441
 21
336.749439
  0
ARC
  8
OSA
 62
     2
  6
CONTINUOUS
 10
-1045.706441
 20
341.945591
 40
6.000000
 50
240.000000
 51
300.000000
  0
LINE
  8
OSA
 62
     2
  6
CONTINUOUS
 10
-1077.706441
 20
397.371217
 11
-1048.706441
 21
414.114375
  0
LINE
  8
OSA
 62
     2
  6
CONTINUOUS
 10
-1080.706441
 20
392.175065
 11
-1080.706441
 21
358.688749
  0
ARC
  8
OSA
 62
     2
  6
CONTINUOUS
 10
-1074.706441
 20
392.175065
 40
6.000000
 50
120.000000
 51
180.000000
  0
LINE
  8
OSA
 62
     2
  6
CONTINUOUS
 10
-1013.706441
 20
353.492597
 11
-1042.706441
 21
336.749439
  0
LINE
  8
OSA
 62
     2
  6
CONTINUOUS
 10
-1010.706441
 20
358.688749
 11
-1010.706441
 21
392.175065
  0
ARC
  8
OSA
 62
     2
  6
CONTINUOUS
 10
-1016.706441
 20
358.688749
 40
6.000000
 50
300.000000
 51
360.000000
  0
CIRCLE
  8
OBRYS
 10
-1045.706441
 20
375.431907
 40
27.500000
  0
POLYLINE
  8
OBRYS
 66
    1
  0
VERTEX
  8
OBRYS
 10
-1065.206421
 20
323.275208
  0
VERTEX
  8
OBRYS
 10
-1065.067871
 20
323.276581
  0
VERTEX
  8
OBRYS
 10
-1064.909912
 20
323.281586
  0
VERTEX
  8
OBRYS
 10
-1064.730103
 20
323.291656
  0
VERTEX
  8
OBRYS
 10
-1064.525635
 20
323.308838
  0
VERTEX
  8
OBRYS
 10
-1064.293457
 20
323.335815
  0
VERTEX
  8
OBRYS
 10
-1064.030396
 20
323.376038
  0
VERTEX
  8
OBRYS
 10
-1063.733032
 20
323.434052
  0
VERTEX
  8
OBRYS
 10
-1063.398438
 20
323.515625
  0
VERTEX
  8
OBRYS
 10
-1063.023926
 20
323.627991
  0
VERTEX
  8
OBRYS
 10
-1062.607788
 20
323.780182
  0
VERTEX
  8
OBRYS
 10
-1062.149658
 20
323.983002
  0
VERTEX
  8
OBRYS
 10
-1061.651733
 20
324.248993
  0
VERTEX
  8
OBRYS
 10
-1061.119141
 20
324.592133
  0
VERTEX
  8
OBRYS
 10
-1060.561523
 20
325.026825
  0
VERTEX
  8
OBRYS
 10
-1059.993164
 20
325.566681
  0
VERTEX
  8
OBRYS
 10
-1059.434082
 20
326.222473
  0
VERTEX
  8
OBRYS
 10
-1058.908936
 20
326.999878
  0
VERTEX
  8
OBRYS
 10
-1058.446045
 20
327.897156
  0
VERTEX
  8
OBRYS
 10
-1058.074829
 20
328.903503
  0
VERTEX
  8
OBRYS
 10
-1057.822510
 20
329.998352
  0
VERTEX
  8
OBRYS
 10
-1057.710693
 20
331.152039
  0
VERTEX
  8
OBRYS
 10
-1057.731445
 20
331.739807
  0
SEQEND
  8
OBRYS
  0
ARC
  8
OBRYS
 10
-1075.706441
 20
321.275198
 40
2.000000
 50
90.000000
 51
180.000000
  0
LINE
  8
OBRYS
 10
-1075.706441
 20
323.275198
 11
-1065.206441
 21
323.275198
  0
LINE
  8
OBRYS
 10
-995.206441
 20
309.977684
 11
-1000.706441
 21
308.646284
  0
LINE
  8
OBRYS
 10
-995.206441
 20
369.431907
 11
-995.206441
 21
353.907578
  0
LINE
  8
OBRYS
 10
-988.706441
 20
350.493816
 11
-1000.706441
 21
356.796147
  0
LINE
  8
OBRYS
 10
-988.706441
 20
341.148491
 11
-1000.706441
 21
352.250331
  0
ARC
  8
OBRYS
 10
-998.706441
 20
375.760334
 40
2.000000
 50
180.000000
 51
225.000000
  0
LINE
  8
OBRYS
 10
-985.206441
 20
344.931907
 11
-985.706441
 21
345.431907
  0
LINE
  8
OBRYS
 10
-1007.706441
 20
381.431907
 11
-1008.706441
 21
381.431907
  0
LINE
  8
OBRYS
 10
-988.706441
 20
345.431907
 11
-985.706441
 21
345.431907
  0
LINE
  8
OBRYS
 10
-995.206441
 20
369.431907
 11
-1000.120655
 21
374.346121
  0
LINE
  8
OSA
 10
-1045.706441
 20
375.431907
 11
-1003.706441
 21
375.431907
  0
LINE
  8
OBRYS
 10
-1083.706441
 20
381.431907
 11
-1083.706441
 21
305.431907
  0
LINE
  8
OBRYS
 10
-1077.706441
 20
231.431907
 11
-1077.706441
 21
305.431907
  0
LINE
  8
OBRYS
 10
-988.706441
 20
305.431907
 11
-988.706441
 21
260.369998
  0
LINE
  8
OBRYS
 10
-995.206441
 20
305.431907
 11
-995.206441
 21
290.768620
  0
LINE
  8
OBRYS
 10
-985.206441
 20
305.431907
 11
-985.206441
 21
265.931907
  0
LINE
  8
OBRYS
 10
-985.706441
 20
265.431907
 11
-985.706441
 21
305.431907
  0
LINE
  8
OBRYS
 10
-1013.706441
 20
231.431907
 11
-1013.706441
 21
305.431907
  0
LINE
  8
OBRYS
 10
-1045.706441
 20
236.931907
 11
-1015.706441
 21
236.931907
  0
LINE
  8
OBRYS
 10
-1000.706441
 20
305.431907
 11
-1000.706441
 21
231.607730
  0
LINE
  8
OBRYS
 10
-985.206441
 20
265.931907
 11
-985.706441
 21
265.431907
  0
LINE
  8
OBRYS
 10
-988.706441
 20
265.431907
 11
-985.706441
 21
265.431907
  0
ARC
  8
OBRYS
 10
-998.706441
 20
235.103480
 40
2.000000
 50
135.000000
 51
180.000000
  0
ARC
  8
OBRYS
 10
-1015.706441
 20
234.931907
 40
2.000000
 50
0.000000
 51
90.000000
  0
LINE
  8
OBRYS
 10
-1083.706441
 20
229.431907
 11
-1083.706441
 21
305.431907
  0
LINE
  8
OBRYS
 10
-1083.706441
 20
229.431907
 11
-1079.706441
 21
229.431907
  0
ARC
  8
OBRYS
 10
-1079.706441
 20
231.431907
 40
2.000000
 50
270.000000
 51
360.000000
  0
ARC
  8
OBRYS
 10
-1011.706441
 20
231.431907
 40
2.000000
 50
180.000000
 51
270.000000
  0
LINE
  8
OBRYS
 10
-1007.706441
 20
229.431907
 11
-1011.706441
 21
229.431907
  0
LINE
  8
OBRYS
 10
-1007.706441
 20
229.431907
 11
-1002.636642
 21
229.608948
  0
ARC
  8
OBRYS
 10
-1002.706441
 20
231.607730
 40
2.000000
 50
272.000000
 51
360.000000
  0
LINE
  8
OBRYS
 10
-1054.706508
 20
233.931907
 11
-1036.706374
 21
233.931907
  0
LINE
  8
OBRYS
 10
-1036.706374
 20
233.931907
 11
-1036.706442
 21
234.931770
  0
ARC
  8
OBRYS
 10
-1034.706442
 20
234.931907
 40
2.000000
 50
90.000000
 51
180.003913
  0
LINE
  8
OBRYS
 10
-1054.706508
 20
233.931907
 11
-1054.706440
 21
234.931770
  0
ARC
  8
OBRYS
 10
-1056.706440
 20
234.931907
 40
2.000000
 50
359.996087
 51
90.000000
  0
LINE
  8
OBRYS
 10
-995.206441
 20
300.886130
 11
-1000.706441
 21
302.217530
  0
LINE
  8
OBRYS
 10
-995.206441
 20
241.431907
 11
-995.206441
 21
256.956236
  0
LINE
  8
OBRYS
 10
-988.706441
 20
269.715323
 11
-1000.706441
 21
258.613483
  0
ARC
  8
OBRYS
 10
-998.706441
 20
235.103480
 40
2.000000
 50
135.000000
 51
180.000000
  0
LINE
  8
OBRYS
 10
-995.206441
 20
241.431907
 11
-1000.120655
 21
236.517693
  0
LINE
  8
OBRYS
 10
-988.706441
 20
260.369998
 11
-1000.706441
 21
254.067667
  0
ARC
  8
OBRYS
 10
-1075.706441
 20
289.588616
 40
2.000000
 50
180.000000
 51
270.000000
  0
ARC
  8
OBRYS
 10
-1075.706441
 20
269.284359
 40
2.000000
 50
90.000000
 51
180.000000
  0
POLYLINE
  8
OBRYS
 66
    1
  0
VERTEX
  8
OBRYS
 10
-1065.206421
 20
287.588623
  0
VERTEX
  8
OBRYS
 10
-1065.067871
 20
287.587219
  0
VERTEX
  8
OBRYS
 10
-1064.909912
 20
287.582245
  0
VERTEX
  8
OBRYS
 10
-1064.730225
 20
287.572174
  0
VERTEX
  8
OBRYS
 10
-1064.525757
 20
287.554962
  0
VERTEX
  8
OBRYS
 10
-1064.293457
 20
287.527985
  0
VERTEX
  8
OBRYS
 10
-1064.030396
 20
287.487762
  0
VERTEX
  8
OBRYS
 10
-1063.733032
 20
287.429749
  0
VERTEX
  8
OBRYS
 10
-1063.398438
 20
287.348206
  0
VERTEX
  8
OBRYS
 10
-1063.023926
 20
287.235840
  0
VERTEX
  8
OBRYS
 10
-1062.607788
 20
287.083649
  0
VERTEX
  8
OBRYS
 10
-1062.149658
 20
286.880829
  0
VERTEX
  8
OBRYS
 10
-1061.651733
 20
286.614807
  0
VERTEX
  8
OBRYS
 10
-1061.119141
 20
286.271698
  0
VERTEX
  8
OBRYS
 10
-1060.561523
 20
285.837006
  0
VERTEX
  8
OBRYS
 10
-1059.993164
 20
285.297150
  0
VERTEX
  8
OBRYS
 10
-1059.434082
 20
284.641327
  0
VERTEX
  8
OBRYS
 10
-1058.908936
 20
283.863922
  0
VERTEX
  8
OBRYS
 10
-1058.446045
 20
282.966644
  0
VERTEX
  8
OBRYS
 10
-1058.074951
 20
281.960297
  0
VERTEX
  8
OBRYS
 10
-1057.822510
 20
280.865448
  0
VERTEX
  8
OBRYS
 10
-1057.710693
 20
279.711792
  0
VERTEX
  8
OBRYS
 10
-1057.752319
 20
278.536224
  0
VERTEX
  8
OBRYS
 10
-1057.949097
 20
277.379578
  0
VERTEX
  8
OBRYS
 10
-1058.290527
 20
276.282440
  0
VERTEX
  8
OBRYS
 10
-1058.754395
 20
275.280334
  0
VERTEX
  8
OBRYS
 10
-1059.309570
 20
274.399170
  0
VERTEX
  8
OBRYS
 10
-1059.921021
 20
273.652649
  0
VERTEX
  8
OBRYS
 10
-1060.554443
 20
273.042053
  0
VERTEX
  8
OBRYS
 10
-1061.180298
 20
272.558563
  0
VERTEX
  8
OBRYS
 10
-1061.776733
 20
272.186646
  0
VERTEX
  8
OBRYS
 10
-1062.329590
 20
271.907928
  0
VERTEX
  8
OBRYS
 10
-1062.831177
 20
271.703979
  0
VERTEX
  8
OBRYS
 10
-1063.279175
 20
271.558105
  0
VERTEX
  8
OBRYS
 10
-1063.674561
 20
271.456207
  0
VERTEX
  8
OBRYS
 10
-1064.020630
 20
271.386902
  0
VERTEX
  8
OBRYS
 10
-1064.321777
 20
271.341278
  0
VERTEX
  8
OBRYS
 10
-1064.582520
 20
271.312622
  0
VERTEX
  8
OBRYS
 10
-1064.807861
 20
271.295868
  0
VERTEX
  8
OBRYS
 10
-1065.002075
 20
271.287384
  0
VERTEX
  8
OBRYS
 10
-1065.169189
 20
271.284454
  0
VERTEX
  8
OBRYS
 10
-1065.206421
 20
271.284363
  0
SEQEND
  8
OBRYS
  0
LINE
  8
OBRYS
 10
-1075.706441
 20
271.284359
 11
-1065.206441
 21
271.284359
  0
LINE
  8
OBRYS
 10
-1075.706441
 20
287.588616
 11
-1065.206441
 21
287.588616
  0
POLYLINE
  8
0
 62
     2
 66
    1
  0
VERTEX
  8
0
 62
     2
 10
-1061.932129
 20
236.060211
  0
VERTEX
  8
0
 62
     2
 10
-1061.420776
 20
236.426300
  0
VERTEX
  8
0
 62
     2
 10
-1061.105957
 20
236.823547
  0
SEQEND
  8
0
  0
LINE
  8
0
 62
     2
 10
-1064.053836
 20
235.081444
 11
-1061.932165
 21
236.060195
  0
LINE
  8
0
 62
     2
 10
-1061.105960
 20
236.823508
 11
-1059.385509
 21
238.982851
  0
POLYLINE
  8
0
 62
     2
 66
    1
  0
VERTEX
  8
0
 62
     2
 10
-1057.880249
 20
242.002502
  0
VERTEX
  8
0
 62
     2
 10
-1057.710693
 20
242.661133
  0
VERTEX
  8
0
 62
     2
 10
-1057.880249
 20
243.319794
  0
VERTEX
  8
0
 62
     2
 10
-1058.382202
 20
243.953125
  0
VERTEX
  8
0
 62
     2
 10
-1059.197510
 20
244.536804
  0
VERTEX
  8
0
 62
     2
 10
-1060.294678
 20
245.048401
  0
VERTEX
  8
0
 62
     2
 10
-1061.631592
 20
245.468292
  0
VERTEX
  8
0
 62
     2
 10
-1063.156738
 20
245.780273
  0
VERTEX
  8
0
 62
     2
 10
-1064.811768
 20
245.972382
  0
VERTEX
  8
0
 62
     2
 10
-1066.532959
 20
246.037262
  0
SEQEND
  8
0
  0
LINE
  8
0
 62
     2
 10
-1059.385509
 20
238.982851
 11
-1057.880235
 21
242.002507
  0
LINE
  8
OBRYS
 10
-1066.532913
 20
246.037260
 11
-1077.706441
 21
246.037260
  0
POLYLINE
  8
0
 62
     2
 66
    1
  0
VERTEX
  8
0
 62
     2
 10
-1066.532959
 20
234.574371
  0
VERTEX
  8
0
 62
     2
 10
-1065.951172
 20
234.596313
  0
VERTEX
  8
0
 62
     2
 10
-1065.391968
 20
234.661224
  0
VERTEX
  8
0
 62
     2
 10
-1064.876465
 20
234.766663
  0
VERTEX
  8
0
 62
     2
 10
-1064.424683
 20
234.908569
  0
VERTEX
  8
0
 62
     2
 10
-1064.053833
 20
235.081482
  0
SEQEND
  8
0
  0
LINE
  8
OBRYS
 10
-1061.105960
 20
236.931907
 11
-1045.706441
 21
236.931907
  0
LINE
  8
OBRYS
 10
-1066.532913
 20
234.574352
 11
-1075.706441
 21
234.574352
  0
ARC
  8
OBRYS
 10
-1075.706441
 20
232.574352
 40
2.000000
 50
90.000000
 51
180.000000
  0
LINE
  8
OSA
 10
-1045.706441
 20
419.494993
 11
-1045.706441
 21
229.804261
  0
INSERT
  8
OSA
  2
M10x1__23
  6
CONTINUOUS
 10
-1045.706441
 20
233.931907
  0
ARC
  8
OBRYS
 10
-1002.706441
 20
379.256084
 40
2.000000
 50
0.000000
 51
88.000000
  0
LINE
  8
OBRYS
 10
-1000.706441
 20
305.431907
 11
-1000.706441
 21
379.256084
  0
LINE
  8
OBRYS
 10
-1010.706441
 20
381.536669
 11
-1002.636642
 21
381.254866
  0
LINE
  8
OSA
 10
-1108.932330
 20
305.431907
 11
-972.517733
 21
305.431907
  0
ENDBLK
  8
OSA
  0
BLOCK
  8
OSA
  2
M10x1__23
 70
   66
 10
-1045.706441
 20
233.931907
  0
LINE
  8
OSA
 10
-1045.706441
 20
243.260809
 11
-1045.706441
 21
229.486559
  0
LINE
  8
OSA
 62
     2
  6
CONTINUOUS
 10
-1052.706441
 20
233.931907
 11
-1038.706441
 21
233.931907
  0
LINE
  8
OSA
 62
     2
  6
CONTINUOUS
 10
-1038.706441
 20
233.931907
 11
-1038.706441
 21
231.931907
  0
LINE
  8
OSA
 62
     2
  6
CONTINUOUS
 10
-1052.706441
 20
233.931907
 11
-1052.706441
 21
231.931907
  0
ARC
  8
OSA
 62
     2
  6
CONTINUOUS
 10
-1039.706441
 20
231.931907
 40
1.000000
 50
270.000000
 51
360.000000
  0
LINE
  8
OSA
 62
     2
  6
CONTINUOUS
 10
-1051.706441
 20
230.931907
 11
-1039.706441
 21
230.931907
  0
ARC
  8
OSA
 62
     2
  6
CONTINUOUS
 10
-1051.706441
 20
231.931907
 40
1.000000
 50
180.000000
 51
270.000000
  0
ENDBLK
  8
OSA
  0
BLOCK
  8
OSA
  2
_14
 70
   64
 10
-790.998844
 20
560.139504
  0
ARC
  8
OBRYS
 10
-864.823021
 20
517.139504
 40
2.000000
 50
182.000000
 51
270.000000
  0
LINE
  8
OBRYS
 10
-866.998844
 20
522.139504
 11
-866.821802
 21
517.069705
  0
LINE
  8
OBRYS
 10
-866.998844
 20
522.139504
 11
-866.998844
 21
526.139504
  0
ARC
  8
OBRYS
 10
-864.998844
 20
526.139504
 40
2.000000
 50
90.000000
 51
180.000000
  0
ARC
  8
OBRYS
 10
-863.856398
 20
590.139504
 40
2.000000
 50
0.000000
 51
90.000000
  0
LINE
  8
OBRYS
 10
-861.856398
 20
580.965976
 11
-861.856398
 21
590.139504
  0
LINE
  8
OBRYS
 10
-859.498844
 20
575.539024
 11
-859.498844
 21
560.139504
  0
POLYLINE
  8
0
 62
     2
 66
    1
  0
VERTEX
  8
0
 62
     2
 10
-861.856384
 20
580.966003
  0
VERTEX
  8
0
 62
     2
 10
-861.834412
 20
580.384277
  0
VERTEX
  8
0
 62
     2
 10
-861.769531
 20
579.825012
  0
VERTEX
  8
0
 62
     2
 10
-861.664063
 20
579.309509
  0
VERTEX
  8
0
 62
     2
 10
-861.522156
 20
578.857727
  0
VERTEX
  8
0
 62
     2
 10
-861.349243
 20
578.486877
  0
SEQEND
  8
0
  0
LINE
  8
OBRYS
 10
-850.393490
 20
580.965976
 11
-850.393490
 21
592.139504
  0
LINE
  8
0
 62
     2
 10
-857.447900
 20
573.818572
 11
-854.428244
 21
572.313298
  0
POLYLINE
  8
0
 62
     2
 66
    1
  0
VERTEX
  8
0
 62
     2
 10
-854.428223
 20
572.313293
  0
VERTEX
  8
0
 62
     2
 10
-853.769592
 20
572.143799
  0
VERTEX
  8
0
 62
     2
 10
-853.110962
 20
572.313293
  0
VERTEX
  8
0
 62
     2
 10
-852.477600
 20
572.815308
  0
VERTEX
  8
0
 62
     2
 10
-851.893921
 20
573.630615
  0
VERTEX
  8
0
 62
     2
 10
-851.382324
 20
574.727722
  0
VERTEX
  8
0
 62
     2
 10
-850.962463
 20
576.064636
  0
VERTEX
  8
0
 62
     2
 10
-850.650452
 20
577.589844
  0
VERTEX
  8
0
 62
     2
 10
-850.458374
 20
579.244873
  0
VERTEX
  8
0
 62
     2
 10
-850.393494
 20
580.966003
  0
SEQEND
  8
0
  0
LINE
  8
0
 62
     2
 10
-859.607242
 20
575.539024
 11
-857.447900
 21
573.818572
  0
LINE
  8
0
 62
     2
 10
-861.349307
 20
578.486899
 11
-860.370556
 21
576.365228
  0
POLYLINE
  8
0
 62
     2
 66
    1
  0
VERTEX
  8
0
 62
     2
 10
-860.370544
 20
576.365234
  0
VERTEX
  8
0
 62
     2
 10
-860.004456
 20
575.853882
  0
VERTEX
  8
0
 62
     2
 10
-859.607178
 20
575.539001
  0
SEQEND
  8
0
  0
LINE
  8
OBRYS
 10
-808.842135
 20
590.139504
 11
-808.842135
 21
579.639504
  0
LINE
  8
OBRYS
 10
-825.146392
 20
590.139504
 11
-825.146392
 21
579.639504
  0
POLYLINE
  8
OBRYS
 66
    1
  0
VERTEX
  8
OBRYS
 10
-808.842102
 20
579.639526
  0
VERTEX
  8
OBRYS
 10
-808.843506
 20
579.500916
  0
VERTEX
  8
OBRYS
 10
-808.848511
 20
579.343018
  0
VERTEX
  8
OBRYS
 10
-808.858582
 20
579.163269
  0
VERTEX
  8
OBRYS
 10
-808.875793
 20
578.958801
  0
VERTEX
  8
OBRYS
 10
-808.902771
 20
578.726563
  0
VERTEX
  8
OBRYS
 10
-808.942993
 20
578.463440
  0
VERTEX
  8
OBRYS
 10
-809.000977
 20
578.166138
  0
VERTEX
  8
OBRYS
 10
-809.082520
 20
577.831543
  0
VERTEX
  8
OBRYS
 10
-809.194885
 20
577.457031
  0
VERTEX
  8
OBRYS
 10
-809.347107
 20
577.040833
  0
VERTEX
  8
OBRYS
 10
-809.549927
 20
576.582764
  0
VERTEX
  8
OBRYS
 10
-809.815918
 20
576.084839
  0
VERTEX
  8
OBRYS
 10
-810.159058
 20
575.552246
  0
VERTEX
  8
OBRYS
 10
-810.593750
 20
574.994568
  0
VERTEX
  8
OBRYS
 10
-811.133606
 20
574.426208
  0
VERTEX
  8
OBRYS
 10
-811.789429
 20
573.867126
  0
VERTEX
  8
OBRYS
 10
-812.566833
 20
573.341980
  0
VERTEX
  8
OBRYS
 10
-813.464111
 20
572.879150
  0
VERTEX
  8
OBRYS
 10
-814.470459
 20
572.507996
  0
VERTEX
  8
OBRYS
 10
-815.565308
 20
572.255615
  0
VERTEX
  8
OBRYS
 10
-816.718933
 20
572.143799
  0
VERTEX
  8
OBRYS
 10
-817.894531
 20
572.185364
  0
VERTEX
  8
OBRYS
 10
-819.051147
 20
572.382202
  0
VERTEX
  8
OBRYS
 10
-820.148315
 20
572.723572
  0
VERTEX
  8
OBRYS
 10
-821.150391
 20
573.187439
  0
VERTEX
  8
OBRYS
 10
-822.031555
 20
573.742676
  0
VERTEX
  8
OBRYS
 10
-822.778076
 20
574.354126
  0
VERTEX
  8
OBRYS
 10
-823.388672
 20
574.987488
  0
VERTEX
  8
OBRYS
 10
-823.872192
 20
575.613342
  0
VERTEX
  8
OBRYS
 10
-824.244080
 20
576.209839
  0
VERTEX
  8
OBRYS
 10
-824.522827
 20
576.762695
  0
VERTEX
  8
OBRYS
 10
-824.726746
 20
577.264282
  0
VERTEX
  8
OBRYS
 10
-824.872620
 20
577.712219
  0
VERTEX
  8
OBRYS
 10
-824.974548
 20
578.107666
  0
VERTEX
  8
OBRYS
 10
-825.043823
 20
578.453735
  0
VERTEX
  8
OBRYS
 10
-825.089478
 20
578.754822
  0
VERTEX
  8
OBRYS
 10
-825.118103
 20
579.015625
  0
VERTEX
  8
OBRYS
 10
-825.134888
 20
579.240906
  0
VERTEX
  8
OBRYS
 10
-825.143372
 20
579.435120
  0
VERTEX
  8
OBRYS
 10
-825.146301
 20
579.602295
  0
VERTEX
  8
OBRYS
 10
-825.146362
 20
579.639526
  0
SEQEND
  8
OBRYS
  0
ARC
  8
OBRYS
 10
-827.146392
 20
590.139504
 40
2.000000
 50
0.000000
 51
90.000000
  0
ARC
  8
OBRYS
 10
-806.842135
 20
590.139504
 40
2.000000
 50
90.000000
 51
180.000000
  0
ARC
  8
OBRYS
 10
-864.998844
 20
594.139504
 40
2.000000
 50
180.000000
 51
270.000000
  0
LINE
  8
OBRYS
 10
-866.998844
 20
598.139504
 11
-866.998844
 21
594.139504
  0
LINE
  8
OBRYS
 10
-864.998844
 20
592.139504
 11
-790.998844
 21
592.139504
  0
ARC
  8
OBRYS
 10
-861.498844
 20
530.139504
 40
2.000000
 50
270.000000
 51
360.000000
  0
LINE
  8
OBRYS
 10
-859.498844
 20
560.139504
 11
-859.498844
 21
530.139504
  0
LINE
  8
OBRYS
 10
-864.998844
 20
528.139504
 11
-790.998844
 21
528.139504
  0
LINE
  8
OBRYS
 10
-805.662130
 20
509.639504
 11
-790.998844
 21
509.639504
  0
LINE
  8
OBRYS
 10
-836.060752
 20
503.139504
 11
-790.998844
 21
503.139504
  0
LINE
  8
OBRYS
 10
-790.998844
 20
500.139504
 11
-830.998844
 21
500.139504
  0
LINE
  8
OBRYS
 10
-830.498844
 20
499.639504
 11
-790.998844
 21
499.639504
  0
LINE
  8
OBRYS
 10
-866.998844
 20
598.139504
 11
-866.998844
 21
595.139504
  0
LINE
  8
OBRYS
 10
-795.544620
 20
509.639504
 11
-794.213221
 21
515.139504
  0
LINE
  8
OBRYS
 10
-854.998844
 20
509.639504
 11
-839.474515
 21
509.639504
  0
LINE
  8
OBRYS
 10
-836.060752
 20
503.139504
 11
-842.363084
 21
515.139504
  0
LINE
  8
OBRYS
 10
-826.715428
 20
503.139504
 11
-837.817268
 21
515.139504
  0
ARC
  8
OBRYS
 10
-861.327271
 20
513.139504
 40
2.000000
 50
45.000000
 51
90.000000
  0
LINE
  8
OBRYS
 10
-830.498844
 20
499.639504
 11
-830.998844
 21
500.139504
  0
LINE
  8
OBRYS
 10
-830.998844
 20
503.139504
 11
-830.998844
 21
500.139504
  0
LINE
  8
OBRYS
 10
-854.998844
 20
509.639504
 11
-859.913057
 21
514.553718
  0
LINE
  8
OBRYS
 10
-866.998844
 20
598.139504
 11
-790.998844
 21
598.139504
  0
LINE
  8
OBRYS
 10
-716.998844
 20
592.139504
 11
-790.998844
 21
592.139504
  0
LINE
  8
OBRYS
 10
-790.998844
 20
503.139504
 11
-745.936935
 21
503.139504
  0
LINE
  8
OBRYS
 10
-790.998844
 20
509.639504
 11
-776.335557
 21
509.639504
  0
LINE
  8
OBRYS
 10
-790.998844
 20
499.639504
 11
-751.498844
 21
499.639504
  0
LINE
  8
OBRYS
 10
-750.998844
 20
500.139504
 11
-790.998844
 21
500.139504
  0
LINE
  8
OBRYS
 10
-716.998844
 20
528.139504
 11
-790.998844
 21
528.139504
  0
LINE
  8
OBRYS
 10
-722.498844
 20
560.139504
 11
-722.498844
 21
530.139504
  0
LINE
  8
OBRYS
 10
-790.998844
 20
515.139504
 11
-717.174667
 21
515.139504
  0
LINE
  8
OBRYS
 10
-751.498844
 20
499.639504
 11
-750.998844
 21
500.139504
  0
LINE
  8
OBRYS
 10
-750.998844
 20
503.139504
 11
-750.998844
 21
500.139504
  0
ARC
  8
OBRYS
 10
-720.670417
 20
513.139504
 40
2.000000
 50
90.000000
 51
135.000000
  0
ARC
  8
OBRYS
 10
-720.498844
 20
530.139504
 40
2.000000
 50
180.000000
 51
270.000000
  0
LINE
  8
OBRYS
 10
-714.998844
 20
598.139504
 11
-790.998844
 21
598.139504
  0
LINE
  8
OBRYS
 10
-714.998844
 20
598.139504
 11
-714.998844
 21
594.139504
  0
ARC
  8
OBRYS
 10
-716.998844
 20
594.139504
 40
2.000000
 50
270.000000
 51
360.000000
  0
ARC
  8
OBRYS
 10
-716.998844
 20
526.139504
 40
2.000000
 50
0.000000
 51
90.000000
  0
LINE
  8
OBRYS
 10
-714.998844
 20
522.139504
 11
-714.998844
 21
526.139504
  0
LINE
  8
OBRYS
 10
-714.998844
 20
522.139504
 11
-715.175885
 21
517.069705
  0
ARC
  8
OBRYS
 10
-717.174667
 20
517.139504
 40
2.000000
 50
270.000000
 51
358.000000
  0
LINE
  8
OBRYS
 10
-719.498844
 20
569.139571
 11
-719.498844
 21
551.139437
  0
LINE
  8
OBRYS
 10
-719.498844
 20
551.139437
 11
-720.498707
 21
551.139505
  0
ARC
  8
OBRYS
 10
-720.498844
 20
549.139505
 40
2.000000
 50
89.996087
 51
180.000000
  0
LINE
  8
OBRYS
 10
-719.498844
 20
569.139571
 11
-720.498707
 21
569.139503
  0
ARC
  8
OBRYS
 10
-720.498844
 20
571.139503
 40
2.000000
 50
180.000000
 51
270.003913
  0
LINE
  8
OBRYS
 10
-786.453067
 20
509.639504
 11
-787.784467
 21
515.139504
  0
LINE
  8
OBRYS
 10
-726.998844
 20
509.639504
 11
-742.523172
 21
509.639504
  0
LINE
  8
OBRYS
 10
-755.282259
 20
503.139504
 11
-744.180419
 21
515.139504
  0
ARC
  8
OBRYS
 10
-720.670417
 20
513.139504
 40
2.000000
 50
90.000000
 51
135.000000
  0
LINE
  8
OBRYS
 10
-726.998844
 20
509.639504
 11
-722.084630
 21
514.553718
  0
LINE
  8
OBRYS
 10
-745.936935
 20
503.139504
 11
-739.634604
 21
515.139504
  0
ARC
  8
OBRYS
 10
-775.155552
 20
590.139504
 40
2.000000
 50
0.000000
 51
90.000000
  0
ARC
  8
OBRYS
 10
-754.851295
 20
590.139504
 40
2.000000
 50
90.000000
 51
180.000000
  0
POLYLINE
  8
OBRYS
 66
    1
  0
VERTEX
  8
OBRYS
 10
-773.155518
 20
579.639526
  0
VERTEX
  8
OBRYS
 10
-773.154114
 20
579.500916
  0
VERTEX
  8
OBRYS
 10
-773.149170
 20
579.343018
  0
VERTEX
  8
OBRYS
 10
-773.139099
 20
579.163269
  0
VERTEX
  8
OBRYS
 10
-773.121887
 20
578.958801
  0
VERTEX
  8
OBRYS
 10
-773.094910
 20
578.726563
  0
VERTEX
  8
OBRYS
 10
-773.054688
 20
578.463440
  0
VERTEX
  8
OBRYS
 10
-772.996643
 20
578.166138
  0
VERTEX
  8
OBRYS
 10
-772.915100
 20
577.831543
  0
VERTEX
  8
OBRYS
 10
-772.802734
 20
577.457031
  0
VERTEX
  8
OBRYS
 10
-772.650574
 20
577.040833
  0
VERTEX
  8
OBRYS
 10
-772.447754
 20
576.582764
  0
VERTEX
  8
OBRYS
 10
-772.181702
 20
576.084839
  0
VERTEX
  8
OBRYS
 10
-771.838623
 20
575.552246
  0
VERTEX
  8
OBRYS
 10
-771.403931
 20
574.994568
  0
VERTEX
  8
OBRYS
 10
-770.864075
 20
574.426208
  0
VERTEX
  8
OBRYS
 10
-770.208252
 20
573.867126
  0
VERTEX
  8
OBRYS
 10
-769.430847
 20
573.341980
  0
VERTEX
  8
OBRYS
 10
-768.533569
 20
572.879150
  0
VERTEX
  8
OBRYS
 10
-767.527222
 20
572.507996
  0
VERTEX
  8
OBRYS
 10
-766.432373
 20
572.255615
  0
VERTEX
  8
OBRYS
 10
-765.278687
 20
572.143799
  0
VERTEX
  8
OBRYS
 10
-764.103149
 20
572.185364
  0
VERTEX
  8
OBRYS
 10
-762.946472
 20
572.382202
  0
VERTEX
  8
OBRYS
 10
-761.849365
 20
572.723572
  0
VERTEX
  8
OBRYS
 10
-760.847229
 20
573.187439
  0
VERTEX
  8
OBRYS
 10
-759.966064
 20
573.742676
  0
VERTEX
  8
OBRYS
 10
-759.219543
 20
574.354126
  0
VERTEX
  8
OBRYS
 10
-758.608948
 20
574.987488
  0
VERTEX
  8
OBRYS
 10
-758.125488
 20
575.613342
  0
VERTEX
  8
OBRYS
 10
-757.753540
 20
576.209839
  0
VERTEX
  8
OBRYS
 10
-757.474854
 20
576.762695
  0
VERTEX
  8
OBRYS
 10
-757.270874
 20
577.264282
  0
VERTEX
  8
OBRYS
 10
-757.125000
 20
577.712219
  0
VERTEX
  8
OBRYS
 10
-757.023132
 20
578.107666
  0
VERTEX
  8
OBRYS
 10
-756.953796
 20
578.453735
  0
VERTEX
  8
OBRYS
 10
-756.908203
 20
578.754822
  0
VERTEX
  8
OBRYS
 10
-756.879517
 20
579.015625
  0
VERTEX
  8
OBRYS
 10
-756.862793
 20
579.240906
  0
VERTEX
  8
OBRYS
 10
-756.854309
 20
579.435120
  0
VERTEX
  8
OBRYS
 10
-756.851379
 20
579.602295
  0
VERTEX
  8
OBRYS
 10
-756.851257
 20
579.639526
  0
SEQEND
  8
OBRYS
  0
LINE
  8
OBRYS
 10
-756.851295
 20
590.139504
 11
-756.851295
 21
579.639504
  0
LINE
  8
OBRYS
 10
-773.155552
 20
590.139504
 11
-773.155552
 21
579.639504
  0
POLYLINE
  8
0
 62
     2
 66
    1
  0
VERTEX
  8
0
 62
     2
 10
-721.627136
 20
576.365234
  0
VERTEX
  8
0
 62
     2
 10
-721.993225
 20
575.853882
  0
VERTEX
  8
0
 62
     2
 10
-722.390442
 20
575.539001
  0
SEQEND
  8
0
  0
LINE
  8
0
 62
     2
 10
-720.648380
 20
578.486899
 11
-721.627132
 21
576.365228
  0
LINE
  8
0
 62
     2
 10
-722.390445
 20
575.539024
 11
-724.549787
 21
573.818572
  0
POLYLINE
  8
0
 62
     2
 66
    1
  0
VERTEX
  8
0
 62
     2
 10
-727.569397
 20
572.313293
  0
VERTEX
  8
0
 62
     2
 10
-728.228027
 20
572.143799
  0
VERTEX
  8
0
 62
     2
 10
-728.886719
 20
572.313293
  0
VERTEX
  8
0
 62
     2
 10
-729.520020
 20
572.815308
  0
VERTEX
  8
0
 62
     2
 10
-730.103699
 20
573.630615
  0
VERTEX
  8
0
 62
     2
 10
-730.615295
 20
574.727722
  0
VERTEX
  8
0
 62
     2
 10
-731.035217
 20
576.064636
  0
VERTEX
  8
0
 62
     2
 10
-731.347168
 20
577.589844
  0
VERTEX
  8
0
 62
     2
 10
-731.539307
 20
579.244873
  0
VERTEX
  8
0
 62
     2
 10
-731.604187
 20
580.966003
  0
SEQEND
  8
0
  0
LINE
  8
0
 62
     2
 10
-724.549787
 20
573.818572
 11
-727.569444
 21
572.313298
  0
LINE
  8
OBRYS
 10
-731.604197
 20
580.965976
 11
-731.604197
 21
592.139504
  0
POLYLINE
  8
0
 62
     2
 66
    1
  0
VERTEX
  8
0
 62
     2
 10
-720.141296
 20
580.966003
  0
VERTEX
  8
0
 62
     2
 10
-720.163208
 20
580.384277
  0
VERTEX
  8
0
 62
     2
 10
-720.228149
 20
579.825012
  0
VERTEX
  8
0
 62
     2
 10
-720.333557
 20
579.309509
  0
VERTEX
  8
0
 62
     2
 10
-720.475464
 20
578.857727
  0
VERTEX
  8
0
 62
     2
 10
-720.648376
 20
578.486877
  0
SEQEND
  8
0
  0
LINE
  8
OBRYS
 10
-722.498844
 20
575.539024
 11
-722.498844
 21
560.139504
  0
LINE
  8
OBRYS
 10
-720.141289
 20
580.965976
 11
-720.141289
 21
590.139504
  0
ARC
  8
OBRYS
 10
-718.141289
 20
590.139504
 40
2.000000
 50
90.000000
 51
180.000000
  0
LINE
  8
OSA
 10
-905.061930
 20
560.139504
 11
-715.371198
 21
560.139504
  0
INSERT
  8
OSA
  2
M10x1__25
  6
CONTINUOUS
 10
-719.498844
 20
560.139504
  0
LINE
  8
OBRYS
 10
-790.998844
 20
515.139504
 11
-864.823021
 21
515.139504
  0
LINE
  8
OSA
 10
-790.998844
 20
623.365394
 11
-790.998844
 21
486.950796
  0
LINE
  8
OBRYS
 10
-709.998844
 20
595.139504
 11
-709.998844
 21
525.139504
  0
LINE
  8
OSA
 62
     2
  6
CONTINUOUS
 10
-714.998844
 20
595.139504
 11
-709.998844
 21
595.139504
  0
LINE
  8
OSA
 62
     2
  6
CONTINUOUS
 10
-709.998844
 20
525.139504
 11
-714.998844
 21
525.139504
  0
LINE
  8
OSA
 62
     2
  6
CONTINUOUS
 10
-716.498844
 20
563.139504
 11
-709.998844
 21
563.139504
  0
LINE
  8
OSA
 62
     2
  6
CONTINUOUS
 10
-716.498844
 20
557.139504
 11
-709.998844
 21
557.139504
  0
LINE
  8
OBRYS
 10
-876.998844
 20
595.139504
 11
-876.998844
 21
525.139504
  0
LINE
  8
OSA
 62
     2
  6
CONTINUOUS
 10
-876.998844
 20
595.139504
 11
-866.998844
 21
595.139504
  0
LINE
  8
OSA
 62
     2
  6
CONTINUOUS
 10
-866.998844
 20
525.139504
 11
-876.998844
 21
525.139504
  0
LINE
  8
OSA
 62
     2
  6
CONTINUOUS
 10
-859.498844
 20
557.139504
 11
-876.998844
 21
557.139504
  0
LINE
  8
OSA
 62
     2
  6
CONTINUOUS
 10
-859.498844
 20
563.139504
 11
-876.998844
 21
563.139504
  0
ENDBLK
  8
OSA
  0
BLOCK
  8
OSA
  2
M10x1__25
 70
   66
 10
-719.498844
 20
560.139504
  0
LINE
  8
OSA
 10
-728.827746
 20
560.139504
 11
-715.053496
 21
560.139504
  0
LINE
  8
OSA
 62
     2
  6
CONTINUOUS
 10
-719.498844
 20
567.139504
 11
-719.498844
 21
553.139504
  0
LINE
  8
OSA
 62
     2
  6
CONTINUOUS
 10
-719.498844
 20
553.139504
 11
-717.498844
 21
553.139504
  0
LINE
  8
OSA
 62
     2
  6
CONTINUOUS
 10
-719.498844
 20
567.139504
 11
-717.498844
 21
567.139504
  0
ARC
  8
OSA
 62
     2
  6
CONTINUOUS
 10
-717.498844
 20
554.139504
 40
1.000000
 50
270.000000
 51
360.000000
  0
LINE
  8
OSA
 62
     2
  6
CONTINUOUS
 10
-716.498844
 20
566.139504
 11
-716.498844
 21
554.139504
  0
ARC
  8
OSA
 62
     2
  6
CONTINUOUS
 10
-717.498844
 20
566.139504
 40
1.000000
 50
0.000000
 51
90.000000
  0
ENDBLK
  8
OSA
  0
BLOCK
  8
OBRYS
  2
_15
 70
   64
 10
-790.998844
 20
50.724310
  0
LINE
  8
OBRYS
 10
-876.998844
 20
85.724310
 11
-876.998844
 21
15.724310
  0
LINE
  8
OBRYS
 10
-709.998844
 20
15.724310
 11
-876.998844
 21
15.724310
  0
LINE
  8
OBRYS
 10
-876.998844
 20
85.724310
 11
-709.998844
 21
85.724310
  0
LINE
  8
OBRYS
 10
-841.285247
 20
85.724310
 11
-841.285247
 21
15.724310
  0
POLYLINE
  8
OBRYS
 66
    1
  0
VERTEX
  8
OBRYS
 10
-849.286560
 20
85.739090
  0
VERTEX
  8
OBRYS
 10
-849.286560
 20
85.739090
  0
VERTEX
  8
OBRYS
 10
-848.586914
 20
84.993851
  0
VERTEX
  8
OBRYS
 10
-848.440491
 20
84.724304
  0
VERTEX
  8
OBRYS
 10
-843.545959
 20
77.810188
  0
VERTEX
  8
OBRYS
 10
-841.422729
 20
71.324509
  0
VERTEX
  8
OBRYS
 10
-841.838257
 20
65.005775
  0
VERTEX
  8
OBRYS
 10
-844.876892
 20
58.347202
  0
VERTEX
  8
OBRYS
 10
-848.711121
 20
53.724316
  0
VERTEX
  8
OBRYS
 10
-849.399292
 20
52.578411
  0
VERTEX
  8
OBRYS
 10
-849.641724
 20
51.351482
  0
VERTEX
  8
OBRYS
 10
-849.534729
 20
50.724316
  0
VERTEX
  8
OBRYS
 10
-849.641724
 20
50.097141
  0
VERTEX
  8
OBRYS
 10
-849.399292
 20
48.870213
  0
VERTEX
  8
OBRYS
 10
-848.711121
 20
47.724316
  0
VERTEX
  8
OBRYS
 10
-844.876892
 20
43.101429
  0
VERTEX
  8
OBRYS
 10
-841.838257
 20
36.442844
  0
VERTEX
  8
OBRYS
 10
-841.422729
 20
30.124109
  0
VERTEX
  8
OBRYS
 10
-843.545959
 20
23.638428
  0
VERTEX
  8
OBRYS
 10
-848.440491
 20
16.724312
  0
VERTEX
  8
OBRYS
 10
-848.586914
 20
16.454765
  0
VERTEX
  8
OBRYS
 10
-849.286560
 20
15.709526
  0
SEQEND
  8
OBRYS
  0
LINE
  8
OBRYS
 10
-841.285247
 20
85.724310
 11
-841.285247
 21
15.724310
  0
LINE
  8
OBRYS
 10
-740.712440
 20
85.724310
 11
-740.712440
 21
15.724310
  0
LINE
  8
OBRYS
 10
-714.998844
 20
88.724310
 11
-714.998844
 21
85.724310
  0
LINE
  8
OBRYS
 10
-866.998844
 20
88.724310
 11
-866.998844
 21
85.724310
  0
LINE
  8
OBRYS
 10
-866.998844
 20
12.724310
 11
-866.998844
 21
15.724310
  0
LINE
  8
OBRYS
 10
-714.998844
 20
12.724310
 11
-714.998844
 21
15.724310
  0
LINE
  8
OBRYS
 10
-709.998844
 20
85.724310
 11
-709.998844
 21
15.724310
  0
LINE
  8
OBRYS
 10
-733.286544
 20
53.724310
 11
-709.998844
 21
53.724310
  0
LINE
  8
OBRYS
 10
-733.286544
 20
47.724310
 11
-709.998844
 21
47.724310
  0
LINE
  8
OBRYS
 10
-740.712440
 20
85.724310
 11
-740.712440
 21
15.724310
  0
POLYLINE
  8
OBRYS
 66
    1
  0
VERTEX
  8
OBRYS
 10
-732.711060
 20
85.739090
  0
VERTEX
  8
OBRYS
 10
-732.711060
 20
85.739090
  0
VERTEX
  8
OBRYS
 10
-733.410706
 20
84.993851
  0
VERTEX
  8
OBRYS
 10
-733.557129
 20
84.724304
  0
VERTEX
  8
OBRYS
 10
-738.451721
 20
77.810188
  0
VERTEX
  8
OBRYS
 10
-740.574890
 20
71.324509
  0
VERTEX
  8
OBRYS
 10
-740.159424
 20
65.005775
  0
VERTEX
  8
OBRYS
 10
-737.120789
 20
58.347202
  0
VERTEX
  8
OBRYS
 10
-733.286499
 20
53.724316
  0
VERTEX
  8
OBRYS
 10
-732.598328
 20
52.578411
  0
VERTEX
  8
OBRYS
 10
-732.355957
 20
51.351482
  0
VERTEX
  8
OBRYS
 10
-732.462952
 20
50.724316
  0
VERTEX
  8
OBRYS
 10
-732.355957
 20
50.097141
  0
VERTEX
  8
OBRYS
 10
-732.598328
 20
48.870213
  0
VERTEX
  8
OBRYS
 10
-733.286499
 20
47.724316
  0
VERTEX
  8
OBRYS
 10
-737.120789
 20
43.101429
  0
VERTEX
  8
OBRYS
 10
-740.159424
 20
36.442844
  0
VERTEX
  8
OBRYS
 10
-740.574890
 20
30.124109
  0
VERTEX
  8
OBRYS
 10
-738.451721
 20
23.638428
  0
VERTEX
  8
OBRYS
 10
-733.557129
 20
16.724312
  0
VERTEX
  8
OBRYS
 10
-733.410706
 20
16.454765
  0
VERTEX
  8
OBRYS
 10
-732.711060
 20
15.709526
  0
SEQEND
  8
OBRYS
  0
ARC
  8
OBRYS
 10
-864.823021
 20
93.724310
 40
2.000000
 50
90.000000
 51
178.000000
  0
LINE
  8
OBRYS
 10
-866.998844
 20
88.724310
 11
-866.821802
 21
93.794109
  0
LINE
  8
OBRYS
 10
-805.662130
 20
101.224310
 11
-790.998844
 21
101.224310
  0
LINE
  8
OBRYS
 10
-836.060752
 20
107.724310
 11
-790.998844
 21
107.724310
  0
LINE
  8
OBRYS
 10
-790.998844
 20
110.724310
 11
-830.998844
 21
110.724310
  0
LINE
  8
OBRYS
 10
-830.498844
 20
111.224310
 11
-790.998844
 21
111.224310
  0
LINE
  8
OBRYS
 10
-866.998844
 20
12.724310
 11
-866.998844
 21
15.724310
  0
LINE
  8
OBRYS
 10
-795.544620
 20
101.224310
 11
-794.213221
 21
95.724310
  0
LINE
  8
OBRYS
 10
-854.998844
 20
101.224310
 11
-839.474515
 21
101.224310
  0
LINE
  8
OBRYS
 10
-836.060752
 20
107.724310
 11
-842.363084
 21
95.724310
  0
LINE
  8
OBRYS
 10
-826.715428
 20
107.724310
 11
-837.817268
 21
95.724310
  0
ARC
  8
OBRYS
 10
-861.327271
 20
97.724310
 40
2.000000
 50
270.000000
 51
315.000000
  0
LINE
  8
OBRYS
 10
-830.498844
 20
111.224310
 11
-830.998844
 21
110.724310
  0
LINE
  8
OBRYS
 10
-830.998844
 20
107.724310
 11
-830.998844
 21
110.724310
  0
LINE
  8
OBRYS
 10
-854.998844
 20
101.224310
 11
-859.913057
 21
96.310096
  0
LINE
  8
OBRYS
 10
-866.998844
 20
12.724310
 11
-790.998844
 21
12.724310
  0
LINE
  8
OBRYS
 10
-790.998844
 20
107.724310
 11
-745.936935
 21
107.724310
  0
LINE
  8
OBRYS
 10
-790.998844
 20
101.224310
 11
-776.335557
 21
101.224310
  0
LINE
  8
OBRYS
 10
-790.998844
 20
111.224310
 11
-751.498844
 21
111.224310
  0
LINE
  8
OBRYS
 10
-750.998844
 20
110.724310
 11
-790.998844
 21
110.724310
  0
LINE
  8
OBRYS
 10
-790.998844
 20
95.724310
 11
-717.174667
 21
95.724310
  0
LINE
  8
OBRYS
 10
-751.498844
 20
111.224310
 11
-750.998844
 21
110.724310
  0
LINE
  8
OBRYS
 10
-750.998844
 20
107.724310
 11
-750.998844
 21
110.724310
  0
ARC
  8
OBRYS
 10
-720.670417
 20
97.724310
 40
2.000000
 50
225.000000
 51
270.000000
  0
LINE
  8
OBRYS
 10
-714.998844
 20
12.724310
 11
-790.998844
 21
12.724310
  0
LINE
  8
OBRYS
 10
-714.998844
 20
88.724310
 11
-715.175885
 21
93.794109
  0
ARC
  8
OBRYS
 10
-717.174667
 20
93.724310
 40
2.000000
 50
2.000000
 51
90.000000
  0
LINE
  8
OBRYS
 10
-786.453067
 20
101.224310
 11
-787.784467
 21
95.724310
  0
LINE
  8
OBRYS
 10
-726.998844
 20
101.224310
 11
-742.523172
 21
101.224310
  0
LINE
  8
OBRYS
 10
-755.282259
 20
107.724310
 11
-744.180419
 21
95.724310
  0
ARC
  8
OBRYS
 10
-720.670417
 20
97.724310
 40
2.000000
 50
225.000000
 51
270.000000
  0
LINE
  8
OBRYS
 10
-726.998844
 20
101.224310
 11
-722.084630
 21
96.310096
  0
LINE
  8
OBRYS
 10
-745.936935
 20
107.724310
 11
-739.634604
 21
95.724310
  0
LINE
  8
OBRYS
 62
     7
  6
DASHDOT
 10
-905.061930
 20
50.724310
 11
-715.371198
 21
50.724310
  0
LINE
  8
OBRYS
 10
-790.998844
 20
95.724310
 11
-864.823021
 21
95.724310
  0
LINE
  8
OBRYS
 62
     7
  6
DASHDOT
 10
-790.998844
 20
-12.501580
 11
-790.998844
 21
123.913018
  0
LINE
  8
OBRYS
 10
-848.711149
 20
47.724310
 11
-876.998844
 21
47.724310
  0
LINE
  8
OBRYS
 10
-848.711149
 20
53.724310
 11
-876.998844
 21
53.724310
  0
ENDBLK
  8
OBRYS
  0
BLOCK
  8
KOTA
  2
_16
 70
   64
 10
-790.998844
 20
305.431907
  0
TEXT
  8
OBRYS
 62
     1
 10
-800.538391
 20
216.906433
 40
9.999990
  1
70
 50
0.00
 51
0.00
 41
1.00
  0
CIRCLE
  8
OBRYS
 10
-790.998844
 20
305.431907
 40
55.509810
  0
LINE
  8
OBRYS
 10
-890.497587
 20
315.431907
 11
-885.522650
 21
314.931907
  0
LINE
  8
OBRYS
 10
-890.497587
 20
295.431907
 11
-885.522650
 21
295.931907
  0
LINE
  8
OBRYS
 10
-691.500100
 20
295.431907
 11
-696.475037
 21
295.931907
  0
LINE
  8
OBRYS
 10
-691.500100
 20
315.431907
 11
-696.475037
 21
314.931907
  0
LINE
  8
OSA
 10
-790.998844
 20
305.431907
 11
-790.998844
 21
412.931903
  0
CIRCLE
  8
OBRYS
 10
-790.998844
 20
305.431907
 40
70.000000
  0
CIRCLE
  8
OSA
 10
-790.998844
 20
305.431907
 40
42.500000
  0
CIRCLE
  8
OBRYS
 10
-790.998844
 20
305.431907
 40
35.000000
  0
CIRCLE
  8
OBRYS
 10
-732.662534
 20
247.095598
 40
5.500000
  0
ARC
  8
OBRYS
 10
-833.226047
 20
247.114986
 40
2.000000
 50
54.091754
 51
142.500000
  0
LINE
  8
OBRYS
 10
-834.812753
 20
248.332508
 11
-847.600563
 21
231.667110
  0
ARC
  8
OBRYS
 10
-846.013857
 20
230.449587
 40
2.000000
 50
142.500000
 51
233.732262
  0
ARC
  8
OBRYS
 10
-865.981164
 20
250.416894
 40
2.000000
 50
216.267738
 51
307.500000
  0
LINE
  8
OBRYS
 10
-848.098242
 20
261.617997
 11
-864.763641
 21
248.830187
  0
ARC
  8
OBRYS
 10
-849.315765
 20
263.204704
 40
2.000000
 50
307.500000
 51
35.908246
  0
ARC
  8
OBRYS
 10
-732.681922
 20
263.204704
 40
2.000000
 50
144.091754
 51
232.500000
  0
LINE
  8
OBRYS
 10
-733.899445
 20
261.617997
 11
-717.234046
 21
248.830187
  0
ARC
  8
OBRYS
 10
-716.016523
 20
250.416894
 40
2.000000
 50
232.500000
 51
323.732262
  0
ARC
  8
OBRYS
 10
-735.983831
 20
230.449587
 40
2.000000
 50
306.267738
 51
37.500000
  0
LINE
  8
OBRYS
 10
-747.184934
 20
248.332508
 11
-734.397124
 21
231.667110
  0
ARC
  8
OBRYS
 10
-748.771641
 20
247.114986
 40
2.000000
 50
37.500000
 51
125.908246
  0
CIRCLE
  8
OBRYS
 10
-732.662534
 20
363.768216
 40
5.500000
  0
ARC
  8
OBRYS
 10
-748.771641
 20
363.748829
 40
2.000000
 50
234.091754
 51
322.500000
  0
LINE
  8
OBRYS
 10
-747.184934
 20
362.531306
 11
-734.397124
 21
379.196704
  0
ARC
  8
OBRYS
 10
-735.983831
 20
380.414227
 40
2.000000
 50
322.500000
 51
53.732262
  0
ARC
  8
OBRYS
 10
-716.016523
 20
360.446920
 40
2.000000
 50
36.267738
 51
127.500000
  0
LINE
  8
OBRYS
 10
-733.899445
 20
349.245817
 11
-717.234046
 21
362.033627
  0
ARC
  8
OBRYS
 10
-732.681922
 20
347.659110
 40
2.000000
 50
127.500000
 51
215.908246
  0
ARC
  8
OBRYS
 10
-849.315765
 20
347.659110
 40
2.000000
 50
324.091754
 51
52.500000
  0
LINE
  8
OBRYS
 10
-848.098242
 20
349.245817
 11
-864.763641
 21
362.033627
  0
ARC
  8
OBRYS
 10
-865.981164
 20
360.446920
 40
2.000000
 50
52.500000
 51
143.732262
  0
ARC
  8
OBRYS
 10
-846.013857
 20
380.414227
 40
2.000000
 50
126.267738
 51
217.500000
  0
LINE
  8
OBRYS
 10
-834.812753
 20
362.531306
 11
-847.600563
 21
379.196704
  0
ARC
  8
OBRYS
 10
-833.226047
 20
363.748829
 40
2.000000
 50
217.500000
 51
305.908246
  0
CIRCLE
  8
OBRYS
 10
-732.662534
 20
363.768216
 40
5.500000
  0
CIRCLE
  8
OBRYS
 10
-732.662534
 20
247.095598
 40
5.500000
  0
CIRCLE
  8
OBRYS
 10
-849.335153
 20
247.095598
 40
5.500000
  0
CIRCLE
  8
OBRYS
 10
-849.335153
 20
363.768216
 40
5.500000
  0
CIRCLE
  8
OSA
 10
-790.998844
 20
305.431907
 40
82.500000
  0
CIRCLE
  8
OBRYS
 10
-790.998844
 20
305.431907
 40
95.000000
  0
CIRCLE
  8
OBRYS
 10
-790.998844
 20
305.431907
 40
65.000000
  0
LINE
  8
OSA
 10
-790.998844
 20
305.431907
 11
-790.998844
 21
197.931911
  0
LINE
  8
OSA
 10
-790.998844
 20
305.431907
 11
-683.498847
 21
305.431907
  0
CIRCLE
  8
OBRYS
 10
-790.998844
 20
305.431907
 40
100.000000
  0
LINE
  8
OSA
 10
-790.998844
 20
305.431907
 11
-898.498840
 21
305.431907
  0
INSERT
  8
KOTA
  2
Srouby_s_valcovou_hlavou___27
 62
     7
 10
-821.050882
 20
335.483945
  0
INSERT
  8
KOTA
  2
Srouby_s_valcovou_hlavou___28
 62
     7
 10
-760.946805
 20
335.483945
  0
INSERT
  8
KOTA
  2
Srouby_s_valcovou_hlavou___29
 62
     7
 10
-821.050882
 20
275.379869
  0
INSERT
  8
KOTA
  2
Srouby_s_valcovou_hlavou___30
 62
     7
 10
-760.946805
 20
275.379869
  0
LINE
  8
OSA
 10
-814.071560
 20
328.504624
 11
-827.504235
 21
341.937299
  0
LINE
  8
OSA
 10
-843.069081
 20
357.502144
 11
-855.040951
 21
369.474014
  0
LINE
  8
OSA
 10
-843.069081
 20
253.361670
 11
-855.040951
 21
241.389800
  0
LINE
  8
OSA
 10
-738.928606
 20
253.361670
 11
-726.956737
 21
241.389800
  0
LINE
  8
OSA
 10
-738.928606
 20
357.502144
 11
-726.956737
 21
369.474014
  0
LINE
  8
OSA
 10
-814.071560
 20
282.359190
 11
-827.504235
 21
268.926515
  0
LINE
  8
OSA
 10
-767.926127
 20
282.359190
 11
-754.493452
 21
268.926515
  0
LINE
  8
OSA
 10
-767.926127
 20
328.504624
 11
-754.493452
 21
341.937299
  0
CIRCLE
  8
OBRYS
 10
-790.998844
 20
305.431907
 40
22.500000
  0
LINE
  8
OBRYS
 10
-793.998844
 20
315.494213
 11
-793.998844
 21
318.406907
  0
LINE
  8
OBRYS
 10
-790.998844
 20
318.406907
 11
-793.998844
 21
318.406907
  0
LINE
  8
OBRYS
 10
-787.998844
 20
315.494213
 11
-787.998844
 21
318.406907
  0
LINE
  8
OBRYS
 10
-790.998844
 20
318.406907
 11
-787.998844
 21
318.406907
  0
ARC
  8
OBRYS
 10
-790.998844
 20
305.431907
 40
10.500000
 50
106.601550
 51
270.000000
  0
ARC
  8
OBRYS
 10
-790.998844
 20
305.431907
 40
10.500000
 50
270.000000
 51
73.398450
  0
ENDBLK
  8
KOTA
  0
BLOCK
  8
KOTA
  2
Srouby_s_valcovou_hlavou___27
 70
   66
 10
-821.050882
 20
335.483945
  0
LINE
  8
KOTA
 62
     2
 10
-824.050882
 20
333.751884
 11
-824.050882
 21
337.216007
  0
LINE
  8
KOTA
 62
     2
 10
-824.050882
 20
337.216007
 11
-821.050882
 21
338.948068
  0
LINE
  8
KOTA
 62
     2
 10
-821.050882
 20
338.948068
 11
-818.050882
 21
337.216007
  0
LINE
  8
KOTA
 62
     2
 10
-818.050882
 20
337.216007
 11
-818.050882
 21
333.751884
  0
LINE
  8
KOTA
 62
     2
 10
-818.050882
 20
333.751884
 11
-821.050882
 21
332.019822
  0
LINE
  8
KOTA
 62
     2
 10
-821.050882
 20
332.019822
 11
-824.050882
 21
333.751884
  0
CIRCLE
  8
KOTA
 62
     2
 10
-821.050882
 20
335.483945
 40
3.464123
  0
CIRCLE
  8
KOTA
 62
     2
 10
-821.050882
 20
335.483945
 40
6.500000
  0
ENDBLK
  8
KOTA
  0
BLOCK
  8
KOTA
  2
Srouby_s_valcovou_hlavou___28
 70
   66
 10
-760.946805
 20
335.483945
  0
LINE
  8
KOTA
 62
     2
 10
-763.946805
 20
333.751884
 11
-763.946805
 21
337.216007
  0
LINE
  8
KOTA
 62
     2
 10
-763.946805
 20
337.216007
 11
-760.946805
 21
338.948068
  0
LINE
  8
KOTA
 62
     2
 10
-760.946805
 20
338.948068
 11
-757.946805
 21
337.216007
  0
LINE
  8
KOTA
 62
     2
 10
-757.946805
 20
337.216007
 11
-757.946805
 21
333.751884
  0
LINE
  8
KOTA
 62
     2
 10
-757.946805
 20
333.751884
 11
-760.946805
 21
332.019822
  0
LINE
  8
KOTA
 62
     2
 10
-760.946805
 20
332.019822
 11
-763.946805
 21
333.751884
  0
CIRCLE
  8
KOTA
 62
     2
 10
-760.946805
 20
335.483945
 40
3.464123
  0
CIRCLE
  8
KOTA
 62
     2
 10
-760.946805
 20
335.483945
 40
6.500000
  0
ENDBLK
  8
KOTA
  0
BLOCK
  8
KOTA
  2
Srouby_s_valcovou_hlavou___29
 70
   66
 10
-821.050882
 20
275.379869
  0
LINE
  8
KOTA
 62
     2
 10
-824.050882
 20
273.647807
 11
-824.050882
 21
277.111930
  0
LINE
  8
KOTA
 62
     2
 10
-824.050882
 20
277.111930
 11
-821.050882
 21
278.843992
  0
LINE
  8
KOTA
 62
     2
 10
-821.050882
 20
278.843992
 11
-818.050882
 21
277.111930
  0
LINE
  8
KOTA
 62
     2
 10
-818.050882
 20
277.111930
 11
-818.050882
 21
273.647807
  0
LINE
  8
KOTA
 62
     2
 10
-818.050882
 20
273.647807
 11
-821.050882
 21
271.915746
  0
LINE
  8
KOTA
 62
     2
 10
-821.050882
 20
271.915746
 11
-824.050882
 21
273.647807
  0
CIRCLE
  8
KOTA
 62
     2
 10
-821.050882
 20
275.379869
 40
3.464123
  0
CIRCLE
  8
KOTA
 62
     2
 10
-821.050882
 20
275.379869
 40
6.500000
  0
ENDBLK
  8
KOTA
  0
BLOCK
  8
KOTA
  2
Srouby_s_valcovou_hlavou___30
 70
   66
 10
-760.946805
 20
275.379869
  0
LINE
  8
KOTA
 62
     2
 10
-763.946805
 20
273.647807
 11
-763.946805
 21
277.111930
  0
LINE
  8
KOTA
 62
     2
 10
-763.946805
 20
277.111930
 11
-760.946805
 21
278.843992
  0
LINE
  8
KOTA
 62
     2
 10
-760.946805
 20
278.843992
 11
-757.946805
 21
277.111930
  0
LINE
  8
KOTA
 62
     2
 10
-757.946805
 20
277.111930
 11
-757.946805
 21
273.647807
  0
LINE
  8
KOTA
 62
     2
 10
-757.946805
 20
273.647807
 11
-760.946805
 21
271.915746
  0
LINE
  8
KOTA
 62
     2
 10
-760.946805
 20
271.915746
 11
-763.946805
 21
273.647807
  0
CIRCLE
  8
KOTA
 62
     2
 10
-760.946805
 20
275.379869
 40
3.464123
  0
CIRCLE
  8
KOTA
 62
     2
 10
-760.946805
 20
275.379869
 40
6.500000
  0
ENDBLK
  8
KOTA
  0
BLOCK
  8
OBRYS
  2
_17
 70
   64
 10
-1096.206441
 20
305.431907
  0
LINE
  8
OSA
 10
-1088.706445
 20
305.431907
 11
-1164.706437
 21
305.431907
  0
LINE
  8
OSA
 10
-1138.706445
 20
387.931907
 11
-1164.706437
 21
387.931907
  0
ARC
  8
OBRYS
 10
-1148.206441
 20
403.116401
 40
2.000000
 50
0.000000
 51
88.000000
  0
LINE
  8
OBRYS
 10
-1157.206441
 20
405.431907
 11
-1148.136642
 21
405.115183
  0
LINE
  8
OBRYS
 10
-1157.206441
 20
305.431907
 11
-1157.206441
 21
405.431907
  0
LINE
  8
NEVIDITELNA
 10
-1153.006441
 20
370.431907
 11
-1157.206441
 21
370.431907
  0
LINE
  8
NEVIDITELNA
 10
-1152.206441
 20
305.431907
 11
-1152.206441
 21
369.631907
  0
ARC
  8
NEVIDITELNA
 10
-1153.006441
 20
369.631907
 40
0.800000
 50
0.000000
 51
90.000000
  0
ARC
  8
OBRYS
 10
-1144.206441
 20
373.766894
 40
2.000000
 50
180.000000
 51
265.000000
  0
LINE
  8
OBRYS
 10
-1144.380752
 20
371.774505
 11
-1098.032129
 21
367.719526
  0
ARC
  8
OBRYS
 10
-1098.206441
 20
365.727137
 40
2.000000
 50
0.000000
 51
85.000000
  0
LINE
  8
0
 62
     2
 10
-1147.008712
 20
404.718102
 11
-1097.008712
 21
367.328838
  0
LINE
  8
OBRYS
 10
-1146.206441
 20
305.431907
 11
-1146.206441
 21
403.116401
  0
LINE
  8
OBRYS
 10
-1096.206441
 20
354.811747
 11
-1102.168003
 21
355.041069
  0
ARC
  8
OBRYS
 10
-1102.206441
 20
354.041808
 40
1.000000
 50
87.797105
 51
180.000000
  0
LINE
  8
OBRYS
 10
-1096.206441
 20
343.134776
 11
-1102.299581
 21
343.704771
  0
LINE
  8
OBRYS
 10
-1103.206441
 20
354.041808
 11
-1103.206441
 21
344.700424
  0
ARC
  8
OBRYS
 10
-1102.206441
 20
344.700424
 40
1.000000
 50
180.000000
 51
264.655709
  0
LINE
  8
OBRYS
 10
-1144.206441
 20
307.931907
 11
-1096.206441
 21
307.931907
  0
ARC
  8
OBRYS
 10
-1144.206441
 20
309.931907
 40
2.000000
 50
180.000000
 51
270.000000
  0
ARC
  8
OBRYS
 10
-1144.206441
 20
300.931907
 40
2.000000
 50
90.000000
 51
180.000000
  0
LINE
  8
OBRYS
 10
-1144.206441
 20
302.931907
 11
-1096.206441
 21
302.931907
  0
ARC
  8
OBRYS
 10
-1102.206441
 20
266.163390
 40
1.000000
 50
95.344291
 51
180.000000
  0
LINE
  8
OBRYS
 10
-1103.206441
 20
256.822006
 11
-1103.206441
 21
266.163390
  0
LINE
  8
OBRYS
 10
-1096.206441
 20
267.729038
 11
-1102.299581
 21
267.159043
  0
ARC
  8
OBRYS
 10
-1102.206441
 20
256.822006
 40
1.000000
 50
180.000000
 51
272.202895
  0
LINE
  8
OBRYS
 10
-1096.206441
 20
256.052067
 11
-1102.168003
 21
255.822745
  0
LINE
  8
OBRYS
 10
-1146.206441
 20
305.431907
 11
-1146.206441
 21
207.747413
  0
LINE
  8
0
 62
     2
 10
-1147.008712
 20
206.145712
 11
-1097.008712
 21
243.534976
  0
ARC
  8
OBRYS
 10
-1098.206441
 20
245.136677
 40
2.000000
 50
275.000000
 51
360.000000
  0
LINE
  8
OBRYS
 10
-1144.380752
 20
239.089309
 11
-1098.032129
 21
243.144288
  0
ARC
  8
OBRYS
 10
-1144.206441
 20
237.096920
 40
2.000000
 50
95.000000
 51
180.000000
  0
ARC
  8
NEVIDITELNA
 10
-1153.006441
 20
241.231907
 40
0.800000
 50
270.000000
 51
360.000000
  0
LINE
  8
NEVIDITELNA
 10
-1152.206441
 20
305.431907
 11
-1152.206441
 21
241.231907
  0
LINE
  8
NEVIDITELNA
 10
-1153.006441
 20
240.431907
 11
-1157.206441
 21
240.431907
  0
LINE
  8
OBRYS
 10
-1157.206441
 20
305.431907
 11
-1157.206441
 21
205.431907
  0
LINE
  8
OBRYS
 10
-1157.206441
 20
205.431907
 11
-1148.136642
 21
205.748631
  0
ARC
  8
OBRYS
 10
-1148.206441
 20
207.747413
 40
2.000000
 50
272.000000
 51
360.000000
  0
LINE
  8
OSA
 10
-1138.706445
 20
222.931907
 11
-1164.706437
 21
222.931907
  0
LINE
  8
OBRYS
 10
-1096.206441
 20
305.431907
 11
-1096.206441
 21
343.134776
  0
LINE
  8
OBRYS
 10
-1096.206441
 20
354.811747
 11
-1096.206441
 21
365.727137
  0
LINE
  8
OBRYS
 10
-1096.206441
 20
305.431907
 11
-1096.206441
 21
267.729038
  0
LINE
  8
OBRYS
 10
-1096.206441
 20
256.052067
 11
-1096.206441
 21
245.136677
  0
LINE
  8
OBRYS
 10
-1155.706441
 20
295.431907
 11
-1157.206441
 21
295.431907
  0
LINE
  8
OBRYS
 10
-1155.706441
 20
315.431907
 11
-1157.206441
 21
315.431907
  0
ARC
  8
OBRYS
 10
-1155.706441
 20
297.431907
 40
2.000000
 50
270.000000
 51
360.000000
  0
LINE
  8
OBRYS
 10
-1153.706441
 20
297.431907
 11
-1153.706441
 21
313.431907
  0
ARC
  8
OBRYS
 10
-1155.706441
 20
313.431907
 40
2.000000
 50
0.000000
 51
90.000000
  0
ENDBLK
  8
OBRYS
  0
BLOCK
  8
OSA
  2
_18
 70
   64
 10
-1083.706441
 20
305.431907
  0
LINE
  8
OSA
 10
-1076.206445
 20
305.431907
 11
-1113.706437
 21
305.431907
  0
LINE
  8
OSA
 62
     2
  6
CONTINUOUS
 10
-1083.706441
 20
381.431907
 11
-1083.706441
 21
305.431907
  0
LINE
  8
OSA
 62
     2
  6
CONTINUOUS
 10
-1083.706441
 20
229.431907
 11
-1083.706441
 21
305.431907
  0
LINE
  8
OSA
 62
     2
  6
CONTINUOUS
 10
-1102.706441
 20
260.369998
 11
-1090.706441
 21
254.067667
  0
ARC
  8
OSA
 62
     2
  6
CONTINUOUS
 10
-1092.706441
 20
235.103480
 40
2.000000
 50
0.000000
 51
45.000000
  0
LINE
  8
OSA
 62
     2
  6
CONTINUOUS
 10
-1096.206441
 20
241.431907
 11
-1096.206441
 21
256.956236
  0
LINE
  8
OSA
 62
     2
  6
CONTINUOUS
 10
-1096.206441
 20
300.886130
 11
-1090.706441
 21
302.217530
  0
ARC
  8
OSA
 62
     2
  6
CONTINUOUS
 10
-1088.706441
 20
231.607730
 40
2.000000
 50
180.000000
 51
268.000000
  0
LINE
  8
OSA
 62
     2
  6
CONTINUOUS
 10
-1083.706441
 20
229.431907
 11
-1088.776240
 21
229.608948
  0
LINE
  8
OSA
 62
     2
  6
CONTINUOUS
 10
-1090.706441
 20
305.431907
 11
-1090.706441
 21
231.607730
  0
LINE
  8
OSA
 62
     2
  6
CONTINUOUS
 10
-1096.206441
 20
305.431907
 11
-1096.206441
 21
290.768620
  0
LINE
  8
OSA
 62
     2
  6
CONTINUOUS
 10
-1096.206441
 20
305.431907
 11
-1096.206441
 21
320.095194
  0
LINE
  8
OSA
 62
     2
  6
CONTINUOUS
 10
-1090.706441
 20
305.431907
 11
-1090.706441
 21
379.256084
  0
ARC
  8
OSA
 62
     2
  6
CONTINUOUS
 10
-1092.706441
 20
375.760334
 40
2.000000
 50
315.000000
 51
360.000000
  0
LINE
  8
OSA
 62
     2
  6
CONTINUOUS
 10
-1083.706441
 20
381.431907
 11
-1088.776240
 21
381.254866
  0
ARC
  8
OSA
 62
     2
  6
CONTINUOUS
 10
-1088.706441
 20
379.256084
 40
2.000000
 50
92.000000
 51
180.000000
  0
LINE
  8
OSA
 62
     2
  6
CONTINUOUS
 10
-1096.206441
 20
309.977684
 11
-1090.706441
 21
308.646284
  0
LINE
  8
OSA
 62
     2
  6
CONTINUOUS
 10
-1096.206441
 20
369.431907
 11
-1096.206441
 21
353.907578
  0
LINE
  8
OSA
 62
     2
  6
CONTINUOUS
 10
-1102.706441
 20
350.493816
 11
-1090.706441
 21
356.796147
  0
INSERT
  8
OSA
  2
Srouby_s_valcovou_hlavou___32
  6
CONTINUOUS
 10
-1090.706441
 20
368.255715
  0
INSERT
  8
OSA
  2
Srouby_s_valcovou_hlavou___33
  6
CONTINUOUS
 10
-1090.706441
 20
331.454380
  0
LINE
  8
OSA
 62
     2
  6
CONTINUOUS
 10
-1096.206441
 20
369.431907
 11
-1095.706441
 21
369.931907
  0
INSERT
  8
OSA
  2
Srouby_s_valcovou_hlavou___34
  6
CONTINUOUS
 10
-1090.706441
 20
279.409434
  0
INSERT
  8
OSA
  2
Srouby_s_valcovou_hlavou___35
  6
CONTINUOUS
 10
-1090.706441
 20
242.608099
  0
LINE
  8
OSA
 62
     2
  6
CONTINUOUS
 10
-1096.206441
 20
241.431907
 11
-1095.706441
 21
240.931907
  0
LINE
  8
OSA
 62
     2
  6
CONTINUOUS
 10
-1100.159725
 20
343.504594
 11
-1090.706441
 21
352.250331
  0
LINE
  8
OSA
 62
     2
  6
CONTINUOUS
 10
-1102.706441
 20
343.834398
 11
-1102.706441
 21
350.493816
  0
LINE
  8
OSA
 62
     2
  6
CONTINUOUS
 10
-1100.159725
 20
267.359220
 11
-1090.706441
 21
258.613483
  0
LINE
  8
OSA
 62
     2
  6
CONTINUOUS
 10
-1102.706441
 20
267.029416
 11
-1102.706441
 21
260.369998
  0
ENDBLK
  8
OSA
  0
BLOCK
  8
OSA
  2
Srouby_s_valcovou_hlavou___32
 70
   66
 10
-1090.706441
 20
368.255715
  0
LINE
  8
OSA
 62
     2
  6
CONTINUOUS
 10
-1095.706441
 20
373.955715
 11
-1095.706441
 21
362.555715
  0
LINE
  8
OSA
 62
     2
  6
CONTINUOUS
 10
-1094.906441
 20
374.755715
 11
-1090.706441
 21
374.755715
  0
LINE
  8
OSA
 62
     2
  6
CONTINUOUS
 10
-1090.706441
 20
374.755715
 11
-1090.706441
 21
361.755715
  0
LINE
  8
OSA
 62
     2
  6
CONTINUOUS
 10
-1090.706441
 20
361.755715
 11
-1094.906441
 21
361.755715
  0
ARC
  8
OSA
 62
     2
  6
CONTINUOUS
 10
-1094.906441
 20
373.955715
 40
0.800000
 50
90.000000
 51
180.000000
  0
ARC
  8
OSA
 62
     2
  6
CONTINUOUS
 10
-1094.906441
 20
362.555715
 40
0.800000
 50
180.000000
 51
270.000000
  0
LINE
  8
OSA
  6
DOT
 10
-1095.706441
 20
371.719838
 11
-1093.206441
 21
371.719838
  0
LINE
  8
OSA
  6
DOT
 10
-1095.706441
 20
369.987777
 11
-1093.206441
 21
369.987777
  0
LINE
  8
OSA
  6
DOT
 10
-1095.706441
 20
366.523654
 11
-1093.206441
 21
366.523654
  0
LINE
  8
OSA
  6
DOT
 10
-1095.706441
 20
364.791592
 11
-1093.206441
 21
364.791592
  0
ARC
  8
OSA
  6
DOT
 10
-1096.206450
 20
370.853808
 40
1.000009
 50
300.000310
 51
59.999690
  0
ARC
  8
OSA
  6
DOT
 10
-1098.456478
 20
368.255715
 40
3.250037
 50
327.795963
 51
32.204037
  0
ARC
  8
OSA
  6
DOT
 10
-1096.206450
 20
365.657623
 40
1.000009
 50
300.000310
 51
59.999690
  0
ARC
  8
OSA
  6
DOT
 10
-1093.706450
 20
370.853808
 40
1.000009
 50
300.000310
 51
59.999690
  0
ARC
  8
OSA
  6
DOT
 10
-1095.956478
 20
368.255715
 40
3.250037
 50
327.795963
 51
32.204037
  0
ARC
  8
OSA
  6
DOT
 10
-1093.706450
 20
365.657623
 40
1.000009
 50
300.000310
 51
59.999690
  0
LINE
  8
OSA
  6
DOT
 10
-1092.706441
 20
370.853808
 11
-1090.974379
 21
368.255715
  0
LINE
  8
OSA
  6
DOT
 10
-1090.974379
 20
368.255715
 11
-1092.706441
 21
365.657623
  0
ENDBLK
  8
OSA
  0
BLOCK
  8
OSA
  2
Srouby_s_valcovou_hlavou___33
 70
   66
 10
-1090.706441
 20
331.454380
  0
LINE
  8
OSA
 62
     2
  6
CONTINUOUS
 10
-1095.706441
 20
337.154380
 11
-1095.706441
 21
325.754380
  0
LINE
  8
OSA
 62
     2
  6
CONTINUOUS
 10
-1094.906441
 20
337.954380
 11
-1090.706441
 21
337.954380
  0
LINE
  8
OSA
 62
     2
  6
CONTINUOUS
 10
-1090.706441
 20
337.954380
 11
-1090.706441
 21
324.954380
  0
LINE
  8
OSA
 62
     2
  6
CONTINUOUS
 10
-1090.706441
 20
324.954380
 11
-1094.906441
 21
324.954380
  0
ARC
  8
OSA
 62
     2
  6
CONTINUOUS
 10
-1094.906441
 20
337.154380
 40
0.800000
 50
90.000000
 51
180.000000
  0
ARC
  8
OSA
 62
     2
  6
CONTINUOUS
 10
-1094.906441
 20
325.754380
 40
0.800000
 50
180.000000
 51
270.000000
  0
LINE
  8
OSA
  6
DOT
 10
-1095.706441
 20
334.918504
 11
-1093.206441
 21
334.918504
  0
LINE
  8
OSA
  6
DOT
 10
-1095.706441
 20
333.186442
 11
-1093.206441
 21
333.186442
  0
LINE
  8
OSA
  6
DOT
 10
-1095.706441
 20
329.722319
 11
-1093.206441
 21
329.722319
  0
LINE
  8
OSA
  6
DOT
 10
-1095.706441
 20
327.990257
 11
-1093.206441
 21
327.990257
  0
ARC
  8
OSA
  6
DOT
 10
-1096.206450
 20
334.052473
 40
1.000009
 50
300.000310
 51
59.999690
  0
ARC
  8
OSA
  6
DOT
 10
-1098.456478
 20
331.454380
 40
3.250037
 50
327.795963
 51
32.204037
  0
ARC
  8
OSA
  6
DOT
 10
-1096.206450
 20
328.856288
 40
1.000009
 50
300.000310
 51
59.999690
  0
ARC
  8
OSA
  6
DOT
 10
-1093.706450
 20
334.052473
 40
1.000009
 50
300.000310
 51
59.999690
  0
ARC
  8
OSA
  6
DOT
 10
-1095.956478
 20
331.454380
 40
3.250037
 50
327.795963
 51
32.204037
  0
ARC
  8
OSA
  6
DOT
 10
-1093.706450
 20
328.856288
 40
1.000009
 50
300.000310
 51
59.999690
  0
LINE
  8
OSA
  6
DOT
 10
-1092.706441
 20
334.052473
 11
-1090.974379
 21
331.454380
  0
LINE
  8
OSA
  6
DOT
 10
-1090.974379
 20
331.454380
 11
-1092.706441
 21
328.856288
  0
ENDBLK
  8
OSA
  0
BLOCK
  8
OSA
  2
Srouby_s_valcovou_hlavou___34
 70
   66
 10
-1090.706441
 20
279.409434
  0
LINE
  8
OSA
 62
     2
  6
CONTINUOUS
 10
-1095.706441
 20
273.709434
 11
-1095.706441
 21
285.109434
  0
LINE
  8
OSA
 62
     2
  6
CONTINUOUS
 10
-1094.906441
 20
272.909434
 11
-1090.706441
 21
272.909434
  0
LINE
  8
OSA
 62
     2
  6
CONTINUOUS
 10
-1090.706441
 20
272.909434
 11
-1090.706441
 21
285.909434
  0
LINE
  8
OSA
 62
     2
  6
CONTINUOUS
 10
-1090.706441
 20
285.909434
 11
-1094.906441
 21
285.909434
  0
ARC
  8
OSA
 62
     2
  6
CONTINUOUS
 10
-1094.906441
 20
273.709434
 40
0.800000
 50
180.000000
 51
270.000000
  0
ARC
  8
OSA
 62
     2
  6
CONTINUOUS
 10
-1094.906441
 20
285.109434
 40
0.800000
 50
90.000000
 51
180.000000
  0
LINE
  8
OSA
  6
DOT
 10
-1095.706441
 20
275.945310
 11
-1093.206441
 21
275.945310
  0
LINE
  8
OSA
  6
DOT
 10
-1095.706441
 20
277.677372
 11
-1093.206441
 21
277.677372
  0
LINE
  8
OSA
  6
DOT
 10
-1095.706441
 20
281.141495
 11
-1093.206441
 21
281.141495
  0
LINE
  8
OSA
  6
DOT
 10
-1095.706441
 20
282.873557
 11
-1093.206441
 21
282.873557
  0
ARC
  8
OSA
  6
DOT
 10
-1096.206450
 20
276.811341
 40
1.000009
 50
300.000310
 51
59.999690
  0
ARC
  8
OSA
  6
DOT
 10
-1098.456478
 20
279.409434
 40
3.250037
 50
327.795963
 51
32.204037
  0
ARC
  8
OSA
  6
DOT
 10
-1096.206450
 20
282.007526
 40
1.000009
 50
300.000310
 51
59.999690
  0
ARC
  8
OSA
  6
DOT
 10
-1093.706450
 20
276.811341
 40
1.000009
 50
300.000310
 51
59.999690
  0
ARC
  8
OSA
  6
DOT
 10
-1095.956478
 20
279.409434
 40
3.250037
 50
327.795963
 51
32.204037
  0
ARC
  8
OSA
  6
DOT
 10
-1093.706450
 20
282.007526
 40
1.000009
 50
300.000310
 51
59.999690
  0
LINE
  8
OSA
  6
DOT
 10
-1092.706441
 20
276.811341
 11
-1090.974379
 21
279.409434
  0
LINE
  8
OSA
  6
DOT
 10
-1090.974379
 20
279.409434
 11
-1092.706441
 21
282.007526
  0
ENDBLK
  8
OSA
  0
BLOCK
  8
OSA
  2
Srouby_s_valcovou_hlavou___35
 70
   66
 10
-1090.706441
 20
242.608099
  0
LINE
  8
OSA
 62
     2
  6
CONTINUOUS
 10
-1095.706441
 20
236.908099
 11
-1095.706441
 21
248.308099
  0
LINE
  8
OSA
 62
     2
  6
CONTINUOUS
 10
-1094.906441
 20
236.108099
 11
-1090.706441
 21
236.108099
  0
LINE
  8
OSA
 62
     2
  6
CONTINUOUS
 10
-1090.706441
 20
236.108099
 11
-1090.706441
 21
249.108099
  0
LINE
  8
OSA
 62
     2
  6
CONTINUOUS
 10
-1090.706441
 20
249.108099
 11
-1094.906441
 21
249.108099
  0
ARC
  8
OSA
 62
     2
  6
CONTINUOUS
 10
-1094.906441
 20
236.908099
 40
0.800000
 50
180.000000
 51
270.000000
  0
ARC
  8
OSA
 62
     2
  6
CONTINUOUS
 10
-1094.906441
 20
248.308099
 40
0.800000
 50
90.000000
 51
180.000000
  0
LINE
  8
OSA
  6
DOT
 10
-1095.706441
 20
239.143976
 11
-1093.206441
 21
239.143976
  0
LINE
  8
OSA
  6
DOT
 10
-1095.706441
 20
240.876037
 11
-1093.206441
 21
240.876037
  0
LINE
  8
OSA
  6
DOT
 10
-1095.706441
 20
244.340160
 11
-1093.206441
 21
244.340160
  0
LINE
  8
OSA
  6
DOT
 10
-1095.706441
 20
246.072222
 11
-1093.206441
 21
246.072222
  0
ARC
  8
OSA
  6
DOT
 10
-1096.206450
 20
240.010006
 40
1.000009
 50
300.000310
 51
59.999690
  0
ARC
  8
OSA
  6
DOT
 10
-1098.456478
 20
242.608099
 40
3.250037
 50
327.795963
 51
32.204037
  0
ARC
  8
OSA
  6
DOT
 10
-1096.206450
 20
245.206191
 40
1.000009
 50
300.000310
 51
59.999690
  0
ARC
  8
OSA
  6
DOT
 10
-1093.706450
 20
240.010006
 40
1.000009
 50
300.000310
 51
59.999690
  0
ARC
  8
OSA
  6
DOT
 10
-1095.956478
 20
242.608099
 40
3.250037
 50
327.795963
 51
32.204037
  0
ARC
  8
OSA
  6
DOT
 10
-1093.706450
 20
245.206191
 40
1.000009
 50
300.000310
 51
59.999690
  0
LINE
  8
OSA
  6
DOT
 10
-1092.706441
 20
240.010006
 11
-1090.974379
 21
242.608099
  0
LINE
  8
OSA
  6
DOT
 10
-1090.974379
 20
242.608099
 11
-1092.706441
 21
245.206191
  0
ENDBLK
  8
OSA
  0
BLOCK
  8
OSA
  2
_19
 70
   64
 10
-790.998844
 20
12.724310
  0
LINE
  8
OSA
 10
-790.998844
 20
20.224306
 11
-790.998844
 21
-17.275687
  0
LINE
  8
OSA
 62
     2
  6
CONTINUOUS
 10
-866.998844
 20
12.724310
 11
-790.998844
 21
12.724310
  0
LINE
  8
OSA
 62
     2
  6
CONTINUOUS
 10
-714.998844
 20
12.724310
 11
-790.998844
 21
12.724310
  0
LINE
  8
OSA
 62
     2
  6
CONTINUOUS
 10
-745.936935
 20
-6.275690
 11
-739.634604
 21
5.724310
  0
ARC
  8
OSA
 62
     2
  6
CONTINUOUS
 10
-720.670417
 20
3.724310
 40
2.000000
 50
90.000000
 51
135.000000
  0
LINE
  8
OSA
 62
     2
  6
CONTINUOUS
 10
-726.998844
 20
0.224310
 11
-742.523172
 21
0.224310
  0
LINE
  8
OSA
 62
     2
  6
CONTINUOUS
 10
-786.453067
 20
0.224310
 11
-787.784467
 21
5.724310
  0
ARC
  8
OSA
 62
     2
  6
CONTINUOUS
 10
-717.174667
 20
7.724310
 40
2.000000
 50
270.000000
 51
358.000000
  0
LINE
  8
OSA
 62
     2
  6
CONTINUOUS
 10
-714.998844
 20
12.724310
 11
-715.175885
 21
7.654511
  0
LINE
  8
OSA
 62
     2
  6
CONTINUOUS
 10
-790.998844
 20
5.724310
 11
-717.174667
 21
5.724310
  0
LINE
  8
OSA
 62
     2
  6
CONTINUOUS
 10
-790.998844
 20
0.224310
 11
-776.335557
 21
0.224310
  0
LINE
  8
OSA
 62
     2
  6
CONTINUOUS
 10
-790.998844
 20
0.224310
 11
-805.662130
 21
0.224310
  0
LINE
  8
OSA
 62
     2
  6
CONTINUOUS
 10
-790.998844
 20
5.724310
 11
-864.823021
 21
5.724310
  0
ARC
  8
OSA
 62
     2
  6
CONTINUOUS
 10
-861.327271
 20
3.724310
 40
2.000000
 50
45.000000
 51
90.000000
  0
LINE
  8
OSA
 62
     2
  6
CONTINUOUS
 10
-866.998844
 20
12.724310
 11
-866.821802
 21
7.654511
  0
ARC
  8
OSA
 62
     2
  6
CONTINUOUS
 10
-864.823021
 20
7.724310
 40
2.000000
 50
182.000000
 51
270.000000
  0
LINE
  8
OSA
 62
     2
  6
CONTINUOUS
 10
-795.544620
 20
0.224310
 11
-794.213221
 21
5.724310
  0
LINE
  8
OSA
 62
     2
  6
CONTINUOUS
 10
-854.998844
 20
0.224310
 11
-839.474515
 21
0.224310
  0
LINE
  8
OSA
 62
     2
  6
CONTINUOUS
 10
-836.060752
 20
-6.275690
 11
-842.363084
 21
5.724310
  0
INSERT
  8
OSA
  2
Srouby_s_valcovou_hlavou___37
  6
CONTINUOUS
 10
-853.822652
 20
5.724310
  0
INSERT
  8
OSA
  2
Srouby_s_valcovou_hlavou___38
  6
CONTINUOUS
 10
-817.021317
 20
5.724310
  0
LINE
  8
OSA
 62
     2
  6
CONTINUOUS
 10
-854.998844
 20
0.224310
 11
-855.498844
 21
0.724310
  0
INSERT
  8
OSA
  2
Srouby_s_valcovou_hlavou___39
  6
CONTINUOUS
 10
-764.976370
 20
5.724310
  0
INSERT
  8
OSA
  2
Srouby_s_valcovou_hlavou___40
  6
CONTINUOUS
 10
-728.175035
 20
5.724310
  0
LINE
  8
OSA
 62
     2
  6
CONTINUOUS
 10
-726.998844
 20
0.224310
 11
-726.498844
 21
0.724310
  0
LINE
  8
OSA
 62
     2
  6
CONTINUOUS
 10
-829.071530
 20
-3.728975
 11
-837.817268
 21
5.724310
  0
LINE
  8
OSA
 62
     2
  6
CONTINUOUS
 10
-829.401335
 20
-6.275690
 11
-836.060752
 21
-6.275690
  0
LINE
  8
OSA
 62
     2
  6
CONTINUOUS
 10
-752.926157
 20
-3.728975
 11
-744.180419
 21
5.724310
  0
LINE
  8
OSA
 62
     2
  6
CONTINUOUS
 10
-752.596352
 20
-6.275690
 11
-745.936935
 21
-6.275690
  0
ENDBLK
  8
OSA
  0
BLOCK
  8
OSA
  2
Srouby_s_valcovou_hlavou___37
 70
   66
 10
-853.822652
 20
5.724310
  0
LINE
  8
OSA
 62
     2
  6
CONTINUOUS
 10
-859.522652
 20
0.724310
 11
-848.122652
 21
0.724310
  0
LINE
  8
OSA
 62
     2
  6
CONTINUOUS
 10
-860.322652
 20
1.524310
 11
-860.322652
 21
5.724310
  0
LINE
  8
OSA
 62
     2
  6
CONTINUOUS
 10
-860.322652
 20
5.724310
 11
-847.322652
 21
5.724310
  0
LINE
  8
OSA
 62
     2
  6
CONTINUOUS
 10
-847.322652
 20
5.724310
 11
-847.322652
 21
1.524310
  0
ARC
  8
OSA
 62
     2
  6
CONTINUOUS
 10
-859.522652
 20
1.524310
 40
0.800000
 50
180.000000
 51
270.000000
  0
ARC
  8
OSA
 62
     2
  6
CONTINUOUS
 10
-848.122652
 20
1.524310
 40
0.800000
 50
270.000000
 51
360.000000
  0
LINE
  8
OSA
  6
DOT
 10
-857.286775
 20
0.724310
 11
-857.286775
 21
3.224310
  0
LINE
  8
OSA
  6
DOT
 10
-855.554713
 20
0.724310
 11
-855.554713
 21
3.224310
  0
LINE
  8
OSA
  6
DOT
 10
-852.090590
 20
0.724310
 11
-852.090590
 21
3.224310
  0
LINE
  8
OSA
  6
DOT
 10
-850.358529
 20
0.724310
 11
-850.358529
 21
3.224310
  0
ARC
  8
OSA
  6
DOT
 10
-856.420744
 20
0.224300
 40
1.000009
 50
30.000310
 51
149.999690
  0
ARC
  8
OSA
  6
DOT
 10
-853.822652
 20
-2.025728
 40
3.250037
 50
57.795963
 51
122.204037
  0
ARC
  8
OSA
  6
DOT
 10
-851.224559
 20
0.224300
 40
1.000009
 50
30.000310
 51
149.999690
  0
ARC
  8
OSA
  6
DOT
 10
-856.420744
 20
2.724300
 40
1.000009
 50
30.000310
 51
149.999690
  0
ARC
  8
OSA
  6
DOT
 10
-853.822652
 20
0.474272
 40
3.250037
 50
57.795963
 51
122.204037
  0
ARC
  8
OSA
  6
DOT
 10
-851.224559
 20
2.724300
 40
1.000009
 50
30.000310
 51
149.999690
  0
LINE
  8
OSA
  6
DOT
 10
-856.420744
 20
3.724310
 11
-853.822652
 21
5.456371
  0
LINE
  8
OSA
  6
DOT
 10
-853.822652
 20
5.456371
 11
-851.224559
 21
3.724310
  0
ENDBLK
  8
OSA
  0
BLOCK
  8
OSA
  2
Srouby_s_valcovou_hlavou___38
 70
   66
 10
-817.021317
 20
5.724310
  0
LINE
  8
OSA
 62
     2
  6
CONTINUOUS
 10
-822.721317
 20
0.724310
 11
-811.321317
 21
0.724310
  0
LINE
  8
OSA
 62
     2
  6
CONTINUOUS
 10
-823.521317
 20
1.524310
 11
-823.521317
 21
5.724310
  0
LINE
  8
OSA
 62
     2
  6
CONTINUOUS
 10
-823.521317
 20
5.724310
 11
-810.521317
 21
5.724310
  0
LINE
  8
OSA
 62
     2
  6
CONTINUOUS
 10
-810.521317
 20
5.724310
 11
-810.521317
 21
1.524310
  0
ARC
  8
OSA
 62
     2
  6
CONTINUOUS
 10
-822.721317
 20
1.524310
 40
0.800000
 50
180.000000
 51
270.000000
  0
ARC
  8
OSA
 62
     2
  6
CONTINUOUS
 10
-811.321317
 20
1.524310
 40
0.800000
 50
270.000000
 51
360.000000
  0
LINE
  8
OSA
  6
DOT
 10
-820.485440
 20
0.724310
 11
-820.485440
 21
3.224310
  0
LINE
  8
OSA
  6
DOT
 10
-818.753379
 20
0.724310
 11
-818.753379
 21
3.224310
  0
LINE
  8
OSA
  6
DOT
 10
-815.289255
 20
0.724310
 11
-815.289255
 21
3.224310
  0
LINE
  8
OSA
  6
DOT
 10
-813.557194
 20
0.724310
 11
-813.557194
 21
3.224310
  0
ARC
  8
OSA
  6
DOT
 10
-819.619409
 20
0.224300
 40
1.000009
 50
30.000310
 51
149.999690
  0
ARC
  8
OSA
  6
DOT
 10
-817.021317
 20
-2.025728
 40
3.250037
 50
57.795963
 51
122.204037
  0
ARC
  8
OSA
  6
DOT
 10
-814.423225
 20
0.224300
 40
1.000009
 50
30.000310
 51
149.999690
  0
ARC
  8
OSA
  6
DOT
 10
-819.619409
 20
2.724300
 40
1.000009
 50
30.000310
 51
149.999690
  0
ARC
  8
OSA
  6
DOT
 10
-817.021317
 20
0.474272
 40
3.250037
 50
57.795963
 51
122.204037
  0
ARC
  8
OSA
  6
DOT
 10
-814.423225
 20
2.724300
 40
1.000009
 50
30.000310
 51
149.999690
  0
LINE
  8
OSA
  6
DOT
 10
-819.619409
 20
3.724310
 11
-817.021317
 21
5.456371
  0
LINE
  8
OSA
  6
DOT
 10
-817.021317
 20
5.456371
 11
-814.423225
 21
3.724310
  0
ENDBLK
  8
OSA
  0
BLOCK
  8
OSA
  2
Srouby_s_valcovou_hlavou___39
 70
   66
 10
-764.976370
 20
5.724310
  0
LINE
  8
OSA
 62
     2
  6
CONTINUOUS
 10
-759.276370
 20
0.724310
 11
-770.676370
 21
0.724310
  0
LINE
  8
OSA
 62
     2
  6
CONTINUOUS
 10
-758.476370
 20
1.524310
 11
-758.476370
 21
5.724310
  0
LINE
  8
OSA
 62
     2
  6
CONTINUOUS
 10
-758.476370
 20
5.724310
 11
-771.476370
 21
5.724310
  0
LINE
  8
OSA
 62
     2
  6
CONTINUOUS
 10
-771.476370
 20
5.724310
 11
-771.476370
 21
1.524310
  0
ARC
  8
OSA
 62
     2
  6
CONTINUOUS
 10
-759.276370
 20
1.524310
 40
0.800000
 50
270.000000
 51
360.000000
  0
ARC
  8
OSA
 62
     2
  6
CONTINUOUS
 10
-770.676370
 20
1.524310
 40
0.800000
 50
180.000000
 51
270.000000
  0
LINE
  8
OSA
  6
DOT
 10
-761.512247
 20
0.724310
 11
-761.512247
 21
3.224310
  0
LINE
  8
OSA
  6
DOT
 10
-763.244309
 20
0.724310
 11
-763.244309
 21
3.224310
  0
LINE
  8
OSA
  6
DOT
 10
-766.708432
 20
0.724310
 11
-766.708432
 21
3.224310
  0
LINE
  8
OSA
  6
DOT
 10
-768.440493
 20
0.724310
 11
-768.440493
 21
3.224310
  0
ARC
  8
OSA
  6
DOT
 10
-762.378278
 20
0.224300
 40
1.000009
 50
30.000310
 51
149.999690
  0
ARC
  8
OSA
  6
DOT
 10
-764.976370
 20
-2.025728
 40
3.250037
 50
57.795963
 51
122.204037
  0
ARC
  8
OSA
  6
DOT
 10
-767.574463
 20
0.224300
 40
1.000009
 50
30.000310
 51
149.999690
  0
ARC
  8
OSA
  6
DOT
 10
-762.378278
 20
2.724300
 40
1.000009
 50
30.000310
 51
149.999690
  0
ARC
  8
OSA
  6
DOT
 10
-764.976370
 20
0.474272
 40
3.250037
 50
57.795963
 51
122.204037
  0
ARC
  8
OSA
  6
DOT
 10
-767.574463
 20
2.724300
 40
1.000009
 50
30.000310
 51
149.999690
  0
LINE
  8
OSA
  6
DOT
 10
-762.378278
 20
3.724310
 11
-764.976370
 21
5.456371
  0
LINE
  8
OSA
  6
DOT
 10
-764.976370
 20
5.456371
 11
-767.574463
 21
3.724310
  0
ENDBLK
  8
OSA
  0
BLOCK
  8
OSA
  2
Srouby_s_valcovou_hlavou___40
 70
   66
 10
-728.175035
 20
5.724310
  0
LINE
  8
OSA
 62
     2
  6
CONTINUOUS
 10
-722.475035
 20
0.724310
 11
-733.875035
 21
0.724310
  0
LINE
  8
OSA
 62
     2
  6
CONTINUOUS
 10
-721.675035
 20
1.524310
 11
-721.675035
 21
5.724310
  0
LINE
  8
OSA
 62
     2
  6
CONTINUOUS
 10
-721.675035
 20
5.724310
 11
-734.675035
 21
5.724310
  0
LINE
  8
OSA
 62
     2
  6
CONTINUOUS
 10
-734.675035
 20
5.724310
 11
-734.675035
 21
1.524310
  0
ARC
  8
OSA
 62
     2
  6
CONTINUOUS
 10
-722.475035
 20
1.524310
 40
0.800000
 50
270.000000
 51
360.000000
  0
ARC
  8
OSA
 62
     2
  6
CONTINUOUS
 10
-733.875035
 20
1.524310
 40
0.800000
 50
180.000000
 51
270.000000
  0
LINE
  8
OSA
  6
DOT
 10
-724.710912
 20
0.724310
 11
-724.710912
 21
3.224310
  0
LINE
  8
OSA
  6
DOT
 10
-726.442974
 20
0.724310
 11
-726.442974
 21
3.224310
  0
LINE
  8
OSA
  6
DOT
 10
-729.907097
 20
0.724310
 11
-729.907097
 21
3.224310
  0
LINE
  8
OSA
  6
DOT
 10
-731.639159
 20
0.724310
 11
-731.639159
 21
3.224310
  0
ARC
  8
OSA
  6
DOT
 10
-725.576943
 20
0.224300
 40
1.000009
 50
30.000310
 51
149.999690
  0
ARC
  8
OSA
  6
DOT
 10
-728.175035
 20
-2.025728
 40
3.250037
 50
57.795963
 51
122.204037
  0
ARC
  8
OSA
  6
DOT
 10
-730.773128
 20
0.224300
 40
1.000009
 50
30.000310
 51
149.999690
  0
ARC
  8
OSA
  6
DOT
 10
-725.576943
 20
2.724300
 40
1.000009
 50
30.000310
 51
149.999690
  0
ARC
  8
OSA
  6
DOT
 10
-728.175035
 20
0.474272
 40
3.250037
 50
57.795963
 51
122.204037
  0
ARC
  8
OSA
  6
DOT
 10
-730.773128
 20
2.724300
 40
1.000009
 50
30.000310
 51
149.999690
  0
LINE
  8
OSA
  6
DOT
 10
-725.576943
 20
3.724310
 11
-728.175035
 21
5.456371
  0
LINE
  8
OSA
  6
DOT
 10
-728.175035
 20
5.456371
 11
-730.773128
 21
3.724310
  0
ENDBLK
  8
OSA
  0
BLOCK
  8
OBRYS
  2
_20
 70
   64
 10
-790.998844
 20
0.224310
  0
LINE
  8
OBRYS
 10
-741.619003
 20
0.224310
 11
-730.703614
 21
0.224310
  0
LINE
  8
OBRYS
 10
-790.998844
 20
0.224310
 11
-753.295975
 21
0.224310
  0
LINE
  8
OBRYS
 10
-840.378684
 20
0.224310
 11
-851.294073
 21
0.224310
  0
LINE
  8
OBRYS
 10
-790.998844
 20
0.224310
 11
-828.701713
 21
0.224310
  0
LINE
  8
OBRYS
 62
     7
  6
DASHDOT
 10
-708.498844
 20
-42.275694
 11
-708.498844
 21
-68.275687
  0
ARC
  8
OBRYS
 10
-693.314350
 20
-51.775690
 40
2.000000
 50
2.000000
 51
90.000000
  0
LINE
  8
OBRYS
 10
-690.998844
 20
-60.775690
 11
-691.315568
 21
-51.705891
  0
LINE
  8
OBRYS
 10
-790.998844
 20
-60.775690
 11
-690.998844
 21
-60.775690
  0
LINE
  8
OBRYS
 62
     4
  6
HIDDEN2
 10
-725.998844
 20
-56.575690
 11
-725.998844
 21
-60.775690
  0
LINE
  8
OBRYS
 62
     4
  6
HIDDEN2
 10
-790.998844
 20
-55.775690
 11
-726.798844
 21
-55.775690
  0
ARC
  8
OBRYS
 62
     4
  6
HIDDEN2
 10
-726.798844
 20
-56.575690
 40
0.800000
 50
0.000000
 51
90.000000
  0
ARC
  8
OBRYS
 10
-722.663856
 20
-47.775690
 40
2.000000
 50
185.000000
 51
270.000000
  0
LINE
  8
OBRYS
 10
-724.656246
 20
-47.950002
 11
-728.711225
 21
-1.601379
  0
ARC
  8
OBRYS
 10
-730.703614
 20
-1.775690
 40
2.000000
 50
5.000000
 51
90.000000
  0
LINE
  8
OBRYS
 10
-691.712649
 20
-50.577962
 11
-729.101913
 21
-0.577962
  0
LINE
  8
OBRYS
 10
-790.998844
 20
-49.775690
 11
-693.314350
 21
-49.775690
  0
LINE
  8
OBRYS
 10
-741.619003
 20
0.224310
 11
-741.389682
 21
-5.737252
  0
ARC
  8
OBRYS
 10
-742.388943
 20
-5.775690
 40
1.000000
 50
270.000000
 51
2.202895
  0
LINE
  8
OBRYS
 10
-753.295975
 20
0.224310
 11
-752.725980
 21
-5.868831
  0
LINE
  8
OBRYS
 10
-742.388943
 20
-6.775690
 11
-751.730327
 21
-6.775690
  0
ARC
  8
OBRYS
 10
-751.730327
 20
-5.775690
 40
1.000000
 50
185.344291
 51
270.000000
  0
LINE
  8
OBRYS
 10
-788.498844
 20
-47.775690
 11
-788.498844
 21
0.224310
  0
ARC
  8
OBRYS
 10
-786.498844
 20
-47.775690
 40
2.000000
 50
180.000000
 51
270.000000
  0
ARC
  8
OBRYS
 10
-795.498844
 20
-47.775690
 40
2.000000
 50
270.000000
 51
360.000000
  0
LINE
  8
OBRYS
 10
-793.498844
 20
-47.775690
 11
-793.498844
 21
0.224310
  0
ARC
  8
OBRYS
 10
-830.267360
 20
-5.775690
 40
1.000000
 50
270.000000
 51
354.655709
  0
LINE
  8
OBRYS
 10
-839.608745
 20
-6.775690
 11
-830.267360
 21
-6.775690
  0
LINE
  8
OBRYS
 10
-828.701713
 20
0.224310
 11
-829.271707
 21
-5.868831
  0
ARC
  8
OBRYS
 10
-839.608745
 20
-5.775690
 40
1.000000
 50
177.797105
 51
270.000000
  0
LINE
  8
OBRYS
 10
-840.378684
 20
0.224310
 11
-840.608006
 21
-5.737252
  0
LINE
  8
OBRYS
 10
-790.998844
 20
-49.775690
 11
-888.683338
 21
-49.775690
  0
LINE
  8
OBRYS
 10
-890.285039
 20
-50.577962
 11
-852.895774
 21
-0.577962
  0
ARC
  8
OBRYS
 10
-851.294073
 20
-1.775690
 40
2.000000
 50
90.000000
 51
175.000000
  0
LINE
  8
OBRYS
 10
-857.341442
 20
-47.950002
 11
-853.286463
 21
-1.601379
  0
ARC
  8
OBRYS
 10
-859.333831
 20
-47.775690
 40
2.000000
 50
270.000000
 51
355.000000
  0
ARC
  8
OBRYS
 62
     4
  6
HIDDEN2
 10
-855.198844
 20
-56.575690
 40
0.800000
 50
90.000000
 51
180.000000
  0
LINE
  8
OBRYS
 62
     4
  6
HIDDEN2
 10
-790.998844
 20
-55.775690
 11
-855.198844
 21
-55.775690
  0
LINE
  8
OBRYS
 62
     4
  6
HIDDEN2
 10
-855.998844
 20
-56.575690
 11
-855.998844
 21
-60.775690
  0
LINE
  8
OBRYS
 10
-790.998844
 20
-60.775690
 11
-890.998844
 21
-60.775690
  0
LINE
  8
OBRYS
 10
-890.998844
 20
-60.775690
 11
-890.682119
 21
-51.705891
  0
ARC
  8
OBRYS
 10
-888.683338
 20
-51.775690
 40
2.000000
 50
90.000000
 51
178.000000
  0
LINE
  8
OBRYS
 62
     7
  6
DASHDOT
 10
-873.498844
 20
-42.275694
 11
-873.498844
 21
-68.275687
  0
LINE
  8
OBRYS
 62
     7
  6
DASHDOT
 10
-790.998844
 20
7.724306
 11
-790.998844
 21
-68.275687
  0
ENDBLK
  8
OBRYS
  0
BLOCK
  8
OBRYS
  2
_21
 70
   64
 10
-790.998844
 20
610.639504
  0
LINE
  8
OBRYS
 10
-741.619003
 20
610.639504
 11
-730.703614
 21
610.639504
  0
LINE
  8
OBRYS
 10
-790.998844
 20
610.639504
 11
-753.295975
 21
610.639504
  0
LINE
  8
OBRYS
 10
-840.378684
 20
610.639504
 11
-851.294073
 21
610.639504
  0
LINE
  8
OBRYS
 10
-790.998844
 20
610.639504
 11
-828.701713
 21
610.639504
  0
LINE
  8
OBRYS
 62
     7
  6
DASHDOT
 10
-708.498844
 20
653.139508
 11
-708.498844
 21
679.139501
  0
ARC
  8
OBRYS
 10
-693.314350
 20
662.639504
 40
2.000000
 50
270.000000
 51
358.000000
  0
LINE
  8
OBRYS
 10
-690.998844
 20
671.639504
 11
-691.315568
 21
662.569705
  0
LINE
  8
OBRYS
 10
-790.998844
 20
671.639504
 11
-690.998844
 21
671.639504
  0
LINE
  8
OBRYS
 62
     4
  6
HIDDEN2
 10
-725.998844
 20
667.439504
 11
-725.998844
 21
671.639504
  0
LINE
  8
OBRYS
 62
     4
  6
HIDDEN2
 10
-790.998844
 20
666.639504
 11
-726.798844
 21
666.639504
  0
ARC
  8
OBRYS
 62
     4
  6
HIDDEN2
 10
-726.798844
 20
667.439504
 40
0.800000
 50
270.000000
 51
360.000000
  0
ARC
  8
OBRYS
 10
-722.663856
 20
658.639504
 40
2.000000
 50
90.000000
 51
175.000000
  0
LINE
  8
OBRYS
 10
-724.656246
 20
658.813816
 11
-728.711225
 21
612.465193
  0
ARC
  8
OBRYS
 10
-730.703614
 20
612.639504
 40
2.000000
 50
270.000000
 51
355.000000
  0
LINE
  8
OBRYS
 10
-691.712649
 20
661.441776
 11
-729.101913
 21
611.441776
  0
LINE
  8
OBRYS
 10
-790.998844
 20
660.639504
 11
-693.314350
 21
660.639504
  0
LINE
  8
OBRYS
 10
-741.619003
 20
610.639504
 11
-741.389682
 21
616.601066
  0
ARC
  8
OBRYS
 10
-742.388943
 20
616.639504
 40
1.000000
 50
357.797105
 51
90.000000
  0
LINE
  8
OBRYS
 10
-753.295975
 20
610.639504
 11
-752.725980
 21
616.732645
  0
LINE
  8
OBRYS
 10
-742.388943
 20
617.639504
 11
-751.730327
 21
617.639504
  0
ARC
  8
OBRYS
 10
-751.730327
 20
616.639504
 40
1.000000
 50
90.000000
 51
174.655709
  0
LINE
  8
OBRYS
 10
-788.498844
 20
658.639504
 11
-788.498844
 21
610.639504
  0
ARC
  8
OBRYS
 10
-786.498844
 20
658.639504
 40
2.000000
 50
90.000000
 51
180.000000
  0
ARC
  8
OBRYS
 10
-795.498844
 20
658.639504
 40
2.000000
 50
0.000000
 51
90.000000
  0
LINE
  8
OBRYS
 10
-793.498844
 20
658.639504
 11
-793.498844
 21
610.639504
  0
ARC
  8
OBRYS
 10
-830.267360
 20
616.639504
 40
1.000000
 50
5.344291
 51
90.000000
  0
LINE
  8
OBRYS
 10
-839.608745
 20
617.639504
 11
-830.267360
 21
617.639504
  0
LINE
  8
OBRYS
 10
-828.701713
 20
610.639504
 11
-829.271707
 21
616.732645
  0
ARC
  8
OBRYS
 10
-839.608745
 20
616.639504
 40
1.000000
 50
90.000000
 51
182.202895
  0
LINE
  8
OBRYS
 10
-840.378684
 20
610.639504
 11
-840.608006
 21
616.601066
  0
LINE
  8
OBRYS
 10
-790.998844
 20
660.639504
 11
-888.683338
 21
660.639504
  0
LINE
  8
OBRYS
 10
-890.285039
 20
661.441776
 11
-852.895774
 21
611.441776
  0
ARC
  8
OBRYS
 10
-851.294073
 20
612.639504
 40
2.000000
 50
185.000000
 51
270.000000
  0
LINE
  8
OBRYS
 10
-857.341442
 20
658.813816
 11
-853.286463
 21
612.465193
  0
ARC
  8
OBRYS
 10
-859.333831
 20
658.639504
 40
2.000000
 50
5.000000
 51
90.000000
  0
ARC
  8
OBRYS
 62
     4
  6
HIDDEN2
 10
-855.198844
 20
667.439504
 40
0.800000
 50
180.000000
 51
270.000000
  0
LINE
  8
OBRYS
 62
     4
  6
HIDDEN2
 10
-790.998844
 20
666.639504
 11
-855.198844
 21
666.639504
  0
LINE
  8
OBRYS
 62
     4
  6
HIDDEN2
 10
-855.998844
 20
667.439504
 11
-855.998844
 21
671.639504
  0
LINE
  8
OBRYS
 10
-790.998844
 20
671.639504
 11
-890.998844
 21
671.639504
  0
LINE
  8
OBRYS
 10
-890.998844
 20
671.639504
 11
-890.682119
 21
662.569705
  0
ARC
  8
OBRYS
 10
-888.683338
 20
662.639504
 40
2.000000
 50
182.000000
 51
270.000000
  0
LINE
  8
OBRYS
 62
     7
  6
DASHDOT
 10
-873.498844
 20
653.139508
 11
-873.498844
 21
679.139501
  0
LINE
  8
OBRYS
 62
     7
  6
DASHDOT
 10
-790.998844
 20
603.139508
 11
-790.998844
 21
679.139501
  0
ENDBLK
  8
OBRYS
  0
BLOCK
  8
OSA
  2
_22
 70
   64
 10
-790.998844
 20
598.139504
  0
LINE
  8
OSA
 10
-790.998844
 20
590.639508
 11
-790.998844
 21
628.139501
  0
LINE
  8
OSA
 62
     2
  6
CONTINUOUS
 10
-866.998844
 20
598.139504
 11
-790.998844
 21
598.139504
  0
LINE
  8
OSA
 62
     2
  6
CONTINUOUS
 10
-714.998844
 20
598.139504
 11
-790.998844
 21
598.139504
  0
LINE
  8
OSA
 62
     2
  6
CONTINUOUS
 10
-745.936935
 20
617.139504
 11
-739.634604
 21
605.139504
  0
ARC
  8
OSA
 62
     2
  6
CONTINUOUS
 10
-720.670417
 20
607.139504
 40
2.000000
 50
225.000000
 51
270.000000
  0
LINE
  8
OSA
 62
     2
  6
CONTINUOUS
 10
-726.998844
 20
610.639504
 11
-742.523172
 21
610.639504
  0
LINE
  8
OSA
 62
     2
  6
CONTINUOUS
 10
-786.453067
 20
610.639504
 11
-787.784467
 21
605.139504
  0
ARC
  8
OSA
 62
     2
  6
CONTINUOUS
 10
-717.174667
 20
603.139504
 40
2.000000
 50
2.000000
 51
90.000000
  0
LINE
  8
OSA
 62
     2
  6
CONTINUOUS
 10
-714.998844
 20
598.139504
 11
-715.175885
 21
603.209303
  0
LINE
  8
OSA
 62
     2
  6
CONTINUOUS
 10
-790.998844
 20
605.139504
 11
-717.174667
 21
605.139504
  0
LINE
  8
OSA
 62
     2
  6
CONTINUOUS
 10
-790.998844
 20
610.639504
 11
-776.335557
 21
610.639504
  0
LINE
  8
OSA
 62
     2
  6
CONTINUOUS
 10
-790.998844
 20
610.639504
 11
-805.662130
 21
610.639504
  0
LINE
  8
OSA
 62
     2
  6
CONTINUOUS
 10
-790.998844
 20
605.139504
 11
-864.823021
 21
605.139504
  0
ARC
  8
OSA
 62
     2
  6
CONTINUOUS
 10
-861.327271
 20
607.139504
 40
2.000000
 50
270.000000
 51
315.000000
  0
LINE
  8
OSA
 62
     2
  6
CONTINUOUS
 10
-866.998844
 20
598.139504
 11
-866.821802
 21
603.209303
  0
ARC
  8
OSA
 62
     2
  6
CONTINUOUS
 10
-864.823021
 20
603.139504
 40
2.000000
 50
90.000000
 51
178.000000
  0
LINE
  8
OSA
 62
     2
  6
CONTINUOUS
 10
-795.544620
 20
610.639504
 11
-794.213221
 21
605.139504
  0
LINE
  8
OSA
 62
     2
  6
CONTINUOUS
 10
-854.998844
 20
610.639504
 11
-839.474515
 21
610.639504
  0
LINE
  8
OSA
 62
     2
  6
CONTINUOUS
 10
-836.060752
 20
617.139504
 11
-842.363084
 21
605.139504
  0
INSERT
  8
OSA
  2
Srouby_s_valcovou_hlavou___42
  6
CONTINUOUS
 10
-853.822652
 20
5.724310
  0
INSERT
  8
OSA
  2
Srouby_s_valcovou_hlavou___43
  6
CONTINUOUS
 10
-817.021317
 20
5.724310
  0
LINE
  8
OSA
 62
     2
  6
CONTINUOUS
 10
-854.998844
 20
610.639504
 11
-855.498844
 21
610.139504
  0
INSERT
  8
OSA
  2
Srouby_s_valcovou_hlavou___44
  6
CONTINUOUS
 10
-764.976370
 20
5.724310
  0
INSERT
  8
OSA
  2
Srouby_s_valcovou_hlavou___45
  6
CONTINUOUS
 10
-728.175035
 20
5.724310
  0
LINE
  8
OSA
 62
     2
  6
CONTINUOUS
 10
-726.998844
 20
610.639504
 11
-726.498844
 21
610.139504
  0
LINE
  8
OSA
 62
     2
  6
CONTINUOUS
 10
-829.071530
 20
614.592789
 11
-837.817268
 21
605.139504
  0
LINE
  8
OSA
 62
     2
  6
CONTINUOUS
 10
-829.401335
 20
617.139504
 11
-836.060752
 21
617.139504
  0
LINE
  8
OSA
 62
     2
  6
CONTINUOUS
 10
-752.926157
 20
614.592789
 11
-744.180419
 21
605.139504
  0
LINE
  8
OSA
 62
     2
  6
CONTINUOUS
 10
-752.596352
 20
617.139504
 11
-745.936935
 21
617.139504
  0
ENDBLK
  8
OSA
  0
BLOCK
  8
OSA
  2
Srouby_s_valcovou_hlavou___42
 70
   66
 10
-853.822652
 20
5.724310
  0
LINE
  8
OSA
 62
     2
  6
CONTINUOUS
 10
-859.522652
 20
610.139504
 11
-848.122652
 21
610.139504
  0
LINE
  8
OSA
 62
     2
  6
CONTINUOUS
 10
-860.322652
 20
609.339504
 11
-860.322652
 21
605.139504
  0
LINE
  8
OSA
 62
     2
  6
CONTINUOUS
 10
-860.322652
 20
605.139504
 11
-847.322652
 21
605.139504
  0
LINE
  8
OSA
 62
     2
  6
CONTINUOUS
 10
-847.322652
 20
605.139504
 11
-847.322652
 21
609.339504
  0
ARC
  8
OSA
 62
     2
  6
CONTINUOUS
 10
-859.522652
 20
609.339504
 40
0.800000
 50
90.000000
 51
180.000000
  0
ARC
  8
OSA
 62
     2
  6
CONTINUOUS
 10
-848.122652
 20
609.339504
 40
0.800000
 50
0.000000
 51
90.000000
  0
LINE
  8
OSA
  6
DOT
 10
-857.286775
 20
610.139504
 11
-857.286775
 21
607.639504
  0
LINE
  8
OSA
  6
DOT
 10
-855.554713
 20
610.139504
 11
-855.554713
 21
607.639504
  0
LINE
  8
OSA
  6
DOT
 10
-852.090590
 20
610.139504
 11
-852.090590
 21
607.639504
  0
LINE
  8
OSA
  6
DOT
 10
-850.358529
 20
610.139504
 11
-850.358529
 21
607.639504
  0
ARC
  8
OSA
  6
DOT
 10
-856.420744
 20
610.639514
 40
1.000009
 50
210.000310
 51
329.999690
  0
ARC
  8
OSA
  6
DOT
 10
-853.822652
 20
612.889542
 40
3.250037
 50
237.795963
 51
302.204037
  0
ARC
  8
OSA
  6
DOT
 10
-851.224559
 20
610.639514
 40
1.000009
 50
210.000310
 51
329.999690
  0
ARC
  8
OSA
  6
DOT
 10
-856.420744
 20
608.139514
 40
1.000009
 50
210.000310
 51
329.999690
  0
ARC
  8
OSA
  6
DOT
 10
-853.822652
 20
610.389542
 40
3.250037
 50
237.795963
 51
302.204037
  0
ARC
  8
OSA
  6
DOT
 10
-851.224559
 20
608.139514
 40
1.000009
 50
210.000310
 51
329.999690
  0
LINE
  8
OSA
  6
DOT
 10
-856.420744
 20
607.139504
 11
-853.822652
 21
605.407443
  0
LINE
  8
OSA
  6
DOT
 10
-853.822652
 20
605.407443
 11
-851.224559
 21
607.139504
  0
ENDBLK
  8
OSA
  0
BLOCK
  8
OSA
  2
Srouby_s_valcovou_hlavou___43
 70
   66
 10
-817.021317
 20
5.724310
  0
LINE
  8
OSA
 62
     2
  6
CONTINUOUS
 10
-822.721317
 20
610.139504
 11
-811.321317
 21
610.139504
  0
LINE
  8
OSA
 62
     2
  6
CONTINUOUS
 10
-823.521317
 20
609.339504
 11
-823.521317
 21
605.139504
  0
LINE
  8
OSA
 62
     2
  6
CONTINUOUS
 10
-823.521317
 20
605.139504
 11
-810.521317
 21
605.139504
  0
LINE
  8
OSA
 62
     2
  6
CONTINUOUS
 10
-810.521317
 20
605.139504
 11
-810.521317
 21
609.339504
  0
ARC
  8
OSA
 62
     2
  6
CONTINUOUS
 10
-822.721317
 20
609.339504
 40
0.800000
 50
90.000000
 51
180.000000
  0
ARC
  8
OSA
 62
     2
  6
CONTINUOUS
 10
-811.321317
 20
609.339504
 40
0.800000
 50
0.000000
 51
90.000000
  0
LINE
  8
OSA
  6
DOT
 10
-820.485440
 20
610.139504
 11
-820.485440
 21
607.639504
  0
LINE
  8
OSA
  6
DOT
 10
-818.753379
 20
610.139504
 11
-818.753379
 21
607.639504
  0
LINE
  8
OSA
  6
DOT
 10
-815.289255
 20
610.139504
 11
-815.289255
 21
607.639504
  0
LINE
  8
OSA
  6
DOT
 10
-813.557194
 20
610.139504
 11
-813.557194
 21
607.639504
  0
ARC
  8
OSA
  6
DOT
 10
-819.619409
 20
610.639514
 40
1.000009
 50
210.000310
 51
329.999690
  0
ARC
  8
OSA
  6
DOT
 10
-817.021317
 20
612.889542
 40
3.250037
 50
237.795963
 51
302.204037
  0
ARC
  8
OSA
  6
DOT
 10
-814.423225
 20
610.639514
 40
1.000009
 50
210.000310
 51
329.999690
  0
ARC
  8
OSA
  6
DOT
 10
-819.619409
 20
608.139514
 40
1.000009
 50
210.000310
 51
329.999690
  0
ARC
  8
OSA
  6
DOT
 10
-817.021317
 20
610.389542
 40
3.250037
 50
237.795963
 51
302.204037
  0
ARC
  8
OSA
  6
DOT
 10
-814.423225
 20
608.139514
 40
1.000009
 50
210.000310
 51
329.999690
  0
LINE
  8
OSA
  6
DOT
 10
-819.619409
 20
607.139504
 11
-817.021317
 21
605.407443
  0
LINE
  8
OSA
  6
DOT
 10
-817.021317
 20
605.407443
 11
-814.423225
 21
607.139504
  0
ENDBLK
  8
OSA
  0
BLOCK
  8
OSA
  2
Srouby_s_valcovou_hlavou___44
 70
   66
 10
-764.976370
 20
5.724310
  0
LINE
  8
OSA
 62
     2
  6
CONTINUOUS
 10
-759.276370
 20
610.139504
 11
-770.676370
 21
610.139504
  0
LINE
  8
OSA
 62
     2
  6
CONTINUOUS
 10
-758.476370
 20
609.339504
 11
-758.476370
 21
605.139504
  0
LINE
  8
OSA
 62
     2
  6
CONTINUOUS
 10
-758.476370
 20
605.139504
 11
-771.476370
 21
605.139504
  0
LINE
  8
OSA
 62
     2
  6
CONTINUOUS
 10
-771.476370
 20
605.139504
 11
-771.476370
 21
609.339504
  0
ARC
  8
OSA
 62
     2
  6
CONTINUOUS
 10
-759.276370
 20
609.339504
 40
0.800000
 50
0.000000
 51
90.000000
  0
ARC
  8
OSA
 62
     2
  6
CONTINUOUS
 10
-770.676370
 20
609.339504
 40
0.800000
 50
90.000000
 51
180.000000
  0
LINE
  8
OSA
  6
DOT
 10
-761.512247
 20
610.139504
 11
-761.512247
 21
607.639504
  0
LINE
  8
OSA
  6
DOT
 10
-763.244309
 20
610.139504
 11
-763.244309
 21
607.639504
  0
LINE
  8
OSA
  6
DOT
 10
-766.708432
 20
610.139504
 11
-766.708432
 21
607.639504
  0
LINE
  8
OSA
  6
DOT
 10
-768.440493
 20
610.139504
 11
-768.440493
 21
607.639504
  0
ARC
  8
OSA
  6
DOT
 10
-762.378278
 20
610.639514
 40
1.000009
 50
210.000310
 51
329.999690
  0
ARC
  8
OSA
  6
DOT
 10
-764.976370
 20
612.889542
 40
3.250037
 50
237.795963
 51
302.204037
  0
ARC
  8
OSA
  6
DOT
 10
-767.574463
 20
610.639514
 40
1.000009
 50
210.000310
 51
329.999690
  0
ARC
  8
OSA
  6
DOT
 10
-762.378278
 20
608.139514
 40
1.000009
 50
210.000310
 51
329.999690
  0
ARC
  8
OSA
  6
DOT
 10
-764.976370
 20
610.389542
 40
3.250037
 50
237.795963
 51
302.204037
  0
ARC
  8
OSA
  6
DOT
 10
-767.574463
 20
608.139514
 40
1.000009
 50
210.000310
 51
329.999690
  0
LINE
  8
OSA
  6
DOT
 10
-762.378278
 20
607.139504
 11
-764.976370
 21
605.407443
  0
LINE
  8
OSA
  6
DOT
 10
-764.976370
 20
605.407443
 11
-767.574463
 21
607.139504
  0
ENDBLK
  8
OSA
  0
BLOCK
  8
OSA
  2
Srouby_s_valcovou_hlavou___45
 70
   66
 10
-728.175035
 20
5.724310
  0
LINE
  8
OSA
 62
     2
  6
CONTINUOUS
 10
-722.475035
 20
610.139504
 11
-733.875035
 21
610.139504
  0
LINE
  8
OSA
 62
     2
  6
CONTINUOUS
 10
-721.675035
 20
609.339504
 11
-721.675035
 21
605.139504
  0
LINE
  8
OSA
 62
     2
  6
CONTINUOUS
 10
-721.675035
 20
605.139504
 11
-734.675035
 21
605.139504
  0
LINE
  8
OSA
 62
     2
  6
CONTINUOUS
 10
-734.675035
 20
605.139504
 11
-734.675035
 21
609.339504
  0
ARC
  8
OSA
 62
     2
  6
CONTINUOUS
 10
-722.475035
 20
609.339504
 40
0.800000
 50
0.000000
 51
90.000000
  0
ARC
  8
OSA
 62
     2
  6
CONTINUOUS
 10
-733.875035
 20
609.339504
 40
0.800000
 50
90.000000
 51
180.000000
  0
LINE
  8
OSA
  6
DOT
 10
-724.710912
 20
610.139504
 11
-724.710912
 21
607.639504
  0
LINE
  8
OSA
  6
DOT
 10
-726.442974
 20
610.139504
 11
-726.442974
 21
607.639504
  0
LINE
  8
OSA
  6
DOT
 10
-729.907097
 20
610.139504
 11
-729.907097
 21
607.639504
  0
LINE
  8
OSA
  6
DOT
 10
-731.639159
 20
610.139504
 11
-731.639159
 21
607.639504
  0
ARC
  8
OSA
  6
DOT
 10
-725.576943
 20
610.639514
 40
1.000009
 50
210.000310
 51
329.999690
  0
ARC
  8
OSA
  6
DOT
 10
-728.175035
 20
612.889542
 40
3.250037
 50
237.795963
 51
302.204037
  0
ARC
  8
OSA
  6
DOT
 10
-730.773128
 20
610.639514
 40
1.000009
 50
210.000310
 51
329.999690
  0
ARC
  8
OSA
  6
DOT
 10
-725.576943
 20
608.139514
 40
1.000009
 50
210.000310
 51
329.999690
  0
ARC
  8
OSA
  6
DOT
 10
-728.175035
 20
610.389542
 40
3.250037
 50
237.795963
 51
302.204037
  0
ARC
  8
OSA
  6
DOT
 10
-730.773128
 20
608.139514
 40
1.000009
 50
210.000310
 51
329.999690
  0
LINE
  8
OSA
  6
DOT
 10
-725.576943
 20
607.139504
 11
-728.175035
 21
605.407443
  0
LINE
  8
OSA
  6
DOT
 10
-728.175035
 20
605.407443
 11
-730.773128
 21
607.139504
  0
ENDBLK
  8
OSA
  0
BLOCK
  8
OSA
  2
Sroub_M10x16_23
 70
   66
 10
-1045.706441
 20
305.431907
  0
LINE
  8
OSA
 62
     2
  6
CONTINUOUS
 10
-1043.397025
 20
309.431907
 11
-1048.015856
 21
309.431907
  0
LINE
  8
OSA
 62
     2
  6
CONTINUOUS
 10
-1048.015856
 20
309.431907
 11
-1050.325272
 21
305.431907
  0
LINE
  8
OSA
 62
     2
  6
CONTINUOUS
 10
-1050.325272
 20
305.431907
 11
-1048.015856
 21
301.431907
  0
LINE
  8
OSA
 62
     2
  6
CONTINUOUS
 10
-1048.015856
 20
301.431907
 11
-1043.397025
 21
301.431907
  0
LINE
  8
OSA
 62
     2
  6
CONTINUOUS
 10
-1043.397025
 20
301.431907
 11
-1041.087610
 21
305.431907
  0
LINE
  8
OSA
 62
     2
  6
CONTINUOUS
 10
-1041.087610
 20
305.431907
 11
-1043.397025
 21
309.431907
  0
CIRCLE
  8
OSA
 62
     2
  6
CONTINUOUS
 10
-1045.706441
 20
305.431907
 40
4.618831
  0
CIRCLE
  8
OSA
 62
     2
  6
CONTINUOUS
 10
-1045.706441
 20
305.431907
 40
8.000000
  0
ENDBLK
  8
OSA
  0
BLOCK
  8
OSA
  2
Sroub_M10x16_24
 70
   66
 10
-790.998844
 20
560.139504
  0
LINE
  8
OSA
 62
     2
  6
CONTINUOUS
 10
-788.689428
 20
564.139504
 11
-793.308259
 21
564.139504
  0
LINE
  8
OSA
 62
     2
  6
CONTINUOUS
 10
-793.308259
 20
564.139504
 11
-795.617675
 21
560.139504
  0
LINE
  8
OSA
 62
     2
  6
CONTINUOUS
 10
-795.617675
 20
560.139504
 11
-793.308259
 21
556.139504
  0
LINE
  8
OSA
 62
     2
  6
CONTINUOUS
 10
-793.308259
 20
556.139504
 11
-788.689428
 21
556.139504
  0
LINE
  8
OSA
 62
     2
  6
CONTINUOUS
 10
-788.689428
 20
556.139504
 11
-786.380013
 21
560.139504
  0
LINE
  8
OSA
 62
     2
  6
CONTINUOUS
 10
-786.380013
 20
560.139504
 11
-788.689428
 21
564.139504
  0
CIRCLE
  8
OSA
 62
     2
  6
CONTINUOUS
 10
-790.998844
 20
560.139504
 40
4.618831
  0
CIRCLE
  8
OSA
 62
     2
  6
CONTINUOUS
 10
-790.998844
 20
560.139504
 40
8.000000
  0
ENDBLK
  8
OSA
  0
BLOCK
  8
OBRYS
  2
_25
 70
   64
 10
684.740453
 20
307.575956
  0
LINE
  8
OBRYS
 62
     7
  6
DASHDOT
 10
677.240456
 20
307.575956
 11
753.240449
 21
307.575956
  0
LINE
  8
OBRYS
 62
     7
  6
DASHDOT
 10
727.240456
 20
390.075956
 11
753.240449
 21
390.075956
  0
ARC
  8
OBRYS
 10
736.740453
 20
405.260450
 40
2.000000
 50
92.000000
 51
180.000000
  0
LINE
  8
OBRYS
 10
745.740453
 20
407.575956
 11
736.670654
 21
407.259231
  0
LINE
  8
OBRYS
 10
745.740453
 20
307.575956
 11
745.740453
 21
407.575956
  0
LINE
  8
OBRYS
 62
     4
  6
HIDDEN2
 10
741.540453
 20
372.575956
 11
745.740453
 21
372.575956
  0
LINE
  8
OBRYS
 62
     4
  6
HIDDEN2
 10
740.740453
 20
307.575956
 11
740.740453
 21
371.775956
  0
ARC
  8
OBRYS
 62
     4
  6
HIDDEN2
 10
741.540453
 20
371.775956
 40
0.800000
 50
90.000000
 51
180.000000
  0
ARC
  8
OBRYS
 10
732.740453
 20
375.910943
 40
2.000000
 50
275.000000
 51
360.000000
  0
LINE
  8
OBRYS
 10
734.740453
 20
307.575956
 11
734.740453
 21
405.260450
  0
ARC
  8
OBRYS
 10
732.740453
 20
312.075956
 40
2.000000
 50
270.000000
 51
360.000000
  0
ARC
  8
OBRYS
 10
732.740453
 20
303.075956
 40
2.000000
 50
0.000000
 51
90.000000
  0
LINE
  8
OBRYS
 10
734.740453
 20
307.575956
 11
734.740453
 21
209.891462
  0
LINE
  8
OBRYS
 10
735.542724
 20
208.289760
 11
685.542724
 21
245.679025
  0
ARC
  8
OBRYS
 10
686.740453
 20
247.280726
 40
2.000000
 50
180.000000
 51
265.000000
  0
LINE
  8
OBRYS
 10
732.914764
 20
241.233357
 11
686.566141
 21
245.288337
  0
ARC
  8
OBRYS
 10
732.740453
 20
239.240968
 40
2.000000
 50
0.000000
 51
85.000000
  0
ARC
  8
OBRYS
 62
     4
  6
HIDDEN2
 10
741.540453
 20
243.375956
 40
0.800000
 50
180.000000
 51
270.000000
  0
LINE
  8
OBRYS
 62
     4
  6
HIDDEN2
 10
740.740453
 20
307.575956
 11
740.740453
 21
243.375956
  0
LINE
  8
OBRYS
 62
     4
  6
HIDDEN2
 10
741.540453
 20
242.575956
 11
745.740453
 21
242.575956
  0
LINE
  8
OBRYS
 10
745.740453
 20
307.575956
 11
745.740453
 21
207.575956
  0
LINE
  8
OBRYS
 10
745.740453
 20
207.575956
 11
736.670654
 21
207.892680
  0
ARC
  8
OBRYS
 10
736.740453
 20
209.891462
 40
2.000000
 50
180.000000
 51
268.000000
  0
LINE
  8
OBRYS
 62
     7
  6
DASHDOT
 10
727.240456
 20
225.075956
 11
753.240449
 21
225.075956
  0
LINE
  8
OBRYS
 10
744.240453
 20
297.575956
 11
745.740453
 21
297.575956
  0
LINE
  8
OBRYS
 10
744.240453
 20
317.575956
 11
745.740453
 21
317.575956
  0
ARC
  8
OBRYS
 10
744.240453
 20
299.575956
 40
2.000000
 50
180.000000
 51
270.000000
  0
LINE
  8
OBRYS
 10
742.240453
 20
299.575956
 11
742.240453
 21
315.575956
  0
ARC
  8
OBRYS
 10
744.240453
 20
315.575956
 40
2.000000
 50
90.000000
 51
180.000000
  0
LINE
  8
OBRYS
 10
732.740453
 20
305.075956
 11
713.975953
 21
305.075956
  0
LINE
  8
OBRYS
 10
732.740453
 20
310.075956
 11
714.226389
 21
310.075956
  0
LINE
  8
OBRYS
 10
732.914764
 20
373.918554
 11
697.886466
 21
370.853975
  0
LINE
  8
OBRYS
 10
735.542724
 20
406.862151
 11
698.225552
 21
378.956918
  0
ENDBLK
  8
OBRYS
  0
BLOCK
  8
OSA
  2
Srouby_s_valcovou_hlavou__26
 70
   64
 10
79.825258
 20
281.553482
  0
LINE
  8
OSA
 62
     2
  6
CONTINUOUS
 10
684.740453
 20
243.575956
 11
684.240453
 21
243.075956
  0
LINE
  8
OSA
  6
DOT
 10
681.240453
 20
242.154055
 11
679.508391
 21
244.752147
  0
LINE
  8
OSA
  6
DOT
 10
679.508391
 20
244.752147
 11
681.240453
 21
247.350240
  0
ARC
  8
OSA
  6
DOT
 10
682.240462
 20
247.350240
 40
1.000009
 50
120.000310
 51
239.999690
  0
ARC
  8
OSA
  6
DOT
 10
684.490490
 20
244.752147
 40
3.250037
 50
147.795963
 51
212.204037
  0
ARC
  8
OSA
  6
DOT
 10
682.240462
 20
242.154055
 40
1.000009
 50
120.000310
 51
239.999690
  0
ARC
  8
OSA
  6
DOT
 10
684.740462
 20
247.350240
 40
1.000009
 50
120.000310
 51
239.999690
  0
ARC
  8
OSA
  6
DOT
 10
686.990490
 20
244.752147
 40
3.250037
 50
147.795963
 51
212.204037
  0
ARC
  8
OSA
  6
DOT
 10
684.740462
 20
242.154055
 40
1.000009
 50
120.000310
 51
239.999690
  0
LINE
  8
OSA
  6
DOT
 10
684.240453
 20
248.216271
 11
681.740453
 21
248.216271
  0
LINE
  8
OSA
  6
DOT
 10
684.240453
 20
246.484209
 11
681.740453
 21
246.484209
  0
LINE
  8
OSA
  6
DOT
 10
684.240453
 20
243.020086
 11
681.740453
 21
243.020086
  0
LINE
  8
OSA
  6
DOT
 10
684.240453
 20
241.288024
 11
681.740453
 21
241.288024
  0
ARC
  8
OSA
 62
     2
  6
CONTINUOUS
 10
683.440453
 20
239.052147
 40
0.800000
 50
270.000000
 51
360.000000
  0
LINE
  8
OSA
 62
     2
  6
CONTINUOUS
 10
672.240453
 20
231.575956
 11
677.310252
 21
231.752997
  0
ARC
  8
OSA
 62
     2
  6
CONTINUOUS
 10
677.240453
 20
233.751778
 40
2.000000
 50
272.000000
 51
360.000000
  0
ARC
  8
OSA
 62
     2
  6
CONTINUOUS
 10
681.240453
 20
237.247528
 40
2.000000
 50
135.000000
 51
180.000000
  0
LINE
  8
OSA
 10
664.740456
 20
307.575956
 11
702.240449
 21
307.575956
  0
LINE
  8
OSA
 62
     2
  6
CONTINUOUS
 10
672.240453
 20
231.575956
 11
672.240453
 21
241.177092
  0
LINE
  8
OSA
 62
     2
  6
CONTINUOUS
 10
679.240453
 20
245.432173
 11
679.240453
 21
233.751778
  0
LINE
  8
OSA
 62
     2
  6
CONTINUOUS
 10
684.740453
 20
243.575956
 11
684.740453
 21
249.529602
  0
LINE
  8
OSA
 62
     2
  6
CONTINUOUS
 10
683.440453
 20
238.252147
 11
679.240453
 21
238.252147
  0
LINE
  8
OSA
 62
     2
  6
CONTINUOUS
 10
679.240453
 20
238.252147
 11
679.240453
 21
245.432173
  0
LINE
  8
OSA
 62
     2
  6
CONTINUOUS
 10
684.240453
 20
239.052147
 11
684.240453
 21
249.125976
  0
ENDBLK
  8
OSA
  0
BLOCK
  8
OSA
  2
_27
 70
   64
 10
634.240453
 20
307.575956
  0
LINE
  8
OSA
 10
603.240456
 20
377.575956
 11
665.240449
 21
377.575956
  0
LINE
  8
OSA
 10
697.466342
 20
307.575956
 11
561.051744
 21
307.575956
  0
LINE
  8
OSA
 10
634.240453
 20
421.639042
 11
634.240453
 21
231.948310
  0
ARC
  8
OSA
 62
     2
  6
CONTINUOUS
 10
664.240453
 20
234.718401
 40
2.000000
 50
0.000000
 51
90.000000
  0
LINE
  8
OSA
 62
     2
  6
CONTINUOUS
 10
583.740453
 20
243.575956
 11
588.654666
 21
238.661742
  0
ARC
  8
OSA
 62
     2
  6
CONTINUOUS
 10
587.240453
 20
237.247528
 40
2.000000
 50
0.000000
 51
45.000000
  0
ARC
  8
OSA
 62
     2
  6
CONTINUOUS
 10
591.240453
 20
233.751778
 40
2.000000
 50
180.000000
 51
268.000000
  0
LINE
  8
OSA
 62
     2
  6
CONTINUOUS
 10
596.240453
 20
231.575956
 11
591.170654
 21
231.752997
  0
LINE
  8
OSA
 62
     2
  6
CONTINUOUS
 10
596.240453
 20
231.575956
 11
600.240453
 21
231.575956
  0
ARC
  8
OSA
 62
     2
  6
CONTINUOUS
 10
600.240453
 20
233.575956
 40
2.000000
 50
270.000000
 51
360.000000
  0
ARC
  8
OSA
 62
     2
  6
CONTINUOUS
 10
668.240453
 20
233.575956
 40
2.000000
 50
180.000000
 51
270.000000
  0
LINE
  8
OSA
 62
     2
  6
CONTINUOUS
 10
672.240453
 20
231.575956
 11
668.240453
 21
231.575956
  0
ARC
  8
OSA
 62
     2
  6
CONTINUOUS
 10
587.240453
 20
237.247528
 40
2.000000
 50
0.000000
 51
45.000000
  0
LINE
  8
OSA
 62
     2
  6
CONTINUOUS
 10
577.240453
 20
352.637864
 11
579.208057
 21
353.671239
  0
LINE
  8
OSA
 62
     2
  6
CONTINUOUS
 10
602.240453
 20
233.575956
 11
602.240453
 21
238.254744
  0
LINE
  8
OSA
 62
     2
  6
CONTINUOUS
 10
589.240453
 20
245.432173
 11
589.240453
 21
233.751778
  0
LINE
  8
OSA
 62
     2
  6
CONTINUOUS
 10
583.740453
 20
243.575956
 11
583.740453
 21
249.529602
  0
LINE
  8
OSA
 62
     2
  6
CONTINUOUS
 10
662.460064
 20
236.718401
 11
664.240453
 21
236.718401
  0
LINE
  8
OSA
 62
     2
  6
CONTINUOUS
 10
666.240453
 20
233.575956
 11
666.240453
 21
238.254744
  0
LINE
  8
OSA
 62
     2
  6
CONTINUOUS
 10
672.240453
 20
231.575956
 11
672.240453
 21
241.177092
  0
ENDBLK
  8
OSA
  0
BLOCK
  8
OBRYS
  2
_28
 70
   64
 10
634.240453
 20
377.575956
  0
ARC
  8
OBRYS
 10
634.240453
 20
311.575956
 40
92.000000
 50
45.920846
 51
134.079154
  0
ARC
  8
OBRYS
 10
634.240453
 20
311.575956
 40
52.000000
 50
44.999997
 51
135.000047
  0
ARC
  8
OBRYS
 10
634.240453
 20
311.575956
 40
32.000000
 50
44.999996
 51
135.000004
  0
ARC
  8
OBRYS
 10
604.541968
 20
341.274440
 40
10.000000
 50
135.000000
 51
315.000000
  0
ARC
  8
OBRYS
 10
663.938937
 20
341.274440
 40
10.000000
 50
225.000000
 51
45.000000
  0
CIRCLE
  8
OBRYS
 10
689.640453
 20
407.575956
 40
5.500000
  0
CIRCLE
  8
OBRYS
 10
634.240453
 20
440.575956
 40
5.500000
  0
CIRCLE
  8
OBRYS
 10
578.840453
 20
407.575956
 40
5.500000
  0
CIRCLE
  8
OBRYS
 10
634.240453
 20
277.575956
 40
5.500000
  0
CIRCLE
  8
OBRYS
 10
578.840453
 20
347.575956
 40
5.500000
  0
CIRCLE
  8
OBRYS
 10
689.640453
 20
347.575956
 40
5.500000
  0
ARC
  8
OBRYS
 10
634.240453
 20
311.575956
 40
74.000000
 50
333.573390
 51
17.140998
  0
ARC
  8
OBRYS
 10
634.240453
 20
311.575956
 40
61.000000
 50
333.573390
 51
17.140998
  0
ARC
  8
OBRYS
 10
698.742262
 20
331.469837
 40
6.500000
 50
17.141009
 51
197.141009
  0
ARC
  8
OBRYS
 10
569.738643
 20
331.469837
 40
6.500000
 50
342.858991
 51
162.858991
  0
ARC
  8
OBRYS
 10
634.240453
 20
311.575956
 40
61.000000
 50
162.858989
 51
206.426677
  0
ARC
  8
OBRYS
 10
634.240453
 20
311.575956
 40
74.000000
 50
162.858989
 51
206.426680
  0
ARC
  8
OBRYS
 10
634.240453
 20
311.575956
 40
61.000000
 50
63.573333
 51
116.426645
  0
ARC
  8
OBRYS
 10
634.240453
 20
311.575956
 40
74.000000
 50
63.573335
 51
116.426619
  0
ARC
  8
OBRYS
 10
634.240453
 20
311.575956
 40
61.000000
 50
243.573355
 51
296.426659
  0
ARC
  8
OBRYS
 10
634.240453
 20
311.575956
 40
74.000000
 50
243.573377
 51
296.426631
  0
ARC
  8
OBRYS
 10
664.281441
 20
372.022535
 40
6.500000
 50
243.573499
 51
63.573499
  0
ARC
  8
OBRYS
 10
604.199464
 20
372.022535
 40
6.500000
 50
116.426501
 51
296.426501
  0
ARC
  8
OBRYS
 10
604.199464
 20
251.129376
 40
6.500000
 50
63.573499
 51
243.573499
  0
ARC
  8
OBRYS
 10
573.793873
 20
281.534967
 40
6.500000
 50
206.427008
 51
26.427008
  0
ARC
  8
OBRYS
 10
694.687032
 20
281.534967
 40
6.500000
 50
153.572992
 51
333.572992
  0
ARC
  8
OBRYS
 10
664.281441
 20
251.129376
 40
6.500000
 50
296.426501
 51
116.426501
  0
CIRCLE
  8
OBRYS
 10
634.240453
 20
311.575956
 40
55.000000
  0
CIRCLE
  8
OBRYS
 10
634.240453
 20
311.575956
 40
80.000000
  0
ARC
  8
OBRYS
 10
634.240453
 20
377.575956
 40
64.000000
 50
345.942370
 51
19.389830
  0
ARC
  8
OBRYS
 10
634.240453
 20
377.575956
 40
64.000000
 50
160.610170
 51
194.057630
  0
INSERT
  8
OBRYS
  2
Vnitrni_metricky_zavit_M8__47
 62
     7
 10
680.202393
 20
357.537896
  0
INSERT
  8
OBRYS
  2
Vnitrni_metricky_zavit_M8__48
 62
     7
 10
588.278512
 20
357.537896
  0
LINE
  8
OSA
 10
595.879910
 20
349.936498
 11
580.677114
 21
365.139294
  0
LINE
  8
OSA
 10
672.600996
 20
349.936498
 11
687.803791
 21
365.139294
  0
CIRCLE
  8
OBRYS
 10
680.202393
 20
265.614015
 40
4.500000
  0
LINE
  8
OSA
 10
672.600996
 20
273.215413
 11
687.803791
 21
258.012617
  0
LINE
  8
OSA
 10
595.879910
 20
273.215413
 11
580.677114
 21
258.012617
  0
CIRCLE
  8
OBRYS
 10
588.278512
 20
265.614015
 40
4.500000
  0
CIRCLE
  8
OSA
 10
634.240453
 20
311.575956
 40
65.000000
  0
CIRCLE
  8
OBRYS
 10
609.240453
 20
288.575956
 40
3.000000
  0
LINE
  8
OSA
 10
609.240453
 20
288.575956
 11
617.240453
 21
288.575956
  0
LINE
  8
OSA
 10
609.240453
 20
288.575956
 11
609.240453
 21
296.575956
  0
LINE
  8
OSA
 10
609.240453
 20
288.575956
 11
609.240453
 21
280.575956
  0
LINE
  8
OSA
 10
609.240453
 20
288.575956
 11
599.097886
 21
288.575956
  0
CIRCLE
  8
OBRYS
 10
634.240453
 20
277.575956
 40
3.200000
  0
LINE
  8
OSA
 10
634.240453
 20
277.575956
 11
642.240453
 21
277.575956
  0
LINE
  8
OSA
 10
634.240453
 20
277.575956
 11
626.240453
 21
277.575956
  0
CIRCLE
  8
OBRYS
 10
689.640453
 20
407.575956
 40
3.200000
  0
CIRCLE
  8
OBRYS
 10
689.640453
 20
347.575956
 40
3.200000
  0
CIRCLE
  8
OBRYS
 10
578.840453
 20
347.575956
 40
3.200000
  0
CIRCLE
  8
OBRYS
 10
578.840453
 20
407.575956
 40
3.200000
  0
CIRCLE
  8
OBRYS
 10
677.240453
 20
423.575956
 40
3.000000
  0
LINE
  8
OSA
 10
677.240453
 20
423.575956
 11
689.240453
 21
423.575956
  0
LINE
  8
OSA
 10
677.240453
 20
423.575956
 11
665.240453
 21
423.575956
  0
LINE
  8
OSA
 10
677.240453
 20
423.575956
 11
677.240453
 21
435.575956
  0
LINE
  8
OSA
 10
677.240453
 20
423.575956
 11
677.240453
 21
411.575956
  0
LINE
  8
OSA
 10
570.840453
 20
407.575956
 11
586.840453
 21
407.575956
  0
LINE
  8
OSA
 10
570.840453
 20
347.575956
 11
586.840453
 21
347.575956
  0
LINE
  8
OSA
 10
578.840453
 20
414.983991
 11
578.840453
 21
338.683745
  0
LINE
  8
OSA
 10
689.640453
 20
414.983991
 11
689.640453
 21
338.683745
  0
LINE
  8
OSA
 10
697.640453
 20
347.575956
 11
681.640453
 21
347.575956
  0
LINE
  8
OSA
 10
697.640453
 20
407.575956
 11
681.640453
 21
407.575956
  0
ARC
  8
OBRYS
 10
645.025410
 20
442.740369
 40
3.000000
 50
191.347840
 51
254.724588
  0
ARC
  8
OBRYS
 10
634.240453
 20
440.575956
 40
8.000000
 50
11.347840
 51
168.652160
  0
LINE
  8
OBRYS
 10
644.235033
 20
439.846357
 11
679.084666
 21
430.328650
  0
ARC
  8
OBRYS
 10
623.455495
 20
442.740369
 40
3.000000
 50
285.275412
 51
348.652160
  0
LINE
  8
OBRYS
 10
624.245872
 20
439.846357
 11
589.396239
 21
430.328650
  0
ARC
  8
OBRYS
 10
578.840453
 20
407.575956
 40
8.000000
 50
139.392698
 51
224.840000
  0
ARC
  8
OBRYS
 10
571.040585
 20
399.819534
 40
3.000000
 50
340.610170
 51
44.839984
  0
LINE
  8
0
 62
     2
 10
572.766946
 20
412.782923
 11
585.926134
 21
428.132052
  0
ARC
  8
OBRYS
 10
591.240453
 20
423.575956
 40
7.000000
 50
105.275412
 51
139.392700
  0
ARC
  8
OBRYS
 10
677.240453
 20
423.575956
 40
7.000000
 50
40.607300
 51
74.724588
  0
ARC
  8
OBRYS
 10
689.640453
 20
407.575956
 40
8.000000
 50
315.160016
 51
40.607302
  0
LINE
  8
0
 62
     2
 10
695.713959
 20
412.782923
 11
682.554771
 21
428.132052
  0
ARC
  8
OBRYS
 10
697.440320
 20
399.819534
 40
3.000000
 50
135.160016
 51
199.389830
  0
LINE
  8
OSA
 10
643.690452
 20
440.575956
 11
624.790453
 21
440.575956
  0
CIRCLE
  8
OBRYS
 10
634.240453
 20
440.575956
 40
3.200000
  0
LINE
  8
OSA
 10
634.240453
 20
311.575956
 11
634.240453
 21
450.873896
  0
LINE
  8
OSA
 10
563.990453
 20
377.575956
 11
704.490452
 21
377.575956
  0
CIRCLE
  8
OBRYS
 10
634.240453
 20
311.575956
 40
23.500000
  0
LINE
  8
OSA
 10
634.240453
 20
311.575956
 11
634.240453
 21
225.325956
  0
LINE
  8
OSA
 10
634.240453
 20
311.575956
 11
720.490452
 21
311.575956
  0
LINE
  8
OSA
 10
634.240453
 20
311.575956
 11
547.990453
 21
311.575956
  0
CIRCLE
  8
OBRYS
 10
634.240453
 20
311.575956
 40
12.500000
  0
LINE
  8
OBRYS
 10
631.740453
 20
320.775956
 11
636.740453
 21
320.775956
  0
LINE
  8
OBRYS
 10
636.740453
 20
318.114304
 11
636.740453
 21
320.775956
  0
LINE
  8
OBRYS
 10
631.740453
 20
318.114304
 11
631.740453
 21
320.775956
  0
ARC
  8
OBRYS
 10
634.240453
 20
311.575956
 40
7.000000
 50
110.924832
 51
69.075168
  0
ENDBLK
  8
OBRYS
  0
BLOCK
  8
OBRYS
  2
Vnitrni_metricky_zavit_M8__47
 70
   66
 10
680.202393
 20
357.537896
  0
CIRCLE
  8
OBRYS
 10
680.202393
 20
357.537896
 40
3.323500
  0
ARC
  8
OBRYS
 62
     7
 10
680.202393
 20
357.537896
 40
4.000000
 50
265.000000
 51
185.000000
  0
ENDBLK
  8
OBRYS
  0
BLOCK
  8
OBRYS
  2
Vnitrni_metricky_zavit_M8__48
 70
   66
 10
588.278512
 20
357.537896
  0
CIRCLE
  8
OBRYS
 10
588.278512
 20
357.537896
 40
3.323500
  0
ARC
  8
OBRYS
 62
     7
 10
588.278512
 20
357.537896
 40
4.000000
 50
265.000000
 51
185.000000
  0
ENDBLK
  8
OBRYS
  0
BLOCK
  8
OBRYS
  2
_29
 70
   64
 10
293.532855
 20
377.575956
  0
LINE
  8
OBRYS
 10
250.532855
 20
340.122356
 11
236.029463
 21
340.122356
  0
LINE
  8
OBRYS
 10
250.532855
 20
355.200623
 11
236.029463
 21
355.200623
  0
LINE
  8
OBRYS
 10
250.532855
 20
399.951288
 11
241.728498
 21
399.951288
  0
LINE
  8
OBRYS
 10
250.532855
 20
429.762752
 11
243.315071
 21
429.762752
  0
LINE
  8
OBRYS
 10
250.532855
 20
442.575956
 11
240.532855
 21
442.575956
  0
LINE
  8
OBRYS
 62
     7
  6
DASHDOT
 10
217.282855
 20
311.575956
 11
256.782855
 21
311.575956
  0
ARC
  8
OBRYS
 10
231.521748
 20
394.575956
 40
3.000000
 50
270.000000
 51
330.000000
  0
LINE
  8
OBRYS
 10
240.130931
 20
403.487498
 11
234.119824
 21
393.075956
  0
LINE
  8
OBRYS
 10
223.532855
 20
391.575956
 11
231.521748
 21
391.575956
  0
ARC
  8
OBRYS
 10
237.532855
 20
404.987498
 40
3.000000
 50
330.000000
 51
360.000000
  0
LINE
  8
OBRYS
 10
240.532855
 20
445.575956
 11
240.532855
 21
404.987498
  0
ARC
  8
OBRYS
 10
242.532855
 20
445.575956
 40
2.000000
 50
90.000000
 51
180.000000
  0
LINE
  8
OBRYS
 10
242.532855
 20
447.575956
 11
250.532855
 21
447.575956
  0
LINE
  8
OBRYS
 10
250.532855
 20
447.575956
 11
250.532855
 21
269.575956
  0
LINE
  8
OBRYS
 10
236.532855
 20
269.575956
 11
250.532855
 21
269.575956
  0
ARC
  8
OBRYS
 10
236.532855
 20
266.575956
 40
3.000000
 50
90.000000
 51
180.000000
  0
ARC
  8
OBRYS
 10
230.532855
 20
234.575956
 40
3.000000
 50
270.000000
 51
360.000000
  0
LINE
  8
OBRYS
 10
223.532855
 20
231.575956
 11
230.532855
 21
231.575956
  0
LINE
  8
OBRYS
 10
223.532855
 20
391.575956
 11
223.532855
 21
231.575956
  0
LINE
  8
OBRYS
 10
233.532855
 20
391.575956
 11
233.532855
 21
234.575956
  0
LINE
  8
OBRYS
 10
255.532855
 20
429.762752
 11
280.597297
 21
429.762752
  0
LINE
  8
OBRYS
 10
255.532855
 20
338.122356
 11
255.532855
 21
269.575956
  0
LINE
  8
OBRYS
 10
257.532855
 20
340.122356
 11
280.597297
 21
340.122356
  0
LINE
  8
OBRYS
 10
255.532855
 20
397.951288
 11
255.532855
 21
357.200623
  0
LINE
  8
OBRYS
 10
257.532855
 20
355.200623
 11
280.597297
 21
355.200623
  0
LINE
  8
OBRYS
 10
257.532855
 20
399.951288
 11
280.597297
 21
399.951288
  0
LINE
  8
OBRYS
 10
250.532855
 20
442.575956
 11
281.217856
 21
442.575956
  0
LINE
  8
OBRYS
 10
290.532855
 20
430.896464
 11
290.532855
 21
377.575956
  0
LINE
  8
OBRYS
 10
293.532855
 20
417.062271
 11
293.532855
 21
377.575956
  0
LINE
  8
OBRYS
 62
     7
  6
DASHDOT
 10
245.578595
 20
311.575956
 11
295.532855
 21
311.575956
  0
LINE
  8
OBRYS
 10
250.532855
 20
447.575956
 11
250.532855
 21
269.575956
  0
LINE
  8
OBRYS
 10
250.532855
 20
269.575956
 11
280.532855
 21
269.575956
  0
ARC
  8
OBRYS
 10
293.532855
 20
420.062271
 40
3.000000
 50
180.000000
 51
270.000000
  0
LINE
  8
OBRYS
 62
     7
  6
DASHDOT
 10
245.532855
 20
377.575956
 11
303.532855
 21
377.575956
  0
ARC
  8
OBRYS
 10
280.532855
 20
429.575956
 40
10.000000
 50
0.000000
 51
50.000000
  0
LINE
  8
OBRYS
 10
250.532855
 20
447.575956
 11
273.546618
 21
447.575956
  0
LINE
  8
OBRYS
 10
286.960731
 20
437.236400
 11
275.474981
 21
446.874089
  0
ARC
  8
OBRYS
 10
273.546618
 20
444.575956
 40
3.000000
 50
50.000000
 51
90.000000
  0
ARC
  8
OBRYS
 10
280.532855
 20
279.575956
 40
10.000000
 50
270.000000
 51
305.237355
  0
LINE
  8
OBRYS
 10
293.532855
 20
358.605359
 11
293.532855
 21
377.575956
  0
LINE
  8
OBRYS
 10
290.532855
 20
377.575956
 11
290.532855
 21
353.172008
  0
ENDBLK
  8
OBRYS
  0
BLOCK
  8
OBRYS
  2
_30
 70
   64
 10
974.948050
 20
377.575956
  0
ARC
  8
OBRYS
 10
994.934287
 20
444.575956
 40
3.000000
 50
90.000000
 51
130.000000
  0
LINE
  8
OBRYS
 10
981.520174
 20
437.236400
 11
993.005924
 21
446.874089
  0
LINE
  8
OBRYS
 10
1017.948050
 20
447.575956
 11
994.934287
 21
447.575956
  0
ARC
  8
OBRYS
 10
987.948050
 20
429.575956
 40
10.000000
 50
130.000000
 51
180.000000
  0
LINE
  8
OSA
 10
1022.948050
 20
377.575956
 11
964.948050
 21
377.575956
  0
ARC
  8
OBRYS
 10
974.948050
 20
335.089640
 40
3.000000
 50
0.000000
 51
90.000000
  0
ARC
  8
OBRYS
 10
974.948050
 20
420.062271
 40
3.000000
 50
270.000000
 51
360.000000
  0
ARC
  8
OBRYS
 10
987.948050
 20
279.575956
 40
10.000000
 50
180.000000
 51
270.000000
  0
LINE
  8
OBRYS
 10
1017.948050
 20
269.575956
 11
987.948050
 21
269.575956
  0
LINE
  8
OBRYS
 10
1017.948050
 20
447.575956
 11
1017.948050
 21
269.575956
  0
LINE
  8
OSA
 10
1022.902310
 20
311.575956
 11
972.948050
 21
311.575956
  0
LINE
  8
OBRYS
 10
974.948050
 20
417.062271
 11
974.948050
 21
377.575956
  0
LINE
  8
OBRYS
 10
974.948050
 20
338.089640
 11
974.948050
 21
377.575956
  0
LINE
  8
OBRYS
 10
977.948050
 20
430.896464
 11
977.948050
 21
377.575956
  0
LINE
  8
OBRYS
 10
977.948050
 20
377.575956
 11
977.948050
 21
279.575956
  0
LINE
  8
OBRYS
 10
1017.948050
 20
442.575956
 11
987.263049
 21
442.575956
  0
LINE
  8
OBRYS
 10
1010.948050
 20
399.951288
 11
987.883608
 21
399.951288
  0
LINE
  8
OBRYS
 10
1010.948050
 20
355.200623
 11
987.883608
 21
355.200623
  0
LINE
  8
OBRYS
 10
1012.948050
 20
397.951288
 11
1012.948050
 21
357.200623
  0
LINE
  8
OBRYS
 10
1010.948050
 20
340.122356
 11
987.883608
 21
340.122356
  0
LINE
  8
OBRYS
 10
1012.948050
 20
338.122356
 11
1012.948050
 21
269.575956
  0
LINE
  8
OBRYS
 10
1012.948050
 20
429.762752
 11
987.883608
 21
429.762752
  0
LINE
  8
OBRYS
 10
1034.948050
 20
391.575956
 11
1034.948050
 21
234.575956
  0
LINE
  8
OBRYS
 10
1044.948050
 20
391.575956
 11
1044.948050
 21
231.575956
  0
LINE
  8
OBRYS
 10
1044.948050
 20
231.575956
 11
1037.948050
 21
231.575956
  0
ARC
  8
OBRYS
 10
1037.948050
 20
234.575956
 40
3.000000
 50
180.000000
 51
270.000000
  0
ARC
  8
OBRYS
 10
1031.948050
 20
266.575956
 40
3.000000
 50
0.000000
 51
90.000000
  0
LINE
  8
OBRYS
 10
1031.948050
 20
269.575956
 11
1017.948050
 21
269.575956
  0
LINE
  8
OBRYS
 10
1017.948050
 20
447.575956
 11
1017.948050
 21
269.575956
  0
LINE
  8
OBRYS
 10
1025.948050
 20
447.575956
 11
1017.948050
 21
447.575956
  0
ARC
  8
OBRYS
 10
1025.948050
 20
445.575956
 40
2.000000
 50
0.000000
 51
90.000000
  0
LINE
  8
OBRYS
 10
1027.948050
 20
445.575956
 11
1027.948050
 21
404.987498
  0
ARC
  8
OBRYS
 10
1030.948050
 20
404.987498
 40
3.000000
 50
180.000000
 51
210.000000
  0
LINE
  8
OBRYS
 10
1044.948050
 20
391.575956
 11
1036.959157
 21
391.575956
  0
LINE
  8
OBRYS
 10
1028.349974
 20
403.487498
 11
1034.361081
 21
393.075956
  0
ARC
  8
OBRYS
 10
1036.959157
 20
394.575956
 40
3.000000
 50
210.000000
 51
270.000000
  0
LINE
  8
OSA
 10
1051.198050
 20
311.575956
 11
1011.698050
 21
311.575956
  0
LINE
  8
OBRYS
 10
1017.948050
 20
442.575956
 11
1027.948050
 21
442.575956
  0
LINE
  8
OBRYS
 10
1017.948050
 20
429.762752
 11
1025.165834
 21
429.762752
  0
LINE
  8
OBRYS
 10
1017.948050
 20
399.951288
 11
1026.752407
 21
399.951288
  0
LINE
  8
OBRYS
 10
1017.948050
 20
355.200623
 11
1032.451442
 21
355.200623
  0
LINE
  8
OBRYS
 10
1017.948050
 20
340.122356
 11
1032.451442
 21
340.122356
  0
ENDBLK
  8
OBRYS
  0
BLOCK
  8
OBRYS
  2
_31
 70
   64
 10
293.532855
 20
52.868358
  0
LINE
  8
OSA
 10
217.282855
 20
52.868358
 11
301.107607
 21
52.868358
  0
ARC
  8
OBRYS
 10
230.532855
 20
-24.131642
 40
3.000000
 50
270.000000
 51
360.000000
  0
LINE
  8
OBRYS
 10
223.532855
 20
-27.131642
 11
230.532855
 21
-27.131642
  0
LINE
  8
OBRYS
 10
223.532855
 20
132.868358
 11
223.532855
 21
-27.131642
  0
ARC
  8
OBRYS
 10
293.532855
 20
14.868358
 40
3.000000
 50
90.000000
 51
180.000000
  0
ARC
  8
OBRYS
 10
293.532855
 20
90.868358
 40
3.000000
 50
180.000000
 51
270.000000
  0
LINE
  8
OBRYS
 10
293.532855
 20
87.868358
 11
293.532855
 21
52.868358
  0
LINE
  8
OBRYS
 10
293.532855
 20
17.868358
 11
293.532855
 21
52.868358
  0
LINE
  8
OBRYS
 10
290.532855
 20
106.868294
 11
290.532855
 21
52.868358
  0
ARC
  8
OBRYS
 10
280.532855
 20
106.868294
 40
10.000000
 50
0.000000
 51
90.000000
  0
LINE
  8
OBRYS
 10
290.532855
 20
52.868358
 11
290.532855
 21
-1.131577
  0
ARC
  8
OBRYS
 10
280.532855
 20
-1.131577
 40
10.000000
 50
270.000000
 51
360.000000
  0
LINE
  8
OBRYS
 10
235.532855
 20
116.868294
 11
280.532855
 21
116.868294
  0
ARC
  8
OBRYS
 10
235.532855
 20
118.868294
 40
2.000000
 50
180.000000
 51
270.000000
  0
LINE
  8
OBRYS
 10
235.532855
 20
-11.131577
 11
280.532855
 21
-11.131577
  0
ARC
  8
OBRYS
 10
235.532855
 20
-13.131577
 40
2.000000
 50
90.000000
 51
180.000000
  0
LINE
  8
OBRYS
 10
223.532855
 20
132.868358
 11
230.532855
 21
132.868358
  0
LINE
  8
OBRYS
 10
233.532855
 20
129.868358
 11
233.532855
 21
-24.131642
  0
ARC
  8
OBRYS
 10
230.532855
 20
129.868358
 40
3.000000
 50
0.000000
 51
90.000000
  0
LINE
  8
OBRYS
 10
250.532855
 20
116.868294
 11
250.532855
 21
-11.131577
  0
LINE
  8
OBRYS
 10
242.532855
 20
99.784637
 11
280.597297
 21
99.784637
  0
LINE
  8
OBRYS
 10
242.532855
 20
60.866235
 11
280.597297
 21
60.866235
  0
ARC
  8
OBRYS
 10
243.532855
 20
113.868294
 40
3.000000
 50
90.000000
 51
180.000000
  0
LINE
  8
OBRYS
 10
240.532855
 20
113.868294
 11
240.532855
 21
-8.131577
  0
ARC
  8
OBRYS
 10
243.532855
 20
-8.131577
 40
3.000000
 50
180.000000
 51
270.000000
  0
LINE
  8
OBRYS
 10
242.532855
 20
5.952079
 11
280.597297
 21
5.952079
  0
LINE
  8
OBRYS
 10
242.532855
 20
44.870481
 11
280.597297
 21
44.870481
  0
ENDBLK
  8
OBRYS
  0
BLOCK
  8
OBRYS
  2
_32
 70
   64
 10
293.532855
 20
562.283553
  0
LINE
  8
OSA
 10
217.282855
 20
562.283553
 11
301.107607
 21
562.283553
  0
ARC
  8
OBRYS
 10
230.532855
 20
485.283553
 40
3.000000
 50
270.000000
 51
360.000000
  0
LINE
  8
OBRYS
 10
223.532855
 20
482.283553
 11
230.532855
 21
482.283553
  0
LINE
  8
OBRYS
 10
223.532855
 20
642.283553
 11
223.532855
 21
482.283553
  0
ARC
  8
OBRYS
 10
293.532855
 20
524.283553
 40
3.000000
 50
90.000000
 51
180.000000
  0
ARC
  8
OBRYS
 10
293.532855
 20
600.283553
 40
3.000000
 50
180.000000
 51
270.000000
  0
LINE
  8
OBRYS
 10
293.532855
 20
597.283553
 11
293.532855
 21
562.283553
  0
LINE
  8
OBRYS
 10
293.532855
 20
527.283553
 11
293.532855
 21
562.283553
  0
LINE
  8
OBRYS
 10
290.532855
 20
616.283488
 11
290.532855
 21
562.283553
  0
ARC
  8
OBRYS
 10
280.532855
 20
616.283488
 40
10.000000
 50
0.000000
 51
90.000000
  0
LINE
  8
OBRYS
 10
290.532855
 20
562.283553
 11
290.532855
 21
508.283617
  0
ARC
  8
OBRYS
 10
280.532855
 20
508.283617
 40
10.000000
 50
270.000000
 51
360.000000
  0
LINE
  8
OBRYS
 10
235.532855
 20
626.283488
 11
280.532855
 21
626.283488
  0
ARC
  8
OBRYS
 10
235.532855
 20
628.283488
 40
2.000000
 50
180.000000
 51
270.000000
  0
LINE
  8
OBRYS
 10
235.532855
 20
498.283617
 11
280.532855
 21
498.283617
  0
ARC
  8
OBRYS
 10
235.532855
 20
496.283617
 40
2.000000
 50
90.000000
 51
180.000000
  0
LINE
  8
OBRYS
 10
223.532855
 20
642.283553
 11
230.532855
 21
642.283553
  0
LINE
  8
OBRYS
 10
233.532855
 20
639.283553
 11
233.532855
 21
485.283553
  0
ARC
  8
OBRYS
 10
230.532855
 20
639.283553
 40
3.000000
 50
0.000000
 51
90.000000
  0
LINE
  8
OBRYS
 10
250.532855
 20
626.283488
 11
250.532855
 21
498.283617
  0
LINE
  8
OBRYS
 10
280.532855
 20
616.726440
 11
233.532855
 21
616.726440
  0
LINE
  8
OBRYS
 10
256.532855
 20
615.116956
 11
256.532855
 21
509.383300
  0
LINE
  8
OBRYS
 10
280.532855
 20
507.840665
 11
233.532855
 21
507.840665
  0
ENDBLK
  8
OBRYS
  0
BLOCK
  8
OSA
  2
Sroub_M10x16_33
 70
   66
 10
379.532855
 20
562.283553
  0
LINE
  8
OSA
 62
     2
  6
CONTINUOUS
 10
381.842271
 20
566.283553
 11
377.223440
 21
566.283553
  0
LINE
  8
OSA
 62
     2
  6
CONTINUOUS
 10
377.223440
 20
566.283553
 11
374.914024
 21
562.283553
  0
LINE
  8
OSA
 62
     2
  6
CONTINUOUS
 10
374.914024
 20
562.283553
 11
377.223440
 21
558.283553
  0
LINE
  8
OSA
 62
     2
  6
CONTINUOUS
 10
377.223440
 20
558.283553
 11
381.842271
 21
558.283553
  0
LINE
  8
OSA
 62
     2
  6
CONTINUOUS
 10
381.842271
 20
558.283553
 11
384.151686
 21
562.283553
  0
LINE
  8
OSA
 62
     2
  6
CONTINUOUS
 10
384.151686
 20
562.283553
 11
381.842271
 21
566.283553
  0
CIRCLE
  8
OSA
 62
     2
  6
CONTINUOUS
 10
379.532855
 20
562.283553
 40
4.618831
  0
CIRCLE
  8
OSA
 62
     2
  6
CONTINUOUS
 10
379.532855
 20
562.283553
 40
8.000000
  0
ENDBLK
  8
OSA
  0
BLOCK
  8
OSA
  2
Sroub_M10x16_34
 70
   66
 10
124.825258
 20
307.575956
  0
LINE
  8
OSA
 62
     2
  6
CONTINUOUS
 10
127.134673
 20
311.575956
 11
122.515842
 21
311.575956
  0
LINE
  8
OSA
 62
     2
  6
CONTINUOUS
 10
122.515842
 20
311.575956
 11
120.206427
 21
307.575956
  0
LINE
  8
OSA
 62
     2
  6
CONTINUOUS
 10
120.206427
 20
307.575956
 11
122.515842
 21
303.575956
  0
LINE
  8
OSA
 62
     2
  6
CONTINUOUS
 10
122.515842
 20
303.575956
 11
127.134673
 21
303.575956
  0
LINE
  8
OSA
 62
     2
  6
CONTINUOUS
 10
127.134673
 20
303.575956
 11
129.444089
 21
307.575956
  0
LINE
  8
OSA
 62
     2
  6
CONTINUOUS
 10
129.444089
 20
307.575956
 11
127.134673
 21
311.575956
  0
CIRCLE
  8
OSA
 62
     2
  6
CONTINUOUS
 10
124.825258
 20
307.575956
 40
4.618831
  0
CIRCLE
  8
OSA
 62
     2
  6
CONTINUOUS
 10
124.825258
 20
307.575956
 40
8.000000
  0
ENDBLK
  8
OSA
  0
BLOCK
  8
OSA
  2
_35
 70
   64
 10
379.532855
 20
600.283553
  0
LINE
  8
OSA
 10
379.532855
 20
592.783556
 11
379.532855
 21
630.283549
  0
LINE
  8
OSA
 62
     2
  6
CONTINUOUS
 10
303.532855
 20
600.283553
 11
379.532855
 21
600.283553
  0
LINE
  8
OSA
 62
     2
  6
CONTINUOUS
 10
455.532855
 20
600.283553
 11
379.532855
 21
600.283553
  0
LINE
  8
OSA
 62
     2
  6
CONTINUOUS
 10
424.594764
 20
619.283553
 11
430.897095
 21
607.283553
  0
ARC
  8
OSA
 62
     2
  6
CONTINUOUS
 10
449.861282
 20
609.283553
 40
2.000000
 50
225.000000
 51
270.000000
  0
LINE
  8
OSA
 62
     2
  6
CONTINUOUS
 10
443.532855
 20
612.783553
 11
428.008527
 21
612.783553
  0
LINE
  8
OSA
 62
     2
  6
CONTINUOUS
 10
384.078632
 20
612.783553
 11
382.747232
 21
607.283553
  0
ARC
  8
OSA
 62
     2
  6
CONTINUOUS
 10
453.357032
 20
605.283553
 40
2.000000
 50
2.000000
 51
90.000000
  0
LINE
  8
OSA
 62
     2
  6
CONTINUOUS
 10
455.532855
 20
600.283553
 11
455.355814
 21
605.353352
  0
LINE
  8
OSA
 62
     2
  6
CONTINUOUS
 10
379.532855
 20
607.283553
 11
453.357032
 21
607.283553
  0
LINE
  8
OSA
 62
     2
  6
CONTINUOUS
 10
379.532855
 20
612.783553
 11
394.196142
 21
612.783553
  0
LINE
  8
OSA
 62
     2
  6
CONTINUOUS
 10
379.532855
 20
612.783553
 11
364.869569
 21
612.783553
  0
LINE
  8
OSA
 62
     2
  6
CONTINUOUS
 10
379.532855
 20
607.283553
 11
305.708678
 21
607.283553
  0
ARC
  8
OSA
 62
     2
  6
CONTINUOUS
 10
309.204428
 20
609.283553
 40
2.000000
 50
270.000000
 51
315.000000
  0
LINE
  8
OSA
 62
     2
  6
CONTINUOUS
 10
303.532855
 20
600.283553
 11
303.709897
 21
605.353352
  0
ARC
  8
OSA
 62
     2
  6
CONTINUOUS
 10
305.708678
 20
605.283553
 40
2.000000
 50
90.000000
 51
178.000000
  0
LINE
  8
OSA
 62
     2
  6
CONTINUOUS
 10
374.987079
 20
612.783553
 11
376.318478
 21
607.283553
  0
LINE
  8
OSA
 62
     2
  6
CONTINUOUS
 10
315.532855
 20
612.783553
 11
331.057184
 21
612.783553
  0
LINE
  8
OSA
 62
     2
  6
CONTINUOUS
 10
334.470947
 20
619.283553
 11
328.168615
 21
607.283553
  0
INSERT
  8
OSA
  2
Srouby_s_valcovou_hlavou___50
  6
CONTINUOUS
 10
316.709047
 20
7.868358
  0
INSERT
  8
OSA
  2
Srouby_s_valcovou_hlavou___51
  6
CONTINUOUS
 10
353.510382
 20
7.868358
  0
LINE
  8
OSA
 62
     2
  6
CONTINUOUS
 10
315.532855
 20
612.783553
 11
315.032855
 21
612.283553
  0
INSERT
  8
OSA
  2
Srouby_s_valcovou_hlavou___52
  6
CONTINUOUS
 10
405.555329
 20
7.868358
  0
INSERT
  8
OSA
  2
Srouby_s_valcovou_hlavou___53
  6
CONTINUOUS
 10
442.356663
 20
7.868358
  0
LINE
  8
OSA
 62
     2
  6
CONTINUOUS
 10
443.532855
 20
612.783553
 11
444.032855
 21
612.283553
  0
LINE
  8
OSA
 62
     2
  6
CONTINUOUS
 10
341.460169
 20
616.736837
 11
332.714431
 21
607.283553
  0
LINE
  8
OSA
 62
     2
  6
CONTINUOUS
 10
341.130364
 20
619.283553
 11
334.470947
 21
619.283553
  0
LINE
  8
OSA
 62
     2
  6
CONTINUOUS
 10
417.605542
 20
616.736837
 11
426.351280
 21
607.283553
  0
LINE
  8
OSA
 62
     2
  6
CONTINUOUS
 10
417.935346
 20
619.283553
 11
424.594764
 21
619.283553
  0
ENDBLK
  8
OSA
  0
BLOCK
  8
OSA
  2
Srouby_s_valcovou_hlavou___50
 70
   66
 10
316.709047
 20
7.868358
  0
LINE
  8
OSA
 62
     2
  6
CONTINUOUS
 10
311.009047
 20
612.283553
 11
322.409047
 21
612.283553
  0
LINE
  8
OSA
 62
     2
  6
CONTINUOUS
 10
310.209047
 20
611.483553
 11
310.209047
 21
607.283553
  0
LINE
  8
OSA
 62
     2
  6
CONTINUOUS
 10
310.209047
 20
607.283553
 11
323.209047
 21
607.283553
  0
LINE
  8
OSA
 62
     2
  6
CONTINUOUS
 10
323.209047
 20
607.283553
 11
323.209047
 21
611.483553
  0
ARC
  8
OSA
 62
     2
  6
CONTINUOUS
 10
311.009047
 20
611.483553
 40
0.800000
 50
90.000000
 51
180.000000
  0
ARC
  8
OSA
 62
     2
  6
CONTINUOUS
 10
322.409047
 20
611.483553
 40
0.800000
 50
0.000000
 51
90.000000
  0
LINE
  8
OSA
  6
DOT
 10
313.244924
 20
612.283553
 11
313.244924
 21
609.783553
  0
LINE
  8
OSA
  6
DOT
 10
314.976985
 20
612.283553
 11
314.976985
 21
609.783553
  0
LINE
  8
OSA
  6
DOT
 10
318.441109
 20
612.283553
 11
318.441109
 21
609.783553
  0
LINE
  8
OSA
  6
DOT
 10
320.173170
 20
612.283553
 11
320.173170
 21
609.783553
  0
ARC
  8
OSA
  6
DOT
 10
314.110955
 20
612.783562
 40
1.000009
 50
210.000310
 51
329.999690
  0
ARC
  8
OSA
  6
DOT
 10
316.709047
 20
615.033590
 40
3.250037
 50
237.795963
 51
302.204037
  0
ARC
  8
OSA
  6
DOT
 10
319.307139
 20
612.783562
 40
1.000009
 50
210.000310
 51
329.999690
  0
ARC
  8
OSA
  6
DOT
 10
314.110955
 20
610.283562
 40
1.000009
 50
210.000310
 51
329.999690
  0
ARC
  8
OSA
  6
DOT
 10
316.709047
 20
612.533590
 40
3.250037
 50
237.795963
 51
302.204037
  0
ARC
  8
OSA
  6
DOT
 10
319.307139
 20
610.283562
 40
1.000009
 50
210.000310
 51
329.999690
  0
LINE
  8
OSA
  6
DOT
 10
314.110955
 20
609.283553
 11
316.709047
 21
607.551491
  0
LINE
  8
OSA
  6
DOT
 10
316.709047
 20
607.551491
 11
319.307139
 21
609.283553
  0
ENDBLK
  8
OSA
  0
BLOCK
  8
OSA
  2
Srouby_s_valcovou_hlavou___51
 70
   66
 10
353.510382
 20
7.868358
  0
LINE
  8
OSA
 62
     2
  6
CONTINUOUS
 10
347.810382
 20
612.283553
 11
359.210382
 21
612.283553
  0
LINE
  8
OSA
 62
     2
  6
CONTINUOUS
 10
347.010382
 20
611.483553
 11
347.010382
 21
607.283553
  0
LINE
  8
OSA
 62
     2
  6
CONTINUOUS
 10
347.010382
 20
607.283553
 11
360.010382
 21
607.283553
  0
LINE
  8
OSA
 62
     2
  6
CONTINUOUS
 10
360.010382
 20
607.283553
 11
360.010382
 21
611.483553
  0
ARC
  8
OSA
 62
     2
  6
CONTINUOUS
 10
347.810382
 20
611.483553
 40
0.800000
 50
90.000000
 51
180.000000
  0
ARC
  8
OSA
 62
     2
  6
CONTINUOUS
 10
359.210382
 20
611.483553
 40
0.800000
 50
0.000000
 51
90.000000
  0
LINE
  8
OSA
  6
DOT
 10
350.046259
 20
612.283553
 11
350.046259
 21
609.783553
  0
LINE
  8
OSA
  6
DOT
 10
351.778320
 20
612.283553
 11
351.778320
 21
609.783553
  0
LINE
  8
OSA
  6
DOT
 10
355.242443
 20
612.283553
 11
355.242443
 21
609.783553
  0
LINE
  8
OSA
  6
DOT
 10
356.974505
 20
612.283553
 11
356.974505
 21
609.783553
  0
ARC
  8
OSA
  6
DOT
 10
350.912289
 20
612.783562
 40
1.000009
 50
210.000310
 51
329.999690
  0
ARC
  8
OSA
  6
DOT
 10
353.510382
 20
615.033590
 40
3.250037
 50
237.795963
 51
302.204037
  0
ARC
  8
OSA
  6
DOT
 10
356.108474
 20
612.783562
 40
1.000009
 50
210.000310
 51
329.999690
  0
ARC
  8
OSA
  6
DOT
 10
350.912289
 20
610.283562
 40
1.000009
 50
210.000310
 51
329.999690
  0
ARC
  8
OSA
  6
DOT
 10
353.510382
 20
612.533590
 40
3.250037
 50
237.795963
 51
302.204037
  0
ARC
  8
OSA
  6
DOT
 10
356.108474
 20
610.283562
 40
1.000009
 50
210.000310
 51
329.999690
  0
LINE
  8
OSA
  6
DOT
 10
350.912289
 20
609.283553
 11
353.510382
 21
607.551491
  0
LINE
  8
OSA
  6
DOT
 10
353.510382
 20
607.551491
 11
356.108474
 21
609.283553
  0
ENDBLK
  8
OSA
  0
BLOCK
  8
OSA
  2
Srouby_s_valcovou_hlavou___52
 70
   66
 10
405.555329
 20
7.868358
  0
LINE
  8
OSA
 62
     2
  6
CONTINUOUS
 10
411.255329
 20
612.283553
 11
399.855329
 21
612.283553
  0
LINE
  8
OSA
 62
     2
  6
CONTINUOUS
 10
412.055329
 20
611.483553
 11
412.055329
 21
607.283553
  0
LINE
  8
OSA
 62
     2
  6
CONTINUOUS
 10
412.055329
 20
607.283553
 11
399.055329
 21
607.283553
  0
LINE
  8
OSA
 62
     2
  6
CONTINUOUS
 10
399.055329
 20
607.283553
 11
399.055329
 21
611.483553
  0
ARC
  8
OSA
 62
     2
  6
CONTINUOUS
 10
411.255329
 20
611.483553
 40
0.800000
 50
0.000000
 51
90.000000
  0
ARC
  8
OSA
 62
     2
  6
CONTINUOUS
 10
399.855329
 20
611.483553
 40
0.800000
 50
90.000000
 51
180.000000
  0
LINE
  8
OSA
  6
DOT
 10
409.019452
 20
612.283553
 11
409.019452
 21
609.783553
  0
LINE
  8
OSA
  6
DOT
 10
407.287390
 20
612.283553
 11
407.287390
 21
609.783553
  0
LINE
  8
OSA
  6
DOT
 10
403.823267
 20
612.283553
 11
403.823267
 21
609.783553
  0
LINE
  8
OSA
  6
DOT
 10
402.091205
 20
612.283553
 11
402.091205
 21
609.783553
  0
ARC
  8
OSA
  6
DOT
 10
408.153421
 20
612.783562
 40
1.000009
 50
210.000310
 51
329.999690
  0
ARC
  8
OSA
  6
DOT
 10
405.555329
 20
615.033590
 40
3.250037
 50
237.795963
 51
302.204037
  0
ARC
  8
OSA
  6
DOT
 10
402.957236
 20
612.783562
 40
1.000009
 50
210.000310
 51
329.999690
  0
ARC
  8
OSA
  6
DOT
 10
408.153421
 20
610.283562
 40
1.000009
 50
210.000310
 51
329.999690
  0
ARC
  8
OSA
  6
DOT
 10
405.555329
 20
612.533590
 40
3.250037
 50
237.795963
 51
302.204037
  0
ARC
  8
OSA
  6
DOT
 10
402.957236
 20
610.283562
 40
1.000009
 50
210.000310
 51
329.999690
  0
LINE
  8
OSA
  6
DOT
 10
408.153421
 20
609.283553
 11
405.555329
 21
607.551491
  0
LINE
  8
OSA
  6
DOT
 10
405.555329
 20
607.551491
 11
402.957236
 21
609.283553
  0
ENDBLK
  8
OSA
  0
BLOCK
  8
OSA
  2
Srouby_s_valcovou_hlavou___53
 70
   66
 10
442.356663
 20
7.868358
  0
LINE
  8
OSA
 62
     2
  6
CONTINUOUS
 10
448.056663
 20
612.283553
 11
436.656663
 21
612.283553
  0
LINE
  8
OSA
 62
     2
  6
CONTINUOUS
 10
448.856663
 20
611.483553
 11
448.856663
 21
607.283553
  0
LINE
  8
OSA
 62
     2
  6
CONTINUOUS
 10
448.856663
 20
607.283553
 11
435.856663
 21
607.283553
  0
LINE
  8
OSA
 62
     2
  6
CONTINUOUS
 10
435.856663
 20
607.283553
 11
435.856663
 21
611.483553
  0
ARC
  8
OSA
 62
     2
  6
CONTINUOUS
 10
448.056663
 20
611.483553
 40
0.800000
 50
0.000000
 51
90.000000
  0
ARC
  8
OSA
 62
     2
  6
CONTINUOUS
 10
436.656663
 20
611.483553
 40
0.800000
 50
90.000000
 51
180.000000
  0
LINE
  8
OSA
  6
DOT
 10
445.820787
 20
612.283553
 11
445.820787
 21
609.783553
  0
LINE
  8
OSA
  6
DOT
 10
444.088725
 20
612.283553
 11
444.088725
 21
609.783553
  0
LINE
  8
OSA
  6
DOT
 10
440.624602
 20
612.283553
 11
440.624602
 21
609.783553
  0
LINE
  8
OSA
  6
DOT
 10
438.892540
 20
612.283553
 11
438.892540
 21
609.783553
  0
ARC
  8
OSA
  6
DOT
 10
444.954756
 20
612.783562
 40
1.000009
 50
210.000310
 51
329.999690
  0
ARC
  8
OSA
  6
DOT
 10
442.356663
 20
615.033590
 40
3.250037
 50
237.795963
 51
302.204037
  0
ARC
  8
OSA
  6
DOT
 10
439.758571
 20
612.783562
 40
1.000009
 50
210.000310
 51
329.999690
  0
ARC
  8
OSA
  6
DOT
 10
444.954756
 20
610.283562
 40
1.000009
 50
210.000310
 51
329.999690
  0
ARC
  8
OSA
  6
DOT
 10
442.356663
 20
612.533590
 40
3.250037
 50
237.795963
 51
302.204037
  0
ARC
  8
OSA
  6
DOT
 10
439.758571
 20
610.283562
 40
1.000009
 50
210.000310
 51
329.999690
  0
LINE
  8
OSA
  6
DOT
 10
444.954756
 20
609.283553
 11
442.356663
 21
607.551491
  0
LINE
  8
OSA
  6
DOT
 10
442.356663
 20
607.551491
 11
439.758571
 21
609.283553
  0
ENDBLK
  8
OSA
  0
BLOCK
  8
OBRYS
  2
_36
 70
   64
 10
379.532855
 20
612.783553
  0
LINE
  8
OBRYS
 10
428.912695
 20
612.783553
 11
439.828085
 21
612.783553
  0
LINE
  8
OBRYS
 10
379.532855
 20
612.783553
 11
417.235724
 21
612.783553
  0
LINE
  8
OBRYS
 10
330.153015
 20
612.783553
 11
319.237626
 21
612.783553
  0
LINE
  8
OBRYS
 10
379.532855
 20
612.783553
 11
341.829986
 21
612.783553
  0
LINE
  8
OBRYS
 62
     7
  6
DASHDOT
 10
462.032855
 20
655.283557
 11
462.032855
 21
681.283549
  0
ARC
  8
OBRYS
 10
477.217349
 20
664.783553
 40
2.000000
 50
270.000000
 51
358.000000
  0
LINE
  8
OBRYS
 10
479.532855
 20
673.783553
 11
479.216131
 21
664.713754
  0
LINE
  8
OBRYS
 10
379.532855
 20
673.783553
 11
479.532855
 21
673.783553
  0
LINE
  8
OBRYS
 62
     4
  6
HIDDEN2
 10
444.532855
 20
669.583553
 11
444.532855
 21
673.783553
  0
LINE
  8
OBRYS
 62
     4
  6
HIDDEN2
 10
379.532855
 20
668.783553
 11
443.732855
 21
668.783553
  0
ARC
  8
OBRYS
 62
     4
  6
HIDDEN2
 10
443.732855
 20
669.583553
 40
0.800000
 50
270.000000
 51
360.000000
  0
ARC
  8
OBRYS
 10
447.867843
 20
660.783553
 40
2.000000
 50
90.000000
 51
175.000000
  0
LINE
  8
OBRYS
 10
445.875453
 20
660.957864
 11
441.820474
 21
614.609241
  0
ARC
  8
OBRYS
 10
439.828085
 20
614.783553
 40
2.000000
 50
270.000000
 51
355.000000
  0
LINE
  8
OBRYS
 10
478.819050
 20
663.585824
 11
441.429786
 21
613.585824
  0
LINE
  8
OBRYS
 10
379.532855
 20
662.783553
 11
477.217349
 21
662.783553
  0
LINE
  8
OBRYS
 10
428.912695
 20
612.783553
 11
429.142017
 21
618.745115
  0
ARC
  8
OBRYS
 10
428.142756
 20
618.783553
 40
1.000000
 50
357.797105
 51
90.000000
  0
LINE
  8
OBRYS
 10
417.235724
 20
612.783553
 11
417.805719
 21
618.876693
  0
LINE
  8
OBRYS
 10
428.142756
 20
619.783553
 11
418.801372
 21
619.783553
  0
ARC
  8
OBRYS
 10
418.801372
 20
618.783553
 40
1.000000
 50
90.000000
 51
174.655709
  0
LINE
  8
OBRYS
 10
382.032855
 20
660.783553
 11
382.032855
 21
612.783553
  0
ARC
  8
OBRYS
 10
384.032855
 20
660.783553
 40
2.000000
 50
90.000000
 51
180.000000
  0
ARC
  8
OBRYS
 10
375.032855
 20
660.783553
 40
2.000000
 50
0.000000
 51
90.000000
  0
LINE
  8
OBRYS
 10
377.032855
 20
660.783553
 11
377.032855
 21
612.783553
  0
ARC
  8
OBRYS
 10
340.264339
 20
618.783553
 40
1.000000
 50
5.344291
 51
90.000000
  0
LINE
  8
OBRYS
 10
330.922954
 20
619.783553
 11
340.264339
 21
619.783553
  0
LINE
  8
OBRYS
 10
341.829986
 20
612.783553
 11
341.259992
 21
618.876693
  0
ARC
  8
OBRYS
 10
330.922954
 20
618.783553
 40
1.000000
 50
90.000000
 51
182.202895
  0
LINE
  8
OBRYS
 10
330.153015
 20
612.783553
 11
329.923693
 21
618.745115
  0
LINE
  8
OBRYS
 10
379.532855
 20
662.783553
 11
281.848361
 21
662.783553
  0
LINE
  8
OBRYS
 10
280.246660
 20
663.585824
 11
317.635925
 21
613.585824
  0
ARC
  8
OBRYS
 10
319.237626
 20
614.783553
 40
2.000000
 50
185.000000
 51
270.000000
  0
LINE
  8
OBRYS
 10
313.190257
 20
660.957864
 11
317.245236
 21
614.609241
  0
ARC
  8
OBRYS
 10
311.197868
 20
660.783553
 40
2.000000
 50
5.000000
 51
90.000000
  0
ARC
  8
OBRYS
 62
     4
  6
HIDDEN2
 10
315.332855
 20
669.583553
 40
0.800000
 50
180.000000
 51
270.000000
  0
LINE
  8
OBRYS
 62
     4
  6
HIDDEN2
 10
379.532855
 20
668.783553
 11
315.332855
 21
668.783553
  0
LINE
  8
OBRYS
 62
     4
  6
HIDDEN2
 10
314.532855
 20
669.583553
 11
314.532855
 21
673.783553
  0
LINE
  8
OBRYS
 10
379.532855
 20
673.783553
 11
279.532855
 21
673.783553
  0
LINE
  8
OBRYS
 10
279.532855
 20
673.783553
 11
279.849580
 21
664.713754
  0
ARC
  8
OBRYS
 10
281.848361
 20
664.783553
 40
2.000000
 50
182.000000
 51
270.000000
  0
LINE
  8
OBRYS
 62
     7
  6
DASHDOT
 10
297.032855
 20
655.283557
 11
297.032855
 21
681.283549
  0
LINE
  8
OBRYS
 62
     7
  6
DASHDOT
 10
379.532855
 20
605.283556
 11
379.532855
 21
681.283549
  0
ENDBLK
  8
OBRYS
  0
BLOCK
  8
OBRYS
  2
_37
 70
   64
 10
379.532855
 20
2.368358
  0
LINE
  8
OBRYS
 10
428.912695
 20
2.368358
 11
439.828085
 21
2.368358
  0
LINE
  8
OBRYS
 10
379.532855
 20
2.368358
 11
417.235724
 21
2.368358
  0
LINE
  8
OBRYS
 10
330.153015
 20
2.368358
 11
319.237626
 21
2.368358
  0
LINE
  8
OBRYS
 10
379.532855
 20
2.368358
 11
341.829986
 21
2.368358
  0
LINE
  8
OBRYS
 62
     7
  6
DASHDOT
 10
462.032855
 20
-40.131646
 11
462.032855
 21
-66.131638
  0
ARC
  8
OBRYS
 10
477.217349
 20
-49.631642
 40
2.000000
 50
2.000000
 51
90.000000
  0
LINE
  8
OBRYS
 10
479.532855
 20
-58.631642
 11
479.216131
 21
-49.561843
  0
LINE
  8
OBRYS
 10
379.532855
 20
-58.631642
 11
479.532855
 21
-58.631642
  0
LINE
  8
OBRYS
 62
     4
  6
HIDDEN2
 10
444.532855
 20
-54.431642
 11
444.532855
 21
-58.631642
  0
LINE
  8
OBRYS
 62
     4
  6
HIDDEN2
 10
379.532855
 20
-53.631642
 11
443.732855
 21
-53.631642
  0
ARC
  8
OBRYS
 62
     4
  6
HIDDEN2
 10
443.732855
 20
-54.431642
 40
0.800000
 50
0.000000
 51
90.000000
  0
ARC
  8
OBRYS
 10
447.867843
 20
-45.631642
 40
2.000000
 50
185.000000
 51
270.000000
  0
LINE
  8
OBRYS
 10
445.875453
 20
-45.805953
 11
441.820474
 21
0.542670
  0
ARC
  8
OBRYS
 10
439.828085
 20
0.368358
 40
2.000000
 50
5.000000
 51
90.000000
  0
LINE
  8
OBRYS
 10
478.819050
 20
-48.433913
 11
441.429786
 21
1.566087
  0
LINE
  8
OBRYS
 10
379.532855
 20
-47.631642
 11
477.217349
 21
-47.631642
  0
LINE
  8
OBRYS
 10
428.912695
 20
2.368358
 11
429.142017
 21
-3.593203
  0
ARC
  8
OBRYS
 10
428.142756
 20
-3.631642
 40
1.000000
 50
270.000000
 51
2.202895
  0
LINE
  8
OBRYS
 10
417.235724
 20
2.368358
 11
417.805719
 21
-3.724782
  0
LINE
  8
OBRYS
 10
428.142756
 20
-4.631642
 11
418.801372
 21
-4.631642
  0
ARC
  8
OBRYS
 10
418.801372
 20
-3.631642
 40
1.000000
 50
185.344291
 51
270.000000
  0
LINE
  8
OBRYS
 10
382.032855
 20
-45.631642
 11
382.032855
 21
2.368358
  0
ARC
  8
OBRYS
 10
384.032855
 20
-45.631642
 40
2.000000
 50
180.000000
 51
270.000000
  0
ARC
  8
OBRYS
 10
375.032855
 20
-45.631642
 40
2.000000
 50
270.000000
 51
360.000000
  0
LINE
  8
OBRYS
 10
377.032855
 20
-45.631642
 11
377.032855
 21
2.368358
  0
ARC
  8
OBRYS
 10
340.264339
 20
-3.631642
 40
1.000000
 50
270.000000
 51
354.655709
  0
LINE
  8
OBRYS
 10
330.922954
 20
-4.631642
 11
340.264339
 21
-4.631642
  0
LINE
  8
OBRYS
 10
341.829986
 20
2.368358
 11
341.259992
 21
-3.724782
  0
ARC
  8
OBRYS
 10
330.922954
 20
-3.631642
 40
1.000000
 50
177.797105
 51
270.000000
  0
LINE
  8
OBRYS
 10
330.153015
 20
2.368358
 11
329.923693
 21
-3.593203
  0
LINE
  8
OBRYS
 10
379.532855
 20
-47.631642
 11
281.848361
 21
-47.631642
  0
LINE
  8
OBRYS
 10
280.246660
 20
-48.433913
 11
317.635925
 21
1.566087
  0
ARC
  8
OBRYS
 10
319.237626
 20
0.368358
 40
2.000000
 50
90.000000
 51
175.000000
  0
LINE
  8
OBRYS
 10
313.190257
 20
-45.805953
 11
317.245236
 21
0.542670
  0
ARC
  8
OBRYS
 10
311.197868
 20
-45.631642
 40
2.000000
 50
270.000000
 51
355.000000
  0
ARC
  8
OBRYS
 62
     4
  6
HIDDEN2
 10
315.332855
 20
-54.431642
 40
0.800000
 50
90.000000
 51
180.000000
  0
LINE
  8
OBRYS
 62
     4
  6
HIDDEN2
 10
379.532855
 20
-53.631642
 11
315.332855
 21
-53.631642
  0
LINE
  8
OBRYS
 62
     4
  6
HIDDEN2
 10
314.532855
 20
-54.431642
 11
314.532855
 21
-58.631642
  0
LINE
  8
OBRYS
 10
379.532855
 20
-58.631642
 11
279.532855
 21
-58.631642
  0
LINE
  8
OBRYS
 10
279.532855
 20
-58.631642
 11
279.849580
 21
-49.561843
  0
ARC
  8
OBRYS
 10
281.848361
 20
-49.631642
 40
2.000000
 50
90.000000
 51
178.000000
  0
LINE
  8
OBRYS
 62
     7
  6
DASHDOT
 10
297.032855
 20
-40.131646
 11
297.032855
 21
-66.131638
  0
LINE
  8
OBRYS
 62
     7
  6
DASHDOT
 10
379.532855
 20
9.868355
 11
379.532855
 21
-66.131638
  0
ENDBLK
  8
OBRYS
  0
BLOCK
  8
OSA
  2
_38
 70
   64
 10
379.532855
 20
14.868358
  0
LINE
  8
OSA
 10
379.532855
 20
22.368355
 11
379.532855
 21
-15.131638
  0
LINE
  8
OSA
 62
     2
  6
CONTINUOUS
 10
303.532855
 20
14.868358
 11
379.532855
 21
14.868358
  0
LINE
  8
OSA
 62
     2
  6
CONTINUOUS
 10
455.532855
 20
14.868358
 11
379.532855
 21
14.868358
  0
LINE
  8
OSA
 62
     2
  6
CONTINUOUS
 10
424.594764
 20
-4.131642
 11
430.897095
 21
7.868358
  0
ARC
  8
OSA
 62
     2
  6
CONTINUOUS
 10
449.861282
 20
5.868358
 40
2.000000
 50
90.000000
 51
135.000000
  0
LINE
  8
OSA
 62
     2
  6
CONTINUOUS
 10
443.532855
 20
2.368358
 11
428.008527
 21
2.368358
  0
LINE
  8
OSA
 62
     2
  6
CONTINUOUS
 10
384.078632
 20
2.368358
 11
382.747232
 21
7.868358
  0
ARC
  8
OSA
 62
     2
  6
CONTINUOUS
 10
453.357032
 20
9.868358
 40
2.000000
 50
270.000000
 51
358.000000
  0
LINE
  8
OSA
 62
     2
  6
CONTINUOUS
 10
455.532855
 20
14.868358
 11
455.355814
 21
9.798559
  0
LINE
  8
OSA
 62
     2
  6
CONTINUOUS
 10
379.532855
 20
7.868358
 11
453.357032
 21
7.868358
  0
LINE
  8
OSA
 62
     2
  6
CONTINUOUS
 10
379.532855
 20
2.368358
 11
394.196142
 21
2.368358
  0
LINE
  8
OSA
 62
     2
  6
CONTINUOUS
 10
379.532855
 20
2.368358
 11
364.869569
 21
2.368358
  0
LINE
  8
OSA
 62
     2
  6
CONTINUOUS
 10
379.532855
 20
7.868358
 11
305.708678
 21
7.868358
  0
ARC
  8
OSA
 62
     2
  6
CONTINUOUS
 10
309.204428
 20
5.868358
 40
2.000000
 50
45.000000
 51
90.000000
  0
LINE
  8
OSA
 62
     2
  6
CONTINUOUS
 10
303.532855
 20
14.868358
 11
303.709897
 21
9.798559
  0
ARC
  8
OSA
 62
     2
  6
CONTINUOUS
 10
305.708678
 20
9.868358
 40
2.000000
 50
182.000000
 51
270.000000
  0
LINE
  8
OSA
 62
     2
  6
CONTINUOUS
 10
374.987079
 20
2.368358
 11
376.318478
 21
7.868358
  0
LINE
  8
OSA
 62
     2
  6
CONTINUOUS
 10
315.532855
 20
2.368358
 11
331.057184
 21
2.368358
  0
LINE
  8
OSA
 62
     2
  6
CONTINUOUS
 10
334.470947
 20
-4.131642
 11
328.168615
 21
7.868358
  0
INSERT
  8
OSA
  2
Srouby_s_valcovou_hlavou___55
  6
CONTINUOUS
 10
316.709047
 20
7.868358
  0
INSERT
  8
OSA
  2
Srouby_s_valcovou_hlavou___56
  6
CONTINUOUS
 10
353.510382
 20
7.868358
  0
LINE
  8
OSA
 62
     2
  6
CONTINUOUS
 10
315.532855
 20
2.368358
 11
315.032855
 21
2.868358
  0
INSERT
  8
OSA
  2
Srouby_s_valcovou_hlavou___57
  6
CONTINUOUS
 10
405.555329
 20
7.868358
  0
INSERT
  8
OSA
  2
Srouby_s_valcovou_hlavou___58
  6
CONTINUOUS
 10
442.356663
 20
7.868358
  0
LINE
  8
OSA
 62
     2
  6
CONTINUOUS
 10
443.532855
 20
2.368358
 11
444.032855
 21
2.868358
  0
LINE
  8
OSA
 62
     2
  6
CONTINUOUS
 10
341.460169
 20
-1.584926
 11
332.714431
 21
7.868358
  0
LINE
  8
OSA
 62
     2
  6
CONTINUOUS
 10
341.130364
 20
-4.131642
 11
334.470947
 21
-4.131642
  0
LINE
  8
OSA
 62
     2
  6
CONTINUOUS
 10
417.605542
 20
-1.584926
 11
426.351280
 21
7.868358
  0
LINE
  8
OSA
 62
     2
  6
CONTINUOUS
 10
417.935346
 20
-4.131642
 11
424.594764
 21
-4.131642
  0
ENDBLK
  8
OSA
  0
BLOCK
  8
OSA
  2
Srouby_s_valcovou_hlavou___55
 70
   66
 10
316.709047
 20
7.868358
  0
LINE
  8
OSA
 62
     2
  6
CONTINUOUS
 10
311.009047
 20
2.868358
 11
322.409047
 21
2.868358
  0
LINE
  8
OSA
 62
     2
  6
CONTINUOUS
 10
310.209047
 20
3.668358
 11
310.209047
 21
7.868358
  0
LINE
  8
OSA
 62
     2
  6
CONTINUOUS
 10
310.209047
 20
7.868358
 11
323.209047
 21
7.868358
  0
LINE
  8
OSA
 62
     2
  6
CONTINUOUS
 10
323.209047
 20
7.868358
 11
323.209047
 21
3.668358
  0
ARC
  8
OSA
 62
     2
  6
CONTINUOUS
 10
311.009047
 20
3.668358
 40
0.800000
 50
180.000000
 51
270.000000
  0
ARC
  8
OSA
 62
     2
  6
CONTINUOUS
 10
322.409047
 20
3.668358
 40
0.800000
 50
270.000000
 51
360.000000
  0
LINE
  8
OSA
  6
DOT
 10
313.244924
 20
2.868358
 11
313.244924
 21
5.368358
  0
LINE
  8
OSA
  6
DOT
 10
314.976985
 20
2.868358
 11
314.976985
 21
5.368358
  0
LINE
  8
OSA
  6
DOT
 10
318.441109
 20
2.868358
 11
318.441109
 21
5.368358
  0
LINE
  8
OSA
  6
DOT
 10
320.173170
 20
2.868358
 11
320.173170
 21
5.368358
  0
ARC
  8
OSA
  6
DOT
 10
314.110955
 20
2.368349
 40
1.000009
 50
30.000310
 51
149.999690
  0
ARC
  8
OSA
  6
DOT
 10
316.709047
 20
0.118321
 40
3.250037
 50
57.795963
 51
122.204037
  0
ARC
  8
OSA
  6
DOT
 10
319.307139
 20
2.368349
 40
1.000009
 50
30.000310
 51
149.999690
  0
ARC
  8
OSA
  6
DOT
 10
314.110955
 20
4.868349
 40
1.000009
 50
30.000310
 51
149.999690
  0
ARC
  8
OSA
  6
DOT
 10
316.709047
 20
2.618321
 40
3.250037
 50
57.795963
 51
122.204037
  0
ARC
  8
OSA
  6
DOT
 10
319.307139
 20
4.868349
 40
1.000009
 50
30.000310
 51
149.999690
  0
LINE
  8
OSA
  6
DOT
 10
314.110955
 20
5.868358
 11
316.709047
 21
7.600420
  0
LINE
  8
OSA
  6
DOT
 10
316.709047
 20
7.600420
 11
319.307139
 21
5.868358
  0
ENDBLK
  8
OSA
  0
BLOCK
  8
OSA
  2
Srouby_s_valcovou_hlavou___56
 70
   66
 10
353.510382
 20
7.868358
  0
LINE
  8
OSA
 62
     2
  6
CONTINUOUS
 10
347.810382
 20
2.868358
 11
359.210382
 21
2.868358
  0
LINE
  8
OSA
 62
     2
  6
CONTINUOUS
 10
347.010382
 20
3.668358
 11
347.010382
 21
7.868358
  0
LINE
  8
OSA
 62
     2
  6
CONTINUOUS
 10
347.010382
 20
7.868358
 11
360.010382
 21
7.868358
  0
LINE
  8
OSA
 62
     2
  6
CONTINUOUS
 10
360.010382
 20
7.868358
 11
360.010382
 21
3.668358
  0
ARC
  8
OSA
 62
     2
  6
CONTINUOUS
 10
347.810382
 20
3.668358
 40
0.800000
 50
180.000000
 51
270.000000
  0
ARC
  8
OSA
 62
     2
  6
CONTINUOUS
 10
359.210382
 20
3.668358
 40
0.800000
 50
270.000000
 51
360.000000
  0
LINE
  8
OSA
  6
DOT
 10
350.046259
 20
2.868358
 11
350.046259
 21
5.368358
  0
LINE
  8
OSA
  6
DOT
 10
351.778320
 20
2.868358
 11
351.778320
 21
5.368358
  0
LINE
  8
OSA
  6
DOT
 10
355.242443
 20
2.868358
 11
355.242443
 21
5.368358
  0
LINE
  8
OSA
  6
DOT
 10
356.974505
 20
2.868358
 11
356.974505
 21
5.368358
  0
ARC
  8
OSA
  6
DOT
 10
350.912289
 20
2.368349
 40
1.000009
 50
30.000310
 51
149.999690
  0
ARC
  8
OSA
  6
DOT
 10
353.510382
 20
0.118321
 40
3.250037
 50
57.795963
 51
122.204037
  0
ARC
  8
OSA
  6
DOT
 10
356.108474
 20
2.368349
 40
1.000009
 50
30.000310
 51
149.999690
  0
ARC
  8
OSA
  6
DOT
 10
350.912289
 20
4.868349
 40
1.000009
 50
30.000310
 51
149.999690
  0
ARC
  8
OSA
  6
DOT
 10
353.510382
 20
2.618321
 40
3.250037
 50
57.795963
 51
122.204037
  0
ARC
  8
OSA
  6
DOT
 10
356.108474
 20
4.868349
 40
1.000009
 50
30.000310
 51
149.999690
  0
LINE
  8
OSA
  6
DOT
 10
350.912289
 20
5.868358
 11
353.510382
 21
7.600420
  0
LINE
  8
OSA
  6
DOT
 10
353.510382
 20
7.600420
 11
356.108474
 21
5.868358
  0
ENDBLK
  8
OSA
  0
BLOCK
  8
OSA
  2
Srouby_s_valcovou_hlavou___57
 70
   66
 10
405.555329
 20
7.868358
  0
LINE
  8
OSA
 62
     2
  6
CONTINUOUS
 10
411.255329
 20
2.868358
 11
399.855329
 21
2.868358
  0
LINE
  8
OSA
 62
     2
  6
CONTINUOUS
 10
412.055329
 20
3.668358
 11
412.055329
 21
7.868358
  0
LINE
  8
OSA
 62
     2
  6
CONTINUOUS
 10
412.055329
 20
7.868358
 11
399.055329
 21
7.868358
  0
LINE
  8
OSA
 62
     2
  6
CONTINUOUS
 10
399.055329
 20
7.868358
 11
399.055329
 21
3.668358
  0
ARC
  8
OSA
 62
     2
  6
CONTINUOUS
 10
411.255329
 20
3.668358
 40
0.800000
 50
270.000000
 51
360.000000
  0
ARC
  8
OSA
 62
     2
  6
CONTINUOUS
 10
399.855329
 20
3.668358
 40
0.800000
 50
180.000000
 51
270.000000
  0
LINE
  8
OSA
  6
DOT
 10
409.019452
 20
2.868358
 11
409.019452
 21
5.368358
  0
LINE
  8
OSA
  6
DOT
 10
407.287390
 20
2.868358
 11
407.287390
 21
5.368358
  0
LINE
  8
OSA
  6
DOT
 10
403.823267
 20
2.868358
 11
403.823267
 21
5.368358
  0
LINE
  8
OSA
  6
DOT
 10
402.091205
 20
2.868358
 11
402.091205
 21
5.368358
  0
ARC
  8
OSA
  6
DOT
 10
408.153421
 20
2.368349
 40
1.000009
 50
30.000310
 51
149.999690
  0
ARC
  8
OSA
  6
DOT
 10
405.555329
 20
0.118321
 40
3.250037
 50
57.795963
 51
122.204037
  0
ARC
  8
OSA
  6
DOT
 10
402.957236
 20
2.368349
 40
1.000009
 50
30.000310
 51
149.999690
  0
ARC
  8
OSA
  6
DOT
 10
408.153421
 20
4.868349
 40
1.000009
 50
30.000310
 51
149.999690
  0
ARC
  8
OSA
  6
DOT
 10
405.555329
 20
2.618321
 40
3.250037
 50
57.795963
 51
122.204037
  0
ARC
  8
OSA
  6
DOT
 10
402.957236
 20
4.868349
 40
1.000009
 50
30.000310
 51
149.999690
  0
LINE
  8
OSA
  6
DOT
 10
408.153421
 20
5.868358
 11
405.555329
 21
7.600420
  0
LINE
  8
OSA
  6
DOT
 10
405.555329
 20
7.600420
 11
402.957236
 21
5.868358
  0
ENDBLK
  8
OSA
  0
BLOCK
  8
OSA
  2
Srouby_s_valcovou_hlavou___58
 70
   66
 10
442.356663
 20
7.868358
  0
LINE
  8
OSA
 62
     2
  6
CONTINUOUS
 10
448.056663
 20
2.868358
 11
436.656663
 21
2.868358
  0
LINE
  8
OSA
 62
     2
  6
CONTINUOUS
 10
448.856663
 20
3.668358
 11
448.856663
 21
7.868358
  0
LINE
  8
OSA
 62
     2
  6
CONTINUOUS
 10
448.856663
 20
7.868358
 11
435.856663
 21
7.868358
  0
LINE
  8
OSA
 62
     2
  6
CONTINUOUS
 10
435.856663
 20
7.868358
 11
435.856663
 21
3.668358
  0
ARC
  8
OSA
 62
     2
  6
CONTINUOUS
 10
448.056663
 20
3.668358
 40
0.800000
 50
270.000000
 51
360.000000
  0
ARC
  8
OSA
 62
     2
  6
CONTINUOUS
 10
436.656663
 20
3.668358
 40
0.800000
 50
180.000000
 51
270.000000
  0
LINE
  8
OSA
  6
DOT
 10
445.820787
 20
2.868358
 11
445.820787
 21
5.368358
  0
LINE
  8
OSA
  6
DOT
 10
444.088725
 20
2.868358
 11
444.088725
 21
5.368358
  0
LINE
  8
OSA
  6
DOT
 10
440.624602
 20
2.868358
 11
440.624602
 21
5.368358
  0
LINE
  8
OSA
  6
DOT
 10
438.892540
 20
2.868358
 11
438.892540
 21
5.368358
  0
ARC
  8
OSA
  6
DOT
 10
444.954756
 20
2.368349
 40
1.000009
 50
30.000310
 51
149.999690
  0
ARC
  8
OSA
  6
DOT
 10
442.356663
 20
0.118321
 40
3.250037
 50
57.795963
 51
122.204037
  0
ARC
  8
OSA
  6
DOT
 10
439.758571
 20
2.368349
 40
1.000009
 50
30.000310
 51
149.999690
  0
ARC
  8
OSA
  6
DOT
 10
444.954756
 20
4.868349
 40
1.000009
 50
30.000310
 51
149.999690
  0
ARC
  8
OSA
  6
DOT
 10
442.356663
 20
2.618321
 40
3.250037
 50
57.795963
 51
122.204037
  0
ARC
  8
OSA
  6
DOT
 10
439.758571
 20
4.868349
 40
1.000009
 50
30.000310
 51
149.999690
  0
LINE
  8
OSA
  6
DOT
 10
444.954756
 20
5.868358
 11
442.356663
 21
7.600420
  0
LINE
  8
OSA
  6
DOT
 10
442.356663
 20
7.600420
 11
439.758571
 21
5.868358
  0
ENDBLK
  8
OSA
  0
BLOCK
  8
OSA
  2
_39
 70
   64
 10
86.825258
 20
307.575956
  0
LINE
  8
OSA
 10
94.325254
 20
307.575956
 11
56.825262
 21
307.575956
  0
LINE
  8
OSA
 62
     2
  6
CONTINUOUS
 10
86.825258
 20
383.575956
 11
86.825258
 21
307.575956
  0
LINE
  8
OSA
 62
     2
  6
CONTINUOUS
 10
86.825258
 20
231.575956
 11
86.825258
 21
307.575956
  0
LINE
  8
OSA
 62
     2
  6
CONTINUOUS
 10
67.825258
 20
262.514047
 11
79.825258
 21
256.211716
  0
ARC
  8
OSA
 62
     2
  6
CONTINUOUS
 10
77.825258
 20
237.247528
 40
2.000000
 50
0.000000
 51
45.000000
  0
LINE
  8
OSA
 62
     2
  6
CONTINUOUS
 10
74.325258
 20
243.575956
 11
74.325258
 21
259.100284
  0
LINE
  8
OSA
 62
     2
  6
CONTINUOUS
 10
74.325258
 20
303.030179
 11
79.825258
 21
304.361578
  0
ARC
  8
OSA
 62
     2
  6
CONTINUOUS
 10
81.825258
 20
233.751778
 40
2.000000
 50
180.000000
 51
268.000000
  0
LINE
  8
OSA
 62
     2
  6
CONTINUOUS
 10
86.825258
 20
231.575956
 11
81.755459
 21
231.752997
  0
LINE
  8
OSA
 62
     2
  6
CONTINUOUS
 10
79.825258
 20
307.575956
 11
79.825258
 21
233.751778
  0
LINE
  8
OSA
 62
     2
  6
CONTINUOUS
 10
74.325258
 20
307.575956
 11
74.325258
 21
292.912669
  0
LINE
  8
OSA
 62
     2
  6
CONTINUOUS
 10
74.325258
 20
307.575956
 11
74.325258
 21
322.239242
  0
LINE
  8
OSA
 62
     2
  6
CONTINUOUS
 10
79.825258
 20
307.575956
 11
79.825258
 21
381.400133
  0
ARC
  8
OSA
 62
     2
  6
CONTINUOUS
 10
77.825258
 20
377.904383
 40
2.000000
 50
315.000000
 51
360.000000
  0
LINE
  8
OSA
 62
     2
  6
CONTINUOUS
 10
86.825258
 20
383.575956
 11
81.755459
 21
383.398914
  0
ARC
  8
OSA
 62
     2
  6
CONTINUOUS
 10
81.825258
 20
381.400133
 40
2.000000
 50
92.000000
 51
180.000000
  0
LINE
  8
OSA
 62
     2
  6
CONTINUOUS
 10
74.325258
 20
312.121732
 11
79.825258
 21
310.790333
  0
LINE
  8
OSA
 62
     2
  6
CONTINUOUS
 10
74.325258
 20
371.575956
 11
74.325258
 21
356.051627
  0
LINE
  8
OSA
 62
     2
  6
CONTINUOUS
 10
67.825258
 20
352.637864
 11
79.825258
 21
358.940195
  0
INSERT
  8
OSA
  2
Srouby_s_valcovou_hlavou___60
  6
CONTINUOUS
 10
79.825258
 20
370.399764
  0
INSERT
  8
OSA
  2
Srouby_s_valcovou_hlavou___61
  6
CONTINUOUS
 10
79.825258
 20
333.598429
  0
LINE
  8
OSA
 62
     2
  6
CONTINUOUS
 10
74.325258
 20
371.575956
 11
74.825258
 21
372.075956
  0
INSERT
  8
OSA
  2
Srouby_s_valcovou_hlavou___62
  6
CONTINUOUS
 10
79.825258
 20
281.553482
  0
INSERT
  8
OSA
  2
Srouby_s_valcovou_hlavou___63
  6
CONTINUOUS
 10
79.825258
 20
244.752147
  0
LINE
  8
OSA
 62
     2
  6
CONTINUOUS
 10
74.325258
 20
243.575956
 11
74.825258
 21
243.075956
  0
LINE
  8
OSA
 62
     2
  6
CONTINUOUS
 10
70.371974
 20
345.648642
 11
79.825258
 21
354.394380
  0
LINE
  8
OSA
 62
     2
  6
CONTINUOUS
 10
67.825258
 20
345.978447
 11
67.825258
 21
352.637864
  0
LINE
  8
OSA
 62
     2
  6
CONTINUOUS
 10
70.371974
 20
269.503269
 11
79.825258
 21
260.757531
  0
LINE
  8
OSA
 62
     2
  6
CONTINUOUS
 10
67.825258
 20
269.173464
 11
67.825258
 21
262.514047
  0
ENDBLK
  8
OSA
  0
BLOCK
  8
OSA
  2
Srouby_s_valcovou_hlavou___60
 70
   66
 10
79.825258
 20
370.399764
  0
LINE
  8
OSA
 62
     2
  6
CONTINUOUS
 10
74.825258
 20
376.099764
 11
74.825258
 21
364.699764
  0
LINE
  8
OSA
 62
     2
  6
CONTINUOUS
 10
75.625258
 20
376.899764
 11
79.825258
 21
376.899764
  0
LINE
  8
OSA
 62
     2
  6
CONTINUOUS
 10
79.825258
 20
376.899764
 11
79.825258
 21
363.899764
  0
LINE
  8
OSA
 62
     2
  6
CONTINUOUS
 10
79.825258
 20
363.899764
 11
75.625258
 21
363.899764
  0
ARC
  8
OSA
 62
     2
  6
CONTINUOUS
 10
75.625258
 20
376.099764
 40
0.800000
 50
90.000000
 51
180.000000
  0
ARC
  8
OSA
 62
     2
  6
CONTINUOUS
 10
75.625258
 20
364.699764
 40
0.800000
 50
180.000000
 51
270.000000
  0
LINE
  8
OSA
  6
DOT
 10
74.825258
 20
373.863887
 11
77.325258
 21
373.863887
  0
LINE
  8
OSA
  6
DOT
 10
74.825258
 20
372.131825
 11
77.325258
 21
372.131825
  0
LINE
  8
OSA
  6
DOT
 10
74.825258
 20
368.667702
 11
77.325258
 21
368.667702
  0
LINE
  8
OSA
  6
DOT
 10
74.825258
 20
366.935641
 11
77.325258
 21
366.935641
  0
ARC
  8
OSA
  6
DOT
 10
74.325249
 20
372.997856
 40
1.000009
 50
300.000310
 51
59.999690
  0
ARC
  8
OSA
  6
DOT
 10
72.075221
 20
370.399764
 40
3.250037
 50
327.795963
 51
32.204037
  0
ARC
  8
OSA
  6
DOT
 10
74.325249
 20
367.801671
 40
1.000009
 50
300.000310
 51
59.999690
  0
ARC
  8
OSA
  6
DOT
 10
76.825249
 20
372.997856
 40
1.000009
 50
300.000310
 51
59.999690
  0
ARC
  8
OSA
  6
DOT
 10
74.575221
 20
370.399764
 40
3.250037
 50
327.795963
 51
32.204037
  0
ARC
  8
OSA
  6
DOT
 10
76.825249
 20
367.801671
 40
1.000009
 50
300.000310
 51
59.999690
  0
LINE
  8
OSA
  6
DOT
 10
77.825258
 20
372.997856
 11
79.557320
 21
370.399764
  0
LINE
  8
OSA
  6
DOT
 10
79.557320
 20
370.399764
 11
77.825258
 21
367.801671
  0
ENDBLK
  8
OSA
  0
BLOCK
  8
OSA
  2
Srouby_s_valcovou_hlavou___61
 70
   66
 10
79.825258
 20
333.598429
  0
LINE
  8
OSA
 62
     2
  6
CONTINUOUS
 10
74.825258
 20
339.298429
 11
74.825258
 21
327.898429
  0
LINE
  8
OSA
 62
     2
  6
CONTINUOUS
 10
75.625258
 20
340.098429
 11
79.825258
 21
340.098429
  0
LINE
  8
OSA
 62
     2
  6
CONTINUOUS
 10
79.825258
 20
340.098429
 11
79.825258
 21
327.098429
  0
LINE
  8
OSA
 62
     2
  6
CONTINUOUS
 10
79.825258
 20
327.098429
 11
75.625258
 21
327.098429
  0
ARC
  8
OSA
 62
     2
  6
CONTINUOUS
 10
75.625258
 20
339.298429
 40
0.800000
 50
90.000000
 51
180.000000
  0
ARC
  8
OSA
 62
     2
  6
CONTINUOUS
 10
75.625258
 20
327.898429
 40
0.800000
 50
180.000000
 51
270.000000
  0
LINE
  8
OSA
  6
DOT
 10
74.825258
 20
337.062552
 11
77.325258
 21
337.062552
  0
LINE
  8
OSA
  6
DOT
 10
74.825258
 20
335.330491
 11
77.325258
 21
335.330491
  0
LINE
  8
OSA
  6
DOT
 10
74.825258
 20
331.866367
 11
77.325258
 21
331.866367
  0
LINE
  8
OSA
  6
DOT
 10
74.825258
 20
330.134306
 11
77.325258
 21
330.134306
  0
ARC
  8
OSA
  6
DOT
 10
74.325249
 20
336.196521
 40
1.000009
 50
300.000310
 51
59.999690
  0
ARC
  8
OSA
  6
DOT
 10
72.075221
 20
333.598429
 40
3.250037
 50
327.795963
 51
32.204037
  0
ARC
  8
OSA
  6
DOT
 10
74.325249
 20
331.000337
 40
1.000009
 50
300.000310
 51
59.999690
  0
ARC
  8
OSA
  6
DOT
 10
76.825249
 20
336.196521
 40
1.000009
 50
300.000310
 51
59.999690
  0
ARC
  8
OSA
  6
DOT
 10
74.575221
 20
333.598429
 40
3.250037
 50
327.795963
 51
32.204037
  0
ARC
  8
OSA
  6
DOT
 10
76.825249
 20
331.000337
 40
1.000009
 50
300.000310
 51
59.999690
  0
LINE
  8
OSA
  6
DOT
 10
77.825258
 20
336.196521
 11
79.557320
 21
333.598429
  0
LINE
  8
OSA
  6
DOT
 10
79.557320
 20
333.598429
 11
77.825258
 21
331.000337
  0
ENDBLK
  8
OSA
  0
BLOCK
  8
OSA
  2
Srouby_s_valcovou_hlavou___62
 70
   66
 10
79.825258
 20
281.553482
  0
LINE
  8
OSA
 62
     2
  6
CONTINUOUS
 10
74.825258
 20
275.853482
 11
74.825258
 21
287.253482
  0
LINE
  8
OSA
 62
     2
  6
CONTINUOUS
 10
75.625258
 20
275.053482
 11
79.825258
 21
275.053482
  0
LINE
  8
OSA
 62
     2
  6
CONTINUOUS
 10
79.825258
 20
275.053482
 11
79.825258
 21
288.053482
  0
LINE
  8
OSA
 62
     2
  6
CONTINUOUS
 10
79.825258
 20
288.053482
 11
75.625258
 21
288.053482
  0
ARC
  8
OSA
 62
     2
  6
CONTINUOUS
 10
75.625258
 20
275.853482
 40
0.800000
 50
180.000000
 51
270.000000
  0
ARC
  8
OSA
 62
     2
  6
CONTINUOUS
 10
75.625258
 20
287.253482
 40
0.800000
 50
90.000000
 51
180.000000
  0
LINE
  8
OSA
  6
DOT
 10
74.825258
 20
278.089359
 11
77.325258
 21
278.089359
  0
LINE
  8
OSA
  6
DOT
 10
74.825258
 20
279.821421
 11
77.325258
 21
279.821421
  0
LINE
  8
OSA
  6
DOT
 10
74.825258
 20
283.285544
 11
77.325258
 21
283.285544
  0
LINE
  8
OSA
  6
DOT
 10
74.825258
 20
285.017605
 11
77.325258
 21
285.017605
  0
ARC
  8
OSA
  6
DOT
 10
74.325249
 20
278.955390
 40
1.000009
 50
300.000310
 51
59.999690
  0
ARC
  8
OSA
  6
DOT
 10
72.075221
 20
281.553482
 40
3.250037
 50
327.795963
 51
32.204037
  0
ARC
  8
OSA
  6
DOT
 10
74.325249
 20
284.151575
 40
1.000009
 50
300.000310
 51
59.999690
  0
ARC
  8
OSA
  6
DOT
 10
76.825249
 20
278.955390
 40
1.000009
 50
300.000310
 51
59.999690
  0
ARC
  8
OSA
  6
DOT
 10
74.575221
 20
281.553482
 40
3.250037
 50
327.795963
 51
32.204037
  0
ARC
  8
OSA
  6
DOT
 10
76.825249
 20
284.151575
 40
1.000009
 50
300.000310
 51
59.999690
  0
LINE
  8
OSA
  6
DOT
 10
77.825258
 20
278.955390
 11
79.557320
 21
281.553482
  0
LINE
  8
OSA
  6
DOT
 10
79.557320
 20
281.553482
 11
77.825258
 21
284.151575
  0
ENDBLK
  8
OSA
  0
BLOCK
  8
OSA
  2
Srouby_s_valcovou_hlavou___63
 70
   66
 10
79.825258
 20
244.752147
  0
LINE
  8
OSA
 62
     2
  6
CONTINUOUS
 10
74.825258
 20
239.052147
 11
74.825258
 21
250.452147
  0
LINE
  8
OSA
 62
     2
  6
CONTINUOUS
 10
75.625258
 20
238.252147
 11
79.825258
 21
238.252147
  0
LINE
  8
OSA
 62
     2
  6
CONTINUOUS
 10
79.825258
 20
238.252147
 11
79.825258
 21
251.252147
  0
LINE
  8
OSA
 62
     2
  6
CONTINUOUS
 10
79.825258
 20
251.252147
 11
75.625258
 21
251.252147
  0
ARC
  8
OSA
 62
     2
  6
CONTINUOUS
 10
75.625258
 20
239.052147
 40
0.800000
 50
180.000000
 51
270.000000
  0
ARC
  8
OSA
 62
     2
  6
CONTINUOUS
 10
75.625258
 20
250.452147
 40
0.800000
 50
90.000000
 51
180.000000
  0
LINE
  8
OSA
  6
DOT
 10
74.825258
 20
241.288024
 11
77.325258
 21
241.288024
  0
LINE
  8
OSA
  6
DOT
 10
74.825258
 20
243.020086
 11
77.325258
 21
243.020086
  0
LINE
  8
OSA
  6
DOT
 10
74.825258
 20
246.484209
 11
77.325258
 21
246.484209
  0
LINE
  8
OSA
  6
DOT
 10
74.825258
 20
248.216271
 11
77.325258
 21
248.216271
  0
ARC
  8
OSA
  6
DOT
 10
74.325249
 20
242.154055
 40
1.000009
 50
300.000310
 51
59.999690
  0
ARC
  8
OSA
  6
DOT
 10
72.075221
 20
244.752147
 40
3.250037
 50
327.795963
 51
32.204037
  0
ARC
  8
OSA
  6
DOT
 10
74.325249
 20
247.350240
 40
1.000009
 50
300.000310
 51
59.999690
  0
ARC
  8
OSA
  6
DOT
 10
76.825249
 20
242.154055
 40
1.000009
 50
300.000310
 51
59.999690
  0
ARC
  8
OSA
  6
DOT
 10
74.575221
 20
244.752147
 40
3.250037
 50
327.795963
 51
32.204037
  0
ARC
  8
OSA
  6
DOT
 10
76.825249
 20
247.350240
 40
1.000009
 50
300.000310
 51
59.999690
  0
LINE
  8
OSA
  6
DOT
 10
77.825258
 20
242.154055
 11
79.557320
 21
244.752147
  0
LINE
  8
OSA
  6
DOT
 10
79.557320
 20
244.752147
 11
77.825258
 21
247.350240
  0
ENDBLK
  8
OSA
  0
BLOCK
  8
OBRYS
  2
_40
 70
   64
 10
74.325258
 20
307.575956
  0
LINE
  8
OSA
 10
81.825254
 20
307.575956
 11
5.825262
 21
307.575956
  0
LINE
  8
OSA
 10
31.825254
 20
390.075956
 11
5.825262
 21
390.075956
  0
ARC
  8
OBRYS
 10
22.325258
 20
405.260450
 40
2.000000
 50
0.000000
 51
88.000000
  0
LINE
  8
OBRYS
 10
13.325258
 20
407.575956
 11
22.395057
 21
407.259231
  0
LINE
  8
OBRYS
 10
13.325258
 20
307.575956
 11
13.325258
 21
407.575956
  0
LINE
  8
NEVIDITELNA
 10
17.525258
 20
372.575956
 11
13.325258
 21
372.575956
  0
LINE
  8
NEVIDITELNA
 10
18.325258
 20
307.575956
 11
18.325258
 21
371.775956
  0
ARC
  8
NEVIDITELNA
 10
17.525258
 20
371.775956
 40
0.800000
 50
0.000000
 51
90.000000
  0
ARC
  8
OBRYS
 10
26.325258
 20
375.910943
 40
2.000000
 50
180.000000
 51
265.000000
  0
LINE
  8
OBRYS
 10
26.150946
 20
373.918554
 11
72.499569
 21
369.863575
  0
ARC
  8
OBRYS
 10
72.325258
 20
367.871185
 40
2.000000
 50
0.000000
 51
85.000000
  0
LINE
  8
0
 62
     2
 10
23.522986
 20
406.862151
 11
73.522986
 21
369.472886
  0
LINE
  8
OBRYS
 10
24.325258
 20
307.575956
 11
24.325258
 21
405.260450
  0
LINE
  8
OBRYS
 10
74.325258
 20
356.955796
 11
68.363696
 21
357.185118
  0
ARC
  8
OBRYS
 10
68.325258
 20
356.185857
 40
1.000000
 50
87.797105
 51
180.000000
  0
LINE
  8
OBRYS
 10
74.325258
 20
345.278825
 11
68.232118
 21
345.848819
  0
LINE
  8
OBRYS
 10
67.325258
 20
356.185857
 11
67.325258
 21
346.844472
  0
ARC
  8
OBRYS
 10
68.325258
 20
346.844472
 40
1.000000
 50
180.000000
 51
264.655709
  0
LINE
  8
OBRYS
 10
26.325258
 20
310.075956
 11
74.325258
 21
310.075956
  0
ARC
  8
OBRYS
 10
26.325258
 20
312.075956
 40
2.000000
 50
180.000000
 51
270.000000
  0
ARC
  8
OBRYS
 10
26.325258
 20
303.075956
 40
2.000000
 50
90.000000
 51
180.000000
  0
LINE
  8
OBRYS
 10
26.325258
 20
305.075956
 11
74.325258
 21
305.075956
  0
ARC
  8
OBRYS
 10
68.325258
 20
268.307439
 40
1.000000
 50
95.344291
 51
180.000000
  0
LINE
  8
OBRYS
 10
67.325258
 20
258.966054
 11
67.325258
 21
268.307439
  0
LINE
  8
OBRYS
 10
74.325258
 20
269.873086
 11
68.232118
 21
269.303092
  0
ARC
  8
OBRYS
 10
68.325258
 20
258.966054
 40
1.000000
 50
180.000000
 51
272.202895
  0
LINE
  8
OBRYS
 10
74.325258
 20
258.196115
 11
68.363696
 21
257.966793
  0
LINE
  8
OBRYS
 10
24.325258
 20
307.575956
 11
24.325258
 21
209.891462
  0
LINE
  8
0
 62
     2
 10
23.522986
 20
208.289760
 11
73.522986
 21
245.679025
  0
ARC
  8
OBRYS
 10
72.325258
 20
247.280726
 40
2.000000
 50
275.000000
 51
360.000000
  0
LINE
  8
OBRYS
 10
26.150946
 20
241.233357
 11
72.499569
 21
245.288337
  0
ARC
  8
OBRYS
 10
26.325258
 20
239.240968
 40
2.000000
 50
95.000000
 51
180.000000
  0
ARC
  8
NEVIDITELNA
 10
17.525258
 20
243.375956
 40
0.800000
 50
270.000000
 51
360.000000
  0
LINE
  8
NEVIDITELNA
 10
18.325258
 20
307.575956
 11
18.325258
 21
243.375956
  0
LINE
  8
NEVIDITELNA
 10
17.525258
 20
242.575956
 11
13.325258
 21
242.575956
  0
LINE
  8
OBRYS
 10
13.325258
 20
307.575956
 11
13.325258
 21
207.575956
  0
LINE
  8
OBRYS
 10
13.325258
 20
207.575956
 11
22.395057
 21
207.892680
  0
ARC
  8
OBRYS
 10
22.325258
 20
209.891462
 40
2.000000
 50
272.000000
 51
360.000000
  0
LINE
  8
OSA
 10
31.825254
 20
225.075956
 11
5.825262
 21
225.075956
  0
LINE
  8
OBRYS
 10
74.325258
 20
307.575956
 11
74.325258
 21
345.278825
  0
LINE
  8
OBRYS
 10
74.325258
 20
356.955796
 11
74.325258
 21
367.871185
  0
LINE
  8
OBRYS
 10
74.325258
 20
307.575956
 11
74.325258
 21
269.873086
  0
LINE
  8
OBRYS
 10
74.325258
 20
258.196115
 11
74.325258
 21
247.280726
  0
LINE
  8
OBRYS
 10
14.825258
 20
297.575956
 11
13.325258
 21
297.575956
  0
LINE
  8
OBRYS
 10
14.825258
 20
317.575956
 11
13.325258
 21
317.575956
  0
ARC
  8
OBRYS
 10
14.825258
 20
299.575956
 40
2.000000
 50
270.000000
 51
360.000000
  0
LINE
  8
OBRYS
 10
16.825258
 20
299.575956
 11
16.825258
 21
315.575956
  0
ARC
  8
OBRYS
 10
14.825258
 20
315.575956
 40
2.000000
 50
0.000000
 51
90.000000
  0
ENDBLK
  8
OBRYS
  0
BLOCK
  8
KOTA
  2
_41
 70
   64
 10
379.532855
 20
307.575956
  0
TEXT
  8
OBRYS
 62
     1
 10
369.993286
 20
219.050476
 40
9.999990
  1
70
 50
0.00
 51
0.00
 41
1.00
  0
CIRCLE
  8
OBRYS
 10
379.532855
 20
307.575956
 40
55.509810
  0
LINE
  8
OBRYS
 10
280.034112
 20
317.575956
 11
285.009049
 21
317.075956
  0
LINE
  8
OBRYS
 10
280.034112
 20
297.575956
 11
285.009049
 21
298.075956
  0
LINE
  8
OBRYS
 10
479.031599
 20
297.575956
 11
474.056662
 21
298.075956
  0
LINE
  8
OBRYS
 10
479.031599
 20
317.575956
 11
474.056662
 21
317.075956
  0
LINE
  8
OSA
 10
379.532855
 20
307.575956
 11
379.532855
 21
415.075952
  0
CIRCLE
  8
OBRYS
 10
379.532855
 20
307.575956
 40
70.000000
  0
CIRCLE
  8
OSA
 10
379.532855
 20
307.575956
 40
42.500000
  0
CIRCLE
  8
OBRYS
 10
379.532855
 20
307.575956
 40
35.000000
  0
CIRCLE
  8
OBRYS
 10
437.869165
 20
249.239646
 40
5.500000
  0
ARC
  8
OBRYS
 10
337.305652
 20
249.259034
 40
2.000000
 50
54.091754
 51
142.500000
  0
LINE
  8
OBRYS
 10
335.718946
 20
250.476557
 11
322.931136
 21
233.811158
  0
ARC
  8
OBRYS
 10
324.517842
 20
232.593635
 40
2.000000
 50
142.500000
 51
233.732262
  0
ARC
  8
OBRYS
 10
304.550535
 20
252.560942
 40
2.000000
 50
216.267738
 51
307.500000
  0
LINE
  8
OBRYS
 10
322.433457
 20
263.762046
 11
305.768058
 21
250.974236
  0
ARC
  8
OBRYS
 10
321.215934
 20
265.348753
 40
2.000000
 50
307.500000
 51
35.908246
  0
ARC
  8
OBRYS
 10
437.849777
 20
265.348753
 40
2.000000
 50
144.091754
 51
232.500000
  0
LINE
  8
OBRYS
 10
436.632254
 20
263.762046
 11
453.297653
 21
250.974236
  0
ARC
  8
OBRYS
 10
454.515175
 20
252.560942
 40
2.000000
 50
232.500000
 51
323.732262
  0
ARC
  8
OBRYS
 10
434.547868
 20
232.593635
 40
2.000000
 50
306.267738
 51
37.500000
  0
LINE
  8
OBRYS
 10
423.346765
 20
250.476557
 11
436.134575
 21
233.811158
  0
ARC
  8
OBRYS
 10
421.760058
 20
249.259034
 40
2.000000
 50
37.500000
 51
125.908246
  0
CIRCLE
  8
OBRYS
 10
437.869165
 20
365.912265
 40
5.500000
  0
ARC
  8
OBRYS
 10
421.760058
 20
365.892877
 40
2.000000
 50
234.091754
 51
322.500000
  0
LINE
  8
OBRYS
 10
423.346765
 20
364.675354
 11
436.134575
 21
381.340753
  0
ARC
  8
OBRYS
 10
434.547868
 20
382.558276
 40
2.000000
 50
322.500000
 51
53.732262
  0
ARC
  8
OBRYS
 10
454.515175
 20
362.590969
 40
2.000000
 50
36.267738
 51
127.500000
  0
LINE
  8
OBRYS
 10
436.632254
 20
351.389865
 11
453.297653
 21
364.177675
  0
ARC
  8
OBRYS
 10
437.849777
 20
349.803158
 40
2.000000
 50
127.500000
 51
215.908246
  0
ARC
  8
OBRYS
 10
321.215934
 20
349.803158
 40
2.000000
 50
324.091754
 51
52.500000
  0
LINE
  8
OBRYS
 10
322.433457
 20
351.389865
 11
305.768058
 21
364.177675
  0
ARC
  8
OBRYS
 10
304.550535
 20
362.590969
 40
2.000000
 50
52.500000
 51
143.732262
  0
ARC
  8
OBRYS
 10
324.517842
 20
382.558276
 40
2.000000
 50
126.267738
 51
217.500000
  0
LINE
  8
OBRYS
 10
335.718946
 20
364.675354
 11
322.931136
 21
381.340753
  0
ARC
  8
OBRYS
 10
337.305652
 20
365.892877
 40
2.000000
 50
217.500000
 51
305.908246
  0
CIRCLE
  8
OBRYS
 10
437.869165
 20
365.912265
 40
5.500000
  0
CIRCLE
  8
OBRYS
 10
437.869165
 20
249.239646
 40
5.500000
  0
CIRCLE
  8
OBRYS
 10
321.196546
 20
249.239646
 40
5.500000
  0
CIRCLE
  8
OBRYS
 10
321.196546
 20
365.912265
 40
5.500000
  0
CIRCLE
  8
OSA
 10
379.532855
 20
307.575956
 40
82.500000
  0
CIRCLE
  8
OBRYS
 10
379.532855
 20
307.575956
 40
95.000000
  0
CIRCLE
  8
OBRYS
 10
379.532855
 20
307.575956
 40
65.000000
  0
LINE
  8
OSA
 10
379.532855
 20
307.575956
 11
379.532855
 21
200.075959
  0
LINE
  8
OSA
 10
379.532855
 20
307.575956
 11
487.032852
 21
307.575956
  0
CIRCLE
  8
OBRYS
 10
379.532855
 20
307.575956
 40
100.000000
  0
LINE
  8
OSA
 10
379.532855
 20
307.575956
 11
272.032859
 21
307.575956
  0
INSERT
  8
KOTA
  2
Srouby_s_valcovou_hlavou___65
 62
     7
 10
349.480817
 20
337.627994
  0
INSERT
  8
KOTA
  2
Srouby_s_valcovou_hlavou___66
 62
     7
 10
409.584893
 20
337.627994
  0
INSERT
  8
KOTA
  2
Srouby_s_valcovou_hlavou___67
 62
     7
 10
349.480817
 20
277.523917
  0
INSERT
  8
KOTA
  2
Srouby_s_valcovou_hlavou___68
 62
     7
 10
409.584893
 20
277.523917
  0
LINE
  8
OSA
 10
356.460138
 20
330.648672
 11
343.027463
 21
344.081347
  0
LINE
  8
OSA
 10
327.462618
 20
359.646193
 11
315.490748
 21
371.618062
  0
LINE
  8
OSA
 10
327.462618
 20
255.505718
 11
315.490748
 21
243.533849
  0
LINE
  8
OSA
 10
431.603093
 20
255.505718
 11
443.574962
 21
243.533849
  0
LINE
  8
OSA
 10
431.603093
 20
359.646193
 11
443.574962
 21
371.618062
  0
LINE
  8
OSA
 10
356.460138
 20
284.503239
 11
343.027463
 21
271.070564
  0
LINE
  8
OSA
 10
402.605572
 20
284.503239
 11
416.038247
 21
271.070564
  0
LINE
  8
OSA
 10
402.605572
 20
330.648672
 11
416.038247
 21
344.081347
  0
CIRCLE
  8
OBRYS
 10
379.532855
 20
307.575956
 40
22.500000
  0
LINE
  8
OBRYS
 10
376.532855
 20
317.638262
 11
376.532855
 21
320.550956
  0
LINE
  8
OBRYS
 10
379.532855
 20
320.550956
 11
376.532855
 21
320.550956
  0
LINE
  8
OBRYS
 10
382.532855
 20
317.638262
 11
382.532855
 21
320.550956
  0
LINE
  8
OBRYS
 10
379.532855
 20
320.550956
 11
382.532855
 21
320.550956
  0
ARC
  8
OBRYS
 10
379.532855
 20
307.575956
 40
10.500000
 50
106.601550
 51
270.000000
  0
ARC
  8
OBRYS
 10
379.532855
 20
307.575956
 40
10.500000
 50
270.000000
 51
73.398450
  0
ENDBLK
  8
KOTA
  0
BLOCK
  8
KOTA
  2
Srouby_s_valcovou_hlavou___65
 70
   66
 10
349.480817
 20
337.627994
  0
LINE
  8
KOTA
 62
     2
 10
346.480817
 20
335.895932
 11
346.480817
 21
339.360055
  0
LINE
  8
KOTA
 62
     2
 10
346.480817
 20
339.360055
 11
349.480817
 21
341.092117
  0
LINE
  8
KOTA
 62
     2
 10
349.480817
 20
341.092117
 11
352.480817
 21
339.360055
  0
LINE
  8
KOTA
 62
     2
 10
352.480817
 20
339.360055
 11
352.480817
 21
335.895932
  0
LINE
  8
KOTA
 62
     2
 10
352.480817
 20
335.895932
 11
349.480817
 21
334.163870
  0
LINE
  8
KOTA
 62
     2
 10
349.480817
 20
334.163870
 11
346.480817
 21
335.895932
  0
CIRCLE
  8
KOTA
 62
     2
 10
349.480817
 20
337.627994
 40
3.464123
  0
CIRCLE
  8
KOTA
 62
     2
 10
349.480817
 20
337.627994
 40
6.500000
  0
ENDBLK
  8
KOTA
  0
BLOCK
  8
KOTA
  2
Srouby_s_valcovou_hlavou___66
 70
   66
 10
409.584893
 20
337.627994
  0
LINE
  8
KOTA
 62
     2
 10
406.584893
 20
335.895932
 11
406.584893
 21
339.360055
  0
LINE
  8
KOTA
 62
     2
 10
406.584893
 20
339.360055
 11
409.584893
 21
341.092117
  0
LINE
  8
KOTA
 62
     2
 10
409.584893
 20
341.092117
 11
412.584893
 21
339.360055
  0
LINE
  8
KOTA
 62
     2
 10
412.584893
 20
339.360055
 11
412.584893
 21
335.895932
  0
LINE
  8
KOTA
 62
     2
 10
412.584893
 20
335.895932
 11
409.584893
 21
334.163870
  0
LINE
  8
KOTA
 62
     2
 10
409.584893
 20
334.163870
 11
406.584893
 21
335.895932
  0
CIRCLE
  8
KOTA
 62
     2
 10
409.584893
 20
337.627994
 40
3.464123
  0
CIRCLE
  8
KOTA
 62
     2
 10
409.584893
 20
337.627994
 40
6.500000
  0
ENDBLK
  8
KOTA
  0
BLOCK
  8
KOTA
  2
Srouby_s_valcovou_hlavou___67
 70
   66
 10
349.480817
 20
277.523917
  0
LINE
  8
KOTA
 62
     2
 10
346.480817
 20
275.791856
 11
346.480817
 21
279.255979
  0
LINE
  8
KOTA
 62
     2
 10
346.480817
 20
279.255979
 11
349.480817
 21
280.988041
  0
LINE
  8
KOTA
 62
     2
 10
349.480817
 20
280.988041
 11
352.480817
 21
279.255979
  0
LINE
  8
KOTA
 62
     2
 10
352.480817
 20
279.255979
 11
352.480817
 21
275.791856
  0
LINE
  8
KOTA
 62
     2
 10
352.480817
 20
275.791856
 11
349.480817
 21
274.059794
  0
LINE
  8
KOTA
 62
     2
 10
349.480817
 20
274.059794
 11
346.480817
 21
275.791856
  0
CIRCLE
  8
KOTA
 62
     2
 10
349.480817
 20
277.523917
 40
3.464123
  0
CIRCLE
  8
KOTA
 62
     2
 10
349.480817
 20
277.523917
 40
6.500000
  0
ENDBLK
  8
KOTA
  0
BLOCK
  8
KOTA
  2
Srouby_s_valcovou_hlavou___68
 70
   66
 10
409.584893
 20
277.523917
  0
LINE
  8
KOTA
 62
     2
 10
406.584893
 20
275.791856
 11
406.584893
 21
279.255979
  0
LINE
  8
KOTA
 62
     2
 10
406.584893
 20
279.255979
 11
409.584893
 21
280.988041
  0
LINE
  8
KOTA
 62
     2
 10
409.584893
 20
280.988041
 11
412.584893
 21
279.255979
  0
LINE
  8
KOTA
 62
     2
 10
412.584893
 20
279.255979
 11
412.584893
 21
275.791856
  0
LINE
  8
KOTA
 62
     2
 10
412.584893
 20
275.791856
 11
409.584893
 21
274.059794
  0
LINE
  8
KOTA
 62
     2
 10
409.584893
 20
274.059794
 11
406.584893
 21
275.791856
  0
CIRCLE
  8
KOTA
 62
     2
 10
409.584893
 20
277.523917
 40
3.464123
  0
CIRCLE
  8
KOTA
 62
     2
 10
409.584893
 20
277.523917
 40
6.500000
  0
ENDBLK
  8
KOTA
  0
BLOCK
  8
OBRYS
  2
_42
 70
   64
 10
379.532855
 20
52.868358
  0
LINE
  8
OBRYS
 10
293.532855
 20
87.868358
 11
293.532855
 21
17.868358
  0
LINE
  8
OBRYS
 10
460.532855
 20
17.868358
 11
293.532855
 21
17.868358
  0
LINE
  8
OBRYS
 10
293.532855
 20
87.868358
 11
460.532855
 21
87.868358
  0
LINE
  8
OBRYS
 10
329.246452
 20
87.868358
 11
329.246452
 21
17.868358
  0
POLYLINE
  8
OBRYS
 66
    1
  0
VERTEX
  8
OBRYS
 10
321.245117
 20
87.883141
  0
VERTEX
  8
OBRYS
 10
321.245117
 20
87.883141
  0
VERTEX
  8
OBRYS
 10
321.944763
 20
87.137901
  0
VERTEX
  8
OBRYS
 10
322.091187
 20
86.868355
  0
VERTEX
  8
OBRYS
 10
326.985748
 20
79.954239
  0
VERTEX
  8
OBRYS
 10
329.108948
 20
73.468559
  0
VERTEX
  8
OBRYS
 10
328.693451
 20
67.149826
  0
VERTEX
  8
OBRYS
 10
325.654816
 20
60.491249
  0
VERTEX
  8
OBRYS
 10
321.820557
 20
55.868362
  0
VERTEX
  8
OBRYS
 10
321.132385
 20
54.722458
  0
VERTEX
  8
OBRYS
 10
320.889984
 20
53.495529
  0
VERTEX
  8
OBRYS
 10
320.996948
 20
52.868362
  0
VERTEX
  8
OBRYS
 10
320.889984
 20
52.241188
  0
VERTEX
  8
OBRYS
 10
321.132385
 20
51.014259
  0
VERTEX
  8
OBRYS
 10
321.820557
 20
49.868362
  0
VERTEX
  8
OBRYS
 10
325.654816
 20
45.245476
  0
VERTEX
  8
OBRYS
 10
328.693451
 20
38.586891
  0
VERTEX
  8
OBRYS
 10
329.108948
 20
32.268158
  0
VERTEX
  8
OBRYS
 10
326.985748
 20
25.782476
  0
VERTEX
  8
OBRYS
 10
322.091187
 20
18.868361
  0
VERTEX
  8
OBRYS
 10
321.944763
 20
18.598814
  0
VERTEX
  8
OBRYS
 10
321.245117
 20
17.853575
  0
SEQEND
  8
OBRYS
  0
LINE
  8
OBRYS
 10
329.246452
 20
87.868358
 11
329.246452
 21
17.868358
  0
LINE
  8
OBRYS
 10
429.819259
 20
87.868358
 11
429.819259
 21
17.868358
  0
LINE
  8
OBRYS
 10
455.532855
 20
90.868358
 11
455.532855
 21
87.868358
  0
LINE
  8
OBRYS
 10
303.532855
 20
90.868358
 11
303.532855
 21
87.868358
  0
LINE
  8
OBRYS
 10
303.532855
 20
14.868358
 11
303.532855
 21
17.868358
  0
LINE
  8
OBRYS
 10
455.532855
 20
14.868358
 11
455.532855
 21
17.868358
  0
LINE
  8
OBRYS
 10
460.532855
 20
87.868358
 11
460.532855
 21
17.868358
  0
LINE
  8
OBRYS
 10
437.245155
 20
55.868358
 11
460.532855
 21
55.868358
  0
LINE
  8
OBRYS
 10
437.245155
 20
49.868358
 11
460.532855
 21
49.868358
  0
LINE
  8
OBRYS
 10
429.819259
 20
87.868358
 11
429.819259
 21
17.868358
  0
POLYLINE
  8
OBRYS
 66
    1
  0
VERTEX
  8
OBRYS
 10
437.820618
 20
87.883141
  0
VERTEX
  8
OBRYS
 10
437.820618
 20
87.883141
  0
VERTEX
  8
OBRYS
 10
437.120972
 20
87.137901
  0
VERTEX
  8
OBRYS
 10
436.974548
 20
86.868355
  0
VERTEX
  8
OBRYS
 10
432.079987
 20
79.954239
  0
VERTEX
  8
OBRYS
 10
429.956787
 20
73.468559
  0
VERTEX
  8
OBRYS
 10
430.372253
 20
67.149826
  0
VERTEX
  8
OBRYS
 10
433.410919
 20
60.491249
  0
VERTEX
  8
OBRYS
 10
437.245178
 20
55.868362
  0
VERTEX
  8
OBRYS
 10
437.933350
 20
54.722458
  0
VERTEX
  8
OBRYS
 10
438.175751
 20
53.495529
  0
VERTEX
  8
OBRYS
 10
438.068756
 20
52.868362
  0
VERTEX
  8
OBRYS
 10
438.175751
 20
52.241188
  0
VERTEX
  8
OBRYS
 10
437.933350
 20
51.014259
  0
VERTEX
  8
OBRYS
 10
437.245178
 20
49.868362
  0
VERTEX
  8
OBRYS
 10
433.410919
 20
45.245476
  0
VERTEX
  8
OBRYS
 10
430.372253
 20
38.586891
  0
VERTEX
  8
OBRYS
 10
429.956787
 20
32.268158
  0
VERTEX
  8
OBRYS
 10
432.079987
 20
25.782476
  0
VERTEX
  8
OBRYS
 10
436.974548
 20
18.868361
  0
VERTEX
  8
OBRYS
 10
437.120972
 20
18.598814
  0
VERTEX
  8
OBRYS
 10
437.820618
 20
17.853575
  0
SEQEND
  8
OBRYS
  0
ARC
  8
OBRYS
 10
305.708678
 20
95.868358
 40
2.000000
 50
90.000000
 51
178.000000
  0
LINE
  8
OBRYS
 10
303.532855
 20
90.868358
 11
303.709897
 21
95.938157
  0
LINE
  8
OBRYS
 10
364.869569
 20
103.368358
 11
379.532855
 21
103.368358
  0
LINE
  8
OBRYS
 10
334.470947
 20
109.868358
 11
379.532855
 21
109.868358
  0
LINE
  8
OBRYS
 10
379.532855
 20
112.868358
 11
339.532855
 21
112.868358
  0
LINE
  8
OBRYS
 10
340.032855
 20
113.368358
 11
379.532855
 21
113.368358
  0
LINE
  8
OBRYS
 10
303.532855
 20
14.868358
 11
303.532855
 21
17.868358
  0
LINE
  8
OBRYS
 10
374.987079
 20
103.368358
 11
376.318478
 21
97.868358
  0
LINE
  8
OBRYS
 10
315.532855
 20
103.368358
 11
331.057184
 21
103.368358
  0
LINE
  8
OBRYS
 10
334.470947
 20
109.868358
 11
328.168615
 21
97.868358
  0
LINE
  8
OBRYS
 10
343.816271
 20
109.868358
 11
332.714431
 21
97.868358
  0
ARC
  8
OBRYS
 10
309.204428
 20
99.868358
 40
2.000000
 50
270.000000
 51
315.000000
  0
LINE
  8
OBRYS
 10
340.032855
 20
113.368358
 11
339.532855
 21
112.868358
  0
LINE
  8
OBRYS
 10
339.532855
 20
109.868358
 11
339.532855
 21
112.868358
  0
LINE
  8
OBRYS
 10
315.532855
 20
103.368358
 11
310.618642
 21
98.454145
  0
LINE
  8
OBRYS
 10
303.532855
 20
14.868358
 11
379.532855
 21
14.868358
  0
LINE
  8
OBRYS
 10
379.532855
 20
109.868358
 11
424.594764
 21
109.868358
  0
LINE
  8
OBRYS
 10
379.532855
 20
103.368358
 11
394.196142
 21
103.368358
  0
LINE
  8
OBRYS
 10
379.532855
 20
113.368358
 11
419.032855
 21
113.368358
  0
LINE
  8
OBRYS
 10
419.532855
 20
112.868358
 11
379.532855
 21
112.868358
  0
LINE
  8
OBRYS
 10
379.532855
 20
97.868358
 11
453.357032
 21
97.868358
  0
LINE
  8
OBRYS
 10
419.032855
 20
113.368358
 11
419.532855
 21
112.868358
  0
LINE
  8
OBRYS
 10
419.532855
 20
109.868358
 11
419.532855
 21
112.868358
  0
ARC
  8
OBRYS
 10
449.861282
 20
99.868358
 40
2.000000
 50
225.000000
 51
270.000000
  0
LINE
  8
OBRYS
 10
455.532855
 20
14.868358
 11
379.532855
 21
14.868358
  0
LINE
  8
OBRYS
 10
455.532855
 20
90.868358
 11
455.355814
 21
95.938157
  0
ARC
  8
OBRYS
 10
453.357032
 20
95.868358
 40
2.000000
 50
2.000000
 51
90.000000
  0
LINE
  8
OBRYS
 10
384.078632
 20
103.368358
 11
382.747232
 21
97.868358
  0
LINE
  8
OBRYS
 10
443.532855
 20
103.368358
 11
428.008527
 21
103.368358
  0
LINE
  8
OBRYS
 10
415.249439
 20
109.868358
 11
426.351280
 21
97.868358
  0
ARC
  8
OBRYS
 10
449.861282
 20
99.868358
 40
2.000000
 50
225.000000
 51
270.000000
  0
LINE
  8
OBRYS
 10
443.532855
 20
103.368358
 11
448.447069
 21
98.454145
  0
LINE
  8
OBRYS
 10
424.594764
 20
109.868358
 11
430.897095
 21
97.868358
  0
LINE
  8
OBRYS
 62
     7
  6
DASHDOT
 10
265.469769
 20
52.868358
 11
455.160501
 21
52.868358
  0
LINE
  8
OBRYS
 10
379.532855
 20
97.868358
 11
305.708678
 21
97.868358
  0
LINE
  8
OBRYS
 62
     7
  6
DASHDOT
 10
379.532855
 20
-10.357531
 11
379.532855
 21
126.057067
  0
LINE
  8
OBRYS
 10
321.820550
 20
49.868358
 11
293.532855
 21
49.868358
  0
LINE
  8
OBRYS
 10
321.820550
 20
55.868358
 11
293.532855
 21
55.868358
  0
ENDBLK
  8
OBRYS
  0
BLOCK
  8
OSA
  2
_43
 70
   64
 10
379.532855
 20
562.283553
  0
ARC
  8
OBRYS
 10
305.708678
 20
519.283553
 40
2.000000
 50
182.000000
 51
270.000000
  0
LINE
  8
OBRYS
 10
303.532855
 20
524.283553
 11
303.709897
 21
519.213754
  0
LINE
  8
OBRYS
 10
303.532855
 20
524.283553
 11
303.532855
 21
528.283553
  0
ARC
  8
OBRYS
 10
305.532855
 20
528.283553
 40
2.000000
 50
90.000000
 51
180.000000
  0
ARC
  8
OBRYS
 10
306.675300
 20
592.283553
 40
2.000000
 50
0.000000
 51
90.000000
  0
LINE
  8
OBRYS
 10
308.675300
 20
583.110025
 11
308.675300
 21
592.283553
  0
LINE
  8
OBRYS
 10
311.032855
 20
577.683072
 11
311.032855
 21
562.283553
  0
POLYLINE
  8
0
 62
     2
 66
    1
  0
VERTEX
  8
0
 62
     2
 10
308.675323
 20
583.110046
  0
VERTEX
  8
0
 62
     2
 10
308.697266
 20
582.528320
  0
VERTEX
  8
0
 62
     2
 10
308.762177
 20
581.969055
  0
VERTEX
  8
0
 62
     2
 10
308.867615
 20
581.453552
  0
VERTEX
  8
0
 62
     2
 10
309.009521
 20
581.001770
  0
VERTEX
  8
0
 62
     2
 10
309.182434
 20
580.630920
  0
SEQEND
  8
0
  0
LINE
  8
OBRYS
 10
320.138209
 20
583.110025
 11
320.138209
 21
594.283553
  0
LINE
  8
0
 62
     2
 10
313.083799
 20
575.962621
 11
316.103455
 21
574.457347
  0
POLYLINE
  8
0
 62
     2
 66
    1
  0
VERTEX
  8
0
 62
     2
 10
316.103455
 20
574.457336
  0
VERTEX
  8
0
 62
     2
 10
316.762085
 20
574.287842
  0
VERTEX
  8
0
 62
     2
 10
317.420746
 20
574.457336
  0
VERTEX
  8
0
 62
     2
 10
318.054077
 20
574.959351
  0
VERTEX
  8
0
 62
     2
 10
318.637756
 20
575.774658
  0
VERTEX
  8
0
 62
     2
 10
319.149353
 20
576.871765
  0
VERTEX
  8
0
 62
     2
 10
319.569244
 20
578.208679
  0
VERTEX
  8
0
 62
     2
 10
319.881226
 20
579.733887
  0
VERTEX
  8
0
 62
     2
 10
320.073334
 20
581.388916
  0
VERTEX
  8
0
 62
     2
 10
320.138214
 20
583.110046
  0
SEQEND
  8
0
  0
LINE
  8
0
 62
     2
 10
310.924456
 20
577.683072
 11
313.083799
 21
575.962621
  0
LINE
  8
0
 62
     2
 10
309.182392
 20
580.630948
 11
310.161143
 21
578.509276
  0
POLYLINE
  8
0
 62
     2
 66
    1
  0
VERTEX
  8
0
 62
     2
 10
310.161163
 20
578.509277
  0
VERTEX
  8
0
 62
     2
 10
310.527252
 20
577.997925
  0
VERTEX
  8
0
 62
     2
 10
310.924500
 20
577.683044
  0
SEQEND
  8
0
  0
LINE
  8
OBRYS
 10
361.689564
 20
592.283553
 11
361.689564
 21
581.783553
  0
LINE
  8
OBRYS
 10
345.385307
 20
592.283553
 11
345.385307
 21
581.783553
  0
POLYLINE
  8
OBRYS
 66
    1
  0
VERTEX
  8
OBRYS
 10
361.689575
 20
581.783569
  0
VERTEX
  8
OBRYS
 10
361.688171
 20
581.644958
  0
VERTEX
  8
OBRYS
 10
361.683197
 20
581.487061
  0
VERTEX
  8
OBRYS
 10
361.673126
 20
581.307312
  0
VERTEX
  8
OBRYS
 10
361.655914
 20
581.102844
  0
VERTEX
  8
OBRYS
 10
361.628937
 20
580.870605
  0
VERTEX
  8
OBRYS
 10
361.588715
 20
580.607483
  0
VERTEX
  8
OBRYS
 10
361.530701
 20
580.310181
  0
VERTEX
  8
OBRYS
 10
361.449158
 20
579.975586
  0
VERTEX
  8
OBRYS
 10
361.336792
 20
579.601074
  0
VERTEX
  8
OBRYS
 10
361.184601
 20
579.184875
  0
VERTEX
  8
OBRYS
 10
360.981781
 20
578.726807
  0
VERTEX
  8
OBRYS
 10
360.715759
 20
578.228882
  0
VERTEX
  8
OBRYS
 10
360.372650
 20
577.696289
  0
VERTEX
  8
OBRYS
 10
359.937958
 20
577.138611
  0
VERTEX
  8
OBRYS
 10
359.398102
 20
576.570251
  0
VERTEX
  8
OBRYS
 10
358.742279
 20
576.011169
  0
VERTEX
  8
OBRYS
 10
357.964874
 20
575.486023
  0
VERTEX
  8
OBRYS
 10
357.067596
 20
575.023193
  0
VERTEX
  8
OBRYS
 10
356.061249
 20
574.652039
  0
VERTEX
  8
OBRYS
 10
354.966400
 20
574.399658
  0
VERTEX
  8
OBRYS
 10
353.812744
 20
574.287842
  0
VERTEX
  8
OBRYS
 10
352.637177
 20
574.329407
  0
VERTEX
  8
OBRYS
 10
351.480530
 20
574.526245
  0
VERTEX
  8
OBRYS
 10
350.383392
 20
574.867615
  0
VERTEX
  8
OBRYS
 10
349.381287
 20
575.331482
  0
VERTEX
  8
OBRYS
 10
348.500122
 20
575.886719
  0
VERTEX
  8
OBRYS
 10
347.753601
 20
576.498169
  0
VERTEX
  8
OBRYS
 10
347.143005
 20
577.131531
  0
VERTEX
  8
OBRYS
 10
346.659515
 20
577.757385
  0
VERTEX
  8
OBRYS
 10
346.287598
 20
578.353882
  0
VERTEX
  8
OBRYS
 10
346.008881
 20
578.906738
  0
VERTEX
  8
OBRYS
 10
345.804932
 20
579.408325
  0
VERTEX
  8
OBRYS
 10
345.659058
 20
579.856262
  0
VERTEX
  8
OBRYS
 10
345.557159
 20
580.251709
  0
VERTEX
  8
OBRYS
 10
345.487854
 20
580.597778
  0
VERTEX
  8
OBRYS
 10
345.442230
 20
580.898865
  0
VERTEX
  8
OBRYS
 10
345.413574
 20
581.159668
  0
VERTEX
  8
OBRYS
 10
345.396820
 20
581.384949
  0
VERTEX
  8
OBRYS
 10
345.388336
 20
581.579163
  0
VERTEX
  8
OBRYS
 10
345.385406
 20
581.746338
  0
VERTEX
  8
OBRYS
 10
345.385315
 20
581.783569
  0
SEQEND
  8
OBRYS
  0
ARC
  8
OBRYS
 10
343.385307
 20
592.283553
 40
2.000000
 50
0.000000
 51
90.000000
  0
ARC
  8
OBRYS
 10
363.689564
 20
592.283553
 40
2.000000
 50
90.000000
 51
180.000000
  0
ARC
  8
OBRYS
 10
305.532855
 20
596.283553
 40
2.000000
 50
180.000000
 51
270.000000
  0
LINE
  8
OBRYS
 10
303.532855
 20
600.283553
 11
303.532855
 21
596.283553
  0
LINE
  8
OBRYS
 10
305.532855
 20
594.283553
 11
379.532855
 21
594.283553
  0
ARC
  8
OBRYS
 10
309.032855
 20
532.283553
 40
2.000000
 50
270.000000
 51
360.000000
  0
LINE
  8
OBRYS
 10
311.032855
 20
562.283553
 11
311.032855
 21
532.283553
  0
LINE
  8
OBRYS
 10
305.532855
 20
530.283553
 11
379.532855
 21
530.283553
  0
LINE
  8
OBRYS
 10
364.869569
 20
511.783553
 11
379.532855
 21
511.783553
  0
LINE
  8
OBRYS
 10
334.470947
 20
505.283553
 11
379.532855
 21
505.283553
  0
LINE
  8
OBRYS
 10
379.532855
 20
502.283553
 11
339.532855
 21
502.283553
  0
LINE
  8
OBRYS
 10
340.032855
 20
501.783553
 11
379.532855
 21
501.783553
  0
LINE
  8
OBRYS
 10
303.532855
 20
600.283553
 11
303.532855
 21
597.283553
  0
LINE
  8
OBRYS
 10
374.987079
 20
511.783553
 11
376.318478
 21
517.283553
  0
LINE
  8
OBRYS
 10
315.532855
 20
511.783553
 11
331.057184
 21
511.783553
  0
LINE
  8
OBRYS
 10
334.470947
 20
505.283553
 11
328.168615
 21
517.283553
  0
LINE
  8
OBRYS
 10
343.816271
 20
505.283553
 11
332.714431
 21
517.283553
  0
ARC
  8
OBRYS
 10
309.204428
 20
515.283553
 40
2.000000
 50
45.000000
 51
90.000000
  0
LINE
  8
OBRYS
 10
340.032855
 20
501.783553
 11
339.532855
 21
502.283553
  0
LINE
  8
OBRYS
 10
339.532855
 20
505.283553
 11
339.532855
 21
502.283553
  0
LINE
  8
OBRYS
 10
315.532855
 20
511.783553
 11
310.618642
 21
516.697766
  0
LINE
  8
OBRYS
 10
303.532855
 20
600.283553
 11
379.532855
 21
600.283553
  0
LINE
  8
OBRYS
 10
453.532855
 20
594.283553
 11
379.532855
 21
594.283553
  0
LINE
  8
OBRYS
 10
379.532855
 20
505.283553
 11
424.594764
 21
505.283553
  0
LINE
  8
OBRYS
 10
379.532855
 20
511.783553
 11
394.196142
 21
511.783553
  0
LINE
  8
OBRYS
 10
379.532855
 20
501.783553
 11
419.032855
 21
501.783553
  0
LINE
  8
OBRYS
 10
419.532855
 20
502.283553
 11
379.532855
 21
502.283553
  0
LINE
  8
OBRYS
 10
453.532855
 20
530.283553
 11
379.532855
 21
530.283553
  0
LINE
  8
OBRYS
 10
448.032855
 20
562.283553
 11
448.032855
 21
532.283553
  0
LINE
  8
OBRYS
 10
379.532855
 20
517.283553
 11
453.357032
 21
517.283553
  0
LINE
  8
OBRYS
 10
419.032855
 20
501.783553
 11
419.532855
 21
502.283553
  0
LINE
  8
OBRYS
 10
419.532855
 20
505.283553
 11
419.532855
 21
502.283553
  0
ARC
  8
OBRYS
 10
449.861282
 20
515.283553
 40
2.000000
 50
90.000000
 51
135.000000
  0
ARC
  8
OBRYS
 10
450.032855
 20
532.283553
 40
2.000000
 50
180.000000
 51
270.000000
  0
LINE
  8
OBRYS
 10
455.532855
 20
600.283553
 11
379.532855
 21
600.283553
  0
LINE
  8
OBRYS
 10
455.532855
 20
600.283553
 11
455.532855
 21
596.283553
  0
ARC
  8
OBRYS
 10
453.532855
 20
596.283553
 40
2.000000
 50
270.000000
 51
360.000000
  0
ARC
  8
OBRYS
 10
453.532855
 20
528.283553
 40
2.000000
 50
0.000000
 51
90.000000
  0
LINE
  8
OBRYS
 10
455.532855
 20
524.283553
 11
455.532855
 21
528.283553
  0
LINE
  8
OBRYS
 10
455.532855
 20
524.283553
 11
455.355814
 21
519.213754
  0
ARC
  8
OBRYS
 10
453.357032
 20
519.283553
 40
2.000000
 50
270.000000
 51
358.000000
  0
LINE
  8
OBRYS
 10
451.032855
 20
571.283620
 11
451.032855
 21
553.283486
  0
LINE
  8
OBRYS
 10
451.032855
 20
553.283486
 11
450.032992
 21
553.283554
  0
ARC
  8
OBRYS
 10
450.032855
 20
551.283554
 40
2.000000
 50
89.996087
 51
180.000000
  0
LINE
  8
OBRYS
 10
451.032855
 20
571.283620
 11
450.032992
 21
571.283552
  0
ARC
  8
OBRYS
 10
450.032855
 20
573.283552
 40
2.000000
 50
180.000000
 51
270.003913
  0
LINE
  8
OBRYS
 10
384.078632
 20
511.783553
 11
382.747232
 21
517.283553
  0
LINE
  8
OBRYS
 10
443.532855
 20
511.783553
 11
428.008527
 21
511.783553
  0
LINE
  8
OBRYS
 10
415.249439
 20
505.283553
 11
426.351280
 21
517.283553
  0
ARC
  8
OBRYS
 10
449.861282
 20
515.283553
 40
2.000000
 50
90.000000
 51
135.000000
  0
LINE
  8
OBRYS
 10
443.532855
 20
511.783553
 11
448.447069
 21
516.697766
  0
LINE
  8
OBRYS
 10
424.594764
 20
505.283553
 11
430.897095
 21
517.283553
  0
ARC
  8
OBRYS
 10
395.376147
 20
592.283553
 40
2.000000
 50
0.000000
 51
90.000000
  0
ARC
  8
OBRYS
 10
415.680404
 20
592.283553
 40
2.000000
 50
90.000000
 51
180.000000
  0
POLYLINE
  8
OBRYS
 66
    1
  0
VERTEX
  8
OBRYS
 10
397.376160
 20
581.783569
  0
VERTEX
  8
OBRYS
 10
397.377563
 20
581.644958
  0
VERTEX
  8
OBRYS
 10
397.382538
 20
581.487061
  0
VERTEX
  8
OBRYS
 10
397.392609
 20
581.307312
  0
VERTEX
  8
OBRYS
 10
397.409821
 20
581.102844
  0
VERTEX
  8
OBRYS
 10
397.436798
 20
580.870605
  0
VERTEX
  8
OBRYS
 10
397.477020
 20
580.607483
  0
VERTEX
  8
OBRYS
 10
397.535034
 20
580.310181
  0
VERTEX
  8
OBRYS
 10
397.616577
 20
579.975586
  0
VERTEX
  8
OBRYS
 10
397.728943
 20
579.601074
  0
VERTEX
  8
OBRYS
 10
397.881134
 20
579.184875
  0
VERTEX
  8
OBRYS
 10
398.083954
 20
578.726807
  0
VERTEX
  8
OBRYS
 10
398.349976
 20
578.228882
  0
VERTEX
  8
OBRYS
 10
398.693085
 20
577.696289
  0
VERTEX
  8
OBRYS
 10
399.127777
 20
577.138611
  0
VERTEX
  8
OBRYS
 10
399.667633
 20
576.570251
  0
VERTEX
  8
OBRYS
 10
400.323456
 20
576.011169
  0
VERTEX
  8
OBRYS
 10
401.100861
 20
575.486023
  0
VERTEX
  8
OBRYS
 10
401.998138
 20
575.023193
  0
VERTEX
  8
OBRYS
 10
403.004486
 20
574.652039
  0
VERTEX
  8
OBRYS
 10
404.099335
 20
574.399658
  0
VERTEX
  8
OBRYS
 10
405.252991
 20
574.287842
  0
VERTEX
  8
OBRYS
 10
406.428558
 20
574.329407
  0
VERTEX
  8
OBRYS
 10
407.585205
 20
574.526245
  0
VERTEX
  8
OBRYS
 10
408.682343
 20
574.867615
  0
VERTEX
  8
OBRYS
 10
409.684448
 20
575.331482
  0
VERTEX
  8
OBRYS
 10
410.565613
 20
575.886719
  0
VERTEX
  8
OBRYS
 10
411.312134
 20
576.498169
  0
VERTEX
  8
OBRYS
 10
411.922729
 20
577.131531
  0
VERTEX
  8
OBRYS
 10
412.406219
 20
577.757385
  0
VERTEX
  8
OBRYS
 10
412.778137
 20
578.353882
  0
VERTEX
  8
OBRYS
 10
413.056854
 20
578.906738
  0
VERTEX
  8
OBRYS
 10
413.260803
 20
579.408325
  0
VERTEX
  8
OBRYS
 10
413.406677
 20
579.856262
  0
VERTEX
  8
OBRYS
 10
413.508575
 20
580.251709
  0
VERTEX
  8
OBRYS
 10
413.577881
 20
580.597778
  0
VERTEX
  8
OBRYS
 10
413.623505
 20
580.898865
  0
VERTEX
  8
OBRYS
 10
413.652161
 20
581.159668
  0
VERTEX
  8
OBRYS
 10
413.668915
 20
581.384949
  0
VERTEX
  8
OBRYS
 10
413.677399
 20
581.579163
  0
VERTEX
  8
OBRYS
 10
413.680328
 20
581.746338
  0
VERTEX
  8
OBRYS
 10
413.680420
 20
581.783569
  0
SEQEND
  8
OBRYS
  0
LINE
  8
OBRYS
 10
413.680404
 20
592.283553
 11
413.680404
 21
581.783553
  0
LINE
  8
OBRYS
 10
397.376147
 20
592.283553
 11
397.376147
 21
581.783553
  0
POLYLINE
  8
0
 62
     2
 66
    1
  0
VERTEX
  8
0
 62
     2
 10
448.904572
 20
578.509277
  0
VERTEX
  8
0
 62
     2
 10
448.538483
 20
577.997925
  0
VERTEX
  8
0
 62
     2
 10
448.141235
 20
577.683044
  0
SEQEND
  8
0
  0
LINE
  8
0
 62
     2
 10
449.883318
 20
580.630948
 11
448.904567
 21
578.509276
  0
LINE
  8
0
 62
     2
 10
448.141254
 20
577.683072
 11
445.981912
 21
575.962621
  0
POLYLINE
  8
0
 62
     2
 66
    1
  0
VERTEX
  8
0
 62
     2
 10
442.962280
 20
574.457336
  0
VERTEX
  8
0
 62
     2
 10
442.303650
 20
574.287842
  0
VERTEX
  8
0
 62
     2
 10
441.644989
 20
574.457336
  0
VERTEX
  8
0
 62
     2
 10
441.011658
 20
574.959351
  0
VERTEX
  8
0
 62
     2
 10
440.427979
 20
575.774658
  0
VERTEX
  8
0
 62
     2
 10
439.916382
 20
576.871765
  0
VERTEX
  8
0
 62
     2
 10
439.496490
 20
578.208679
  0
VERTEX
  8
0
 62
     2
 10
439.184509
 20
579.733887
  0
VERTEX
  8
0
 62
     2
 10
438.992401
 20
581.388916
  0
VERTEX
  8
0
 62
     2
 10
438.927521
 20
583.110046
  0
SEQEND
  8
0
  0
LINE
  8
0
 62
     2
 10
445.981912
 20
575.962621
 11
442.962255
 21
574.457347
  0
LINE
  8
OBRYS
 10
438.927502
 20
583.110025
 11
438.927502
 21
594.283553
  0
POLYLINE
  8
0
 62
     2
 66
    1
  0
VERTEX
  8
0
 62
     2
 10
450.390411
 20
583.110046
  0
VERTEX
  8
0
 62
     2
 10
450.368469
 20
582.528320
  0
VERTEX
  8
0
 62
     2
 10
450.303558
 20
581.969055
  0
VERTEX
  8
0
 62
     2
 10
450.198120
 20
581.453552
  0
VERTEX
  8
0
 62
     2
 10
450.056213
 20
581.001770
  0
VERTEX
  8
0
 62
     2
 10
449.883301
 20
580.630920
  0
SEQEND
  8
0
  0
LINE
  8
OBRYS
 10
448.032855
 20
577.683072
 11
448.032855
 21
562.283553
  0
LINE
  8
OBRYS
 10
450.390410
 20
583.110025
 11
450.390410
 21
592.283553
  0
ARC
  8
OBRYS
 10
452.390410
 20
592.283553
 40
2.000000
 50
90.000000
 51
180.000000
  0
LINE
  8
OSA
 10
265.469769
 20
562.283553
 11
455.160501
 21
562.283553
  0
INSERT
  8
OSA
  2
M10x1__70
  6
CONTINUOUS
 10
451.032855
 20
562.283553
  0
LINE
  8
OBRYS
 10
379.532855
 20
517.283553
 11
305.708678
 21
517.283553
  0
LINE
  8
OSA
 10
379.532855
 20
625.509442
 11
379.532855
 21
489.094844
  0
LINE
  8
OBRYS
 10
460.532855
 20
597.283553
 11
460.532855
 21
527.283553
  0
LINE
  8
OSA
 62
     2
  6
CONTINUOUS
 10
455.532855
 20
597.283553
 11
460.532855
 21
597.283553
  0
LINE
  8
OSA
 62
     2
  6
CONTINUOUS
 10
460.532855
 20
527.283553
 11
455.532855
 21
527.283553
  0
LINE
  8
OSA
 62
     2
  6
CONTINUOUS
 10
454.032855
 20
565.283553
 11
460.532855
 21
565.283553
  0
LINE
  8
OSA
 62
     2
  6
CONTINUOUS
 10
454.032855
 20
559.283553
 11
460.532855
 21
559.283553
  0
LINE
  8
OBRYS
 10
293.532855
 20
597.283553
 11
293.532855
 21
527.283553
  0
LINE
  8
OSA
 62
     2
  6
CONTINUOUS
 10
293.532855
 20
597.283553
 11
303.532855
 21
597.283553
  0
LINE
  8
OSA
 62
     2
  6
CONTINUOUS
 10
303.532855
 20
527.283553
 11
293.532855
 21
527.283553
  0
LINE
  8
OSA
 62
     2
  6
CONTINUOUS
 10
311.032855
 20
559.283553
 11
293.532855
 21
559.283553
  0
LINE
  8
OSA
 62
     2
  6
CONTINUOUS
 10
311.032855
 20
565.283553
 11
293.532855
 21
565.283553
  0
ENDBLK
  8
OSA
  0
BLOCK
  8
OSA
  2
M10x1__70
 70
   66
 10
451.032855
 20
562.283553
  0
LINE
  8
OSA
 10
441.703953
 20
562.283553
 11
455.478203
 21
562.283553
  0
LINE
  8
OSA
 62
     2
  6
CONTINUOUS
 10
451.032855
 20
569.283553
 11
451.032855
 21
555.283553
  0
LINE
  8
OSA
 62
     2
  6
CONTINUOUS
 10
451.032855
 20
555.283553
 11
453.032855
 21
555.283553
  0
LINE
  8
OSA
 62
     2
  6
CONTINUOUS
 10
451.032855
 20
569.283553
 11
453.032855
 21
569.283553
  0
ARC
  8
OSA
 62
     2
  6
CONTINUOUS
 10
453.032855
 20
556.283553
 40
1.000000
 50
270.000000
 51
360.000000
  0
LINE
  8
OSA
 62
     2
  6
CONTINUOUS
 10
454.032855
 20
568.283553
 11
454.032855
 21
556.283553
  0
ARC
  8
OSA
 62
     2
  6
CONTINUOUS
 10
453.032855
 20
568.283553
 40
1.000000
 50
0.000000
 51
90.000000
  0
ENDBLK
  8
OSA
  0
BLOCK
  8
OSA
  2
_44
 70
   64
 10
124.825258
 20
307.575956
  0
LINE
  8
OBRYS
 10
92.825258
 20
307.575956
 11
92.825258
 21
355.636645
  0
LINE
  8
OBRYS
 10
175.325258
 20
322.239242
 11
175.325258
 21
307.575956
  0
LINE
  8
OBRYS
 10
181.825258
 20
352.637864
 11
181.825258
 21
307.575956
  0
LINE
  8
OBRYS
 10
184.825258
 20
307.575956
 11
184.825258
 21
347.575956
  0
LINE
  8
OBRYS
 10
185.325258
 20
347.075956
 11
185.325258
 21
307.575956
  0
LINE
  8
OBRYS
 10
156.825258
 20
307.575956
 11
156.825258
 21
355.636645
  0
LINE
  8
OSA
 10
82.825258
 20
377.575956
 11
124.825258
 21
377.575956
  0
ARC
  8
OBRYS
 10
114.800182
 20
340.640016
 40
2.000000
 50
60.000000
 51
180.000000
  0
LINE
  8
OBRYS
 10
112.800182
 20
333.883863
 11
112.800182
 21
340.640016
  0
LINE
  8
OBRYS
 10
86.825258
 20
383.575956
 11
89.825258
 21
383.575956
  0
ARC
  8
OSA
 62
     2
  6
CONTINUOUS
 10
124.825258
 20
411.062271
 40
6.000000
 50
60.000000
 51
120.000000
  0
LINE
  8
OSA
 62
     2
  6
CONTINUOUS
 10
156.825258
 20
399.515266
 11
127.825258
 21
416.258424
  0
ARC
  8
OSA
 62
     2
  6
CONTINUOUS
 10
153.825258
 20
394.319113
 40
6.000000
 50
0.000000
 51
60.000000
  0
ARC
  8
OSA
 62
     2
  6
CONTINUOUS
 10
95.825258
 20
360.832798
 40
6.000000
 50
180.000000
 51
240.000000
  0
LINE
  8
OSA
 62
     2
  6
CONTINUOUS
 10
92.825258
 20
355.636645
 11
121.825258
 21
338.893487
  0
ARC
  8
OSA
 62
     2
  6
CONTINUOUS
 10
124.825258
 20
344.089640
 40
6.000000
 50
240.000000
 51
300.000000
  0
LINE
  8
OSA
 62
     2
  6
CONTINUOUS
 10
92.825258
 20
399.515266
 11
121.825258
 21
416.258424
  0
LINE
  8
OSA
 62
     2
  6
CONTINUOUS
 10
89.825258
 20
394.319113
 11
89.825258
 21
360.832798
  0
ARC
  8
OSA
 62
     2
  6
CONTINUOUS
 10
95.825258
 20
394.319113
 40
6.000000
 50
120.000000
 51
180.000000
  0
LINE
  8
OSA
 62
     2
  6
CONTINUOUS
 10
156.825258
 20
355.636645
 11
127.825258
 21
338.893487
  0
LINE
  8
OSA
 62
     2
  6
CONTINUOUS
 10
159.825258
 20
360.832798
 11
159.825258
 21
394.319113
  0
ARC
  8
OSA
 62
     2
  6
CONTINUOUS
 10
153.825258
 20
360.832798
 40
6.000000
 50
300.000000
 51
360.000000
  0
CIRCLE
  8
OBRYS
 10
124.825258
 20
377.575956
 40
27.500000
  0
POLYLINE
  8
OBRYS
 66
    1
  0
VERTEX
  8
OBRYS
 10
105.325279
 20
325.419250
  0
VERTEX
  8
OBRYS
 10
105.463829
 20
325.420624
  0
VERTEX
  8
OBRYS
 10
105.621727
 20
325.425629
  0
VERTEX
  8
OBRYS
 10
105.801537
 20
325.435699
  0
VERTEX
  8
OBRYS
 10
106.006004
 20
325.452881
  0
VERTEX
  8
OBRYS
 10
106.238182
 20
325.479858
  0
VERTEX
  8
OBRYS
 10
106.501305
 20
325.520081
  0
VERTEX
  8
OBRYS
 10
106.798668
 20
325.578094
  0
VERTEX
  8
OBRYS
 10
107.133263
 20
325.659668
  0
VERTEX
  8
OBRYS
 10
107.507713
 20
325.772034
  0
VERTEX
  8
OBRYS
 10
107.923912
 20
325.924225
  0
VERTEX
  8
OBRYS
 10
108.381981
 20
326.127045
  0
VERTEX
  8
OBRYS
 10
108.879967
 20
326.393036
  0
VERTEX
  8
OBRYS
 10
109.412498
 20
326.736176
  0
VERTEX
  8
OBRYS
 10
109.970177
 20
327.170868
  0
VERTEX
  8
OBRYS
 10
110.538536
 20
327.710724
  0
VERTEX
  8
OBRYS
 10
111.097618
 20
328.366516
  0
VERTEX
  8
OBRYS
 10
111.622765
 20
329.143921
  0
VERTEX
  8
OBRYS
 10
112.085594
 20
330.041199
  0
VERTEX
  8
OBRYS
 10
112.456810
 20
331.047546
  0
VERTEX
  8
OBRYS
 10
112.709129
 20
332.142395
  0
VERTEX
  8
OBRYS
 10
112.821007
 20
333.296082
  0
VERTEX
  8
OBRYS
 10
112.800194
 20
333.883850
  0
SEQEND
  8
OBRYS
  0
ARC
  8
OBRYS
 10
94.825258
 20
323.419247
 40
2.000000
 50
90.000000
 51
180.000000
  0
LINE
  8
OBRYS
 10
94.825258
 20
325.419247
 11
105.325258
 21
325.419247
  0
LINE
  8
OBRYS
 10
175.325258
 20
312.121732
 11
169.825258
 21
310.790333
  0
LINE
  8
OBRYS
 10
175.325258
 20
371.575956
 11
175.325258
 21
356.051627
  0
LINE
  8
OBRYS
 10
181.825258
 20
352.637864
 11
169.825258
 21
358.940195
  0
LINE
  8
OBRYS
 10
181.825258
 20
343.292540
 11
169.825258
 21
354.394380
  0
ARC
  8
OBRYS
 10
171.825258
 20
377.904383
 40
2.000000
 50
180.000000
 51
225.000000
  0
LINE
  8
OBRYS
 10
185.325258
 20
347.075956
 11
184.825258
 21
347.575956
  0
LINE
  8
OBRYS
 10
162.825258
 20
383.575956
 11
161.825258
 21
383.575956
  0
LINE
  8
OBRYS
 10
181.825258
 20
347.575956
 11
184.825258
 21
347.575956
  0
LINE
  8
OBRYS
 10
175.325258
 20
371.575956
 11
170.411044
 21
376.490169
  0
LINE
  8
OSA
 10
124.825258
 20
377.575956
 11
166.825258
 21
377.575956
  0
LINE
  8
OBRYS
 10
86.825258
 20
383.575956
 11
86.825258
 21
307.575956
  0
LINE
  8
OBRYS
 10
92.825258
 20
233.575956
 11
92.825258
 21
307.575956
  0
LINE
  8
OBRYS
 10
181.825258
 20
307.575956
 11
181.825258
 21
262.514047
  0
LINE
  8
OBRYS
 10
175.325258
 20
307.575956
 11
175.325258
 21
292.912669
  0
LINE
  8
OBRYS
 10
185.325258
 20
307.575956
 11
185.325258
 21
268.075956
  0
LINE
  8
OBRYS
 10
184.825258
 20
267.575956
 11
184.825258
 21
307.575956
  0
LINE
  8
OBRYS
 10
156.825258
 20
233.575956
 11
156.825258
 21
307.575956
  0
LINE
  8
OBRYS
 10
124.825258
 20
239.075956
 11
154.825258
 21
239.075956
  0
LINE
  8
OBRYS
 10
169.825258
 20
307.575956
 11
169.825258
 21
233.751778
  0
LINE
  8
OBRYS
 10
185.325258
 20
268.075956
 11
184.825258
 21
267.575956
  0
LINE
  8
OBRYS
 10
181.825258
 20
267.575956
 11
184.825258
 21
267.575956
  0
ARC
  8
OBRYS
 10
171.825258
 20
237.247528
 40
2.000000
 50
135.000000
 51
180.000000
  0
ARC
  8
OBRYS
 10
154.825258
 20
237.075956
 40
2.000000
 50
0.000000
 51
90.000000
  0
LINE
  8
OBRYS
 10
86.825258
 20
231.575956
 11
86.825258
 21
307.575956
  0
LINE
  8
OBRYS
 10
86.825258
 20
231.575956
 11
90.825258
 21
231.575956
  0
ARC
  8
OBRYS
 10
90.825258
 20
233.575956
 40
2.000000
 50
270.000000
 51
360.000000
  0
ARC
  8
OBRYS
 10
158.825258
 20
233.575956
 40
2.000000
 50
180.000000
 51
270.000000
  0
LINE
  8
OBRYS
 10
162.825258
 20
231.575956
 11
158.825258
 21
231.575956
  0
LINE
  8
OBRYS
 10
162.825258
 20
231.575956
 11
167.895057
 21
231.752997
  0
ARC
  8
OBRYS
 10
167.825258
 20
233.751778
 40
2.000000
 50
272.000000
 51
360.000000
  0
LINE
  8
OBRYS
 10
115.825191
 20
236.075956
 11
133.825325
 21
236.075956
  0
LINE
  8
OBRYS
 10
133.825325
 20
236.075956
 11
133.825257
 21
237.075819
  0
ARC
  8
OBRYS
 10
135.825257
 20
237.075956
 40
2.000000
 50
90.000000
 51
180.003913
  0
LINE
  8
OBRYS
 10
115.825191
 20
236.075956
 11
115.825259
 21
237.075819
  0
ARC
  8
OBRYS
 10
113.825259
 20
237.075956
 40
2.000000
 50
359.996087
 51
90.000000
  0
LINE
  8
OBRYS
 10
175.325258
 20
303.030179
 11
169.825258
 21
304.361578
  0
LINE
  8
OBRYS
 10
175.325258
 20
243.575956
 11
175.325258
 21
259.100284
  0
LINE
  8
OBRYS
 10
181.825258
 20
271.859371
 11
169.825258
 21
260.757531
  0
ARC
  8
OBRYS
 10
171.825258
 20
237.247528
 40
2.000000
 50
135.000000
 51
180.000000
  0
LINE
  8
OBRYS
 10
175.325258
 20
243.575956
 11
170.411044
 21
238.661742
  0
LINE
  8
OBRYS
 10
181.825258
 20
262.514047
 11
169.825258
 21
256.211716
  0
ARC
  8
OBRYS
 10
94.825258
 20
291.732664
 40
2.000000
 50
180.000000
 51
270.000000
  0
ARC
  8
OBRYS
 10
94.825258
 20
271.428407
 40
2.000000
 50
90.000000
 51
180.000000
  0
POLYLINE
  8
OBRYS
 66
    1
  0
VERTEX
  8
OBRYS
 10
105.325249
 20
289.732666
  0
VERTEX
  8
OBRYS
 10
105.463829
 20
289.731262
  0
VERTEX
  8
OBRYS
 10
105.621727
 20
289.726288
  0
VERTEX
  8
OBRYS
 10
105.801506
 20
289.716217
  0
VERTEX
  8
OBRYS
 10
106.005974
 20
289.699005
  0
VERTEX
  8
OBRYS
 10
106.238182
 20
289.672028
  0
VERTEX
  8
OBRYS
 10
106.501335
 20
289.631805
  0
VERTEX
  8
OBRYS
 10
106.798637
 20
289.573792
  0
VERTEX
  8
OBRYS
 10
107.133232
 20
289.492249
  0
VERTEX
  8
OBRYS
 10
107.507744
 20
289.379883
  0
VERTEX
  8
OBRYS
 10
107.923912
 20
289.227692
  0
VERTEX
  8
OBRYS
 10
108.381981
 20
289.024872
  0
VERTEX
  8
OBRYS
 10
108.879936
 20
288.758850
  0
VERTEX
  8
OBRYS
 10
109.412498
 20
288.415741
  0
VERTEX
  8
OBRYS
 10
109.970207
 20
287.981049
  0
VERTEX
  8
OBRYS
 10
110.538536
 20
287.441193
  0
VERTEX
  8
OBRYS
 10
111.097649
 20
286.785370
  0
VERTEX
  8
OBRYS
 10
111.622765
 20
286.007965
  0
VERTEX
  8
OBRYS
 10
112.085594
 20
285.110687
  0
VERTEX
  8
OBRYS
 10
112.456779
 20
284.104340
  0
VERTEX
  8
OBRYS
 10
112.709129
 20
283.009491
  0
VERTEX
  8
OBRYS
 10
112.820976
 20
281.855835
  0
VERTEX
  8
OBRYS
 10
112.779381
 20
280.680267
  0
VERTEX
  8
OBRYS
 10
112.582573
 20
279.523621
  0
VERTEX
  8
OBRYS
 10
112.241173
 20
278.426483
  0
VERTEX
  8
OBRYS
 10
111.777336
 20
277.424377
  0
VERTEX
  8
OBRYS
 10
111.222069
 20
276.543213
  0
VERTEX
  8
OBRYS
 10
110.610619
 20
275.796692
  0
VERTEX
  8
OBRYS
 10
109.977287
 20
275.186096
  0
VERTEX
  8
OBRYS
 10
109.351402
 20
274.702606
  0
VERTEX
  8
OBRYS
 10
108.754906
 20
274.330688
  0
VERTEX
  8
OBRYS
 10
108.202080
 20
274.051971
  0
VERTEX
  8
OBRYS
 10
107.700493
 20
273.848022
  0
VERTEX
  8
OBRYS
 10
107.252525
 20
273.702148
  0
VERTEX
  8
OBRYS
 10
106.857109
 20
273.600250
  0
VERTEX
  8
OBRYS
 10
106.511040
 20
273.530945
  0
VERTEX
  8
OBRYS
 10
106.209953
 20
273.485321
  0
VERTEX
  8
OBRYS
 10
105.949120
 20
273.456665
  0
VERTEX
  8
OBRYS
 10
105.723839
 20
273.439911
  0
VERTEX
  8
OBRYS
 10
105.529655
 20
273.431427
  0
VERTEX
  8
OBRYS
 10
105.362480
 20
273.428497
  0
VERTEX
  8
OBRYS
 10
105.325249
 20
273.428406
  0
SEQEND
  8
OBRYS
  0
LINE
  8
OBRYS
 10
94.825258
 20
273.428407
 11
105.325258
 21
273.428407
  0
LINE
  8
OBRYS
 10
94.825258
 20
289.732664
 11
105.325258
 21
289.732664
  0
POLYLINE
  8
0
 62
     2
 66
    1
  0
VERTEX
  8
0
 62
     2
 10
108.599541
 20
238.204254
  0
VERTEX
  8
0
 62
     2
 10
109.110863
 20
238.570343
  0
VERTEX
  8
0
 62
     2
 10
109.425743
 20
238.967590
  0
SEQEND
  8
0
  0
LINE
  8
0
 62
     2
 10
106.477863
 20
237.225492
 11
108.599534
 21
238.204243
  0
LINE
  8
0
 62
     2
 10
109.425739
 20
238.967557
 11
111.146190
 21
241.126899
  0
POLYLINE
  8
0
 62
     2
 66
    1
  0
VERTEX
  8
0
 62
     2
 10
112.651451
 20
244.146545
  0
VERTEX
  8
0
 62
     2
 10
112.820976
 20
244.805176
  0
VERTEX
  8
0
 62
     2
 10
112.651451
 20
245.463837
  0
VERTEX
  8
0
 62
     2
 10
112.149437
 20
246.097168
  0
VERTEX
  8
0
 62
     2
 10
111.334160
 20
246.680847
  0
VERTEX
  8
0
 62
     2
 10
110.237022
 20
247.192444
  0
VERTEX
  8
0
 62
     2
 10
108.900139
 20
247.612335
  0
VERTEX
  8
0
 62
     2
 10
107.374901
 20
247.924316
  0
VERTEX
  8
0
 62
     2
 10
105.719902
 20
248.116425
  0
VERTEX
  8
0
 62
     2
 10
103.998772
 20
248.181305
  0
SEQEND
  8
0
  0
LINE
  8
0
 62
     2
 10
111.146190
 20
241.126899
 11
112.651464
 21
244.146555
  0
LINE
  8
OBRYS
 10
103.998786
 20
248.181309
 11
92.825258
 21
248.181309
  0
POLYLINE
  8
0
 62
     2
 66
    1
  0
VERTEX
  8
0
 62
     2
 10
103.998772
 20
236.718414
  0
VERTEX
  8
0
 62
     2
 10
104.580467
 20
236.740356
  0
VERTEX
  8
0
 62
     2
 10
105.139763
 20
236.805267
  0
VERTEX
  8
0
 62
     2
 10
105.655235
 20
236.910706
  0
VERTEX
  8
0
 62
     2
 10
106.107048
 20
237.052612
  0
VERTEX
  8
0
 62
     2
 10
106.477867
 20
237.225525
  0
SEQEND
  8
0
  0
LINE
  8
OBRYS
 10
109.425739
 20
239.075956
 11
124.825258
 21
239.075956
  0
LINE
  8
OBRYS
 10
103.998786
 20
236.718401
 11
94.825258
 21
236.718401
  0
ARC
  8
OBRYS
 10
94.825258
 20
234.718401
 40
2.000000
 50
90.000000
 51
180.000000
  0
LINE
  8
OSA
 10
124.825258
 20
421.639042
 11
124.825258
 21
231.948310
  0
INSERT
  8
OSA
  2
M10x1__72
  6
CONTINUOUS
 10
124.825258
 20
236.075956
  0
ARC
  8
OBRYS
 10
167.825258
 20
381.400133
 40
2.000000
 50
0.000000
 51
88.000000
  0
LINE
  8
OBRYS
 10
169.825258
 20
307.575956
 11
169.825258
 21
381.400133
  0
LINE
  8
OBRYS
 10
159.825258
 20
383.680718
 11
167.895057
 21
383.398914
  0
LINE
  8
OSA
 10
61.599369
 20
307.575956
 11
198.013966
 21
307.575956
  0
ENDBLK
  8
OSA
  0
BLOCK
  8
OSA
  2
M10x1__72
 70
   66
 10
124.825258
 20
236.075956
  0
LINE
  8
OSA
 10
124.825258
 20
245.404858
 11
124.825258
 21
231.630607
  0
LINE
  8
OSA
 62
     2
  6
CONTINUOUS
 10
117.825258
 20
236.075956
 11
131.825258
 21
236.075956
  0
LINE
  8
OSA
 62
     2
  6
CONTINUOUS
 10
131.825258
 20
236.075956
 11
131.825258
 21
234.075956
  0
LINE
  8
OSA
 62
     2
  6
CONTINUOUS
 10
117.825258
 20
236.075956
 11
117.825258
 21
234.075956
  0
ARC
  8
OSA
 62
     2
  6
CONTINUOUS
 10
130.825258
 20
234.075956
 40
1.000000
 50
270.000000
 51
360.000000
  0
LINE
  8
OSA
 62
     2
  6
CONTINUOUS
 10
118.825258
 20
233.075956
 11
130.825258
 21
233.075956
  0
ARC
  8
OSA
 62
     2
  6
CONTINUOUS
 10
118.825258
 20
234.075956
 40
1.000000
 50
180.000000
 51
270.000000
  0
ENDBLK
  8
OSA
  0
BLOCK
  8
OBRYS
  2
_45
 70
   64
 10
888.948050
 20
307.575956
  0
LINE
  8
OSA
 10
888.948050
 20
307.575956
 11
974.448046
 21
307.575956
  0
INSERT
  8
OBRYS
  2
Vnitrni_metricky_zavit_M8__74
 62
     7
 10
938.948050
 20
307.575956
  0
INSERT
  8
OBRYS
  2
Vnitrni_metricky_zavit_M8__75
 62
     7
 10
924.303389
 20
272.220616
  0
CIRCLE
  8
OSA
 10
888.948050
 20
307.575956
 40
50.000000
  0
LINE
  8
OSA
 10
888.948050
 20
307.575956
 11
888.948050
 21
222.075959
  0
LINE
  8
OSA
 10
888.948050
 20
307.575956
 11
803.448053
 21
307.575956
  0
CIRCLE
  8
OBRYS
 10
888.948050
 20
307.575956
 40
40.000000
  0
CIRCLE
  8
OBRYS
 10
888.948050
 20
307.575956
 40
30.000000
  0
ARC
  8
OBRYS
 10
932.598118
 20
325.656406
 40
5.000000
 50
164.065930
 51
240.934070
  0
ARC
  8
OBRYS
 10
932.598118
 20
289.495505
 40
5.000000
 50
119.065930
 51
195.934070
  0
LINE
  8
OBRYS
 10
928.948050
 20
322.239242
 11
928.948050
 21
292.912669
  0
ARC
  8
OBRYS
 10
888.948050
 20
307.575956
 40
57.500000
 50
308.400746
 51
321.599254
  0
ARC
  8
OBRYS
 10
888.948050
 20
307.575956
 40
64.000000
 50
355.926980
 51
4.073020
  0
ARC
  8
OBRYS
 10
888.948050
 20
307.575956
 40
69.500000
 50
357.334468
 51
2.650877
  0
CIRCLE
  8
OBRYS
 10
888.948050
 20
307.575956
 40
76.000000
  0
ARC
  8
OBRYS
 10
1023.948050
 20
299.575956
 40
100.000000
 50
148.188412
 51
164.065930
  0
ARC
  8
OBRYS
 10
941.518799
 20
350.707341
 40
3.000000
 50
39.366980
 51
148.188412
  0
ARC
  8
OBRYS
 10
978.750611
 20
408.692225
 40
100.000000
 50
240.934070
 51
256.811588
  0
ARC
  8
OBRYS
 10
888.948050
 20
307.575956
 40
71.000000
 50
5.633020
 51
39.366980
  0
ARC
  8
OBRYS
 10
956.619678
 20
314.250594
 40
3.000000
 50
256.811588
 51
5.633020
  0
ARC
  8
OBRYS
 10
978.750611
 20
206.459686
 40
100.000000
 50
103.188412
 51
119.065930
  0
ARC
  8
OBRYS
 10
956.619678
 20
300.901317
 40
3.000000
 50
354.366980
 51
103.188412
  0
ARC
  8
OBRYS
 10
1023.948050
 20
315.575956
 40
100.000000
 50
195.934070
 51
211.811588
  0
ARC
  8
OBRYS
 10
888.948050
 20
307.575956
 40
71.000000
 50
320.633020
 51
354.366980
  0
ARC
  8
OBRYS
 10
941.518799
 20
264.444570
 40
3.000000
 50
211.811588
 51
320.633020
  0
ARC
  8
OBRYS
 10
932.079435
 20
360.146704
 40
3.000000
 50
301.811588
 51
50.633020
  0
ARC
  8
OBRYS
 10
836.377301
 20
350.707341
 40
3.000000
 50
31.811588
 51
140.633020
  0
ARC
  8
OBRYS
 10
845.816665
 20
255.005207
 40
3.000000
 50
121.811588
 51
230.633020
  0
ARC
  8
OBRYS
 10
888.948050
 20
307.575956
 40
71.000000
 50
50.633020
 51
84.366980
  0
ARC
  8
OBRYS
 10
888.948050
 20
307.575956
 40
71.000000
 50
140.633020
 51
174.366980
  0
ARC
  8
OBRYS
 10
888.948050
 20
307.575956
 40
71.000000
 50
230.633020
 51
264.366980
  0
ARC
  8
OBRYS
 10
880.948050
 20
442.575956
 40
100.000000
 50
285.934070
 51
301.811588
  0
ARC
  8
OBRYS
 10
753.948050
 20
299.575956
 40
100.000000
 50
15.934070
 51
31.811588
  0
ARC
  8
OBRYS
 10
896.948050
 20
172.575956
 40
100.000000
 50
105.934070
 51
121.811588
  0
ARC
  8
OBRYS
 10
895.622688
 20
375.247583
 40
3.000000
 50
84.366980
 51
193.188412
  0
ARC
  8
OBRYS
 10
821.276422
 20
314.250594
 40
3.000000
 50
174.366980
 51
283.188412
  0
ARC
  8
OBRYS
 10
882.273412
 20
239.904328
 40
3.000000
 50
264.366980
 51
13.188412
  0
ARC
  8
OBRYS
 10
990.064320
 20
397.378517
 40
100.000000
 50
193.188412
 51
209.065930
  0
ARC
  8
OBRYS
 10
799.145489
 20
408.692225
 40
100.000000
 50
283.188412
 51
299.065930
  0
ARC
  8
OBRYS
 10
787.831780
 20
217.773394
 40
100.000000
 50
13.188412
 51
29.065930
  0
ARC
  8
OBRYS
 10
882.273412
 20
375.247583
 40
3.000000
 50
346.811588
 51
95.633020
  0
ARC
  8
OBRYS
 10
821.276422
 20
300.901317
 40
3.000000
 50
76.811588
 51
185.633020
  0
ARC
  8
OBRYS
 10
895.622688
 20
239.904328
 40
3.000000
 50
166.811588
 51
275.633020
  0
ARC
  8
OBRYS
 10
888.948050
 20
307.575956
 40
71.000000
 50
95.633020
 51
129.366980
  0
ARC
  8
OBRYS
 10
888.948050
 20
307.575956
 40
71.000000
 50
185.633020
 51
219.366980
  0
ARC
  8
OBRYS
 10
888.948050
 20
307.575956
 40
71.000000
 50
275.633020
 51
309.366980
  0
ARC
  8
OBRYS
 10
787.831780
 20
397.378517
 40
100.000000
 50
330.934070
 51
346.811588
  0
ARC
  8
OBRYS
 10
799.145489
 20
206.459686
 40
100.000000
 50
60.934070
 51
76.811588
  0
ARC
  8
OBRYS
 10
990.064320
 20
217.773394
 40
100.000000
 50
150.934070
 51
166.811588
  0
ARC
  8
OBRYS
 10
845.816665
 20
360.146704
 40
3.000000
 50
129.366980
 51
238.188412
  0
ARC
  8
OBRYS
 10
836.377301
 20
264.444570
 40
3.000000
 50
219.366980
 51
328.188412
  0
ARC
  8
OBRYS
 10
932.079435
 20
255.005207
 40
3.000000
 50
309.366980
 51
58.188412
  0
ARC
  8
OBRYS
 10
896.948050
 20
442.575956
 40
100.000000
 50
238.188412
 51
254.065930
  0
ARC
  8
OBRYS
 10
753.948050
 20
315.575956
 40
100.000000
 50
328.188412
 51
344.065930
  0
ARC
  8
OBRYS
 10
880.948050
 20
172.575956
 40
100.000000
 50
58.188412
 51
74.065930
  0
ARC
  8
OBRYS
 10
888.948050
 20
307.575956
 40
69.500000
 50
87.334468
 51
92.650877
  0
ARC
  8
OBRYS
 10
888.948050
 20
307.575956
 40
69.500000
 50
177.334468
 51
182.650877
  0
ARC
  8
OBRYS
 10
888.948050
 20
307.575956
 40
69.500000
 50
267.334468
 51
272.650877
  0
ARC
  8
OBRYS
 10
888.948050
 20
307.575956
 40
64.000000
 50
85.926980
 51
94.073020
  0
ARC
  8
OBRYS
 10
888.948050
 20
307.575956
 40
64.000000
 50
175.926980
 51
184.073020
  0
ARC
  8
OBRYS
 10
888.948050
 20
307.575956
 40
64.000000
 50
265.926980
 51
274.073020
  0
ARC
  8
OBRYS
 10
888.948050
 20
307.575956
 40
57.500000
 50
128.400746
 51
141.599254
  0
LINE
  8
OBRYS
 10
874.284763
 20
347.575956
 11
903.611337
 21
347.575956
  0
LINE
  8
OBRYS
 10
848.948050
 20
292.912669
 11
848.948050
 21
322.239242
  0
LINE
  8
OBRYS
 10
903.611337
 20
267.575956
 11
874.284763
 21
267.575956
  0
ARC
  8
OBRYS
 10
907.028500
 20
351.226023
 40
5.000000
 50
209.065930
 51
285.934070
  0
ARC
  8
OBRYS
 10
845.297982
 20
325.656406
 40
5.000000
 50
299.065930
 51
15.934070
  0
ARC
  8
OBRYS
 10
870.867600
 20
263.925888
 40
5.000000
 50
29.065930
 51
105.934070
  0
ARC
  8
OBRYS
 10
870.867600
 20
351.226023
 40
5.000000
 50
254.065930
 51
330.934070
  0
ARC
  8
OBRYS
 10
845.297982
 20
289.495505
 40
5.000000
 50
344.065930
 51
60.934070
  0
ARC
  8
OBRYS
 10
907.028500
 20
263.925888
 40
5.000000
 50
74.065930
 51
150.934070
  0
INSERT
  8
OBRYS
  2
Vnitrni_metricky_zavit_M8__76
 62
     7
 10
924.303389
 20
342.931295
  0
INSERT
  8
OBRYS
  2
Vnitrni_metricky_zavit_M8__77
 62
     7
 10
853.592711
 20
342.931295
  0
INSERT
  8
OBRYS
  2
Vnitrni_metricky_zavit_M8__78
 62
     7
 10
853.592711
 20
272.220616
  0
INSERT
  8
OBRYS
  2
Vnitrni_metricky_zavit_M8__79
 62
     7
 10
888.948050
 20
357.575956
  0
INSERT
  8
OBRYS
  2
Vnitrni_metricky_zavit_M8__80
 62
     7
 10
838.948050
 20
307.575956
  0
INSERT
  8
OBRYS
  2
Vnitrni_metricky_zavit_M8__81
 62
     7
 10
888.948050
 20
257.575956
  0
ARC
  8
OBRYS
 10
888.948050
 20
307.575956
 40
69.500000
 50
312.334468
 51
317.650877
  0
ARC
  8
OBRYS
 10
888.948050
 20
307.575956
 40
69.500000
 50
222.334468
 51
227.650877
  0
ARC
  8
OBRYS
 10
888.948050
 20
307.575956
 40
69.500000
 50
132.334468
 51
137.650877
  0
ARC
  8
OBRYS
 10
888.948050
 20
307.575956
 40
69.500000
 50
42.334468
 51
47.650877
  0
ARC
  8
OBRYS
 10
888.948050
 20
307.575956
 40
57.500000
 50
38.400746
 51
51.599254
  0
ARC
  8
OBRYS
 10
888.948050
 20
307.575956
 40
57.500000
 50
218.400746
 51
231.599254
  0
CIRCLE
  8
OBRYS
 10
888.948050
 20
307.575956
 40
22.500000
  0
LINE
  8
OBRYS
 10
885.948050
 20
317.638262
 11
885.948050
 21
320.550956
  0
LINE
  8
OBRYS
 10
888.948050
 20
320.550956
 11
885.948050
 21
320.550956
  0
LINE
  8
OBRYS
 10
891.948050
 20
317.638262
 11
891.948050
 21
320.550956
  0
LINE
  8
OBRYS
 10
888.948050
 20
320.550956
 11
891.948050
 21
320.550956
  0
ARC
  8
OBRYS
 10
888.948050
 20
307.575956
 40
10.500000
 50
106.601550
 51
270.000000
  0
ARC
  8
OBRYS
 10
888.948050
 20
307.575956
 40
10.500000
 50
270.000000
 51
73.398450
  0
LINE
  8
OSA
 10
919.398977
 20
277.125029
 11
928.827362
 21
267.696644
  0
LINE
  8
OSA
 10
858.497123
 20
277.125029
 11
849.068738
 21
267.696644
  0
LINE
  8
OSA
 10
858.497123
 20
338.026883
 11
849.068738
 21
347.455267
  0
LINE
  8
OSA
 10
919.398977
 20
338.026883
 11
928.827362
 21
347.455267
  0
ENDBLK
  8
OBRYS
  0
BLOCK
  8
OBRYS
  2
Vnitrni_metricky_zavit_M8__74
 70
   66
 10
938.948050
 20
307.575956
  0
CIRCLE
  8
OBRYS
 10
938.948050
 20
307.575956
 40
3.323500
  0
ARC
  8
OBRYS
 62
     7
 10
938.948050
 20
307.575956
 40
4.000000
 50
130.000000
 51
50.000000
  0
ENDBLK
  8
OBRYS
  0
BLOCK
  8
OBRYS
  2
Vnitrni_metricky_zavit_M8__75
 70
   66
 10
924.303389
 20
272.220616
  0
CIRCLE
  8
OBRYS
 10
924.303389
 20
272.220616
 40
3.323500
  0
ARC
  8
OBRYS
 62
     7
 10
924.303389
 20
272.220616
 40
4.000000
 50
85.000000
 51
5.000000
  0
ENDBLK
  8
OBRYS
  0
BLOCK
  8
OBRYS
  2
Vnitrni_metricky_zavit_M8__76
 70
   66
 10
924.303389
 20
342.931295
  0
CIRCLE
  8
OBRYS
 10
924.303389
 20
342.931295
 40
3.323500
  0
ARC
  8
OBRYS
 62
     7
 10
924.303389
 20
342.931295
 40
4.000000
 50
175.000000
 51
95.000000
  0
ENDBLK
  8
OBRYS
  0
BLOCK
  8
OBRYS
  2
Vnitrni_metricky_zavit_M8__77
 70
   66
 10
853.592711
 20
342.931295
  0
CIRCLE
  8
OBRYS
 10
853.592711
 20
342.931295
 40
3.323500
  0
ARC
  8
OBRYS
 62
     7
 10
853.592711
 20
342.931295
 40
4.000000
 50
265.000000
 51
185.000000
  0
ENDBLK
  8
OBRYS
  0
BLOCK
  8
OBRYS
  2
Vnitrni_metricky_zavit_M8__78
 70
   66
 10
853.592711
 20
272.220616
  0
CIRCLE
  8
OBRYS
 10
853.592711
 20
272.220616
 40
3.323500
  0
ARC
  8
OBRYS
 62
     7
 10
853.592711
 20
272.220616
 40
4.000000
 50
355.000000
 51
275.000000
  0
ENDBLK
  8
OBRYS
  0
BLOCK
  8
OBRYS
  2
Vnitrni_metricky_zavit_M8__79
 70
   66
 10
888.948050
 20
357.575956
  0
CIRCLE
  8
OBRYS
 10
888.948050
 20
357.575956
 40
3.323500
  0
ARC
  8
OBRYS
 62
     7
 10
888.948050
 20
357.575956
 40
4.000000
 50
220.000000
 51
140.000000
  0
ENDBLK
  8
OBRYS
  0
BLOCK
  8
OBRYS
  2
Vnitrni_metricky_zavit_M8__80
 70
   66
 10
838.948050
 20
307.575956
  0
CIRCLE
  8
OBRYS
 10
838.948050
 20
307.575956
 40
3.323500
  0
ARC
  8
OBRYS
 62
     7
 10
838.948050
 20
307.575956
 40
4.000000
 50
310.000000
 51
230.000000
  0
ENDBLK
  8
OBRYS
  0
BLOCK
  8
OBRYS
  2
Vnitrni_metricky_zavit_M8__81
 70
   66
 10
888.948050
 20
257.575956
  0
CIRCLE
  8
OBRYS
 10
888.948050
 20
257.575956
 40
3.323500
  0
ARC
  8
OBRYS
 62
     7
 10
888.948050
 20
257.575956
 40
4.000000
 50
40.000000
 51
320.000000
  0
ENDBLK
  8
OBRYS
  0
ENDSEC
  0
SECTION
  2
ENTITIES
  0
INSERT
  8
OBRYS
  2
_0
 62
     7
 10
-485.791246
 20
305.431907
  0
INSERT
  8
OBRYS
  2
_1
 62
     7
 10
-536.291246
 20
375.431907
  0
INSERT
  8
OSA
  2
Srouby_s_valcovou_hlavou__2
  6
CONTINUOUS
 10
-1090.706441
 20
279.409434
  0
INSERT
  8
OSA
  2
_3
  6
CONTINUOUS
 10
-536.291246
 20
305.431907
  0
LINE
  8
OSA
 10
-500.228801
 20
521.096380
 11
-480.429811
 21
501.297390
  0
LINE
  8
OSA
 10
-572.353692
 20
521.096380
 11
-592.152682
 21
501.297390
  0
LINE
  8
OSA
 10
-572.353692
 20
593.221272
 11
-592.152682
 21
613.020262
  0
LINE
  8
OSA
 10
-500.228801
 20
593.221272
 11
-480.429811
 21
613.020262
  0
LINE
  8
OSA
 10
-536.291246
 20
599.658826
 11
-536.291246
 21
577.158826
  0
LINE
  8
OSA
 10
-536.291246
 20
557.158826
 11
-536.291246
 21
534.658826
  0
LINE
  8
OSA
 10
-536.291246
 20
557.158826
 11
-536.291246
 21
579.658826
  0
LINE
  8
OSA
 10
-536.291246
 20
557.158826
 11
-558.791246
 21
557.158826
  0
LINE
  8
OSA
 10
-536.291246
 20
557.158826
 11
-513.791246
 21
557.158826
  0
CIRCLE
  8
OBRYS
 10
-536.291246
 20
557.158826
 40
12.500000
  0
ARC
  8
OBRYS
 10
-536.291246
 20
557.158826
 40
7.000000
 50
110.924832
 51
69.075168
  0
LINE
  8
OBRYS
 10
-538.791246
 20
563.697174
 11
-538.791246
 21
566.358826
  0
LINE
  8
OBRYS
 10
-533.791246
 20
563.697174
 11
-533.791246
 21
566.358826
  0
LINE
  8
OBRYS
 10
-538.791246
 20
566.358826
 11
-533.791246
 21
566.358826
  0
CIRCLE
  8
OBRYS
 10
-536.291246
 20
557.158826
 40
80.000000
  0
CIRCLE
  8
OBRYS
 10
-536.291246
 20
557.158826
 40
55.000000
  0
LINE
  8
OSA
 10
-536.291246
 20
557.158826
 11
-451.291246
 21
557.158826
  0
LINE
  8
OSA
 10
-536.291246
 20
557.158826
 11
-621.291246
 21
557.158826
  0
LINE
  8
OSA
 10
-536.291246
 20
557.158826
 11
-536.291246
 21
642.158826
  0
LINE
  8
OSA
 10
-536.291246
 20
557.158826
 11
-536.291246
 21
472.158826
  0
CIRCLE
  8
OSA
 10
-536.291246
 20
557.158826
 40
65.000000
  0
INSERT
  8
OBRYS
 66
     1
  2
Vnitrni_metricky_zavit_M8_4
 62
     7
 10
-582.253187
 20
511.196885
  0
ATTRIB
  8
OBRYS
 10
-1350.729126
 20
-2.144048
 40
25.000000
  1
CSN 02 1034
  2
norma roz.
 70
     1
  0
ATTRIB
  8
OBRYS
 10
-1350.729126
 20
-2.144048
 40
25.000000
  1
1.25
  2
roztec
 70
     1
  0
ATTRIB
  8
OBRYS
 10
-1350.729126
 20
-2.144048
 40
25.000000
  1
*NB
  2
puvod
 70
     1
  0
ATTRIB
  8
OBRYS
 10
-1350.729126
 20
-2.144048
 40
25.000000
  1
02 1034
  2
tridici znak
 70
     1
  0
SEQEND
  8
OBRYS
  0
INSERT
  8
OBRYS
 66
     1
  2
Vnitrni_metricky_zavit_M8_5
 62
     7
 10
-490.329306
 20
511.196885
  0
ATTRIB
  8
OBRYS
 10
-1350.729126
 20
-2.144048
 40
25.000000
  1
CSN 02 1034
  2
norma roz.
 70
     1
  0
ATTRIB
  8
OBRYS
 10
-1350.729126
 20
-2.144048
 40
25.000000
  1
1.25
  2
roztec
 70
     1
  0
ATTRIB
  8
OBRYS
 10
-1350.729126
 20
-2.144048
 40
25.000000
  1
*NB
  2
puvod
 70
     1
  0
ATTRIB
  8
OBRYS
 10
-1350.729126
 20
-2.144048
 40
25.000000
  1
02 1034
  2
tridici znak
 70
     1
  0
SEQEND
  8
OBRYS
  0
INSERT
  8
OBRYS
 66
     1
  2
Vnitrni_metricky_zavit_M8_6
 62
     7
 10
-490.329306
 20
603.120767
  0
ATTRIB
  8
OBRYS
 10
-1350.729126
 20
-2.144048
 40
25.000000
  1
CSN 02 1034
  2
norma roz.
 70
     1
  0
ATTRIB
  8
OBRYS
 10
-1350.729126
 20
-2.144048
 40
25.000000
  1
1.25
  2
roztec
 70
     1
  0
ATTRIB
  8
OBRYS
 10
-1350.729126
 20
-2.144048
 40
25.000000
  1
*NB
  2
puvod
 70
     1
  0
ATTRIB
  8
OBRYS
 10
-1350.729126
 20
-2.144048
 40
25.000000
  1
02 1034
  2
tridici znak
 70
     1
  0
SEQEND
  8
OBRYS
  0
INSERT
  8
OBRYS
 66
     1
  2
Vnitrni_metricky_zavit_M8_7
 62
     7
 10
-582.253187
 20
603.120767
  0
ATTRIB
  8
OBRYS
 10
-1350.729126
 20
-2.144048
 40
25.000000
  1
CSN 02 1034
  2
norma roz.
 70
     1
  0
ATTRIB
  8
OBRYS
 10
-1350.729126
 20
-2.144048
 40
25.000000
  1
1.25
  2
roztec
 70
     1
  0
ATTRIB
  8
OBRYS
 10
-1350.729126
 20
-2.144048
 40
25.000000
  1
*NB
  2
puvod
 70
     1
  0
ATTRIB
  8
OBRYS
 10
-1350.729126
 20
-2.144048
 40
25.000000
  1
02 1034
  2
tridici znak
 70
     1
  0
SEQEND
  8
OBRYS
  0
LINE
  8
OBRYS
 10
-538.791246
 20
124.527473
 11
-533.791246
 21
124.527473
  0
LINE
  8
OBRYS
 10
-533.791246
 20
121.865821
 11
-533.791246
 21
124.527473
  0
LINE
  8
OBRYS
 10
-538.791246
 20
121.865821
 11
-538.791246
 21
124.527473
  0
ARC
  8
OBRYS
 10
-536.291246
 20
115.327473
 40
7.000000
 50
110.924832
 51
69.075168
  0
CIRCLE
  8
OBRYS
 10
-536.291246
 20
115.327473
 40
12.500000
  0
LINE
  8
OSA
 10
-536.291246
 20
115.327473
 11
-513.791246
 21
115.327473
  0
LINE
  8
OSA
 10
-536.291246
 20
115.327473
 11
-558.791246
 21
115.327473
  0
LINE
  8
OSA
 10
-536.291246
 20
115.327473
 11
-536.291246
 21
137.827473
  0
LINE
  8
OSA
 10
-536.291246
 20
115.327473
 11
-536.291246
 21
92.827473
  0
CIRCLE
  8
OBRYS
 10
-536.291246
 20
157.827473
 40
12.500000
  0
ARC
  8
OBRYS
 10
-536.291246
 20
157.827473
 40
5.500000
 50
110.654018
 51
68.003576
  0
LINE
  8
OBRYS
 10
-534.231228
 20
162.927112
 11
-534.231228
 21
165.016433
  0
LINE
  8
OBRYS
 10
-538.231228
 20
162.973973
 11
-538.231228
 21
165.016433
  0
LINE
  8
OBRYS
 10
-538.231228
 20
165.016433
 11
-534.231228
 21
165.016433
  0
LINE
  8
OSA
 10
-536.291246
 20
157.827473
 11
-513.791246
 21
157.827473
  0
LINE
  8
OSA
 10
-536.291246
 20
157.827473
 11
-558.791246
 21
157.827473
  0
LINE
  8
OSA
 10
-536.291246
 20
157.827473
 11
-536.291246
 21
180.327473
  0
LINE
  8
OSA
 10
-536.291246
 20
157.827473
 11
-536.291246
 21
135.327473
  0
ARC
  8
OBRYS
 10
-1045.706441
 20
375.431907
 40
60.000000
 50
158.898853
 51
181.542682
  0
ARC
  8
OBRYS
 10
-1045.706441
 20
313.431907
 40
70.000000
 50
328.997281
 51
36.343631
  0
ARC
  8
OBRYS
 10
-1045.706441
 20
375.431907
 40
60.000000
 50
336.521061
 51
21.101147
  0
ARC
  8
OBRYS
 10
-1083.706441
 20
420.431907
 40
5.000000
 50
109.216664
 51
131.452663
  0
ARC
  8
OBRYS
 10
-1045.706441
 20
375.431907
 40
60.000000
 50
98.898853
 51
109.216664
  0
LINE
  8
0
 62
     2
 10
-1065.454919
 20
432.088748
 11
-1085.352147
 21
425.153310
  0
LINE
  8
0
 62
     2
 10
-1102.301973
 20
410.678427
 11
-1087.016446
 21
424.179422
  0
ARC
  8
OBRYS
 10
-1097.667965
 20
405.431907
 40
7.000000
 50
140.000000
 51
227.046122
  0
ARC
  8
OBRYS
 10
-993.744917
 20
405.431907
 40
7.000000
 50
312.953878
 51
40.000000
  0
LINE
  8
0
 62
     2
 10
-989.110909
 20
410.678427
 11
-1004.396436
 21
424.179422
  0
LINE
  8
0
 62
     2
 10
-1025.957963
 20
432.088748
 11
-1006.060734
 21
425.153310
  0
ARC
  8
OBRYS
 10
-1045.706441
 20
375.431907
 40
60.000000
 50
70.783336
 51
81.101147
  0
ARC
  8
OBRYS
 10
-1007.706441
 20
420.431907
 40
5.000000
 50
48.547337
 51
70.783336
  0
ARC
  8
OBRYS
 10
-1055.451949
 20
437.673574
 40
3.000000
 50
278.898853
 51
347.046120
  0
ARC
  8
OBRYS
 10
-1035.960933
 20
437.673574
 40
3.000000
 50
192.953880
 51
261.101147
  0
ARC
  8
OBRYS
 10
-986.930822
 20
398.112883
 40
3.000000
 50
132.953880
 51
201.101147
  0
ARC
  8
OBRYS
 10
-1104.482060
 20
398.112883
 40
3.000000
 50
338.898853
 51
47.046120
  0
ARC
  8
OBRYS
 10
-1045.706441
 20
435.431907
 40
7.000000
 50
12.953880
 51
167.046120
  0
INSERT
  8
OBRYS
  2
_8
 62
     7
 10
-876.998844
 20
375.431907
  0
ARC
  8
OBRYS
 10
-281.583649
 20
305.431907
 40
100.000000
 50
270.000000
 51
344.335733
  0
INSERT
  8
OBRYS
  2
_9
 62
     7
 10
-195.583649
 20
375.431907
  0
INSERT
  8
OSA
  2
_10
  6
CONTINUOUS
 10
-876.998844
 20
50.724310
  0
INSERT
  8
OSA
  2
_11
  6
CONTINUOUS
 10
-876.998844
 20
560.139504
  0
LINE
  8
OSA
 10
-702.498847
 20
375.431907
 11
-884.498840
 21
375.431907
  0
LINE
  8
OSA
 10
-790.998844
 20
305.431907
 11
-790.998844
 21
417.227624
  0
LINE
  8
0
 62
     2
 10
-848.175245
 20
414.114375
 11
-876.998844
 21
414.114375
  0
LINE
  8
0
 62
     2
 10
-847.938952
 20
397.371217
 11
-876.998844
 21
397.371217
  0
LINE
  8
0
 62
     2
 10
-848.122443
 20
392.175065
 11
-876.998844
 21
392.175065
  0
LINE
  8
0
 62
     2
 10
-841.285247
 20
410.431907
 11
-848.998844
 21
414.885354
  0
LINE
  8
0
 62
     2
 10
-876.998844
 20
414.885354
 11
-849.105834
 21
414.885354
  0
LINE
  8
0
 62
     2
 10
-740.712440
 20
410.431907
 11
-732.998844
 21
414.885354
  0
LINE
  8
0
 62
     2
 10
-733.822442
 20
414.114375
 11
-709.998844
 21
414.114375
  0
LINE
  8
0
 62
     2
 10
-734.058736
 20
397.371217
 11
-709.998844
 21
397.371217
  0
LINE
  8
0
 62
     2
 10
-733.875244
 20
392.175065
 11
-709.998844
 21
392.175065
  0
LINE
  8
0
 62
     2
 10
-709.998844
 20
414.885354
 11
-732.891853
 21
414.885354
  0
LINE
  8
OBRYS
 10
-740.712440
 20
410.431907
 11
-841.285247
 21
410.431907
  0
INSERT
  8
OBRYS
  2
_12
 62
     7
 10
-281.583649
 20
305.431907
  0
LINE
  8
OSA
 10
-370.083645
 20
375.431907
 11
-188.083653
 21
375.431907
  0
LINE
  8
OSA
 10
-281.583649
 20
305.431907
 11
-281.583649
 21
417.227624
  0
LINE
  8
0
 62
     2
 10
-224.407247
 20
414.114375
 11
-195.583649
 21
414.114375
  0
LINE
  8
0
 62
     2
 10
-224.643541
 20
397.371217
 11
-195.583649
 21
397.371217
  0
LINE
  8
0
 62
     2
 10
-224.460050
 20
392.175065
 11
-195.583649
 21
392.175065
  0
LINE
  8
0
 62
     2
 10
-231.297246
 20
410.431907
 11
-223.583649
 21
414.885354
  0
LINE
  8
0
 62
     2
 10
-195.583649
 20
414.885354
 11
-223.476659
 21
414.885354
  0
LINE
  8
OBRYS
 10
-195.583649
 20
414.885354
 11
-195.583649
 21
335.978460
  0
POLYLINE
  8
0
 62
     2
 66
    1
  0
VERTEX
  8
0
 62
     2
 10
-223.583633
 20
414.885345
  0
VERTEX
  8
0
 62
     2
 10
-223.476700
 20
414.885345
  0
VERTEX
  8
0
 62
     2
 10
-223.719070
 20
414.624573
  0
VERTEX
  8
0
 62
     2
 10
-224.407242
 20
414.114380
  0
VERTEX
  8
0
 62
     2
 10
-227.899734
 20
411.683258
  0
VERTEX
  8
0
 62
     2
 10
-230.774185
 20
408.046722
  0
VERTEX
  8
0
 62
     2
 10
-231.167191
 20
404.595795
  0
VERTEX
  8
0
 62
     2
 10
-229.158768
 20
401.053680
  0
VERTEX
  8
0
 62
     2
 10
-224.643570
 20
397.371216
  0
VERTEX
  8
0
 62
     2
 10
-224.426407
 20
397.080750
  0
VERTEX
  8
0
 62
     2
 10
-223.849014
 20
396.633942
  0
VERTEX
  8
0
 62
     2
 10
-223.325516
 20
395.701782
  0
VERTEX
  8
0
 62
     2
 10
-223.254044
 20
394.615479
  0
VERTEX
  8
0
 62
     2
 10
-223.637833
 20
393.422546
  0
VERTEX
  8
0
 62
     2
 10
-224.460037
 20
392.175079
  0
VERTEX
  8
0
 62
     2
 10
-226.302505
 20
389.929382
  0
VERTEX
  8
0
 62
     2
 10
-230.109634
 20
382.393860
  0
VERTEX
  8
0
 62
     2
 10
-231.297256
 20
375.431915
  0
SEQEND
  8
0
  0
LINE
  8
0
 62
     2
 10
-231.297246
 20
375.431907
 11
-231.297246
 21
410.431907
  0
LINE
  8
0
 62
     2
 10
-231.297246
 20
375.431907
 11
-231.297246
 21
362.416796
  0
POLYLINE
  8
0
 62
     2
 66
    1
  0
VERTEX
  8
0
 62
     2
 10
-223.637161
 20
354.607147
  0
VERTEX
  8
0
 62
     2
 10
-223.325516
 20
355.162048
  0
VERTEX
  8
0
 62
     2
 10
-223.254044
 20
356.248352
  0
VERTEX
  8
0
 62
     2
 10
-223.637833
 20
357.441284
  0
VERTEX
  8
0
 62
     2
 10
-224.460037
 20
358.688751
  0
VERTEX
  8
0
 62
     2
 10
-226.302505
 20
360.934448
  0
VERTEX
  8
0
 62
     2
 10
-230.109634
 20
368.469971
  0
VERTEX
  8
0
 62
     2
 10
-231.297256
 20
375.431915
  0
SEQEND
  8
0
  0
LINE
  8
0
 62
     2
 10
-224.460050
 20
358.688749
 11
-195.583649
 21
358.688749
  0
LINE
  8
0
 62
     2
 10
-212.336178
 20
336.749439
 11
-195.583649
 21
336.749439
  0
LINE
  8
0
 62
     2
 10
-222.709460
 20
353.492597
 11
-195.583649
 21
353.492597
  0
LINE
  8
0
 62
     2
 10
-195.583649
 20
335.978460
 11
-211.992643
 21
335.978460
  0
LINE
  8
OBRYS
 10
-362.583649
 20
414.885354
 11
-362.583649
 21
335.978460
  0
POLYLINE
  8
0
 62
     2
 66
    1
  0
VERTEX
  8
0
 62
     2
 10
-339.530182
 20
354.607147
  0
VERTEX
  8
0
 62
     2
 10
-339.841827
 20
355.162048
  0
VERTEX
  8
0
 62
     2
 10
-339.913300
 20
356.248352
  0
VERTEX
  8
0
 62
     2
 10
-339.529510
 20
357.441284
  0
VERTEX
  8
0
 62
     2
 10
-338.707306
 20
358.688751
  0
VERTEX
  8
0
 62
     2
 10
-336.864838
 20
360.934448
  0
VERTEX
  8
0
 62
     2
 10
-333.057709
 20
368.469971
  0
VERTEX
  8
0
 62
     2
 10
-331.870087
 20
375.431915
  0
SEQEND
  8
0
  0
LINE
  8
0
 62
     2
 10
-331.870053
 20
375.431907
 11
-331.870053
 21
362.416796
  0
POLYLINE
  8
0
 62
     2
 66
    1
  0
VERTEX
  8
0
 62
     2
 10
-339.583710
 20
414.885345
  0
VERTEX
  8
0
 62
     2
 10
-339.690643
 20
414.885345
  0
VERTEX
  8
0
 62
     2
 10
-339.448273
 20
414.624573
  0
VERTEX
  8
0
 62
     2
 10
-338.760101
 20
414.114380
  0
VERTEX
  8
0
 62
     2
 10
-335.267609
 20
411.683258
  0
VERTEX
  8
0
 62
     2
 10
-332.393158
 20
408.046722
  0
VERTEX
  8
0
 62
     2
 10
-332.000153
 20
404.595795
  0
VERTEX
  8
0
 62
     2
 10
-334.008575
 20
401.053680
  0
VERTEX
  8
0
 62
     2
 10
-338.523773
 20
397.371216
  0
VERTEX
  8
0
 62
     2
 10
-338.740936
 20
397.080750
  0
VERTEX
  8
0
 62
     2
 10
-339.318329
 20
396.633942
  0
VERTEX
  8
0
 62
     2
 10
-339.841827
 20
395.701782
  0
VERTEX
  8
0
 62
     2
 10
-339.913300
 20
394.615479
  0
VERTEX
  8
0
 62
     2
 10
-339.529510
 20
393.422546
  0
VERTEX
  8
0
 62
     2
 10
-338.707306
 20
392.175079
  0
VERTEX
  8
0
 62
     2
 10
-336.864838
 20
389.929382
  0
VERTEX
  8
0
 62
     2
 10
-333.057709
 20
382.393860
  0
VERTEX
  8
0
 62
     2
 10
-331.870087
 20
375.431915
  0
SEQEND
  8
0
  0
LINE
  8
0
 62
     2
 10
-331.870053
 20
410.431907
 11
-339.583649
 21
414.885354
  0
LINE
  8
0
 62
     2
 10
-338.760051
 20
414.114375
 11
-362.583649
 21
414.114375
  0
LINE
  8
0
 62
     2
 10
-338.523757
 20
397.371217
 11
-362.583649
 21
397.371217
  0
LINE
  8
0
 62
     2
 10
-338.707248
 20
392.175065
 11
-362.583649
 21
392.175065
  0
LINE
  8
0
 62
     2
 10
-362.583649
 20
414.885354
 11
-339.690639
 21
414.885354
  0
LINE
  8
0
 62
     2
 10
-338.707248
 20
358.688749
 11
-362.583649
 21
358.688749
  0
LINE
  8
0
 62
     2
 10
-350.831120
 20
336.749439
 11
-362.583649
 21
336.749439
  0
LINE
  8
0
 62
     2
 10
-340.457838
 20
353.492597
 11
-362.583649
 21
353.492597
  0
LINE
  8
0
 62
     2
 10
-362.583649
 20
335.978460
 11
-351.174655
 21
335.978460
  0
LINE
  8
OBRYS
 10
-331.870053
 20
410.431907
 11
-231.297246
 21
410.431907
  0
LINE
  8
0
 62
     2
 10
-331.870053
 20
375.431907
 11
-331.870053
 21
410.431907
  0
INSERT
  8
OSA
  2
_13
  6
CONTINUOUS
 10
-1045.706441
 20
305.431907
  0
INSERT
  8
OSA
  2
_14
  6
CONTINUOUS
 10
-790.998844
 20
560.139504
  0
INSERT
  8
OBRYS
  2
_15
 62
     7
 10
-790.998844
 20
50.724310
  0
INSERT
  8
KOTA
  2
_16
 62
     7
 10
-790.998844
 20
305.431907
  0
LINE
  8
0
 62
     2
 10
-740.712440
 20
391.868460
 11
-740.712440
 21
410.431907
  0
POLYLINE
  8
0
 62
     2
 66
    1
  0
VERTEX
  8
0
 62
     2
 10
-732.998779
 20
414.885345
  0
VERTEX
  8
0
 62
     2
 10
-732.891846
 20
414.885345
  0
VERTEX
  8
0
 62
     2
 10
-733.134216
 20
414.624573
  0
VERTEX
  8
0
 62
     2
 10
-733.822388
 20
414.114380
  0
VERTEX
  8
0
 62
     2
 10
-737.314880
 20
411.683258
  0
VERTEX
  8
0
 62
     2
 10
-740.189331
 20
408.046722
  0
VERTEX
  8
0
 62
     2
 10
-740.582336
 20
404.595795
  0
VERTEX
  8
0
 62
     2
 10
-738.573914
 20
401.053680
  0
VERTEX
  8
0
 62
     2
 10
-734.058716
 20
397.371216
  0
VERTEX
  8
0
 62
     2
 10
-733.841553
 20
397.080750
  0
VERTEX
  8
0
 62
     2
 10
-733.264160
 20
396.633942
  0
VERTEX
  8
0
 62
     2
 10
-732.740662
 20
395.701782
  0
VERTEX
  8
0
 62
     2
 10
-732.669189
 20
394.615479
  0
VERTEX
  8
0
 62
     2
 10
-733.052979
 20
393.422546
  0
VERTEX
  8
0
 62
     2
 10
-733.875183
 20
392.175079
  0
VERTEX
  8
0
 62
     2
 10
-735.717651
 20
389.929382
  0
VERTEX
  8
0
 62
     2
 10
-736.159851
 20
389.054169
  0
SEQEND
  8
0
  0
LINE
  8
OBRYS
 10
-709.998844
 20
414.885354
 11
-709.998844
 21
364.074895
  0
LINE
  8
0
 62
     2
 10
-841.285247
 20
391.868460
 11
-841.285247
 21
410.431907
  0
POLYLINE
  8
0
 62
     2
 66
    1
  0
VERTEX
  8
0
 62
     2
 10
-848.998840
 20
414.885345
  0
VERTEX
  8
0
 62
     2
 10
-849.105774
 20
414.885345
  0
VERTEX
  8
0
 62
     2
 10
-848.863403
 20
414.624573
  0
VERTEX
  8
0
 62
     2
 10
-848.175232
 20
414.114380
  0
VERTEX
  8
0
 62
     2
 10
-844.682739
 20
411.683258
  0
VERTEX
  8
0
 62
     2
 10
-841.808289
 20
408.046722
  0
VERTEX
  8
0
 62
     2
 10
-841.415283
 20
404.595795
  0
VERTEX
  8
0
 62
     2
 10
-843.423706
 20
401.053680
  0
VERTEX
  8
0
 62
     2
 10
-847.938904
 20
397.371216
  0
VERTEX
  8
0
 62
     2
 10
-848.156067
 20
397.080750
  0
VERTEX
  8
0
 62
     2
 10
-848.733459
 20
396.633942
  0
VERTEX
  8
0
 62
     2
 10
-849.256958
 20
395.701782
  0
VERTEX
  8
0
 62
     2
 10
-849.328430
 20
394.615479
  0
VERTEX
  8
0
 62
     2
 10
-848.944641
 20
393.422546
  0
VERTEX
  8
0
 62
     2
 10
-848.122437
 20
392.175079
  0
VERTEX
  8
0
 62
     2
 10
-846.279968
 20
389.929382
  0
VERTEX
  8
0
 62
     2
 10
-845.837830
 20
389.054199
  0
SEQEND
  8
0
  0
LINE
  8
OBRYS
 10
-876.998844
 20
414.885354
 11
-876.998844
 21
356.461310
  0
INSERT
  8
OBRYS
  2
_17
 62
     7
 10
-1096.206441
 20
305.431907
  0
INSERT
  8
OSA
  2
_18
  6
CONTINUOUS
 10
-1083.706441
 20
305.431907
  0
INSERT
  8
OSA
  2
_19
  6
CONTINUOUS
 10
-790.998844
 20
12.724310
  0
INSERT
  8
OBRYS
  2
_20
 62
     7
 10
-790.998844
 20
0.224310
  0
INSERT
  8
OBRYS
  2
_21
 62
     7
 10
-790.998844
 20
610.639504
  0
INSERT
  8
OSA
  2
_22
  6
CONTINUOUS
 10
-790.998844
 20
598.139504
  0
LINE
  8
OSA
 10
-281.583649
 20
305.431907
 11
-389.083645
 21
305.431907
  0
ARC
  8
OBRYS
 10
-286.083649
 20
207.535278
 40
2.000000
 50
267.368146
 51
360.000000
  0
ARC
  8
OBRYS
 10
-379.480278
 20
309.931907
 40
2.000000
 50
177.368146
 51
270.000000
  0
ARC
  8
OBRYS
 10
-379.480278
 20
300.931907
 40
2.000000
 50
90.000000
 51
182.631854
  0
ARC
  8
OSA
 10
-281.583649
 20
305.431907
 40
82.500000
 50
90.000000
 51
270.000000
  0
CIRCLE
  8
OBRYS
 10
-339.919959
 20
247.095598
 40
5.500000
  0
LINE
  8
OSA
 10
-332.714421
 20
254.301135
 11
-357.597625
 21
229.417931
  0
LINE
  8
OSA
 10
-281.583649
 20
305.431907
 11
-174.083653
 21
305.431907
  0
LINE
  8
OSA
 10
-230.452877
 20
254.301135
 11
-205.569673
 21
229.417931
  0
CIRCLE
  8
OBRYS
 10
-223.247340
 20
247.095598
 40
5.500000
  0
ARC
  8
OSA
 10
-281.583649
 20
305.431907
 40
82.500000
 50
270.000000
 51
90.000000
  0
ARC
  8
OBRYS
 10
-183.687020
 20
300.931907
 40
2.000000
 50
357.368146
 51
90.000000
  0
ARC
  8
OBRYS
 10
-183.687020
 20
309.931907
 40
2.000000
 50
270.000000
 51
2.631854
  0
ARC
  8
OBRYS
 10
-277.083649
 20
207.535278
 40
2.000000
 50
180.000000
 51
272.631854
  0
LINE
  8
OBRYS
 10
-357.542520
 20
307.931907
 11
-379.480278
 21
307.931907
  0
LINE
  8
OBRYS
 10
-357.542520
 20
302.931907
 11
-379.480278
 21
302.931907
  0
LINE
  8
OBRYS
 10
-205.624779
 20
302.931907
 11
-183.687020
 21
302.931907
  0
LINE
  8
OBRYS
 10
-205.624779
 20
307.931907
 11
-183.687020
 21
307.931907
  0
LINE
  8
OBRYS
 10
-279.083649
 20
229.473037
 11
-279.083649
 21
207.535278
  0
LINE
  8
OBRYS
 10
-284.083649
 20
229.473037
 11
-284.083649
 21
207.535278
  0
ARC
  8
OBRYS
 10
-281.583649
 20
305.431907
 40
100.000000
 50
144.095931
 51
270.000000
  0
LINE
  8
OSA
 10
-281.583649
 20
305.431907
 11
-281.583649
 21
197.931911
  0
INSERT
  8
OSA
 66
     1
  2
Sroub_M10x16_23
  6
CONTINUOUS
 10
-1045.706441
 20
305.431907
  0
ATTRIB
  8
OSA
  6
CONTINUOUS
 10
-1350.729126
 20
-2.144048
 40
2.500000
  1
DIN 912
  2
norma roz.
 70
     1
  0
ATTRIB
  8
OSA
  6
CONTINUOUS
 10
-1350.729126
 20
-2.144048
 40
2.500000
  1
1.5
  2
roztec
 70
     1
  0
ATTRIB
  8
OSA
  6
CONTINUOUS
 10
-1350.729126
 20
-2.144048
 40
2.500000
  1
*N
  2
puvod
 70
     1
  0
SEQEND
  8
OSA
  0
CIRCLE
  8
OSA
 62
     2
  6
CONTINUOUS
 10
-1045.706441
 20
305.431907
 40
9.000000
  0
INSERT
  8
OSA
 66
     1
  2
Sroub_M10x16_24
  6
CONTINUOUS
 10
-790.998844
 20
560.139504
  0
ATTRIB
  8
OSA
  6
CONTINUOUS
 10
-1350.729126
 20
-2.144048
 40
2.500000
  1
DIN 912
  2
norma roz.
 70
     1
  0
ATTRIB
  8
OSA
  6
CONTINUOUS
 10
-1350.729126
 20
-2.144048
 40
2.500000
  1
1.5
  2
roztec
 70
     1
  0
ATTRIB
  8
OSA
  6
CONTINUOUS
 10
-1350.729126
 20
-2.144048
 40
2.500000
  1
*N
  2
puvod
 70
     1
  0
SEQEND
  8
OSA
  0
CIRCLE
  8
OSA
 62
     2
  6
CONTINUOUS
 10
-790.998844
 20
560.139504
 40
9.000000
  0
ARC
  8
OBRYS
 10
-1045.706441
 20
309.431907
 40
80.000000
 50
249.344687
 51
293.578178
  0
TEXT
  8
NEVIDITELNA
 62
     2
  6
CONTINUOUS
 10
-902.658630
 20
772.708862
 40
15.000000
  1
MRP 70A - FF-R (P60)
 50
0.00
 51
0.00
 41
0.80
  0
LINE
  8
OBRYS
 10
-68.937860
 20
804.946022
 11
-68.937860
 21
-63.793872
  0
INSERT
  8
OBRYS
  2
_25
 62
     7
 10
684.740453
 20
307.575956
  0
INSERT
  8
OSA
  2
Srouby_s_valcovou_hlavou__26
  6
CONTINUOUS
 10
79.825258
 20
281.553482
  0
INSERT
  8
OSA
  2
_27
  6
CONTINUOUS
 10
634.240453
 20
307.575956
  0
INSERT
  8
OBRYS
  2
_28
 62
     7
 10
634.240453
 20
377.575956
  0
ARC
  8
OBRYS
 10
124.825258
 20
377.575956
 40
64.000000
 50
332.951889
 51
19.389830
  0
ARC
  8
OBRYS
 10
124.825258
 20
377.575956
 40
64.000000
 50
160.610170
 51
178.763602
  0
ARC
  8
OBRYS
 10
114.040300
 20
442.740369
 40
3.000000
 50
285.275412
 51
348.652160
  0
ARC
  8
OBRYS
 10
124.825258
 20
440.575956
 40
8.000000
 50
11.347840
 51
168.652160
  0
LINE
  8
OBRYS
 10
114.830677
 20
439.846357
 11
79.981044
 21
430.328650
  0
ARC
  8
OBRYS
 10
135.610216
 20
442.740369
 40
3.000000
 50
191.347840
 51
254.724588
  0
LINE
  8
OBRYS
 10
134.819838
 20
439.846357
 11
169.669472
 21
430.328650
  0
ARC
  8
OBRYS
 10
180.225258
 20
407.575956
 40
8.000000
 50
315.160000
 51
40.607302
  0
ARC
  8
OBRYS
 10
188.025125
 20
399.819534
 40
3.000000
 50
135.160016
 51
199.389830
  0
LINE
  8
0
 62
     2
 10
186.298765
 20
412.782923
 11
173.139577
 21
428.132052
  0
ARC
  8
OBRYS
 10
167.825258
 20
423.575956
 40
7.000000
 50
40.607300
 51
74.724588
  0
ARC
  8
OBRYS
 10
81.825258
 20
423.575956
 40
7.000000
 50
105.275412
 51
139.392700
  0
ARC
  8
OBRYS
 10
69.425258
 20
407.575956
 40
8.000000
 50
139.392698
 51
224.839984
  0
LINE
  8
0
 62
     2
 10
63.351751
 20
412.782923
 11
76.510939
 21
428.132052
  0
ARC
  8
OBRYS
 10
61.625391
 20
399.819534
 40
3.000000
 50
340.610170
 51
44.839984
  0
ARC
  8
OBRYS
 10
124.825258
 20
311.575956
 40
80.000000
 50
249.344687
 51
293.578178
  0
ARC
  8
OBRYS
 10
124.825258
 20
311.575956
 40
80.000000
 50
319.134712
 51
39.100444
  0
INSERT
  8
OBRYS
  2
_29
 62
     7
 10
293.532855
 20
377.575956
  0
ARC
  8
OBRYS
 10
888.948050
 20
307.575956
 40
100.000000
 50
270.000000
 51
338.796785
  0
INSERT
  8
OBRYS
  2
_30
 62
     7
 10
974.948050
 20
377.575956
  0
INSERT
  8
OBRYS
  2
_31
 62
     7
 10
293.532855
 20
52.868358
  0
INSERT
  8
OBRYS
  2
_32
 62
     7
 10
293.532855
 20
562.283553
  0
TEXT
  8
NEVIDITELNA
 62
     2
  6
CONTINUOUS
 10
291.732391
 20
772.708862
 40
15.000000
  1
MRP 70A - FF-R (P80)
 50
0.00
 51
0.00
 41
0.80
  0
CIRCLE
  8
OSA
 62
     2
  6
CONTINUOUS
 10
379.532855
 20
562.283553
 40
9.000000
  0
INSERT
  8
OSA
 66
     1
  2
Sroub_M10x16_33
  6
CONTINUOUS
 10
379.532855
 20
562.283553
  0
ATTRIB
  8
OSA
  6
CONTINUOUS
 10
0.000000
 20
0.000000
 40
2.500000
  1
DIN 912
  2
norma roz.
 70
     1
  0
ATTRIB
  8
OSA
  6
CONTINUOUS
 10
0.000000
 20
0.000000
 40
2.500000
  1
1.5
  2
roztec
 70
     1
  0
ATTRIB
  8
OSA
  6
CONTINUOUS
 10
0.000000
 20
0.000000
 40
2.500000
  1
*N
  2
puvod
 70
     1
  0
SEQEND
  8
OSA
  0
CIRCLE
  8
OSA
 62
     2
  6
CONTINUOUS
 10
124.825258
 20
307.575956
 40
9.000000
  0
INSERT
  8
OSA
 66
     1
  2
Sroub_M10x16_34
  6
CONTINUOUS
 10
124.825258
 20
307.575956
  0
ATTRIB
  8
OSA
  6
CONTINUOUS
 10
0.000000
 20
0.000000
 40
2.500000
  1
DIN 912
  2
norma roz.
 70
     1
  0
ATTRIB
  8
OSA
  6
CONTINUOUS
 10
0.000000
 20
0.000000
 40
2.500000
  1
1.5
  2
roztec
 70
     1
  0
ATTRIB
  8
OSA
  6
CONTINUOUS
 10
0.000000
 20
0.000000
 40
2.500000
  1
*N
  2
puvod
 70
     1
  0
SEQEND
  8
OSA
  0
LINE
  8
OSA
 10
888.948050
 20
307.575956
 11
888.948050
 21
200.075959
  0
ARC
  8
OBRYS
 10
888.948050
 20
307.575956
 40
100.000000
 50
144.095931
 51
270.000000
  0
LINE
  8
OBRYS
 10
886.448050
 20
231.617085
 11
886.448050
 21
209.679326
  0
LINE
  8
OBRYS
 10
891.448050
 20
231.617085
 11
891.448050
 21
209.679326
  0
LINE
  8
OBRYS
 10
964.906920
 20
310.075956
 11
986.844679
 21
310.075956
  0
LINE
  8
OBRYS
 10
964.906920
 20
305.075956
 11
986.844679
 21
305.075956
  0
LINE
  8
OBRYS
 10
812.989179
 20
305.075956
 11
791.051421
 21
305.075956
  0
LINE
  8
OBRYS
 10
812.989179
 20
310.075956
 11
791.051421
 21
310.075956
  0
ARC
  8
OBRYS
 10
893.448050
 20
209.679326
 40
2.000000
 50
180.000000
 51
272.631854
  0
ARC
  8
OBRYS
 10
986.844679
 20
312.075956
 40
2.000000
 50
270.000000
 51
2.631854
  0
ARC
  8
OBRYS
 10
986.844679
 20
303.075956
 40
2.000000
 50
357.368146
 51
90.000000
  0
ARC
  8
OSA
 10
888.948050
 20
307.575956
 40
82.500000
 50
270.000000
 51
90.000000
  0
CIRCLE
  8
OBRYS
 10
947.284359
 20
249.239646
 40
5.500000
  0
LINE
  8
OSA
 10
940.078822
 20
256.445183
 11
964.962026
 21
231.561979
  0
LINE
  8
OSA
 10
888.948050
 20
307.575956
 11
996.448046
 21
307.575956
  0
LINE
  8
OSA
 10
837.817278
 20
256.445183
 11
812.934074
 21
231.561979
  0
CIRCLE
  8
OBRYS
 10
830.611740
 20
249.239646
 40
5.500000
  0
ARC
  8
OSA
 10
888.948050
 20
307.575956
 40
82.500000
 50
90.000000
 51
270.000000
  0
ARC
  8
OBRYS
 10
791.051421
 20
303.075956
 40
2.000000
 50
90.000000
 51
182.631854
  0
ARC
  8
OBRYS
 10
791.051421
 20
312.075956
 40
2.000000
 50
177.368146
 51
270.000000
  0
ARC
  8
OBRYS
 10
884.448050
 20
209.679326
 40
2.000000
 50
267.368146
 51
360.000000
  0
LINE
  8
OSA
 10
888.948050
 20
307.575956
 11
781.448054
 21
307.575956
  0
INSERT
  8
OSA
  2
_35
  6
CONTINUOUS
 10
379.532855
 20
600.283553
  0
INSERT
  8
OBRYS
  2
_36
 62
     7
 10
379.532855
 20
612.783553
  0
INSERT
  8
OBRYS
  2
_37
 62
     7
 10
379.532855
 20
2.368358
  0
INSERT
  8
OSA
  2
_38
  6
CONTINUOUS
 10
379.532855
 20
14.868358
  0
INSERT
  8
OSA
  2
_39
  6
CONTINUOUS
 10
86.825258
 20
307.575956
  0
INSERT
  8
OBRYS
  2
_40
 62
     7
 10
74.325258
 20
307.575956
  0
LINE
  8
OBRYS
 10
293.532855
 20
417.029403
 11
293.532855
 21
358.605359
  0
POLYLINE
  8
0
 62
     2
 66
    1
  0
VERTEX
  8
0
 62
     2
 10
321.532837
 20
417.029388
  0
VERTEX
  8
0
 62
     2
 10
321.425903
 20
417.029388
  0
VERTEX
  8
0
 62
     2
 10
321.668274
 20
416.768616
  0
VERTEX
  8
0
 62
     2
 10
322.356445
 20
416.258423
  0
VERTEX
  8
0
 62
     2
 10
325.848938
 20
413.827301
  0
VERTEX
  8
0
 62
     2
 10
328.723389
 20
410.190765
  0
VERTEX
  8
0
 62
     2
 10
329.116394
 20
406.739838
  0
VERTEX
  8
0
 62
     2
 10
327.107971
 20
403.197723
  0
VERTEX
  8
0
 62
     2
 10
322.592773
 20
399.515259
  0
VERTEX
  8
0
 62
     2
 10
322.375610
 20
399.224792
  0
VERTEX
  8
0
 62
     2
 10
321.798218
 20
398.777985
  0
VERTEX
  8
0
 62
     2
 10
321.274719
 20
397.845825
  0
VERTEX
  8
0
 62
     2
 10
321.203247
 20
396.759521
  0
VERTEX
  8
0
 62
     2
 10
321.587036
 20
395.566589
  0
VERTEX
  8
0
 62
     2
 10
322.409241
 20
394.319122
  0
VERTEX
  8
0
 62
     2
 10
324.251709
 20
392.073425
  0
VERTEX
  8
0
 62
     2
 10
324.693878
 20
391.198242
  0
SEQEND
  8
0
  0
LINE
  8
0
 62
     2
 10
329.246452
 20
394.012508
 11
329.246452
 21
412.575956
  0
LINE
  8
OBRYS
 10
460.532855
 20
417.029403
 11
460.532855
 21
366.218943
  0
POLYLINE
  8
0
 62
     2
 66
    1
  0
VERTEX
  8
0
 62
     2
 10
437.532898
 20
417.029388
  0
VERTEX
  8
0
 62
     2
 10
437.639832
 20
417.029388
  0
VERTEX
  8
0
 62
     2
 10
437.397461
 20
416.768616
  0
VERTEX
  8
0
 62
     2
 10
436.709290
 20
416.258423
  0
VERTEX
  8
0
 62
     2
 10
433.216797
 20
413.827301
  0
VERTEX
  8
0
 62
     2
 10
430.342346
 20
410.190765
  0
VERTEX
  8
0
 62
     2
 10
429.949341
 20
406.739838
  0
VERTEX
  8
0
 62
     2
 10
431.957764
 20
403.197723
  0
VERTEX
  8
0
 62
     2
 10
436.472961
 20
399.515259
  0
VERTEX
  8
0
 62
     2
 10
436.690125
 20
399.224792
  0
VERTEX
  8
0
 62
     2
 10
437.267517
 20
398.777985
  0
VERTEX
  8
0
 62
     2
 10
437.791016
 20
397.845825
  0
VERTEX
  8
0
 62
     2
 10
437.862488
 20
396.759521
  0
VERTEX
  8
0
 62
     2
 10
437.478699
 20
395.566589
  0
VERTEX
  8
0
 62
     2
 10
436.656494
 20
394.319122
  0
VERTEX
  8
0
 62
     2
 10
434.814026
 20
392.073425
  0
VERTEX
  8
0
 62
     2
 10
434.371857
 20
391.198212
  0
SEQEND
  8
0
  0
LINE
  8
0
 62
     2
 10
429.819259
 20
394.012508
 11
429.819259
 21
412.575956
  0
INSERT
  8
KOTA
  2
_41
 62
     7
 10
379.532855
 20
307.575956
  0
INSERT
  8
OBRYS
  2
_42
 62
     7
 10
379.532855
 20
52.868358
  0
INSERT
  8
OSA
  2
_43
  6
CONTINUOUS
 10
379.532855
 20
562.283553
  0
INSERT
  8
OSA
  2
_44
  6
CONTINUOUS
 10
124.825258
 20
307.575956
  0
LINE
  8
0
 62
     2
 10
838.661646
 20
377.575956
 11
838.661646
 21
412.575956
  0
LINE
  8
OBRYS
 10
838.661646
 20
412.575956
 11
939.234453
 21
412.575956
  0
LINE
  8
0
 62
     2
 10
807.948050
 20
338.122509
 11
819.357044
 21
338.122509
  0
LINE
  8
0
 62
     2
 10
830.073861
 20
355.636645
 11
807.948050
 21
355.636645
  0
LINE
  8
0
 62
     2
 10
819.700579
 20
338.893487
 11
807.948050
 21
338.893487
  0
LINE
  8
0
 62
     2
 10
831.824450
 20
360.832798
 11
807.948050
 21
360.832798
  0
LINE
  8
0
 62
     2
 10
807.948050
 20
417.029403
 11
830.841059
 21
417.029403
  0
LINE
  8
0
 62
     2
 10
831.824450
 20
394.319113
 11
807.948050
 21
394.319113
  0
LINE
  8
0
 62
     2
 10
832.007942
 20
399.515266
 11
807.948050
 21
399.515266
  0
LINE
  8
0
 62
     2
 10
831.771648
 20
416.258424
 11
807.948050
 21
416.258424
  0
LINE
  8
0
 62
     2
 10
838.661646
 20
412.575956
 11
830.948050
 21
417.029403
  0
POLYLINE
  8
0
 62
     2
 66
    1
  0
VERTEX
  8
0
 62
     2
 10
830.947998
 20
417.029388
  0
VERTEX
  8
0
 62
     2
 10
830.841064
 20
417.029388
  0
VERTEX
  8
0
 62
     2
 10
831.083435
 20
416.768616
  0
VERTEX
  8
0
 62
     2
 10
831.771606
 20
416.258423
  0
VERTEX
  8
0
 62
     2
 10
835.264099
 20
413.827301
  0
VERTEX
  8
0
 62
     2
 10
838.138550
 20
410.190765
  0
VERTEX
  8
0
 62
     2
 10
838.531555
 20
406.739838
  0
VERTEX
  8
0
 62
     2
 10
836.523132
 20
403.197723
  0
VERTEX
  8
0
 62
     2
 10
832.007935
 20
399.515259
  0
VERTEX
  8
0
 62
     2
 10
831.790771
 20
399.224792
  0
VERTEX
  8
0
 62
     2
 10
831.213379
 20
398.777985
  0
VERTEX
  8
0
 62
     2
 10
830.689880
 20
397.845825
  0
VERTEX
  8
0
 62
     2
 10
830.618408
 20
396.759521
  0
VERTEX
  8
0
 62
     2
 10
831.002197
 20
395.566589
  0
VERTEX
  8
0
 62
     2
 10
831.824402
 20
394.319122
  0
VERTEX
  8
0
 62
     2
 10
833.666870
 20
392.073425
  0
VERTEX
  8
0
 62
     2
 10
837.473999
 20
384.537903
  0
VERTEX
  8
0
 62
     2
 10
838.661621
 20
377.575958
  0
SEQEND
  8
0
  0
LINE
  8
0
 62
     2
 10
838.661646
 20
377.575956
 11
838.661646
 21
364.560845
  0
POLYLINE
  8
0
 62
     2
 66
    1
  0
VERTEX
  8
0
 62
     2
 10
831.001526
 20
356.751190
  0
VERTEX
  8
0
 62
     2
 10
830.689880
 20
357.306091
  0
VERTEX
  8
0
 62
     2
 10
830.618408
 20
358.392395
  0
VERTEX
  8
0
 62
     2
 10
831.002197
 20
359.585327
  0
VERTEX
  8
0
 62
     2
 10
831.824402
 20
360.832794
  0
VERTEX
  8
0
 62
     2
 10
833.666870
 20
363.078491
  0
VERTEX
  8
0
 62
     2
 10
837.473999
 20
370.614014
  0
VERTEX
  8
0
 62
     2
 10
838.661621
 20
377.575958
  0
SEQEND
  8
0
  0
LINE
  8
OBRYS
 10
807.948050
 20
417.029403
 11
807.948050
 21
338.122509
  0
LINE
  8
0
 62
     2
 10
974.948050
 20
338.122509
 11
958.539056
 21
338.122509
  0
LINE
  8
0
 62
     2
 10
947.822239
 20
355.636645
 11
974.948050
 21
355.636645
  0
LINE
  8
0
 62
     2
 10
958.195521
 20
338.893487
 11
974.948050
 21
338.893487
  0
LINE
  8
0
 62
     2
 10
946.071649
 20
360.832798
 11
974.948050
 21
360.832798
  0
POLYLINE
  8
0
 62
     2
 66
    1
  0
VERTEX
  8
0
 62
     2
 10
946.894531
 20
356.751190
  0
VERTEX
  8
0
 62
     2
 10
947.206177
 20
357.306091
  0
VERTEX
  8
0
 62
     2
 10
947.277649
 20
358.392395
  0
VERTEX
  8
0
 62
     2
 10
946.893860
 20
359.585327
  0
VERTEX
  8
0
 62
     2
 10
946.071655
 20
360.832794
  0
VERTEX
  8
0
 62
     2
 10
944.229187
 20
363.078491
  0
VERTEX
  8
0
 62
     2
 10
940.422058
 20
370.614014
  0
VERTEX
  8
0
 62
     2
 10
939.234436
 20
377.575958
  0
SEQEND
  8
0
  0
LINE
  8
0
 62
     2
 10
939.234453
 20
377.575956
 11
939.234453
 21
364.560845
  0
LINE
  8
0
 62
     2
 10
939.234453
 20
377.575956
 11
939.234453
 21
412.575956
  0
POLYLINE
  8
0
 62
     2
 66
    1
  0
VERTEX
  8
0
 62
     2
 10
946.948059
 20
417.029388
  0
VERTEX
  8
0
 62
     2
 10
947.054993
 20
417.029388
  0
VERTEX
  8
0
 62
     2
 10
946.812622
 20
416.768616
  0
VERTEX
  8
0
 62
     2
 10
946.124451
 20
416.258423
  0
VERTEX
  8
0
 62
     2
 10
942.631958
 20
413.827301
  0
VERTEX
  8
0
 62
     2
 10
939.757507
 20
410.190765
  0
VERTEX
  8
0
 62
     2
 10
939.364502
 20
406.739838
  0
VERTEX
  8
0
 62
     2
 10
941.372925
 20
403.197723
  0
VERTEX
  8
0
 62
     2
 10
945.888123
 20
399.515259
  0
VERTEX
  8
0
 62
     2
 10
946.105286
 20
399.224792
  0
VERTEX
  8
0
 62
     2
 10
946.682678
 20
398.777985
  0
VERTEX
  8
0
 62
     2
 10
947.206177
 20
397.845825
  0
VERTEX
  8
0
 62
     2
 10
947.277649
 20
396.759521
  0
VERTEX
  8
0
 62
     2
 10
946.893860
 20
395.566589
  0
VERTEX
  8
0
 62
     2
 10
946.071655
 20
394.319122
  0
VERTEX
  8
0
 62
     2
 10
944.229187
 20
392.073425
  0
VERTEX
  8
0
 62
     2
 10
940.422058
 20
384.537903
  0
VERTEX
  8
0
 62
     2
 10
939.234436
 20
377.575958
  0
SEQEND
  8
0
  0
LINE
  8
OBRYS
 10
974.948050
 20
417.029403
 11
974.948050
 21
338.122509
  0
LINE
  8
0
 62
     2
 10
974.948050
 20
417.029403
 11
947.055040
 21
417.029403
  0
LINE
  8
0
 62
     2
 10
939.234453
 20
412.575956
 11
946.948050
 21
417.029403
  0
LINE
  8
0
 62
     2
 10
946.071649
 20
394.319113
 11
974.948050
 21
394.319113
  0
LINE
  8
0
 62
     2
 10
945.888158
 20
399.515266
 11
974.948050
 21
399.515266
  0
LINE
  8
0
 62
     2
 10
946.124451
 20
416.258424
 11
974.948050
 21
416.258424
  0
LINE
  8
OSA
 10
888.948050
 20
307.575956
 11
888.948050
 21
419.371672
  0
LINE
  8
OSA
 10
800.448053
 20
377.575956
 11
982.448046
 21
377.575956
  0
INSERT
  8
OBRYS
  2
_45
 62
     7
 10
888.948050
 20
307.575956
  0
LINE
  8
OBRYS
 10
429.819259
 20
412.575956
 11
329.246452
 21
412.575956
  0
LINE
  8
0
 62
     2
 10
460.532855
 20
417.029403
 11
437.639846
 21
417.029403
  0
LINE
  8
0
 62
     2
 10
436.656455
 20
394.319113
 11
460.532855
 21
394.319113
  0
LINE
  8
0
 62
     2
 10
436.472963
 20
399.515266
 11
460.532855
 21
399.515266
  0
LINE
  8
0
 62
     2
 10
436.709257
 20
416.258424
 11
460.532855
 21
416.258424
  0
LINE
  8
0
 62
     2
 10
429.819259
 20
412.575956
 11
437.532855
 21
417.029403
  0
LINE
  8
0
 62
     2
 10
293.532855
 20
417.029403
 11
321.425865
 21
417.029403
  0
LINE
  8
0
 62
     2
 10
329.246452
 20
412.575956
 11
321.532855
 21
417.029403
  0
LINE
  8
0
 62
     2
 10
322.409256
 20
394.319113
 11
293.532855
 21
394.319113
  0
LINE
  8
0
 62
     2
 10
322.592747
 20
399.515266
 11
293.532855
 21
399.515266
  0
LINE
  8
0
 62
     2
 10
322.356454
 20
416.258424
 11
293.532855
 21
416.258424
  0
LINE
  8
OSA
 10
379.532855
 20
307.575956
 11
379.532855
 21
419.371672
  0
LINE
  8
OSA
 10
468.032852
 20
377.575956
 11
286.032859
 21
377.575956
  0
ENDSEC
  0
EOF

