  0
SECTION
  2
HEADER
  9
$ACADVER
  1
AC1009
  9
$INSBASE
 10
0.0
 20
0.0
 30
0.0
  9
$LIMMIN
 10
0.0
 20
0.0
  9
$LIMMAX
 10
430.0000
 20
307.0000
  9
$EXTMIN
 10
99999999999999998000000000000000000000.0000
 20
99999999999999998000000000000000000000.0000
  9
$EXTMAX
 10
99999999999999998000000000000000000000.0000
 20
99999999999999998000000000000000000000.0000
  9
$VIEWCTR
 10
-86.4918
 20
328.1775
  9
$VIEWSIZE
 40
1811.6605
  9
$DIMLFAC
 40
0.6667
  9
$MEASUREMENT
 70
     1
  9
$DWGCODEPAGE
 3
ANSI_1250
  9
$CLAYER
  8
OBRYS
  9
$CELTYPE
  6
BYLAYER
  9
$CECOLOR
 62
  256
  9
$ORTHOMODE
 70
     0
  9
$REGENMODE
 70
     1
  9
$FILLMODE
 70
     1
  9
$QTEXTMODE
 70
     0
  9
$MIRRTEXT
 70
     1
  9
$DRAGMODE
 70
     2
  9
$LTSCALE
 40
1.0
  9
$OSMODE
 70
    37
  9
$ATTMODE
 70
     1
  9
$TEXTSIZE
 40
2.5
  9
$TRACEWID
 40
1.0
  9
$TEXTSTYLE
  7
STANDARD
  9
$CLAYER
  8
0
  9
$CELTYPE
  6
BYLAYER
  9
$CECOLOR
 62
   256
  9
$DIMSCALE
 40
1.0
  9
$DIMASZ
 40
2.5
  9
$DIMEXO
 40
0.625
  9
$DIMDLI
 40
3.75
  9
$DIMRND
 40
0.0
  9
$DIMDLE
 40
0.0
  9
$DIMEXE
 40
1.25
  9
$DIMTP
 40
0.0
  9
$DIMTM
 40
0.0
  9
$DIMTXT
 40
2.5
  9
$DIMCEN
 40
2.5
  9
$DIMTSZ
 40
0.0
  9
$DIMTOL
 70
     0
  9
$DIMLIM
 70
     0
  9
$DIMTIH
 70
     0
  9
$DIMTOH
 70
     0
  9
$DIMSE1
 70
     0
  9
$DIMSE2
 70
     0
  9
$DIMTAD
 70
     1
  9
$DIMZIN
 70
     8
  9
$DIMBLK
  1

  9
$DIMASO
 70
     1
  9
$DIMSHO
 70
     1
  9
$DIMPOST
  1

  9
$DIMAPOST
  1

  9
$DIMALT
 70
     0
  9
$DIMALTD
 70
     3
  9
$DIMALTF
 40
0.03937007874016
  9
$DIMTOFL
 70
     1
  9
$DIMTVP
 40
0.0
  9
$DIMTIX
 70
     0
  9
$DIMSOXD
 70
     0
  9
$DIMSAH
 70
     0
  9
$DIMBLK1
  1

  9
$DIMBLK2
  1

  9
$DIMSTYLE
  2
ISO-25
  9
$DIMCLRD
 70
     0
  9
$DIMCLRE
 70
     0
  9
$DIMCLRT
 70
     0
  9
$DIMTFAC
 40
1.0
  9
$DIMGAP
 40
0.625
  9
$LUNITS
 70
     2
  9
$LUPREC
 70
     4
  9
$SKETCHINC
 40
1.0
  9
$FILLETRAD
 40
10.0
  9
$AUNITS
 70
     0
  9
$AUPREC
 70
     0
  9
$MENU
  1
.
  9
$ELEVATION
 40
0.0
  9
$PELEVATION
 40
0.0
  9
$THICKNESS
 40
0.0
  9
$LIMCHECK
 70
     0
  9
$BLIPMODE
 70
     0
  9
$CHAMFERA
 40
10.0
  9
$CHAMFERB
 40
10.0
  9
$SKPOLY
 70
     0
  9
$TDCREATE
 40
2451579.5163292708
  9
$TDUPDATE
 40
2451579.6904035881
  9
$TDINDWG
 40
0.0082924769
  9
$TDUSRTIMER
 40
0.0082825116
  9
$USRTIMER
 70
     1
  9
$ANGBASE
 50
0.0
  9
$ANGDIR
 70
     0
  9
$PDMODE
 70
     0
  9
$PDSIZE
 40
0.0
  9
$PLINEWID
 40
0.0
  9
$COORDS
 70
     1
  9
$SPLFRAME
 70
     0
  9
$SPLINETYPE
 70
     6
  9
$SPLINESEGS
 70
     8
  9
$ATTDIA
 70
     0
  9
$ATTREQ
 70
     1
  9
$SURFTAB1
 70
     6
  9
$SURFTAB2
 70
     6
  9
$SURFTYPE
 70
     6
  9
$SURFU
 70
     6
  9
$SURFV
 70
     6
  9
$UCSNAME
  2

  9
$UCSORG
 10
0.0
 20
0.0
 30
0.0
  9
$UCSXDIR
 10
1.0
 20
0.0
 30
0.0
  9
$UCSYDIR
 10
0.0
 20
1.0
 30
0.0
  9
$PUCSNAME
  2

  9
$PUCSORG
 10
0.0
 20
0.0
 30
0.0
  9
$PUCSXDIR
 10
1.0
 20
0.0
 30
0.0
  9
$PUCSYDIR
 10
0.0
 20
1.0
 30
0.0
  9
$USERI1
 70
     0
  9
$USERI2
 70
     0
  9
$USERI3
 70
     0
  9
$USERI4
 70
     0
  9
$USERI5
 70
     0
  9
$USERR1
 40
0.0
  9
$USERR2
 40
0.0
  9
$USERR3
 40
0.0
  9
$USERR4
 40
0.0
  9
$USERR5
 40
0.0
  9
$WORLDVIEW
 70
     1
  9
$SHADEDGE
 70
     3
  9
$SHADEDIF
 70
    70
  9
$TILEMODE
 70
     1
  9
$MAXACTVP
 70
    64
  9
$PLIMCHECK
 70
     0
  9
$PEXTMIN
 10
1.0000000000000000E+020
 20
1.0000000000000000E+020
 30
1.0000000000000000E+020
  9
$PEXTMAX
 10
-1.0000000000000000E+020
 20
-1.0000000000000000E+020
 30
-1.0000000000000000E+020
  9
$PLIMMIN
 10
0.0
 20
0.0
  9
$PLIMMAX
 10
420.0
 20
297.0
  9
$UNITMODE
 70
     0
  9
$VISRETAIN
 70
     1
  9
$PLINEGEN
 70
     0
  9
$PSLTSCALE
 70
     1
  0
ENDSEC
  0
SECTION
  2
TABLES
  0
TABLE
  2
VPORT
 70
     2
  0
VPORT
  2
*ACTIVE
 70
     0
 10
0.0
 20
0.0
 11
1.0
 21
1.0
 12
-86.4918
 22
328.1775
 13
0.0
 23
0.0
 14
10.0
 24
10.0
 15
10.0
 25
10.0
 16
0.0
 26
0.0
 36
1.0
 17
0.0
 27
0.0
 37
0.0
 40
1811.6605
 41
1.6916
 42
50.0
 43
0.0
 44
0.0
 50
0.0
 51
0.0
 71
     0
 72
   100
 73
     1
 74
     3
 75
     0
 76
     0
 77
     0
 78
     0
  0
ENDTAB
  0
TABLE
  2
LTYPE
 70
     7
  0
LTYPE
  2
CONTINUOUS
 70
     0
  3
Solid line
 72
    65
 73
     0
 40
0.0
  0
LTYPE
  2
HIDDEN2
 70
     0
  3
Hidden (.5x) _ _ _ _ _ _ _ _ _ _ _ _ _ _ _ _ _
 72
    65
 73
     2
 40
5.1
 49
3.5
 49
-1.6
  0
LTYPE
  2
DASHDOT
 70
     0
  3
Dash dot __ . __ . __ . __ . __ . __ . __ . __
 72
    65
 73
     4
 40
10.4
 49
6.2
 49
-2.1
 49
0.0
 49
-2.1
  0
LTYPE
  2
DOT
 70
     0
  3
Dot . . . . . . . . . . . . . . . . . . . . . .
 72
    65
 73
     2
 40
2.2
 49
1.1
 49
-1.1
  0
LTYPE
  2
DASHED
 70
     0
  3
Dashed __ __ __ __ __ __ __ __ __ __ __ __ __ _
 72
    65
 73
     2
 40
11.049999999999979
 49
8.699999999999999
 49
-2.3499999999999979
  0
LTYPE
  2
PHANTOM2
 70
     0
  3
Phantom (.5x) ___ _ _ ___ _ _ ___ _ _ ___ _ _
 72
    65
 73
     6
 40
18.3
 49
7.8
 49
-2.1
 49
2.1
 49
-2.1
 49
2.1
 49
-2.1
  0
LTYPE
  2
CENTER
 70
     0
  3
Center ____ _ ____ _ ____ _ ____ _ ____ _ ____
 72
    65
 73
     4
 40
14.1
 49
7.8
 49
-2.1
 49
2.1
 49
-2.1
  0
ENDTAB
  0
TABLE
  2
LAYER
 70
     7
  0
LAYER
  2
0
 70
    64
 62
     7
  6
CONTINUOUS
  0
LAYER
  2
OBRYS
 70
    64
 62
     2
  6
CONTINUOUS
  0
LAYER
  2
OSA
 70
    64
 62
     7
  6
DASHDOT
  0
LAYER
  2
KOTA
 70
    64
 62
     3
  6
CONTINUOUS
  0
LAYER
  2
SRAFY
 70
    64
 62
     7
  6
CONTINUOUS
  0
LAYER
  2
POMOC
 70
    64
 62
     1
  6
DOT
  0
LAYER
  2
NEVIDITELNA
 70
    64
 62
     4
  6
HIDDEN2
  0
ENDTAB
  0
TABLE
  2
STYLE
 70
     1
  0
STYLE
  2
STANDARD
 70
     0
 40
0.0
 41
1.0
 50
0.0
 71
     0
 42
2.5
  3
txt
  4

  0
ENDTAB
  0
TABLE
  2
VIEW
 70
     0
  0
ENDTAB
  0
TABLE
  2
UCS
 70
     0
  0
ENDTAB
  0
TABLE
  2
APPID
 70
     1
  0
APPID
  2
ACAD
 70
     0
  0
ENDTAB
  0
TABLE
  2
DIMSTYLE
 70
     1
  0
DIMSTYLE
  2
ISO-25
 70
     0
  3

  4

  5

  6

  7

 40
1.0
 41
2.5
 42
0.625
 43
3.75
 44
1.25
 45
0.0
 46
0.0
 47
0.0
 48
0.0
140
2.5
141
2.5
142
0.0
143
0.03937007874016
144
1.0
145
0.0
146
1.0
147
0.625
 71
     0
 72
     0
 73
     0
 74
     0
 75
     0
 76
     0
 77
     1
 78
     8
170
     0
171
     3
172
     1
173
     0
174
     0
175
     0
176
     0
177
     0
178
     0
  0
ENDTAB
  0
ENDSEC
  0
SECTION
  2
BLOCKS
  0
BLOCK
  8
0
  2
$MODEL_SPACE
 70
     0
 10
0.0
 20
0.0
 30
0.0
  3
$MODEL_SPACE
  1

  0
ENDBLK
  8
0
  0
BLOCK
 67
     1
  8
0
  2
$PAPER_SPACE
 70
     0
 10
0.0
 20
0.0
 30
0.0
  3
$PAPER_SPACE
  1

  0
ENDBLK
 67
     1
  8
0
  0
BLOCK
  8
OSA
  2
_0
 70
   64
 10
-513.315778
 20
312.587729
  0
LINE
  8
OSA
 10
-544.315775
 20
382.587729
 11
-482.315782
 21
382.587729
  0
LINE
  8
OSA
 10
-450.089889
 20
312.587729
 11
-586.504487
 21
312.587729
  0
INSERT
  8
OSA
  2
M10x1__1
  6
CONTINUOUS
 10
-1022.730973
 20
241.087729
  0
LINE
  8
OSA
 10
-513.315778
 20
426.650815
 11
-513.315778
 21
236.960083
  0
ARC
  8
OSA
 62
     2
  6
CONTINUOUS
 10
-483.315778
 20
239.730174
 40
2.000000
 50
0.000000
 51
90.000000
  0
LINE
  8
OSA
 62
     2
  6
CONTINUOUS
 10
-492.489306
 20
241.730174
 11
-483.315778
 21
241.730174
  0
LINE
  8
OSA
 62
     2
  6
CONTINUOUS
 10
-497.916259
 20
244.087729
 11
-513.315778
 21
244.087729
  0
POLYLINE
  8
OSA
 62
     2
  6
CONTINUOUS
 66
    1
  0
VERTEX
  8
OSA
 62
     2
  6
CONTINUOUS
 10
-492.489288
 20
241.730194
  0
VERTEX
  8
OSA
 62
     2
  6
CONTINUOUS
 10
-493.071014
 20
241.752136
  0
VERTEX
  8
OSA
 62
     2
  6
CONTINUOUS
 10
-493.630280
 20
241.817047
  0
VERTEX
  8
OSA
 62
     2
  6
CONTINUOUS
 10
-494.145782
 20
241.922485
  0
VERTEX
  8
OSA
 62
     2
  6
CONTINUOUS
 10
-494.597565
 20
242.064392
  0
VERTEX
  8
OSA
 62
     2
  6
CONTINUOUS
 10
-494.968414
 20
242.237305
  0
SEQEND
  8
OSA
  0
LINE
  8
OSA
 62
     2
  6
CONTINUOUS
 10
-492.489306
 20
253.193082
 11
-481.315778
 21
253.193082
  0
LINE
  8
OSA
 62
     2
  6
CONTINUOUS
 10
-499.636711
 20
246.138672
 11
-501.141984
 21
249.158328
  0
POLYLINE
  8
OSA
 62
     2
  6
CONTINUOUS
 66
    1
  0
VERTEX
  8
OSA
 62
     2
  6
CONTINUOUS
 10
-501.141998
 20
249.158325
  0
VERTEX
  8
OSA
 62
     2
  6
CONTINUOUS
 10
-501.311493
 20
249.816956
  0
VERTEX
  8
OSA
 62
     2
  6
CONTINUOUS
 10
-501.141998
 20
250.475616
  0
VERTEX
  8
OSA
 62
     2
  6
CONTINUOUS
 10
-500.639984
 20
251.108948
  0
VERTEX
  8
OSA
 62
     2
  6
CONTINUOUS
 10
-499.824677
 20
251.692627
  0
VERTEX
  8
OSA
 62
     2
  6
CONTINUOUS
 10
-498.727570
 20
252.204224
  0
VERTEX
  8
OSA
 62
     2
  6
CONTINUOUS
 10
-497.390656
 20
252.624115
  0
VERTEX
  8
OSA
 62
     2
  6
CONTINUOUS
 10
-495.865448
 20
252.936096
  0
VERTEX
  8
OSA
 62
     2
  6
CONTINUOUS
 10
-494.210419
 20
253.128204
  0
VERTEX
  8
OSA
 62
     2
  6
CONTINUOUS
 10
-492.489288
 20
253.193085
  0
SEQEND
  8
OSA
  0
LINE
  8
OSA
 62
     2
  6
CONTINUOUS
 10
-497.916259
 20
243.979330
 11
-499.636711
 21
246.138672
  0
LINE
  8
OSA
 62
     2
  6
CONTINUOUS
 10
-494.968383
 20
242.237265
 11
-497.090055
 21
243.216016
  0
POLYLINE
  8
OSA
 62
     2
  6
CONTINUOUS
 66
    1
  0
VERTEX
  8
OSA
 62
     2
  6
CONTINUOUS
 10
-497.090057
 20
243.216034
  0
VERTEX
  8
OSA
 62
     2
  6
CONTINUOUS
 10
-497.601410
 20
243.582123
  0
VERTEX
  8
OSA
 62
     2
  6
CONTINUOUS
 10
-497.916290
 20
243.979370
  0
SEQEND
  8
OSA
  0
LINE
  8
OSA
 62
     2
  6
CONTINUOUS
 10
-570.315778
 20
267.525820
 11
-558.315778
 21
261.223489
  0
LINE
  8
OSA
 62
     2
  6
CONTINUOUS
 10
-563.815778
 20
248.587729
 11
-558.901565
 21
243.673515
  0
ARC
  8
OSA
 62
     2
  6
CONTINUOUS
 10
-560.315778
 20
242.259301
 40
2.000000
 50
0.000000
 51
45.000000
  0
LINE
  8
OSA
 62
     2
  6
CONTINUOUS
 10
-570.315778
 20
276.871144
 11
-558.315778
 21
265.769304
  0
LINE
  8
OSA
 62
     2
  6
CONTINUOUS
 10
-563.815778
 20
248.587729
 11
-563.815778
 21
264.112057
  0
ARC
  8
OSA
 62
     2
  6
CONTINUOUS
 10
-502.315780
 20
242.087729
 40
2.000000
 50
90.000000
 51
180.003913
  0
LINE
  8
OSA
 62
     2
  6
CONTINUOUS
 10
-504.315711
 20
241.087729
 11
-504.315780
 21
242.087592
  0
ARC
  8
OSA
 62
     2
  6
CONTINUOUS
 10
-524.315777
 20
242.087729
 40
2.000000
 50
359.996087
 51
90.000000
  0
LINE
  8
OSA
 62
     2
  6
CONTINUOUS
 10
-522.315846
 20
241.087728
 11
-522.315777
 21
242.087592
  0
LINE
  8
OSA
 62
     2
  6
CONTINUOUS
 10
-504.315711
 20
241.087729
 11
-522.315846
 21
241.087728
  0
ARC
  8
OSA
 62
     2
  6
CONTINUOUS
 10
-556.315778
 20
238.763551
 40
2.000000
 50
180.000000
 51
268.000000
  0
LINE
  8
OSA
 62
     2
  6
CONTINUOUS
 10
-551.315778
 20
236.587729
 11
-556.385577
 21
236.764770
  0
LINE
  8
OSA
 62
     2
  6
CONTINUOUS
 10
-551.315778
 20
236.587729
 11
-547.315778
 21
236.587729
  0
ARC
  8
OSA
 62
     2
  6
CONTINUOUS
 10
-547.315778
 20
238.587729
 40
2.000000
 50
270.000000
 51
360.000000
  0
ARC
  8
OSA
 62
     2
  6
CONTINUOUS
 10
-479.315778
 20
238.587729
 40
2.000000
 50
180.000000
 51
270.000000
  0
LINE
  8
OSA
 62
     2
  6
CONTINUOUS
 10
-475.315778
 20
236.587729
 11
-479.315778
 21
236.587729
  0
ARC
  8
OSA
 62
     2
  6
CONTINUOUS
 10
-543.315778
 20
242.087729
 40
2.000000
 50
90.000000
 51
180.000000
  0
ARC
  8
OSA
 62
     2
  6
CONTINUOUS
 10
-560.315778
 20
242.259301
 40
2.000000
 50
0.000000
 51
45.000000
  0
LINE
  8
OSA
 62
     2
  6
CONTINUOUS
 10
-570.315778
 20
272.587729
 11
-573.315778
 21
272.587729
  0
LINE
  8
OSA
 62
     2
  6
CONTINUOUS
 10
-573.815778
 20
273.087729
 11
-573.315778
 21
272.587729
  0
LINE
  8
OSA
 62
     2
  6
CONTINUOUS
 10
-513.315778
 20
244.087729
 11
-543.315778
 21
244.087729
  0
LINE
  8
OSA
 62
     2
  6
CONTINUOUS
 10
-545.315778
 20
238.587729
 11
-545.315778
 21
258.330199
  0
LINE
  8
OSA
 62
     2
  6
CONTINUOUS
 10
-558.315778
 20
266.968702
 11
-558.315778
 21
238.763551
  0
LINE
  8
OSA
 62
     2
  6
CONTINUOUS
 10
-570.315778
 20
279.955229
 11
-570.315778
 21
267.525820
  0
LINE
  8
OSA
 62
     2
  6
CONTINUOUS
 10
-573.815778
 20
285.377645
 11
-573.815778
 21
273.087729
  0
LINE
  8
OSA
 62
     2
  6
CONTINUOUS
 10
-573.315778
 20
272.587729
 11
-573.315778
 21
284.532216
  0
LINE
  8
OSA
 62
     2
  6
CONTINUOUS
 10
-481.315778
 20
238.587729
 11
-481.315778
 21
258.330199
  0
LINE
  8
OSA
 62
     2
  6
CONTINUOUS
 10
-475.315778
 20
236.587729
 11
-475.315778
 21
261.799975
  0
ENDBLK
  8
OSA
  0
BLOCK
  8
OSA
  2
M10x1__1
 70
   66
 10
-1022.730973
 20
241.087729
  0
LINE
  8
OSA
 10
-513.315778
 20
250.416631
 11
-513.315778
 21
236.642380
  0
LINE
  8
OSA
 62
     2
  6
CONTINUOUS
 10
-506.315778
 20
241.087729
 11
-520.315778
 21
241.087729
  0
LINE
  8
OSA
 62
     2
  6
CONTINUOUS
 10
-520.315778
 20
241.087729
 11
-520.315778
 21
239.087729
  0
LINE
  8
OSA
 62
     2
  6
CONTINUOUS
 10
-506.315778
 20
241.087729
 11
-506.315778
 21
239.087729
  0
ARC
  8
OSA
 62
     2
  6
CONTINUOUS
 10
-519.315778
 20
239.087729
 40
1.000000
 50
180.000000
 51
270.000000
  0
LINE
  8
OSA
 62
     2
  6
CONTINUOUS
 10
-507.315778
 20
238.087729
 11
-519.315778
 21
238.087729
  0
ARC
  8
OSA
 62
     2
  6
CONTINUOUS
 10
-507.315778
 20
239.087729
 40
1.000000
 50
270.000000
 51
360.000000
  0
ENDBLK
  8
OSA
  0
BLOCK
  8
OBRYS
  2
_1
 70
   64
 10
-513.315778
 20
382.587729
  0
ARC
  8
OBRYS
 10
-513.315778
 20
320.587729
 40
6.654700
 50
106.949013
 51
71.967383
  0
LINE
  8
OBRYS
 10
-515.255760
 20
327.776689
 11
-511.255760
 21
327.776689
  0
LINE
  8
OBRYS
 10
-515.255760
 20
325.734229
 11
-515.255760
 21
327.776689
  0
LINE
  8
OBRYS
 10
-511.255760
 20
325.687368
 11
-511.255760
 21
327.776689
  0
ARC
  8
OBRYS
 10
-513.315778
 20
320.587729
 40
5.500000
 50
110.654018
 51
68.003576
  0
CIRCLE
  8
OBRYS
 10
-513.315778
 20
320.587729
 40
12.500000
  0
ARC
  8
OBRYS
 10
-551.315778
 20
427.587728
 40
5.000000
 50
109.216664
 51
131.452663
  0
ARC
  8
OBRYS
 10
-513.315778
 20
382.587729
 40
60.000000
 50
98.898853
 51
109.216664
  0
LINE
  8
OBRYS
 10
-533.064256
 20
439.244569
 11
-552.961485
 21
432.309132
  0
LINE
  8
OBRYS
 10
-569.911310
 20
417.834249
 11
-554.625784
 21
431.335243
  0
ARC
  8
OBRYS
 10
-565.277303
 20
412.587729
 40
7.000000
 50
140.000000
 51
227.046122
  0
LINE
  8
OBRYS
 10
-569.911310
 20
417.834249
 11
-570.639614
 21
417.087242
  0
LINE
  8
OBRYS
 62
     7
  6
DASHDOT
 10
-537.315778
 20
306.587729
 11
-537.315778
 21
298.587729
  0
LINE
  8
OBRYS
 62
     7
  6
DASHDOT
 10
-537.315778
 20
306.587729
 11
-529.315778
 21
306.587729
  0
LINE
  8
OBRYS
 62
     7
  6
DASHDOT
 10
-537.315778
 20
306.587729
 11
-545.315778
 21
306.587729
  0
CIRCLE
  8
OBRYS
 10
-537.315778
 20
306.587729
 40
3.000000
  0
LINE
  8
OBRYS
 10
-456.720247
 20
417.834249
 11
-455.991943
 21
417.087242
  0
ARC
  8
OBRYS
 10
-461.354254
 20
412.587729
 40
7.000000
 50
312.953878
 51
40.000000
  0
CIRCLE
  8
OBRYS
 10
-475.315778
 20
427.587729
 40
3.000000
  0
LINE
  8
OBRYS
 10
-456.720247
 20
417.834249
 11
-472.005773
 21
431.335243
  0
LINE
  8
OBRYS
 10
-493.567301
 20
439.244569
 11
-473.670072
 21
432.309132
  0
ARC
  8
OBRYS
 10
-513.315778
 20
382.587729
 40
60.000000
 50
70.783336
 51
81.101147
  0
ARC
  8
OBRYS
 10
-475.315778
 20
427.587728
 40
5.000000
 50
48.547337
 51
70.783336
  0
LINE
  8
OBRYS
 62
     7
  6
DASHDOT
 10
-475.315778
 20
427.587729
 11
-483.315778
 21
427.587729
  0
LINE
  8
OBRYS
 62
     7
  6
DASHDOT
 10
-475.315778
 20
427.587729
 11
-467.315778
 21
427.587729
  0
LINE
  8
OBRYS
 62
     7
  6
DASHDOT
 10
-475.315778
 20
427.587729
 11
-475.315778
 21
435.587729
  0
LINE
  8
OBRYS
 62
     7
  6
DASHDOT
 10
-475.315778
 20
427.587729
 11
-475.315778
 21
419.587729
  0
ARC
  8
OBRYS
 10
-513.315778
 20
320.587729
 40
81.000000
 50
42.650065
 51
137.349935
  0
ARC
  8
OBRYS
 10
-513.315778
 20
320.587729
 40
21.000000
 50
180.000000
 51
239.612032
  0
ARC
  8
OBRYS
 10
-513.315778
 20
320.587729
 40
21.000000
 50
239.612032
 51
180.000000
  0
ARC
  8
OBRYS
 10
-523.061287
 20
444.829395
 40
3.000000
 50
278.898853
 51
347.046120
  0
ARC
  8
OBRYS
 10
-503.570270
 20
444.829395
 40
3.000000
 50
192.953880
 51
261.101147
  0
ARC
  8
OBRYS
 10
-454.540160
 20
405.268704
 40
3.000000
 50
132.953880
 51
201.101147
  0
ARC
  8
OBRYS
 10
-572.091397
 20
405.268704
 40
3.000000
 50
338.898853
 51
47.046120
  0
ARC
  8
OBRYS
 10
-513.315778
 20
382.587729
 40
60.000000
 50
158.898853
 51
180.000000
  0
ARC
  8
OBRYS
 10
-513.315778
 20
442.587729
 40
7.000000
 50
12.953880
 51
167.046120
  0
LINE
  8
OBRYS
 62
     7
  6
DASHDOT
 10
-565.277303
 20
412.587729
 11
-572.927303
 21
412.587729
  0
LINE
  8
OBRYS
 62
     7
  6
DASHDOT
 10
-565.277303
 20
412.587729
 11
-557.627303
 21
412.587729
  0
LINE
  8
OBRYS
 62
     7
  6
DASHDOT
 10
-565.277303
 20
412.587729
 11
-565.277303
 21
420.237729
  0
LINE
  8
OBRYS
 62
     7
  6
DASHDOT
 10
-565.277303
 20
412.587729
 11
-565.277303
 21
404.937729
  0
LINE
  8
OBRYS
 62
     7
  6
DASHDOT
 10
-565.277303
 20
352.587729
 11
-572.927303
 21
352.587729
  0
LINE
  8
OBRYS
 62
     7
  6
DASHDOT
 10
-565.277303
 20
352.587729
 11
-557.627303
 21
352.587729
  0
LINE
  8
OBRYS
 62
     7
  6
DASHDOT
 10
-565.277303
 20
352.587729
 11
-565.277303
 21
360.237729
  0
LINE
  8
OBRYS
 62
     7
  6
DASHDOT
 10
-565.277303
 20
352.587729
 11
-565.277303
 21
344.937729
  0
LINE
  8
OBRYS
 62
     7
  6
DASHDOT
 10
-461.354254
 20
352.587729
 11
-469.004254
 21
352.587729
  0
LINE
  8
OBRYS
 62
     7
  6
DASHDOT
 10
-461.354254
 20
352.587729
 11
-453.704254
 21
352.587729
  0
LINE
  8
OBRYS
 62
     7
  6
DASHDOT
 10
-461.354254
 20
352.587729
 11
-461.354254
 21
360.237729
  0
LINE
  8
OBRYS
 62
     7
  6
DASHDOT
 10
-461.354254
 20
352.587729
 11
-461.354254
 21
344.937729
  0
LINE
  8
OBRYS
 62
     7
  6
DASHDOT
 10
-461.354254
 20
412.587729
 11
-469.004254
 21
412.587729
  0
LINE
  8
OBRYS
 62
     7
  6
DASHDOT
 10
-461.354254
 20
412.587729
 11
-453.704254
 21
412.587729
  0
LINE
  8
OBRYS
 62
     7
  6
DASHDOT
 10
-461.354254
 20
412.587729
 11
-461.354254
 21
420.237729
  0
LINE
  8
OBRYS
 62
     7
  6
DASHDOT
 10
-461.354254
 20
412.587729
 11
-461.354254
 21
404.937729
  0
LINE
  8
OBRYS
 62
     7
  6
DASHDOT
 10
-513.315778
 20
442.587729
 11
-520.965778
 21
442.587729
  0
LINE
  8
OBRYS
 62
     7
  6
DASHDOT
 10
-513.315778
 20
442.587729
 11
-505.665778
 21
442.587729
  0
LINE
  8
OBRYS
 62
     7
  6
DASHDOT
 10
-513.315778
 20
442.587729
 11
-513.315778
 21
450.237729
  0
LINE
  8
OBRYS
 62
     7
  6
DASHDOT
 10
-513.315778
 20
442.587729
 11
-513.315778
 21
434.937729
  0
LINE
  8
OBRYS
 62
     7
  6
DASHDOT
 10
-513.315777
 20
292.587729
 11
-520.965777
 21
292.587729
  0
LINE
  8
OBRYS
 62
     7
  6
DASHDOT
 10
-513.315777
 20
292.587729
 11
-505.665777
 21
292.587729
  0
LINE
  8
OBRYS
 62
     7
  6
DASHDOT
 10
-513.315777
 20
292.587729
 11
-513.315777
 21
300.237729
  0
LINE
  8
OBRYS
 62
     7
  6
DASHDOT
 10
-513.315777
 20
292.587729
 11
-513.315777
 21
284.937729
  0
ARC
  8
OBRYS
 10
-565.277303
 20
412.587729
 40
7.000000
 50
122.047113
 51
180.000000
  0
CIRCLE
  8
OBRYS
 10
-513.315778
 20
320.587729
 40
70.000000
  0
CIRCLE
  8
OBRYS
 10
-513.315777
 20
292.587729
 40
5.000000
  0
CIRCLE
  8
OBRYS
 10
-513.315778
 20
320.587729
 40
47.500000
  0
CIRCLE
  8
OBRYS
 10
-461.354254
 20
352.587729
 40
5.000000
  0
CIRCLE
  8
OBRYS
 10
-565.277303
 20
352.587729
 40
5.000000
  0
ARC
  8
OBRYS
 10
-513.315778
 20
382.587729
 40
60.000000
 50
180.000000
 51
199.994838
  0
ARC
  8
OBRYS
 10
-513.315778
 20
382.587729
 40
60.000000
 50
340.005162
 51
21.101147
  0
ARC
  8
OBRYS
 10
-483.532087
 20
341.822185
 40
8.500000
 50
294.117511
 51
360.000000
  0
ARC
  8
OBRYS
 10
-542.978094
 20
341.822185
 40
8.500000
 50
143.470940
 51
238.024118
  0
ARC
  8
OBRYS
 10
-542.978094
 20
341.822185
 40
8.500000
 50
238.024118
 51
324.665849
  0
ARC
  8
OBRYS
 10
-513.315778
 20
320.587729
 40
28.000000
 50
35.315423
 51
143.187187
  0
ARC
  8
OBRYS
 10
-513.315778
 20
320.587729
 40
45.000000
 50
35.425214
 51
142.841004
  0
ARC
  8
OBRYS
 10
-483.532087
 20
341.822185
 40
8.500000
 50
0.000000
 51
30.200786
  0
ARC
  8
OBRYS
 10
-483.532087
 20
341.822185
 40
8.500000
 50
214.445674
 51
294.117511
  0
LINE
  8
OBRYS
 10
-476.646503
 20
346.671521
 11
-476.185809
 21
346.097955
  0
LINE
  8
OBRYS
 10
-549.808312
 20
346.881643
 11
-549.179086
 21
347.769030
  0
LINE
  8
OBRYS
 10
-536.043853
 20
336.906261
 11
-535.778586
 21
337.303657
  0
CIRCLE
  8
OBRYS
 10
-461.354254
 20
412.587729
 40
5.000000
  0
CIRCLE
  8
OBRYS
 10
-513.315778
 20
442.587729
 40
5.000000
  0
CIRCLE
  8
OBRYS
 10
-565.277303
 20
412.587729
 40
5.000000
  0
CIRCLE
  8
OBRYS
 62
     7
  6
DASHDOT
 10
-513.315778
 20
320.587729
 40
57.500000
  0
CIRCLE
  8
OBRYS
 10
-472.657139
 20
279.929089
 40
4.500000
  0
CIRCLE
  8
OBRYS
 10
-553.974418
 20
279.929089
 40
4.500000
  0
INSERT
  8
OBRYS
  2
Vnitrni_metricky_zavit_M8__3
 62
     7
 10
-553.974418
 20
361.246368
  0
INSERT
  8
OBRYS
  2
Vnitrni_metricky_zavit_M8__4
 62
     7
 10
-472.657139
 20
361.246368
  0
LINE
  8
OBRYS
 62
     7
  6
DASHDOT
 10
-478.340570
 20
355.562937
 11
-466.393462
 21
367.510045
  0
LINE
  8
OBRYS
 62
     7
  6
DASHDOT
 10
-561.257066
 20
272.646441
 11
-546.635232
 21
287.268274
  0
LINE
  8
OBRYS
 62
     7
  6
DASHDOT
 10
-560.465663
 20
367.737613
 11
-549.588445
 21
356.860395
  0
LINE
  8
OBRYS
 62
     7
  6
DASHDOT
 10
-479.688947
 20
286.960897
 11
-463.462278
 21
270.734228
  0
LINE
  8
OBRYS
 62
     7
  6
DASHDOT
 10
-513.315778
 20
453.933782
 11
-513.315778
 21
246.592358
  0
LINE
  8
OBRYS
 62
     7
  6
DASHDOT
 10
-576.569534
 20
382.587729
 11
-449.245796
 21
382.587729
  0
LINE
  8
OBRYS
 62
     7
  6
DASHDOT
 10
-586.634652
 20
320.587729
 11
-439.180678
 21
320.587729
  0
LINE
  8
OBRYS
 62
     7
  6
DASHDOT
 10
-537.315778
 20
306.587729
 11
-537.315778
 21
314.587729
  0
INSERT
  8
OBRYS
  2
Srouby_s_valcovou_hlavou___5
 62
     7
 10
-461.354254
 20
412.587729
  0
INSERT
  8
OBRYS
  2
Srouby_s_valcovou_hlavou___6
 62
     7
 10
-565.277303
 20
412.587729
  0
INSERT
  8
OBRYS
  2
Srouby_s_valcovou_hlavou___7
 62
     7
 10
-565.277303
 20
352.587729
  0
INSERT
  8
OBRYS
  2
Srouby_s_valcovou_hlavou___8
 62
     7
 10
-461.354254
 20
352.587729
  0
INSERT
  8
OBRYS
  2
Srouby_s_valcovou_hlavou___9
 62
     7
 10
-513.315778
 20
292.587729
  0
INSERT
  8
OBRYS
  2
Srouby_s_valcovou_hlavou___10
 62
     7
 10
-513.315778
 20
442.587729
  0
ENDBLK
  8
OBRYS
  0
BLOCK
  8
OBRYS
  2
Vnitrni_metricky_zavit_M8__3
 70
   66
 10
-553.974418
 20
361.246368
  0
CIRCLE
  8
OBRYS
 10
-553.974418
 20
361.246368
 40
3.323500
  0
ARC
  8
OBRYS
 62
     7
 10
-553.974418
 20
361.246368
 40
4.000000
 50
355.000000
 51
275.000000
  0
ENDBLK
  8
OBRYS
  0
BLOCK
  8
OBRYS
  2
Vnitrni_metricky_zavit_M8__4
 70
   66
 10
-472.657139
 20
361.246368
  0
CIRCLE
  8
OBRYS
 10
-472.657139
 20
361.246368
 40
3.323500
  0
ARC
  8
OBRYS
 62
     7
 10
-472.657139
 20
361.246368
 40
4.000000
 50
355.000000
 51
275.000000
  0
ENDBLK
  8
OBRYS
  0
BLOCK
  8
OBRYS
  2
Srouby_s_valcovou_hlavou___5
 70
   66
 10
-461.354254
 20
412.587729
  0
LINE
  8
OBRYS
 10
-463.354254
 20
411.433021
 11
-463.354254
 21
413.742436
  0
LINE
  8
OBRYS
 10
-463.354254
 20
413.742436
 11
-461.354254
 21
414.897144
  0
LINE
  8
OBRYS
 10
-461.354254
 20
414.897144
 11
-459.354254
 21
413.742436
  0
LINE
  8
OBRYS
 10
-459.354254
 20
413.742436
 11
-459.354254
 21
411.433021
  0
LINE
  8
OBRYS
 10
-459.354254
 20
411.433021
 11
-461.354254
 21
410.278313
  0
LINE
  8
OBRYS
 10
-461.354254
 20
410.278313
 11
-463.354254
 21
411.433021
  0
CIRCLE
  8
OBRYS
 10
-461.354254
 20
412.587729
 40
2.309415
  0
CIRCLE
  8
OBRYS
 10
-461.354254
 20
412.587729
 40
4.250000
  0
ENDBLK
  8
OBRYS
  0
BLOCK
  8
OBRYS
  2
Srouby_s_valcovou_hlavou___6
 70
   66
 10
-565.277303
 20
412.587729
  0
LINE
  8
OBRYS
 10
-567.277303
 20
411.433021
 11
-567.277303
 21
413.742436
  0
LINE
  8
OBRYS
 10
-567.277303
 20
413.742436
 11
-565.277303
 21
414.897144
  0
LINE
  8
OBRYS
 10
-565.277303
 20
414.897144
 11
-563.277303
 21
413.742436
  0
LINE
  8
OBRYS
 10
-563.277303
 20
413.742436
 11
-563.277303
 21
411.433021
  0
LINE
  8
OBRYS
 10
-563.277303
 20
411.433021
 11
-565.277303
 21
410.278313
  0
LINE
  8
OBRYS
 10
-565.277303
 20
410.278313
 11
-567.277303
 21
411.433021
  0
CIRCLE
  8
OBRYS
 10
-565.277303
 20
412.587729
 40
2.309415
  0
CIRCLE
  8
OBRYS
 10
-565.277303
 20
412.587729
 40
4.250000
  0
ENDBLK
  8
OBRYS
  0
BLOCK
  8
OBRYS
  2
Srouby_s_valcovou_hlavou___7
 70
   66
 10
-565.277303
 20
352.587729
  0
LINE
  8
OBRYS
 10
-567.277303
 20
351.433021
 11
-567.277303
 21
353.742436
  0
LINE
  8
OBRYS
 10
-567.277303
 20
353.742436
 11
-565.277303
 21
354.897144
  0
LINE
  8
OBRYS
 10
-565.277303
 20
354.897144
 11
-563.277303
 21
353.742436
  0
LINE
  8
OBRYS
 10
-563.277303
 20
353.742436
 11
-563.277303
 21
351.433021
  0
LINE
  8
OBRYS
 10
-563.277303
 20
351.433021
 11
-565.277303
 21
350.278313
  0
LINE
  8
OBRYS
 10
-565.277303
 20
350.278313
 11
-567.277303
 21
351.433021
  0
CIRCLE
  8
OBRYS
 10
-565.277303
 20
352.587729
 40
2.309415
  0
CIRCLE
  8
OBRYS
 10
-565.277303
 20
352.587729
 40
4.250000
  0
ENDBLK
  8
OBRYS
  0
BLOCK
  8
OBRYS
  2
Srouby_s_valcovou_hlavou___8
 70
   66
 10
-461.354254
 20
352.587729
  0
LINE
  8
OBRYS
 10
-463.354254
 20
351.433021
 11
-463.354254
 21
353.742436
  0
LINE
  8
OBRYS
 10
-463.354254
 20
353.742436
 11
-461.354254
 21
354.897144
  0
LINE
  8
OBRYS
 10
-461.354254
 20
354.897144
 11
-459.354254
 21
353.742436
  0
LINE
  8
OBRYS
 10
-459.354254
 20
353.742436
 11
-459.354254
 21
351.433021
  0
LINE
  8
OBRYS
 10
-459.354254
 20
351.433021
 11
-461.354254
 21
350.278313
  0
LINE
  8
OBRYS
 10
-461.354254
 20
350.278313
 11
-463.354254
 21
351.433021
  0
CIRCLE
  8
OBRYS
 10
-461.354254
 20
352.587729
 40
2.309415
  0
CIRCLE
  8
OBRYS
 10
-461.354254
 20
352.587729
 40
4.250000
  0
ENDBLK
  8
OBRYS
  0
BLOCK
  8
OBRYS
  2
Srouby_s_valcovou_hlavou___9
 70
   66
 10
-513.315778
 20
292.587729
  0
LINE
  8
OBRYS
 10
-515.315778
 20
291.433021
 11
-515.315778
 21
293.742436
  0
LINE
  8
OBRYS
 10
-515.315778
 20
293.742436
 11
-513.315778
 21
294.897144
  0
LINE
  8
OBRYS
 10
-513.315778
 20
294.897144
 11
-511.315778
 21
293.742436
  0
LINE
  8
OBRYS
 10
-511.315778
 20
293.742436
 11
-511.315778
 21
291.433021
  0
LINE
  8
OBRYS
 10
-511.315778
 20
291.433021
 11
-513.315778
 21
290.278313
  0
LINE
  8
OBRYS
 10
-513.315778
 20
290.278313
 11
-515.315778
 21
291.433021
  0
CIRCLE
  8
OBRYS
 10
-513.315778
 20
292.587729
 40
2.309415
  0
CIRCLE
  8
OBRYS
 10
-513.315778
 20
292.587729
 40
4.250000
  0
ENDBLK
  8
OBRYS
  0
BLOCK
  8
OBRYS
  2
Srouby_s_valcovou_hlavou___10
 70
   66
 10
-513.315778
 20
442.587729
  0
LINE
  8
OBRYS
 10
-515.315778
 20
441.433021
 11
-515.315778
 21
443.742436
  0
LINE
  8
OBRYS
 10
-515.315778
 20
443.742436
 11
-513.315778
 21
444.897144
  0
LINE
  8
OBRYS
 10
-513.315778
 20
444.897144
 11
-511.315778
 21
443.742436
  0
LINE
  8
OBRYS
 10
-511.315778
 20
443.742436
 11
-511.315778
 21
441.433021
  0
LINE
  8
OBRYS
 10
-511.315778
 20
441.433021
 11
-513.315778
 21
440.278313
  0
LINE
  8
OBRYS
 10
-513.315778
 20
440.278313
 11
-515.315778
 21
441.433021
  0
CIRCLE
  8
OBRYS
 10
-513.315778
 20
442.587729
 40
2.309415
  0
CIRCLE
  8
OBRYS
 10
-513.315778
 20
442.587729
 40
4.250000
  0
ENDBLK
  8
OBRYS
  0
BLOCK
  8
OSA
  2
_2
 70
   64
 10
-475.315778
 20
312.587729
  0
LINE
  8
OSA
 10
-482.815775
 20
312.587729
 11
-445.315782
 21
312.587729
  0
LINE
  8
OSA
 62
     2
  6
CONTINUOUS
 10
-456.315778
 20
267.525820
 11
-468.315778
 21
261.223489
  0
ARC
  8
OSA
 62
     2
  6
CONTINUOUS
 10
-466.315778
 20
242.259301
 40
2.000000
 50
135.000000
 51
180.000000
  0
LINE
  8
OSA
 62
     2
  6
CONTINUOUS
 10
-456.315778
 20
276.871144
 11
-468.315778
 21
265.769304
  0
LINE
  8
OSA
 62
     2
  6
CONTINUOUS
 10
-462.815778
 20
248.587729
 11
-462.815778
 21
264.112057
  0
ARC
  8
OSA
 62
     2
  6
CONTINUOUS
 10
-470.315778
 20
238.763551
 40
2.000000
 50
272.000000
 51
360.000000
  0
LINE
  8
OSA
 62
     2
  6
CONTINUOUS
 10
-475.315778
 20
236.587729
 11
-470.245979
 21
236.764770
  0
LINE
  8
OSA
 62
     2
  6
CONTINUOUS
 10
-456.315778
 20
272.587729
 11
-453.315778
 21
272.587729
  0
LINE
  8
OSA
 62
     2
  6
CONTINUOUS
 10
-452.815778
 20
273.087729
 11
-453.315778
 21
272.587729
  0
INSERT
  8
OSA
  2
Srouby_s_valcovou_hlavou___12
  6
CONTINUOUS
 10
-1067.730973
 20
249.763920
  0
LINE
  8
OSA
 62
     2
  6
CONTINUOUS
 10
-462.815778
 20
248.587729
 11
-463.315778
 21
248.087729
  0
LINE
  8
OSA
 62
     2
  6
CONTINUOUS
 10
-475.315778
 20
236.587729
 11
-475.315778
 21
261.799975
  0
LINE
  8
OSA
 62
     2
  6
CONTINUOUS
 10
-468.315778
 20
266.968702
 11
-468.315778
 21
238.763551
  0
LINE
  8
OSA
 62
     2
  6
CONTINUOUS
 10
-456.315778
 20
279.955229
 11
-456.315778
 21
267.525820
  0
LINE
  8
OSA
 62
     2
  6
CONTINUOUS
 10
-452.815778
 20
285.377645
 11
-452.815778
 21
273.087729
  0
LINE
  8
OSA
 62
     2
  6
CONTINUOUS
 10
-453.315778
 20
272.587729
 11
-453.315778
 21
284.532216
  0
ENDBLK
  8
OSA
  0
BLOCK
  8
OSA
  2
Srouby_s_valcovou_hlavou___12
 70
   66
 10
-1067.730973
 20
249.763920
  0
LINE
  8
OSA
 62
     2
  6
CONTINUOUS
 10
-463.315778
 20
244.063920
 11
-463.315778
 21
255.463920
  0
LINE
  8
OSA
 62
     2
  6
CONTINUOUS
 10
-464.115778
 20
243.263920
 11
-468.315778
 21
243.263920
  0
LINE
  8
OSA
 62
     2
  6
CONTINUOUS
 10
-468.315778
 20
243.263920
 11
-468.315778
 21
256.263920
  0
LINE
  8
OSA
 62
     2
  6
CONTINUOUS
 10
-468.315778
 20
256.263920
 11
-464.115778
 21
256.263920
  0
ARC
  8
OSA
 62
     2
  6
CONTINUOUS
 10
-464.115778
 20
244.063920
 40
0.800000
 50
270.000000
 51
360.000000
  0
ARC
  8
OSA
 62
     2
  6
CONTINUOUS
 10
-464.115778
 20
255.463920
 40
0.800000
 50
0.000000
 51
90.000000
  0
LINE
  8
OSA
  6
DOT
 10
-463.315778
 20
246.299797
 11
-465.815778
 21
246.299797
  0
LINE
  8
OSA
  6
DOT
 10
-463.315778
 20
248.031859
 11
-465.815778
 21
248.031859
  0
LINE
  8
OSA
  6
DOT
 10
-463.315778
 20
251.495982
 11
-465.815778
 21
251.495982
  0
LINE
  8
OSA
  6
DOT
 10
-463.315778
 20
253.228044
 11
-465.815778
 21
253.228044
  0
ARC
  8
OSA
  6
DOT
 10
-462.815769
 20
247.165828
 40
1.000009
 50
120.000310
 51
239.999690
  0
ARC
  8
OSA
  6
DOT
 10
-460.565741
 20
249.763920
 40
3.250037
 50
147.795963
 51
212.204037
  0
ARC
  8
OSA
  6
DOT
 10
-462.815769
 20
252.362013
 40
1.000009
 50
120.000310
 51
239.999690
  0
ARC
  8
OSA
  6
DOT
 10
-465.315769
 20
247.165828
 40
1.000009
 50
120.000310
 51
239.999690
  0
ARC
  8
OSA
  6
DOT
 10
-463.065741
 20
249.763920
 40
3.250037
 50
147.795963
 51
212.204037
  0
ARC
  8
OSA
  6
DOT
 10
-465.315769
 20
252.362013
 40
1.000009
 50
120.000310
 51
239.999690
  0
LINE
  8
OSA
  6
DOT
 10
-466.315778
 20
247.165828
 11
-468.047840
 21
249.763920
  0
LINE
  8
OSA
  6
DOT
 10
-468.047840
 20
249.763920
 11
-466.315778
 21
252.362013
  0
ENDBLK
  8
OSA
  0
BLOCK
  8
OBRYS
  2
Vnitrni_metricky_zavit_M8_3
 70
   66
 10
-559.277719
 20
518.352707
  0
CIRCLE
  8
OBRYS
 10
-559.277719
 20
518.352707
 40
3.323500
  0
ARC
  8
OBRYS
 62
     7
 10
-559.277719
 20
518.352707
 40
4.000000
 50
355.000000
 51
275.000000
  0
ENDBLK
  8
OBRYS
  0
BLOCK
  8
OBRYS
  2
Vnitrni_metricky_zavit_M8_4
 70
   66
 10
-467.353838
 20
518.352707
  0
CIRCLE
  8
OBRYS
 10
-467.353838
 20
518.352707
 40
3.323500
  0
ARC
  8
OBRYS
 62
     7
 10
-467.353838
 20
518.352707
 40
4.000000
 50
355.000000
 51
275.000000
  0
ENDBLK
  8
OBRYS
  0
BLOCK
  8
OBRYS
  2
Vnitrni_metricky_zavit_M8_5
 70
   66
 10
-467.353838
 20
610.276588
  0
CIRCLE
  8
OBRYS
 10
-467.353838
 20
610.276588
 40
3.323500
  0
ARC
  8
OBRYS
 62
     7
 10
-467.353838
 20
610.276588
 40
4.000000
 50
355.000000
 51
275.000000
  0
ENDBLK
  8
OBRYS
  0
BLOCK
  8
OBRYS
  2
Vnitrni_metricky_zavit_M8_6
 70
   66
 10
-559.277719
 20
610.276588
  0
CIRCLE
  8
OBRYS
 10
-559.277719
 20
610.276588
 40
3.323500
  0
ARC
  8
OBRYS
 62
     7
 10
-559.277719
 20
610.276588
 40
4.000000
 50
355.000000
 51
275.000000
  0
ENDBLK
  8
OBRYS
  0
BLOCK
  8
OBRYS
  2
_7
 70
   64
 10
-172.608181
 20
382.587729
  0
ARC
  8
OBRYS
 10
-129.453454
 20
282.587729
 40
3.000000
 50
0.000000
 51
90.000000
  0
LINE
  8
OBRYS
 10
-139.608181
 20
285.587729
 11
-129.453454
 21
285.587729
  0
ARC
  8
OBRYS
 10
-123.453454
 20
253.587729
 40
3.000000
 50
180.000000
 51
270.000000
  0
LINE
  8
OBRYS
 10
-123.453454
 20
250.587729
 11
-117.453454
 21
250.587729
  0
LINE
  8
OBRYS
 10
-123.088024
 20
390.587729
 11
-117.453454
 21
390.587729
  0
LINE
  8
OBRYS
 10
-117.453454
 20
390.587729
 11
-117.453454
 21
250.587729
  0
ARC
  8
OBRYS
 10
-123.088024
 20
393.587729
 40
3.000000
 50
208.703409
 51
270.000000
  0
LINE
  8
OBRYS
 10
-130.239534
 20
400.401972
 11
-125.719377
 21
392.146901
  0
ARC
  8
OBRYS
 10
-127.608181
 20
401.842799
 40
3.000000
 50
180.000000
 51
208.703409
  0
LINE
  8
OBRYS
 10
-130.608181
 20
401.842799
 11
-130.608181
 21
446.587729
  0
ARC
  8
OBRYS
 10
-133.608181
 20
446.587729
 40
3.000000
 50
0.000000
 51
90.000000
  0
LINE
  8
OBRYS
 10
-133.608181
 20
449.587729
 11
-139.608181
 21
449.587729
  0
LINE
  8
OBRYS
 62
     7
  6
DASHDOT
 10
-136.608181
 20
320.587729
 11
-115.453454
 21
320.587729
  0
ARC
  8
OBRYS
 10
-170.608181
 20
426.791990
 40
3.000000
 50
300.404895
 51
360.000000
  0
LINE
  8
OBRYS
 10
-172.608181
 20
422.139987
 11
-169.089859
 21
424.204579
  0
LINE
  8
OBRYS
 62
     7
 10
-160.715621
 20
285.664751
 11
-160.697125
 21
285.646254
  0
LINE
  8
OBRYS
 62
     7
 10
-160.697125
 20
285.646254
 11
-160.715621
 21
285.664751
  0
LINE
  8
OBRYS
 10
-139.608181
 20
285.587729
 11
-159.608181
 21
285.587729
  0
ARC
  8
OBRYS
 10
-159.608181
 20
293.587729
 40
8.000000
 50
180.000000
 51
270.000000
  0
ARC
  8
OBRYS
 10
-170.608181
 20
301.115593
 40
3.000000
 50
0.000000
 51
48.189685
  0
ARC
  8
OBRYS
 10
-166.608181
 20
305.587729
 40
3.000000
 50
180.000000
 51
228.189685
  0
ARC
  8
OBRYS
 10
-164.608181
 20
437.457329
 40
3.000000
 50
140.254334
 51
180.000000
  0
LINE
  8
OBRYS
 10
-166.914852
 20
439.375471
 11
-159.322347
 21
448.505871
  0
LINE
  8
OBRYS
 62
     7
  6
DASHDOT
 10
-140.561701
 20
320.587729
 11
-139.608181
 21
320.587729
  0
LINE
  8
OBRYS
 62
     7
  6
DASHDOT
 10
-164.608181
 20
320.587729
 11
-147.460210
 21
320.587729
  0
LINE
  8
OBRYS
 62
     7
  6
DASHDOT
 10
-177.608181
 20
382.587729
 11
-139.608181
 21
382.587729
  0
LINE
  8
OBRYS
 10
-139.608181
 20
449.587729
 11
-157.015676
 21
449.587729
  0
ARC
  8
OBRYS
 10
-157.015676
 20
446.587729
 40
3.000000
 50
90.000000
 51
140.254334
  0
LINE
  8
OBRYS
 10
-172.608181
 20
382.587729
 11
-172.608181
 21
343.101413
  0
LINE
  8
OBRYS
 10
-172.608181
 20
422.139987
 11
-172.608181
 21
382.587729
  0
LINE
  8
OBRYS
 10
-167.608181
 20
437.457329
 11
-167.608181
 21
382.587729
  0
LINE
  8
OBRYS
 10
-167.608181
 20
293.587729
 11
-167.608181
 21
382.587729
  0
LINE
  8
OBRYS
 10
-172.608181
 20
343.035470
 11
-169.608181
 21
340.035470
  0
LINE
  8
OBRYS
 10
-169.608181
 20
305.587729
 11
-169.608181
 21
340.035470
  0
LINE
  8
OBRYS
 10
-130.608181
 20
431.985720
 11
-157.015676
 21
431.985720
  0
LINE
  8
OBRYS
 10
-130.608181
 20
441.865506
 11
-157.015676
 21
441.865506
  0
LINE
  8
OBRYS
 10
-143.608181
 20
402.255639
 11
-165.131153
 21
402.255639
  0
LINE
  8
OBRYS
 10
-130.608181
 20
407.464414
 11
-142.608181
 21
407.464414
  0
LINE
  8
OBRYS
 10
-126.453454
 20
390.587729
 11
-126.453454
 21
253.587729
  0
LINE
  8
OBRYS
 10
-143.608181
 20
406.464414
 11
-143.608181
 21
362.919818
  0
LINE
  8
OBRYS
 10
-126.453454
 20
362.919818
 11
-165.131153
 21
362.919818
  0
LINE
  8
OBRYS
 10
-139.608181
 20
449.587729
 11
-139.608181
 21
285.587729
  0
LINE
  8
OBRYS
 10
-126.453454
 20
345.606419
 11
-165.131153
 21
345.606419
  0
LINE
  8
OBRYS
 10
-144.608181
 20
288.705497
 11
-163.711375
 21
288.705497
  0
LINE
  8
OBRYS
 10
-143.608181
 20
344.606419
 11
-143.608181
 21
289.705497
  0
ENDBLK
  8
OBRYS
  0
BLOCK
  8
OSA
  2
_8
 70
   64
 10
-854.023376
 20
57.880131
  0
ARC
  8
OBRYS
 10
-866.244299
 20
66.977062
 40
2.000000
 50
293.822528
 51
2.782366
  0
ARC
  8
OBRYS
 10
-866.244299
 20
48.783201
 40
2.000000
 50
357.217634
 51
66.177472
  0
ARC
  8
OBRYS
 10
-1053.425261
 20
57.880131
 40
189.401885
 50
348.136806
 51
357.032847
  0
LINE
  8
OBRYS
 10
-896.023376
 20
50.179564
 11
-866.274612
 21
50.179564
  0
ARC
  8
OBRYS
 10
-862.227801
 20
57.880131
 40
7.944164
 50
113.822528
 51
246.177472
  0
ARC
  8
OBRYS
 10
-1053.425261
 20
57.880131
 40
189.401885
 50
2.782366
 51
11.863194
  0
LINE
  8
OBRYS
 10
-896.023376
 20
65.580698
 11
-866.274612
 21
65.580698
  0
LINE
  8
SRAFY
 62
     2
 10
-854.023376
 20
92.880131
 11
-854.023376
 21
22.880131
  0
LINE
  8
OBRYS
 10
-857.023376
 20
22.880131
 11
-854.023376
 21
22.880131
  0
ARC
  8
OBRYS
 10
-857.023376
 20
20.880131
 40
2.000000
 50
90.000000
 51
180.000000
  0
LINE
  8
OBRYS
 10
-857.023376
 20
92.880131
 11
-854.023376
 21
92.880131
  0
ARC
  8
OBRYS
 10
-857.023376
 20
94.880131
 40
2.000000
 50
180.000000
 51
270.000000
  0
LINE
  8
OBRYS
 10
-896.023376
 20
17.354882
 11
-870.026047
 21
17.354882
  0
LINE
  8
OBRYS
 10
-868.409645
 20
1.306617
 11
-868.409645
 21
15.354882
  0
LINE
  8
OBRYS
 10
-868.409645
 20
114.453645
 11
-868.409645
 21
100.405381
  0
LINE
  8
OBRYS
 10
-896.023376
 20
98.405381
 11
-870.409645
 21
98.405381
  0
LINE
  8
OBRYS
 10
-896.023376
 20
116.841655
 11
-896.023376
 21
-1.081393
  0
LINE
  8
OBRYS
 10
-909.178103
 20
-12.119869
 11
-909.178103
 21
127.880131
  0
LINE
  8
OBRYS
 10
-902.178103
 20
127.880131
 11
-909.178103
 21
127.880131
  0
ARC
  8
OBRYS
 10
-902.178103
 20
125.880131
 40
2.000000
 50
0.000000
 51
90.000000
  0
LINE
  8
OBRYS
 10
-902.178103
 20
-12.119869
 11
-909.178103
 21
-12.119869
  0
LINE
  8
OBRYS
 10
-900.178103
 20
-10.119869
 11
-900.178103
 21
125.880131
  0
ARC
  8
OBRYS
 10
-902.178103
 20
-10.119869
 40
2.000000
 50
270.000000
 51
360.000000
  0
ARC
  8
OBRYS
 10
-898.178103
 20
118.841655
 40
2.000000
 50
180.000000
 51
270.000000
  0
LINE
  8
OBRYS
 10
-898.178103
 20
116.841655
 11
-863.023376
 21
116.841655
  0
ARC
  8
OBRYS
 10
-863.023376
 20
112.841655
 40
4.000000
 50
0.000000
 51
90.000000
  0
ARC
  8
OBRYS
 10
-870.171966
 20
112.841655
 40
4.000000
 50
37.718185
 51
90.000000
  0
LINE
  8
OBRYS
 10
-867.007848
 20
115.288768
 11
-859.859258
 21
106.045638
  0
ARC
  8
OBRYS
 10
-863.023376
 20
103.598526
 40
4.000000
 50
0.000000
 51
37.718185
  0
LINE
  8
OBRYS
 10
-859.023376
 20
57.880131
 11
-859.023376
 21
112.841655
  0
LINE
  8
OBRYS
 10
-887.023376
 20
57.880131
 11
-887.023376
 21
116.841655
  0
LINE
  8
OBRYS
 10
-887.023376
 20
57.880131
 11
-887.023376
 21
-1.081393
  0
ARC
  8
OBRYS
 10
-863.023376
 20
12.161737
 40
4.000000
 50
322.281815
 51
360.000000
  0
LINE
  8
OBRYS
 10
-867.007848
 20
0.471494
 11
-859.859258
 21
9.714624
  0
ARC
  8
OBRYS
 10
-870.171966
 20
2.918607
 40
4.000000
 50
270.000000
 51
322.281815
  0
ARC
  8
OBRYS
 10
-863.023376
 20
2.918607
 40
4.000000
 50
270.000000
 51
360.000000
  0
LINE
  8
OBRYS
 10
-898.178103
 20
-1.081393
 11
-863.023376
 21
-1.081393
  0
ARC
  8
OBRYS
 10
-898.178103
 20
-3.081393
 40
2.000000
 50
90.000000
 51
180.000000
  0
LINE
  8
OBRYS
 10
-859.023376
 20
57.880131
 11
-859.023376
 21
2.918607
  0
LINE
  8
OSA
 10
-914.178103
 20
115.380131
 11
-898.747438
 21
115.380131
  0
LINE
  8
OSA
 10
-914.178103
 20
0.380131
 11
-898.747438
 21
0.380131
  0
LINE
  8
NEVIDITELNA
 10
-909.178103
 20
105.380131
 11
-905.178103
 21
105.380131
  0
LINE
  8
NEVIDITELNA
 10
-905.178103
 20
10.380131
 11
-905.178103
 21
105.380131
  0
LINE
  8
NEVIDITELNA
 10
-909.178103
 20
10.380131
 11
-905.178103
 21
10.380131
  0
LINE
  8
OSA
 10
-868.169422
 20
57.880131
 11
-914.178103
 21
57.880131
  0
ENDBLK
  8
OSA
  0
BLOCK
  8
OBRYS
  2
_9
 70
   64
 10
-854.023376
 20
382.587729
  0
ARC
  8
OBRYS
 10
-897.178103
 20
282.587729
 40
3.000000
 50
90.000000
 51
180.000000
  0
LINE
  8
OBRYS
 10
-887.023376
 20
285.587729
 11
-897.178103
 21
285.587729
  0
ARC
  8
OBRYS
 10
-903.178103
 20
253.587729
 40
3.000000
 50
270.000000
 51
360.000000
  0
LINE
  8
OBRYS
 10
-903.178103
 20
250.587729
 11
-909.178103
 21
250.587729
  0
LINE
  8
OBRYS
 10
-903.543533
 20
390.587729
 11
-909.178103
 21
390.587729
  0
LINE
  8
OBRYS
 10
-909.178103
 20
390.587729
 11
-909.178103
 21
250.587729
  0
ARC
  8
OBRYS
 10
-903.543533
 20
393.587729
 40
3.000000
 50
270.000000
 51
331.296591
  0
LINE
  8
OBRYS
 10
-896.392023
 20
400.401972
 11
-900.912180
 21
392.146901
  0
ARC
  8
OBRYS
 10
-899.023376
 20
401.842799
 40
3.000000
 50
331.296591
 51
360.000000
  0
LINE
  8
OBRYS
 10
-896.023376
 20
401.842799
 11
-896.023376
 21
446.587729
  0
ARC
  8
OBRYS
 10
-893.023376
 20
446.587729
 40
3.000000
 50
90.000000
 51
180.000000
  0
LINE
  8
OBRYS
 10
-893.023376
 20
449.587729
 11
-887.023376
 21
449.587729
  0
LINE
  8
OBRYS
 62
     7
  6
DASHDOT
 10
-890.023376
 20
320.587729
 11
-911.178103
 21
320.587729
  0
ARC
  8
OBRYS
 10
-856.023376
 20
426.791990
 40
3.000000
 50
180.000000
 51
239.595105
  0
LINE
  8
OBRYS
 10
-854.023376
 20
422.139987
 11
-857.541698
 21
424.204579
  0
LINE
  8
OBRYS
 62
     7
 10
-865.915936
 20
285.664751
 11
-865.934432
 21
285.646254
  0
LINE
  8
OBRYS
 62
     7
 10
-865.934432
 20
285.646254
 11
-865.915936
 21
285.664751
  0
LINE
  8
OBRYS
 10
-887.023376
 20
285.587729
 11
-867.023376
 21
285.587729
  0
ARC
  8
OBRYS
 10
-867.023376
 20
293.587729
 40
8.000000
 50
270.000000
 51
360.000000
  0
ARC
  8
OBRYS
 10
-856.023376
 20
301.115593
 40
3.000000
 50
131.810315
 51
180.000000
  0
ARC
  8
OBRYS
 10
-860.023376
 20
305.587729
 40
3.000000
 50
311.810315
 51
360.000000
  0
ARC
  8
OBRYS
 10
-862.023376
 20
437.457329
 40
3.000000
 50
0.000000
 51
39.745666
  0
LINE
  8
OBRYS
 10
-859.716705
 20
439.375471
 11
-867.309210
 21
448.505871
  0
LINE
  8
OBRYS
 62
     7
  6
DASHDOT
 10
-886.069856
 20
320.587729
 11
-887.023376
 21
320.587729
  0
LINE
  8
OBRYS
 62
     7
  6
DASHDOT
 10
-862.023376
 20
320.587729
 11
-879.171347
 21
320.587729
  0
LINE
  8
OBRYS
 62
     7
  6
DASHDOT
 10
-849.023376
 20
382.587729
 11
-887.023376
 21
382.587729
  0
LINE
  8
OBRYS
 10
-887.023376
 20
449.587729
 11
-869.615881
 21
449.587729
  0
ARC
  8
OBRYS
 10
-869.615881
 20
446.587729
 40
3.000000
 50
39.745666
 51
90.000000
  0
LINE
  8
OBRYS
 10
-854.023376
 20
382.587729
 11
-854.023376
 21
343.101413
  0
LINE
  8
OBRYS
 10
-854.023376
 20
422.139987
 11
-854.023376
 21
382.587729
  0
LINE
  8
OBRYS
 10
-859.023376
 20
437.457329
 11
-859.023376
 21
382.587729
  0
LINE
  8
OBRYS
 10
-859.023376
 20
293.587729
 11
-859.023376
 21
382.587729
  0
LINE
  8
OBRYS
 10
-854.023376
 20
343.035470
 11
-857.023376
 21
340.035470
  0
LINE
  8
OBRYS
 10
-857.023376
 20
305.587729
 11
-857.023376
 21
340.035470
  0
LINE
  8
OBRYS
 10
-896.023376
 20
431.985720
 11
-869.615881
 21
431.985720
  0
LINE
  8
OBRYS
 10
-896.023376
 20
441.865506
 11
-869.615881
 21
441.865506
  0
LINE
  8
OBRYS
 10
-883.023376
 20
402.255639
 11
-861.500404
 21
402.255639
  0
LINE
  8
OBRYS
 10
-896.023376
 20
407.464414
 11
-884.023376
 21
407.464414
  0
LINE
  8
OBRYS
 10
-900.178103
 20
390.587729
 11
-900.178103
 21
253.587729
  0
LINE
  8
OBRYS
 10
-883.023376
 20
406.464414
 11
-883.023376
 21
362.919818
  0
LINE
  8
OBRYS
 10
-900.178103
 20
362.919818
 11
-861.500404
 21
362.919818
  0
LINE
  8
OBRYS
 10
-887.023376
 20
449.587729
 11
-887.023376
 21
285.587729
  0
LINE
  8
OBRYS
 10
-900.178103
 20
345.606419
 11
-861.500404
 21
345.606419
  0
LINE
  8
OBRYS
 10
-882.023376
 20
288.705497
 11
-862.920182
 21
288.705497
  0
LINE
  8
OBRYS
 10
-883.023376
 20
344.606419
 11
-883.023376
 21
289.705497
  0
ENDBLK
  8
OBRYS
  0
BLOCK
  8
OSA
  2
_10
 70
   64
 10
-854.023376
 20
567.295326
  0
LINE
  8
OSA
 10
-919.178103
 20
567.295326
 11
-862.435751
 21
567.295326
  0
LINE
  8
OBRYS
 10
-857.023376
 20
532.295326
 11
-854.023376
 21
532.295326
  0
ARC
  8
OBRYS
 10
-857.023376
 20
530.295326
 40
2.000000
 50
90.000000
 51
180.000000
  0
LINE
  8
SRAFY
 62
     2
 10
-854.023376
 20
602.295326
 11
-854.023376
 21
532.295326
  0
LINE
  8
OSA
 10
-877.023376
 20
549.795326
 11
-877.023376
 21
539.795326
  0
LINE
  8
OSA
 10
-877.023376
 20
549.795326
 11
-877.023376
 21
559.795326
  0
LINE
  8
OSA
 10
-877.023376
 20
549.795326
 11
-887.023376
 21
549.795326
  0
LINE
  8
OSA
 10
-877.023376
 20
549.795326
 11
-867.023376
 21
549.795326
  0
LINE
  8
OBRYS
 10
-900.178103
 20
516.408587
 11
-884.023376
 21
516.408587
  0
LINE
  8
OBRYS
 10
-883.023376
 20
517.408587
 11
-883.023376
 21
535.983053
  0
LINE
  8
OBRYS
 10
-859.023376
 20
567.295326
 11
-859.023376
 21
512.333802
  0
ARC
  8
OBRYS
 10
-898.178103
 20
506.333802
 40
2.000000
 50
90.000000
 51
180.000000
  0
LINE
  8
OBRYS
 10
-898.178103
 20
508.333802
 11
-863.023376
 21
508.333802
  0
ARC
  8
OBRYS
 10
-863.023376
 20
512.333802
 40
4.000000
 50
270.000000
 51
360.000000
  0
ARC
  8
OBRYS
 10
-870.171966
 20
512.333802
 40
4.000000
 50
270.000000
 51
322.281815
  0
LINE
  8
OBRYS
 10
-867.007848
 20
509.886689
 11
-859.859258
 21
519.129819
  0
ARC
  8
OBRYS
 10
-863.023376
 20
521.576931
 40
4.000000
 50
322.281815
 51
360.000000
  0
LINE
  8
OBRYS
 10
-882.023376
 20
520.210615
 11
-859.941476
 21
520.210615
  0
LINE
  8
OBRYS
 10
-887.023376
 20
567.295326
 11
-887.023376
 21
508.333802
  0
LINE
  8
OBRYS
 10
-857.023376
 20
602.295326
 11
-854.023376
 21
602.295326
  0
ARC
  8
OBRYS
 10
-857.023376
 20
604.295326
 40
2.000000
 50
180.000000
 51
270.000000
  0
LINE
  8
OBRYS
 10
-887.023376
 20
567.295326
 11
-887.023376
 21
626.256850
  0
LINE
  8
OBRYS
 10
-859.023376
 20
567.295326
 11
-859.023376
 21
622.256850
  0
LINE
  8
OBRYS
 10
-882.023376
 20
614.380036
 11
-859.941476
 21
614.380036
  0
ARC
  8
OBRYS
 10
-863.023376
 20
613.013720
 40
4.000000
 50
0.000000
 51
37.718185
  0
LINE
  8
OBRYS
 10
-867.007848
 20
624.703963
 11
-859.859258
 21
615.460833
  0
ARC
  8
OBRYS
 10
-870.171966
 20
622.256850
 40
4.000000
 50
37.718185
 51
90.000000
  0
ARC
  8
OBRYS
 10
-863.023376
 20
622.256850
 40
4.000000
 50
0.000000
 51
90.000000
  0
LINE
  8
OBRYS
 10
-898.178103
 20
626.256850
 11
-863.023376
 21
626.256850
  0
ARC
  8
OBRYS
 10
-898.178103
 20
628.256850
 40
2.000000
 50
180.000000
 51
270.000000
  0
LINE
  8
OBRYS
 10
-900.178103
 20
618.182064
 11
-884.023376
 21
618.182064
  0
LINE
  8
OBRYS
 10
-882.023376
 20
567.295326
 11
-863.023376
 21
567.295326
  0
LINE
  8
OBRYS
 10
-882.023376
 20
536.983053
 11
-863.023376
 21
536.983053
  0
ARC
  8
OBRYS
 10
-882.023376
 20
568.295326
 40
1.000000
 50
180.000000
 51
270.000000
  0
LINE
  8
OBRYS
 10
-883.023376
 20
568.295326
 11
-883.023376
 21
617.182064
  0
ARC
  8
OBRYS
 10
-882.023376
 20
535.983053
 40
1.000000
 50
90.000000
 51
180.000000
  0
ARC
  8
OBRYS
 10
-902.178103
 20
499.295326
 40
2.000000
 50
270.000000
 51
360.000000
  0
LINE
  8
OBRYS
 10
-900.178103
 20
499.295326
 11
-900.178103
 21
635.295326
  0
LINE
  8
OBRYS
 10
-902.178103
 20
497.295326
 11
-909.178103
 21
497.295326
  0
ARC
  8
OBRYS
 10
-902.178103
 20
635.295326
 40
2.000000
 50
0.000000
 51
90.000000
  0
LINE
  8
OBRYS
 10
-902.178103
 20
637.295326
 11
-909.178103
 21
637.295326
  0
LINE
  8
OBRYS
 10
-909.178103
 20
497.295326
 11
-909.178103
 21
637.295326
  0
ENDBLK
  8
OSA
  0
BLOCK
  8
OBRYS
  2
_11
 70
   64
 10
-768.023376
 20
312.587729
  0
LINE
  8
OSA
 10
-819.169043
 20
291.402500
 11
-847.015072
 21
279.868296
  0
LINE
  8
OSA
 10
-716.877709
 20
333.772957
 11
-689.031679
 21
345.307161
  0
LINE
  8
OSA
 10
-746.838147
 20
261.442061
 11
-735.303944
 21
233.596032
  0
LINE
  8
OSA
 10
-789.208605
 20
363.733396
 11
-800.742808
 21
391.579425
  0
ARC
  8
OBRYS
 10
-776.023376
 20
447.587729
 40
100.000000
 50
285.934070
 51
303.242533
  0
ARC
  8
OBRYS
 10
-768.023376
 20
312.587729
 40
69.500000
 50
42.349123
 51
47.650877
  0
ARC
  8
OBRYS
 10
-633.023376
 20
304.587729
 40
100.000000
 50
146.757467
 51
164.065930
  0
ARC
  8
OBRYS
 10
-678.220815
 20
413.703998
 40
100.000000
 50
240.934070
 51
258.242533
  0
ARC
  8
OBRYS
 10
-768.023376
 20
312.587729
 40
69.500000
 50
357.349123
 51
2.650877
  0
ARC
  8
OBRYS
 10
-678.220815
 20
211.471459
 40
100.000000
 50
101.757467
 51
119.065930
  0
ARC
  8
OBRYS
 10
-633.023376
 20
320.587729
 40
100.000000
 50
195.934070
 51
213.242533
  0
ARC
  8
OBRYS
 10
-768.023376
 20
312.587729
 40
69.500000
 50
312.349123
 51
317.650877
  0
ARC
  8
OBRYS
 10
-776.023376
 20
177.587729
 40
100.000000
 50
56.757467
 51
74.065930
  0
ARC
  8
OBRYS
 10
-666.907106
 20
222.785167
 40
100.000000
 50
150.934070
 51
168.242533
  0
ARC
  8
OBRYS
 10
-768.023376
 20
312.587729
 40
69.500000
 50
267.349123
 51
272.650877
  0
ARC
  8
OBRYS
 10
-869.139645
 20
222.785167
 40
100.000000
 50
11.757467
 51
29.065930
  0
ARC
  8
OBRYS
 10
-760.023376
 20
177.587729
 40
100.000000
 50
105.934070
 51
123.242533
  0
ARC
  8
OBRYS
 10
-768.023376
 20
312.587729
 40
69.500000
 50
222.349123
 51
227.650877
  0
ARC
  8
OBRYS
 10
-903.023376
 20
320.587729
 40
100.000000
 50
326.757467
 51
344.065930
  0
ARC
  8
OBRYS
 10
-857.825937
 20
211.471459
 40
100.000000
 50
60.934070
 51
78.242533
  0
ARC
  8
OBRYS
 10
-768.023376
 20
312.587729
 40
69.500000
 50
177.349123
 51
182.650877
  0
ARC
  8
OBRYS
 10
-857.825937
 20
413.703998
 40
100.000000
 50
281.757467
 51
299.065930
  0
ARC
  8
OBRYS
 10
-903.023376
 20
304.587729
 40
100.000000
 50
15.934070
 51
33.242533
  0
ARC
  8
OBRYS
 10
-768.023376
 20
312.587729
 40
69.500000
 50
132.349123
 51
137.650877
  0
ARC
  8
OBRYS
 10
-760.023376
 20
447.587729
 40
100.000000
 50
236.757467
 51
254.065930
  0
ARC
  8
OBRYS
 10
-869.139645
 20
402.390290
 40
100.000000
 50
330.934070
 51
348.242533
  0
ARC
  8
OBRYS
 10
-768.023376
 20
312.587729
 40
69.500000
 50
87.349123
 51
92.650877
  0
ARC
  8
OBRYS
 10
-666.907106
 20
402.390290
 40
100.000000
 50
191.757467
 51
209.065930
  0
INSERT
  8
OBRYS
  2
Vnitrni_metricky_zavit_M8__14
 62
     7
 10
-768.023376
 20
262.587729
  0
INSERT
  8
OBRYS
  2
Vnitrni_metricky_zavit_M8__15
 62
     7
 10
-818.023376
 20
312.587729
  0
INSERT
  8
OBRYS
  2
Vnitrni_metricky_zavit_M8__16
 62
     7
 10
-768.023376
 20
362.587729
  0
INSERT
  8
OBRYS
  2
Vnitrni_metricky_zavit_M8__17
 62
     7
 10
-803.378715
 20
277.232389
  0
INSERT
  8
OBRYS
  2
Vnitrni_metricky_zavit_M8__18
 62
     7
 10
-803.378715
 20
347.943068
  0
INSERT
  8
OBRYS
  2
Vnitrni_metricky_zavit_M8__19
 62
     7
 10
-732.668037
 20
347.943068
  0
LINE
  8
OSA
 10
-789.208605
 20
261.442061
 11
-800.742808
 21
233.596032
  0
LINE
  8
OSA
 10
-819.169043
 20
333.772957
 11
-847.015072
 21
345.307161
  0
LINE
  8
OSA
 10
-746.838147
 20
363.733396
 11
-735.303944
 21
391.579425
  0
ARC
  8
OBRYS
 10
-749.942926
 20
268.937661
 40
5.000000
 50
74.065930
 51
150.934070
  0
ARC
  8
OBRYS
 10
-811.673443
 20
294.507278
 40
5.000000
 50
344.065930
 51
60.934070
  0
ARC
  8
OBRYS
 10
-786.103826
 20
356.237796
 40
5.000000
 50
254.065930
 51
330.934070
  0
ARC
  8
OBRYS
 10
-786.103826
 20
268.937661
 40
5.000000
 50
29.065930
 51
105.934070
  0
ARC
  8
OBRYS
 10
-811.673443
 20
330.668179
 40
5.000000
 50
299.065930
 51
15.934070
  0
ARC
  8
OBRYS
 10
-749.942926
 20
356.237796
 40
5.000000
 50
209.065930
 51
285.934070
  0
LINE
  8
OBRYS
 10
-753.360089
 20
272.587729
 11
-782.686662
 21
272.587729
  0
LINE
  8
OBRYS
 10
-808.023376
 20
297.924442
 11
-808.023376
 21
327.251015
  0
LINE
  8
OBRYS
 10
-782.686662
 20
352.587729
 11
-753.360089
 21
352.587729
  0
ARC
  8
OBRYS
 10
-768.023376
 20
312.587729
 40
57.500000
 50
218.400746
 51
231.599254
  0
ARC
  8
OBRYS
 10
-768.023376
 20
312.587729
 40
57.500000
 50
128.400746
 51
141.599254
  0
ARC
  8
OBRYS
 10
-768.023376
 20
312.587729
 40
57.500000
 50
38.400746
 51
51.599254
  0
ARC
  8
OBRYS
 10
-768.023376
 20
312.587729
 40
64.000000
 50
265.926980
 51
274.073020
  0
ARC
  8
OBRYS
 10
-768.023376
 20
312.587729
 40
64.000000
 50
175.926980
 51
184.073020
  0
ARC
  8
OBRYS
 10
-768.023376
 20
312.587729
 40
64.000000
 50
85.926980
 51
94.073020
  0
CIRCLE
  8
OBRYS
 10
-768.023376
 20
312.587729
 40
76.000000
  0
ARC
  8
OBRYS
 10
-768.023376
 20
312.587729
 40
64.000000
 50
355.926980
 51
4.073020
  0
ARC
  8
OBRYS
 10
-768.023376
 20
312.587729
 40
57.500000
 50
308.400746
 51
321.599254
  0
LINE
  8
OBRYS
 10
-728.023376
 20
327.251015
 11
-728.023376
 21
297.924442
  0
ARC
  8
OBRYS
 10
-724.373308
 20
294.507278
 40
5.000000
 50
119.065930
 51
195.934070
  0
ARC
  8
OBRYS
 10
-724.373308
 20
330.668179
 40
5.000000
 50
164.065930
 51
240.934070
  0
CIRCLE
  8
OBRYS
 10
-768.023376
 20
312.587729
 40
30.000000
  0
CIRCLE
  8
OBRYS
 10
-768.023376
 20
312.587729
 40
40.000000
  0
LINE
  8
OSA
 10
-768.023376
 20
312.587729
 11
-682.523379
 21
312.587729
  0
LINE
  8
OSA
 10
-768.023376
 20
312.587729
 11
-768.023376
 21
398.087725
  0
LINE
  8
OSA
 10
-768.023376
 20
312.587729
 11
-768.023376
 21
227.087732
  0
CIRCLE
  8
OSA
 10
-768.023376
 20
312.587729
 40
68.000000
  0
LINE
  8
OSA
 10
-716.877709
 20
291.402500
 11
-689.031679
 21
279.868296
  0
CIRCLE
  8
OSA
 10
-768.023376
 20
312.587729
 40
50.000000
  0
INSERT
  8
OBRYS
  2
Vnitrni_metricky_zavit_M8__20
 62
     7
 10
-732.668037
 20
277.232389
  0
INSERT
  8
OBRYS
  2
Vnitrni_metricky_zavit_M8__21
 62
     7
 10
-718.023376
 20
312.587729
  0
LINE
  8
OSA
 10
-768.023376
 20
312.587729
 11
-768.023376
 21
227.087732
  0
LINE
  8
OSA
 10
-768.023376
 20
312.587729
 11
-853.523372
 21
312.587729
  0
LINE
  8
OSA
 10
-737.572449
 20
343.038655
 11
-728.144064
 21
352.467040
  0
LINE
  8
OSA
 10
-798.474303
 20
343.038655
 11
-807.902688
 21
352.467040
  0
LINE
  8
OSA
 10
-798.474303
 20
282.136802
 11
-807.902688
 21
272.708417
  0
LINE
  8
OSA
 10
-737.572449
 20
282.136802
 11
-728.144064
 21
272.708417
  0
INSERT
  8
OBRYS
  2
Srouby_s_valcovou_hlavou___22
 62
     7
 10
-794.045849
 20
375.411537
  0
INSERT
  8
OBRYS
  2
Srouby_s_valcovou_hlavou___23
 62
     7
 10
-830.847184
 20
338.610202
  0
INSERT
  8
OBRYS
  2
Srouby_s_valcovou_hlavou___24
 62
     7
 10
-830.847184
 20
286.565255
  0
INSERT
  8
OBRYS
  2
Srouby_s_valcovou_hlavou___25
 62
     7
 10
-794.045849
 20
249.763920
  0
INSERT
  8
OBRYS
  2
Srouby_s_valcovou_hlavou___26
 62
     7
 10
-742.000902
 20
249.763920
  0
INSERT
  8
OBRYS
  2
Srouby_s_valcovou_hlavou___27
 62
     7
 10
-705.199568
 20
286.565255
  0
INSERT
  8
OBRYS
  2
Srouby_s_valcovou_hlavou___28
 62
     7
 10
-705.199568
 20
338.610202
  0
INSERT
  8
OBRYS
  2
Srouby_s_valcovou_hlavou___29
 62
     7
 10
-742.000902
 20
375.411537
  0
ARC
  8
OBRYS
 10
-768.023376
 20
312.587729
 40
10.500000
 50
270.000000
 51
73.398450
  0
ARC
  8
OBRYS
 10
-768.023376
 20
312.587729
 40
10.500000
 50
106.601550
 51
270.000000
  0
LINE
  8
OBRYS
 10
-768.023376
 20
325.562729
 11
-765.023376
 21
325.562729
  0
LINE
  8
OBRYS
 10
-765.023376
 20
322.650035
 11
-765.023376
 21
325.562729
  0
LINE
  8
OBRYS
 10
-768.023376
 20
325.562729
 11
-771.023376
 21
325.562729
  0
LINE
  8
OBRYS
 10
-771.023376
 20
322.650035
 11
-771.023376
 21
325.562729
  0
CIRCLE
  8
OBRYS
 10
-768.023376
 20
312.587729
 40
22.500000
  0
ENDBLK
  8
OBRYS
  0
BLOCK
  8
OBRYS
  2
Vnitrni_metricky_zavit_M8__14
 70
   66
 10
-768.023376
 20
262.587729
  0
CIRCLE
  8
OBRYS
 10
-768.023376
 20
262.587729
 40
3.323500
  0
ARC
  8
OBRYS
 62
     7
 10
-768.023376
 20
262.587729
 40
4.000000
 50
40.000000
 51
320.000000
  0
ENDBLK
  8
OBRYS
  0
BLOCK
  8
OBRYS
  2
Vnitrni_metricky_zavit_M8__15
 70
   66
 10
-818.023376
 20
312.587729
  0
CIRCLE
  8
OBRYS
 10
-818.023376
 20
312.587729
 40
3.323500
  0
ARC
  8
OBRYS
 62
     7
 10
-818.023376
 20
312.587729
 40
4.000000
 50
310.000000
 51
230.000000
  0
ENDBLK
  8
OBRYS
  0
BLOCK
  8
OBRYS
  2
Vnitrni_metricky_zavit_M8__16
 70
   66
 10
-768.023376
 20
362.587729
  0
CIRCLE
  8
OBRYS
 10
-768.023376
 20
362.587729
 40
3.323500
  0
ARC
  8
OBRYS
 62
     7
 10
-768.023376
 20
362.587729
 40
4.000000
 50
220.000000
 51
140.000000
  0
ENDBLK
  8
OBRYS
  0
BLOCK
  8
OBRYS
  2
Vnitrni_metricky_zavit_M8__17
 70
   66
 10
-803.378715
 20
277.232389
  0
CIRCLE
  8
OBRYS
 10
-803.378715
 20
277.232389
 40
3.323500
  0
ARC
  8
OBRYS
 62
     7
 10
-803.378715
 20
277.232389
 40
4.000000
 50
355.000000
 51
275.000000
  0
ENDBLK
  8
OBRYS
  0
BLOCK
  8
OBRYS
  2
Vnitrni_metricky_zavit_M8__18
 70
   66
 10
-803.378715
 20
347.943068
  0
CIRCLE
  8
OBRYS
 10
-803.378715
 20
347.943068
 40
3.323500
  0
ARC
  8
OBRYS
 62
     7
 10
-803.378715
 20
347.943068
 40
4.000000
 50
265.000000
 51
185.000000
  0
ENDBLK
  8
OBRYS
  0
BLOCK
  8
OBRYS
  2
Vnitrni_metricky_zavit_M8__19
 70
   66
 10
-732.668037
 20
347.943068
  0
CIRCLE
  8
OBRYS
 10
-732.668037
 20
347.943068
 40
3.323500
  0
ARC
  8
OBRYS
 62
     7
 10
-732.668037
 20
347.943068
 40
4.000000
 50
175.000000
 51
95.000000
  0
ENDBLK
  8
OBRYS
  0
BLOCK
  8
OBRYS
  2
Vnitrni_metricky_zavit_M8__20
 70
   66
 10
-732.668037
 20
277.232389
  0
CIRCLE
  8
OBRYS
 10
-732.668037
 20
277.232389
 40
3.323500
  0
ARC
  8
OBRYS
 62
     7
 10
-732.668037
 20
277.232389
 40
4.000000
 50
85.000000
 51
5.000000
  0
ENDBLK
  8
OBRYS
  0
BLOCK
  8
OBRYS
  2
Vnitrni_metricky_zavit_M8__21
 70
   66
 10
-718.023376
 20
312.587729
  0
CIRCLE
  8
OBRYS
 10
-718.023376
 20
312.587729
 40
3.323500
  0
ARC
  8
OBRYS
 62
     7
 10
-718.023376
 20
312.587729
 40
4.000000
 50
130.000000
 51
50.000000
  0
ENDBLK
  8
OBRYS
  0
BLOCK
  8
OBRYS
  2
Srouby_s_valcovou_hlavou___22
 70
   66
 10
-794.045849
 20
375.411537
  0
LINE
  8
OBRYS
 10
-797.045849
 20
373.679475
 11
-797.045849
 21
377.143598
  0
LINE
  8
OBRYS
 10
-797.045849
 20
377.143598
 11
-794.045849
 21
378.875660
  0
LINE
  8
OBRYS
 10
-794.045849
 20
378.875660
 11
-791.045849
 21
377.143598
  0
LINE
  8
OBRYS
 10
-791.045849
 20
377.143598
 11
-791.045849
 21
373.679475
  0
LINE
  8
OBRYS
 10
-791.045849
 20
373.679475
 11
-794.045849
 21
371.947413
  0
LINE
  8
OBRYS
 10
-794.045849
 20
371.947413
 11
-797.045849
 21
373.679475
  0
CIRCLE
  8
OBRYS
 10
-794.045849
 20
375.411537
 40
3.464123
  0
CIRCLE
  8
OBRYS
 10
-794.045849
 20
375.411537
 40
6.500000
  0
ENDBLK
  8
OBRYS
  0
BLOCK
  8
OBRYS
  2
Srouby_s_valcovou_hlavou___23
 70
   66
 10
-830.847184
 20
338.610202
  0
LINE
  8
OBRYS
 10
-831.743752
 20
335.264129
 11
-834.193257
 21
337.713634
  0
LINE
  8
OBRYS
 10
-834.193257
 20
337.713634
 11
-833.296689
 21
341.059707
  0
LINE
  8
OBRYS
 10
-833.296689
 20
341.059707
 11
-829.950616
 21
341.956275
  0
LINE
  8
OBRYS
 10
-829.950616
 20
341.956275
 11
-827.501111
 21
339.506770
  0
LINE
  8
OBRYS
 10
-827.501111
 20
339.506770
 11
-828.397679
 21
336.160697
  0
LINE
  8
OBRYS
 10
-828.397679
 20
336.160697
 11
-831.743752
 21
335.264129
  0
CIRCLE
  8
OBRYS
 10
-830.847184
 20
338.610202
 40
3.464123
  0
CIRCLE
  8
OBRYS
 10
-830.847184
 20
338.610202
 40
6.500000
  0
ENDBLK
  8
OBRYS
  0
BLOCK
  8
OBRYS
  2
Srouby_s_valcovou_hlavou___24
 70
   66
 10
-830.847184
 20
286.565255
  0
LINE
  8
OBRYS
 10
-829.115122
 20
283.565255
 11
-832.579246
 21
283.565255
  0
LINE
  8
OBRYS
 10
-832.579246
 20
283.565255
 11
-834.311307
 21
286.565255
  0
LINE
  8
OBRYS
 10
-834.311307
 20
286.565255
 11
-832.579246
 21
289.565255
  0
LINE
  8
OBRYS
 10
-832.579246
 20
289.565255
 11
-829.115122
 21
289.565255
  0
LINE
  8
OBRYS
 10
-829.115122
 20
289.565255
 11
-827.383061
 21
286.565255
  0
LINE
  8
OBRYS
 10
-827.383061
 20
286.565255
 11
-829.115122
 21
283.565255
  0
CIRCLE
  8
OBRYS
 10
-830.847184
 20
286.565255
 40
3.464123
  0
CIRCLE
  8
OBRYS
 10
-830.847184
 20
286.565255
 40
6.500000
  0
ENDBLK
  8
OBRYS
  0
BLOCK
  8
OBRYS
  2
Srouby_s_valcovou_hlavou___25
 70
   66
 10
-794.045849
 20
249.763920
  0
LINE
  8
OBRYS
 10
-790.699776
 20
248.867352
 11
-793.149281
 21
246.417847
  0
LINE
  8
OBRYS
 10
-793.149281
 20
246.417847
 11
-796.495354
 21
247.314415
  0
LINE
  8
OBRYS
 10
-796.495354
 20
247.314415
 11
-797.391922
 21
250.660488
  0
LINE
  8
OBRYS
 10
-797.391922
 20
250.660488
 11
-794.942417
 21
253.109993
  0
LINE
  8
OBRYS
 10
-794.942417
 20
253.109993
 11
-791.596344
 21
252.213425
  0
LINE
  8
OBRYS
 10
-791.596344
 20
252.213425
 11
-790.699776
 21
248.867352
  0
CIRCLE
  8
OBRYS
 10
-794.045849
 20
249.763920
 40
3.464123
  0
CIRCLE
  8
OBRYS
 10
-794.045849
 20
249.763920
 40
6.500000
  0
ENDBLK
  8
OBRYS
  0
BLOCK
  8
OBRYS
  2
Srouby_s_valcovou_hlavou___26
 70
   66
 10
-742.000902
 20
249.763920
  0
LINE
  8
OBRYS
 10
-739.000902
 20
251.495982
 11
-739.000902
 21
248.031859
  0
LINE
  8
OBRYS
 10
-739.000902
 20
248.031859
 11
-742.000902
 21
246.299797
  0
LINE
  8
OBRYS
 10
-742.000902
 20
246.299797
 11
-745.000902
 21
248.031859
  0
LINE
  8
OBRYS
 10
-745.000902
 20
248.031859
 11
-745.000902
 21
251.495982
  0
LINE
  8
OBRYS
 10
-745.000902
 20
251.495982
 11
-742.000902
 21
253.228044
  0
LINE
  8
OBRYS
 10
-742.000902
 20
253.228044
 11
-739.000902
 21
251.495982
  0
CIRCLE
  8
OBRYS
 10
-742.000902
 20
249.763920
 40
3.464123
  0
CIRCLE
  8
OBRYS
 10
-742.000902
 20
249.763920
 40
6.500000
  0
ENDBLK
  8
OBRYS
  0
BLOCK
  8
OBRYS
  2
Srouby_s_valcovou_hlavou___27
 70
   66
 10
-705.199568
 20
286.565255
  0
LINE
  8
OBRYS
 10
-704.303000
 20
289.911328
 11
-701.853495
 21
287.461823
  0
LINE
  8
OBRYS
 10
-701.853495
 20
287.461823
 11
-702.750063
 21
284.115750
  0
LINE
  8
OBRYS
 10
-702.750063
 20
284.115750
 11
-706.096135
 21
283.219182
  0
LINE
  8
OBRYS
 10
-706.096135
 20
283.219182
 11
-708.545640
 21
285.668687
  0
LINE
  8
OBRYS
 10
-708.545640
 20
285.668687
 11
-707.649073
 21
289.014760
  0
LINE
  8
OBRYS
 10
-707.649073
 20
289.014760
 11
-704.303000
 21
289.911328
  0
CIRCLE
  8
OBRYS
 10
-705.199568
 20
286.565255
 40
3.464123
  0
CIRCLE
  8
OBRYS
 10
-705.199568
 20
286.565255
 40
6.500000
  0
ENDBLK
  8
OBRYS
  0
BLOCK
  8
OBRYS
  2
Srouby_s_valcovou_hlavou___28
 70
   66
 10
-705.199568
 20
338.610202
  0
LINE
  8
OBRYS
 10
-706.931629
 20
341.610202
 11
-703.467506
 21
341.610202
  0
LINE
  8
OBRYS
 10
-703.467506
 20
341.610202
 11
-701.735444
 21
338.610202
  0
LINE
  8
OBRYS
 10
-701.735444
 20
338.610202
 11
-703.467506
 21
335.610202
  0
LINE
  8
OBRYS
 10
-703.467506
 20
335.610202
 11
-706.931629
 21
335.610202
  0
LINE
  8
OBRYS
 10
-706.931629
 20
335.610202
 11
-708.663691
 21
338.610202
  0
LINE
  8
OBRYS
 10
-708.663691
 20
338.610202
 11
-706.931629
 21
341.610202
  0
CIRCLE
  8
OBRYS
 10
-705.199568
 20
338.610202
 40
3.464123
  0
CIRCLE
  8
OBRYS
 10
-705.199568
 20
338.610202
 40
6.500000
  0
ENDBLK
  8
OBRYS
  0
BLOCK
  8
OBRYS
  2
Srouby_s_valcovou_hlavou___29
 70
   66
 10
-742.000902
 20
375.411537
  0
LINE
  8
OBRYS
 10
-745.346975
 20
376.308105
 11
-742.897470
 21
378.757610
  0
LINE
  8
OBRYS
 10
-742.897470
 20
378.757610
 11
-739.551397
 21
377.861042
  0
LINE
  8
OBRYS
 10
-739.551397
 20
377.861042
 11
-738.654829
 21
374.514969
  0
LINE
  8
OBRYS
 10
-738.654829
 20
374.514969
 11
-741.104335
 21
372.065464
  0
LINE
  8
OBRYS
 10
-741.104335
 20
372.065464
 11
-744.450407
 21
372.962032
  0
LINE
  8
OBRYS
 10
-744.450407
 20
372.962032
 11
-745.346975
 21
376.308105
  0
CIRCLE
  8
OBRYS
 10
-742.000902
 20
375.411537
 40
3.464123
  0
CIRCLE
  8
OBRYS
 10
-742.000902
 20
375.411537
 40
6.500000
  0
ENDBLK
  8
OBRYS
  0
BLOCK
  8
OBRYS
  2
_12
 70
   64
 10
-258.608181
 20
312.587729
  0
LINE
  8
OSA
 10
-258.608181
 20
312.587729
 11
-173.108185
 21
312.587729
  0
INSERT
  8
OBRYS
  2
Vnitrni_metricky_zavit_M8__31
 62
     7
 10
-208.608181
 20
312.587729
  0
INSERT
  8
OBRYS
  2
Vnitrni_metricky_zavit_M8__32
 62
     7
 10
-223.252842
 20
277.232389
  0
CIRCLE
  8
OSA
 10
-258.608181
 20
312.587729
 40
50.000000
  0
LINE
  8
OSA
 10
-258.608181
 20
312.587729
 11
-258.608181
 21
227.087732
  0
LINE
  8
OSA
 10
-258.608181
 20
312.587729
 11
-344.108178
 21
312.587729
  0
CIRCLE
  8
OBRYS
 10
-258.608181
 20
312.587729
 40
40.000000
  0
CIRCLE
  8
OBRYS
 10
-258.608181
 20
312.587729
 40
30.000000
  0
ARC
  8
OBRYS
 10
-214.958113
 20
330.668179
 40
5.000000
 50
164.065930
 51
240.934070
  0
ARC
  8
OBRYS
 10
-214.958113
 20
294.507278
 40
5.000000
 50
119.065930
 51
195.934070
  0
LINE
  8
OBRYS
 10
-218.608181
 20
327.251015
 11
-218.608181
 21
297.924442
  0
ARC
  8
OBRYS
 10
-258.608181
 20
312.587729
 40
57.500000
 50
308.400746
 51
321.599254
  0
ARC
  8
OBRYS
 10
-258.608181
 20
312.587729
 40
64.000000
 50
355.926980
 51
4.073020
  0
ARC
  8
OBRYS
 10
-258.608181
 20
312.587729
 40
69.500000
 50
357.334468
 51
2.650877
  0
CIRCLE
  8
OBRYS
 10
-258.608181
 20
312.587729
 40
76.000000
  0
ARC
  8
OBRYS
 10
-123.608181
 20
304.587729
 40
100.000000
 50
148.188412
 51
164.065930
  0
ARC
  8
OBRYS
 10
-206.037432
 20
355.719114
 40
3.000000
 50
39.366980
 51
148.188412
  0
ARC
  8
OBRYS
 10
-168.805620
 20
413.703998
 40
100.000000
 50
240.934070
 51
256.811588
  0
ARC
  8
OBRYS
 10
-258.608181
 20
312.587729
 40
71.000000
 50
5.633020
 51
39.366980
  0
ARC
  8
OBRYS
 10
-190.936553
 20
319.262367
 40
3.000000
 50
256.811588
 51
5.633020
  0
ARC
  8
OBRYS
 10
-168.805620
 20
211.471459
 40
100.000000
 50
103.188412
 51
119.065930
  0
ARC
  8
OBRYS
 10
-190.936553
 20
305.913090
 40
3.000000
 50
354.366980
 51
103.188412
  0
ARC
  8
OBRYS
 10
-123.608181
 20
320.587729
 40
100.000000
 50
195.934070
 51
211.811588
  0
ARC
  8
OBRYS
 10
-258.608181
 20
312.587729
 40
71.000000
 50
320.633020
 51
354.366980
  0
ARC
  8
OBRYS
 10
-206.037432
 20
269.456343
 40
3.000000
 50
211.811588
 51
320.633020
  0
ARC
  8
OBRYS
 10
-215.476796
 20
365.158477
 40
3.000000
 50
301.811588
 51
50.633020
  0
ARC
  8
OBRYS
 10
-311.178930
 20
355.719114
 40
3.000000
 50
31.811588
 51
140.633020
  0
ARC
  8
OBRYS
 10
-301.739566
 20
260.016980
 40
3.000000
 50
121.811588
 51
230.633020
  0
ARC
  8
OBRYS
 10
-258.608181
 20
312.587729
 40
71.000000
 50
50.633020
 51
84.366980
  0
ARC
  8
OBRYS
 10
-258.608181
 20
312.587729
 40
71.000000
 50
140.633020
 51
174.366980
  0
ARC
  8
OBRYS
 10
-258.608181
 20
312.587728
 40
71.000000
 50
230.633020
 51
264.366980
  0
ARC
  8
OBRYS
 10
-266.608181
 20
447.587729
 40
100.000000
 50
285.934070
 51
301.811588
  0
ARC
  8
OBRYS
 10
-393.608181
 20
304.587729
 40
100.000000
 50
15.934070
 51
31.811588
  0
ARC
  8
OBRYS
 10
-250.608181
 20
177.587729
 40
100.000000
 50
105.934070
 51
121.811588
  0
ARC
  8
OBRYS
 10
-251.933543
 20
380.259356
 40
3.000000
 50
84.366980
 51
193.188412
  0
ARC
  8
OBRYS
 10
-326.279809
 20
319.262367
 40
3.000000
 50
174.366980
 51
283.188412
  0
ARC
  8
OBRYS
 10
-265.282819
 20
244.916101
 40
3.000000
 50
264.366980
 51
13.188412
  0
ARC
  8
OBRYS
 10
-157.491911
 20
402.390290
 40
100.000000
 50
193.188412
 51
209.065930
  0
ARC
  8
OBRYS
 10
-348.410742
 20
413.703998
 40
100.000000
 50
283.188412
 51
299.065930
  0
ARC
  8
OBRYS
 10
-359.724451
 20
222.785167
 40
100.000000
 50
13.188412
 51
29.065930
  0
ARC
  8
OBRYS
 10
-265.282819
 20
380.259356
 40
3.000000
 50
346.811588
 51
95.633020
  0
ARC
  8
OBRYS
 10
-326.279809
 20
305.913090
 40
3.000000
 50
76.811588
 51
185.633020
  0
ARC
  8
OBRYS
 10
-251.933543
 20
244.916101
 40
3.000000
 50
166.811588
 51
275.633020
  0
ARC
  8
OBRYS
 10
-258.608181
 20
312.587729
 40
71.000000
 50
95.633020
 51
129.366980
  0
ARC
  8
OBRYS
 10
-258.608181
 20
312.587729
 40
71.000000
 50
185.633020
 51
219.366980
  0
ARC
  8
OBRYS
 10
-258.608181
 20
312.587729
 40
71.000000
 50
275.633020
 51
309.366980
  0
ARC
  8
OBRYS
 10
-359.724451
 20
402.390290
 40
100.000000
 50
330.934070
 51
346.811588
  0
ARC
  8
OBRYS
 10
-348.410742
 20
211.471459
 40
100.000000
 50
60.934070
 51
76.811588
  0
ARC
  8
OBRYS
 10
-157.491911
 20
222.785167
 40
100.000000
 50
150.934070
 51
166.811588
  0
ARC
  8
OBRYS
 10
-301.739566
 20
365.158477
 40
3.000000
 50
129.366980
 51
238.188412
  0
ARC
  8
OBRYS
 10
-311.178930
 20
269.456343
 40
3.000000
 50
219.366980
 51
328.188412
  0
ARC
  8
OBRYS
 10
-215.476796
 20
260.016980
 40
3.000000
 50
309.366980
 51
58.188412
  0
ARC
  8
OBRYS
 10
-250.608181
 20
447.587729
 40
100.000000
 50
238.188412
 51
254.065930
  0
ARC
  8
OBRYS
 10
-393.608181
 20
320.587729
 40
100.000000
 50
328.188412
 51
344.065930
  0
ARC
  8
OBRYS
 10
-266.608181
 20
177.587729
 40
100.000000
 50
58.188412
 51
74.065930
  0
ARC
  8
OBRYS
 10
-258.608181
 20
312.587729
 40
69.500000
 50
87.334468
 51
92.650877
  0
ARC
  8
OBRYS
 10
-258.608181
 20
312.587729
 40
69.500000
 50
177.334468
 51
182.650877
  0
ARC
  8
OBRYS
 10
-258.608181
 20
312.587729
 40
69.500000
 50
267.334468
 51
272.650877
  0
ARC
  8
OBRYS
 10
-258.608181
 20
312.587729
 40
64.000000
 50
85.926980
 51
94.073020
  0
ARC
  8
OBRYS
 10
-258.608181
 20
312.587729
 40
64.000000
 50
175.926980
 51
184.073020
  0
ARC
  8
OBRYS
 10
-258.608181
 20
312.587729
 40
64.000000
 50
265.926980
 51
274.073020
  0
ARC
  8
OBRYS
 10
-258.608181
 20
312.587729
 40
57.500000
 50
128.400746
 51
141.599254
  0
LINE
  8
OBRYS
 10
-273.271468
 20
352.587729
 11
-243.944894
 21
352.587729
  0
LINE
  8
OBRYS
 10
-298.608181
 20
297.924442
 11
-298.608181
 21
327.251015
  0
LINE
  8
OBRYS
 10
-243.944894
 20
272.587729
 11
-273.271468
 21
272.587729
  0
ARC
  8
OBRYS
 10
-240.527731
 20
356.237796
 40
5.000000
 50
209.065930
 51
285.934070
  0
ARC
  8
OBRYS
 10
-302.258249
 20
330.668179
 40
5.000000
 50
299.065930
 51
15.934070
  0
ARC
  8
OBRYS
 10
-276.688631
 20
268.937661
 40
5.000000
 50
29.065930
 51
105.934070
  0
ARC
  8
OBRYS
 10
-276.688631
 20
356.237796
 40
5.000000
 50
254.065930
 51
330.934070
  0
ARC
  8
OBRYS
 10
-302.258249
 20
294.507278
 40
5.000000
 50
344.065930
 51
60.934070
  0
ARC
  8
OBRYS
 10
-240.527731
 20
268.937661
 40
5.000000
 50
74.065930
 51
150.934070
  0
INSERT
  8
OBRYS
  2
Vnitrni_metricky_zavit_M8__33
 62
     7
 10
-223.252842
 20
347.943068
  0
INSERT
  8
OBRYS
  2
Vnitrni_metricky_zavit_M8__34
 62
     7
 10
-293.963520
 20
347.943068
  0
INSERT
  8
OBRYS
  2
Vnitrni_metricky_zavit_M8__35
 62
     7
 10
-293.963520
 20
277.232389
  0
INSERT
  8
OBRYS
  2
Vnitrni_metricky_zavit_M8__36
 62
     7
 10
-258.608181
 20
362.587729
  0
INSERT
  8
OBRYS
  2
Vnitrni_metricky_zavit_M8__37
 62
     7
 10
-308.608181
 20
312.587729
  0
INSERT
  8
OBRYS
  2
Vnitrni_metricky_zavit_M8__38
 62
     7
 10
-258.608181
 20
262.587729
  0
ARC
  8
OBRYS
 10
-258.608181
 20
312.587729
 40
69.500000
 50
312.334468
 51
317.650877
  0
ARC
  8
OBRYS
 10
-258.608181
 20
312.587729
 40
69.500000
 50
222.334468
 51
227.650877
  0
ARC
  8
OBRYS
 10
-258.608181
 20
312.587729
 40
69.500000
 50
132.334468
 51
137.650877
  0
ARC
  8
OBRYS
 10
-258.608181
 20
312.587729
 40
69.500000
 50
42.334468
 51
47.650877
  0
ARC
  8
OBRYS
 10
-258.608181
 20
312.587729
 40
57.500000
 50
38.400746
 51
51.599254
  0
ARC
  8
OBRYS
 10
-258.608181
 20
312.587729
 40
57.500000
 50
218.400746
 51
231.599254
  0
CIRCLE
  8
OBRYS
 10
-258.608181
 20
312.587729
 40
22.500000
  0
LINE
  8
OBRYS
 10
-261.608181
 20
322.650035
 11
-261.608181
 21
325.562729
  0
LINE
  8
OBRYS
 10
-258.608181
 20
325.562729
 11
-261.608181
 21
325.562729
  0
LINE
  8
OBRYS
 10
-255.608181
 20
322.650035
 11
-255.608181
 21
325.562729
  0
LINE
  8
OBRYS
 10
-258.608181
 20
325.562729
 11
-255.608181
 21
325.562729
  0
ARC
  8
OBRYS
 10
-258.608181
 20
312.587729
 40
10.500000
 50
106.601550
 51
270.000000
  0
ARC
  8
OBRYS
 10
-258.608181
 20
312.587729
 40
10.500000
 50
270.000000
 51
73.398450
  0
LINE
  8
OSA
 10
-228.157254
 20
282.136802
 11
-218.728869
 21
272.708417
  0
LINE
  8
OSA
 10
-289.059108
 20
282.136802
 11
-298.487493
 21
272.708417
  0
LINE
  8
OSA
 10
-289.059108
 20
343.038655
 11
-298.487493
 21
352.467040
  0
LINE
  8
OSA
 10
-228.157254
 20
343.038655
 11
-218.728869
 21
352.467040
  0
ENDBLK
  8
OBRYS
  0
BLOCK
  8
OBRYS
  2
Vnitrni_metricky_zavit_M8__31
 70
   66
 10
-208.608181
 20
312.587729
  0
CIRCLE
  8
OBRYS
 10
-208.608181
 20
312.587729
 40
3.323500
  0
ARC
  8
OBRYS
 62
     7
 10
-208.608181
 20
312.587729
 40
4.000000
 50
130.000000
 51
50.000000
  0
ENDBLK
  8
OBRYS
  0
BLOCK
  8
OBRYS
  2
Vnitrni_metricky_zavit_M8__32
 70
   66
 10
-223.252842
 20
277.232389
  0
CIRCLE
  8
OBRYS
 10
-223.252842
 20
277.232389
 40
3.323500
  0
ARC
  8
OBRYS
 62
     7
 10
-223.252842
 20
277.232389
 40
4.000000
 50
85.000000
 51
5.000000
  0
ENDBLK
  8
OBRYS
  0
BLOCK
  8
OBRYS
  2
Vnitrni_metricky_zavit_M8__33
 70
   66
 10
-223.252842
 20
347.943068
  0
CIRCLE
  8
OBRYS
 10
-223.252842
 20
347.943068
 40
3.323500
  0
ARC
  8
OBRYS
 62
     7
 10
-223.252842
 20
347.943068
 40
4.000000
 50
175.000000
 51
95.000000
  0
ENDBLK
  8
OBRYS
  0
BLOCK
  8
OBRYS
  2
Vnitrni_metricky_zavit_M8__34
 70
   66
 10
-293.963520
 20
347.943068
  0
CIRCLE
  8
OBRYS
 10
-293.963520
 20
347.943068
 40
3.323500
  0
ARC
  8
OBRYS
 62
     7
 10
-293.963520
 20
347.943068
 40
4.000000
 50
265.000000
 51
185.000000
  0
ENDBLK
  8
OBRYS
  0
BLOCK
  8
OBRYS
  2
Vnitrni_metricky_zavit_M8__35
 70
   66
 10
-293.963520
 20
277.232389
  0
CIRCLE
  8
OBRYS
 10
-293.963520
 20
277.232389
 40
3.323500
  0
ARC
  8
OBRYS
 62
     7
 10
-293.963520
 20
277.232389
 40
4.000000
 50
355.000000
 51
275.000000
  0
ENDBLK
  8
OBRYS
  0
BLOCK
  8
OBRYS
  2
Vnitrni_metricky_zavit_M8__36
 70
   66
 10
-258.608181
 20
362.587729
  0
CIRCLE
  8
OBRYS
 10
-258.608181
 20
362.587729
 40
3.323500
  0
ARC
  8
OBRYS
 62
     7
 10
-258.608181
 20
362.587729
 40
4.000000
 50
220.000000
 51
140.000000
  0
ENDBLK
  8
OBRYS
  0
BLOCK
  8
OBRYS
  2
Vnitrni_metricky_zavit_M8__37
 70
   66
 10
-308.608181
 20
312.587729
  0
CIRCLE
  8
OBRYS
 10
-308.608181
 20
312.587729
 40
3.323500
  0
ARC
  8
OBRYS
 62
     7
 10
-308.608181
 20
312.587729
 40
4.000000
 50
310.000000
 51
230.000000
  0
ENDBLK
  8
OBRYS
  0
BLOCK
  8
OBRYS
  2
Vnitrni_metricky_zavit_M8__38
 70
   66
 10
-258.608181
 20
262.587729
  0
CIRCLE
  8
OBRYS
 10
-258.608181
 20
262.587729
 40
3.323500
  0
ARC
  8
OBRYS
 62
     7
 10
-258.608181
 20
262.587729
 40
4.000000
 50
40.000000
 51
320.000000
  0
ENDBLK
  8
OBRYS
  0
BLOCK
  8
OSA
  2
_13
 70
   64
 10
-1022.730973
 20
312.587729
  0
LINE
  8
OBRYS
 10
-1054.730973
 20
312.587729
 11
-1054.730973
 21
360.648418
  0
LINE
  8
OBRYS
 10
-972.230973
 20
327.251015
 11
-972.230973
 21
312.587729
  0
LINE
  8
OBRYS
 10
-965.730973
 20
357.649637
 11
-965.730973
 21
312.587729
  0
LINE
  8
OBRYS
 10
-962.730973
 20
312.587729
 11
-962.730973
 21
352.587729
  0
LINE
  8
OBRYS
 10
-962.230973
 20
352.087729
 11
-962.230973
 21
312.587729
  0
LINE
  8
OBRYS
 10
-990.730973
 20
312.587729
 11
-990.730973
 21
360.648418
  0
LINE
  8
OSA
 10
-1064.730973
 20
382.587729
 11
-1022.730973
 21
382.587729
  0
ARC
  8
OBRYS
 10
-1032.756049
 20
345.651789
 40
2.000000
 50
60.000000
 51
180.000000
  0
LINE
  8
OBRYS
 10
-1034.756049
 20
338.895636
 11
-1034.756049
 21
345.651789
  0
LINE
  8
OBRYS
 10
-1060.730973
 20
388.587729
 11
-1057.730973
 21
388.587729
  0
ARC
  8
OSA
 62
     2
  6
CONTINUOUS
 10
-1022.730973
 20
416.074044
 40
6.000000
 50
60.000000
 51
120.000000
  0
LINE
  8
OSA
 62
     2
  6
CONTINUOUS
 10
-990.730973
 20
404.527039
 11
-1019.730973
 21
421.270197
  0
ARC
  8
OSA
 62
     2
  6
CONTINUOUS
 10
-993.730973
 20
399.330886
 40
6.000000
 50
0.000000
 51
60.000000
  0
ARC
  8
OSA
 62
     2
  6
CONTINUOUS
 10
-1051.730973
 20
365.844571
 40
6.000000
 50
180.000000
 51
240.000000
  0
LINE
  8
OSA
 62
     2
  6
CONTINUOUS
 10
-1054.730973
 20
360.648418
 11
-1025.730973
 21
343.905260
  0
ARC
  8
OSA
 62
     2
  6
CONTINUOUS
 10
-1022.730973
 20
349.101413
 40
6.000000
 50
240.000000
 51
300.000000
  0
LINE
  8
OSA
 62
     2
  6
CONTINUOUS
 10
-1054.730973
 20
404.527039
 11
-1025.730973
 21
421.270197
  0
LINE
  8
OSA
 62
     2
  6
CONTINUOUS
 10
-1057.730973
 20
399.330886
 11
-1057.730973
 21
365.844571
  0
ARC
  8
OSA
 62
     2
  6
CONTINUOUS
 10
-1051.730973
 20
399.330886
 40
6.000000
 50
120.000000
 51
180.000000
  0
LINE
  8
OSA
 62
     2
  6
CONTINUOUS
 10
-990.730973
 20
360.648418
 11
-1019.730973
 21
343.905260
  0
LINE
  8
OSA
 62
     2
  6
CONTINUOUS
 10
-987.730973
 20
365.844571
 11
-987.730973
 21
399.330886
  0
ARC
  8
OSA
 62
     2
  6
CONTINUOUS
 10
-993.730973
 20
365.844571
 40
6.000000
 50
300.000000
 51
360.000000
  0
CIRCLE
  8
OBRYS
 10
-1022.730973
 20
382.587729
 40
27.500000
  0
POLYLINE
  8
OBRYS
 66
    1
  0
VERTEX
  8
OBRYS
 10
-1042.230957
 20
330.431030
  0
VERTEX
  8
OBRYS
 10
-1042.092407
 20
330.432404
  0
VERTEX
  8
OBRYS
 10
-1041.934448
 20
330.437408
  0
VERTEX
  8
OBRYS
 10
-1041.754639
 20
330.447479
  0
VERTEX
  8
OBRYS
 10
-1041.550171
 20
330.464661
  0
VERTEX
  8
OBRYS
 10
-1041.317993
 20
330.491638
  0
VERTEX
  8
OBRYS
 10
-1041.054932
 20
330.531860
  0
VERTEX
  8
OBRYS
 10
-1040.757568
 20
330.589874
  0
VERTEX
  8
OBRYS
 10
-1040.422974
 20
330.671448
  0
VERTEX
  8
OBRYS
 10
-1040.048462
 20
330.783813
  0
VERTEX
  8
OBRYS
 10
-1039.632324
 20
330.936005
  0
VERTEX
  8
OBRYS
 10
-1039.174194
 20
331.138824
  0
VERTEX
  8
OBRYS
 10
-1038.676270
 20
331.404816
  0
VERTEX
  8
OBRYS
 10
-1038.143677
 20
331.747955
  0
VERTEX
  8
OBRYS
 10
-1037.586060
 20
332.182648
  0
VERTEX
  8
OBRYS
 10
-1037.017700
 20
332.722504
  0
VERTEX
  8
OBRYS
 10
-1036.458618
 20
333.378296
  0
VERTEX
  8
OBRYS
 10
-1035.933472
 20
334.155701
  0
VERTEX
  8
OBRYS
 10
-1035.470581
 20
335.052979
  0
VERTEX
  8
OBRYS
 10
-1035.099365
 20
336.059326
  0
VERTEX
  8
OBRYS
 10
-1034.847046
 20
337.154175
  0
VERTEX
  8
OBRYS
 10
-1034.735229
 20
338.307861
  0
VERTEX
  8
OBRYS
 10
-1034.755981
 20
338.895630
  0
SEQEND
  8
OBRYS
  0
ARC
  8
OBRYS
 10
-1052.730973
 20
328.431020
 40
2.000000
 50
90.000000
 51
180.000000
  0
LINE
  8
OBRYS
 10
-1052.730973
 20
330.431020
 11
-1042.230973
 21
330.431020
  0
LINE
  8
OBRYS
 10
-972.230973
 20
317.133505
 11
-977.730973
 21
315.802106
  0
LINE
  8
OBRYS
 10
-972.230973
 20
376.587729
 11
-972.230973
 21
361.063400
  0
LINE
  8
OBRYS
 10
-965.730973
 20
357.649637
 11
-977.730973
 21
363.951968
  0
LINE
  8
OBRYS
 10
-965.730973
 20
348.304313
 11
-977.730973
 21
359.406153
  0
ARC
  8
OBRYS
 10
-975.730973
 20
382.916156
 40
2.000000
 50
180.000000
 51
225.000000
  0
LINE
  8
OBRYS
 10
-962.230973
 20
352.087729
 11
-962.730973
 21
352.587729
  0
LINE
  8
OBRYS
 10
-984.730973
 20
388.587729
 11
-985.730973
 21
388.587729
  0
LINE
  8
OBRYS
 10
-965.730973
 20
352.587729
 11
-962.730973
 21
352.587729
  0
LINE
  8
OBRYS
 10
-972.230973
 20
376.587729
 11
-977.145187
 21
381.501942
  0
LINE
  8
OSA
 10
-1022.730973
 20
382.587729
 11
-980.730973
 21
382.587729
  0
LINE
  8
OBRYS
 10
-1060.730973
 20
388.587729
 11
-1060.730973
 21
312.587729
  0
LINE
  8
OBRYS
 10
-1054.730973
 20
238.587729
 11
-1054.730973
 21
312.587729
  0
LINE
  8
OBRYS
 10
-965.730973
 20
312.587729
 11
-965.730973
 21
267.525820
  0
LINE
  8
OBRYS
 10
-972.230973
 20
312.587729
 11
-972.230973
 21
297.924442
  0
LINE
  8
OBRYS
 10
-962.230973
 20
312.587729
 11
-962.230973
 21
273.087729
  0
LINE
  8
OBRYS
 10
-962.730973
 20
272.587729
 11
-962.730973
 21
312.587729
  0
LINE
  8
OBRYS
 10
-990.730973
 20
238.587729
 11
-990.730973
 21
312.587729
  0
LINE
  8
OBRYS
 10
-1022.730973
 20
244.087729
 11
-992.730973
 21
244.087729
  0
LINE
  8
OBRYS
 10
-977.730973
 20
312.587729
 11
-977.730973
 21
238.763551
  0
LINE
  8
OBRYS
 10
-962.230973
 20
273.087729
 11
-962.730973
 21
272.587729
  0
LINE
  8
OBRYS
 10
-965.730973
 20
272.587729
 11
-962.730973
 21
272.587729
  0
ARC
  8
OBRYS
 10
-975.730973
 20
242.259301
 40
2.000000
 50
135.000000
 51
180.000000
  0
ARC
  8
OBRYS
 10
-992.730973
 20
242.087729
 40
2.000000
 50
0.000000
 51
90.000000
  0
LINE
  8
OBRYS
 10
-1060.730973
 20
236.587729
 11
-1060.730973
 21
312.587729
  0
LINE
  8
OBRYS
 10
-1060.730973
 20
236.587729
 11
-1056.730973
 21
236.587729
  0
ARC
  8
OBRYS
 10
-1056.730973
 20
238.587729
 40
2.000000
 50
270.000000
 51
360.000000
  0
ARC
  8
OBRYS
 10
-988.730973
 20
238.587729
 40
2.000000
 50
180.000000
 51
270.000000
  0
LINE
  8
OBRYS
 10
-984.730973
 20
236.587729
 11
-988.730973
 21
236.587729
  0
LINE
  8
OBRYS
 10
-984.730973
 20
236.587729
 11
-979.661174
 21
236.764770
  0
ARC
  8
OBRYS
 10
-979.730973
 20
238.763551
 40
2.000000
 50
272.000000
 51
360.000000
  0
LINE
  8
OBRYS
 10
-1031.731040
 20
241.087729
 11
-1013.730906
 21
241.087728
  0
LINE
  8
OBRYS
 10
-1013.730906
 20
241.087728
 11
-1013.730974
 21
242.087592
  0
ARC
  8
OBRYS
 10
-1011.730974
 20
242.087729
 40
2.000000
 50
90.000000
 51
180.003913
  0
LINE
  8
OBRYS
 10
-1031.731040
 20
241.087729
 11
-1031.730972
 21
242.087592
  0
ARC
  8
OBRYS
 10
-1033.730972
 20
242.087729
 40
2.000000
 50
359.996087
 51
90.000000
  0
LINE
  8
OBRYS
 10
-972.230973
 20
308.041952
 11
-977.730973
 21
309.373351
  0
LINE
  8
OBRYS
 10
-972.230973
 20
248.587729
 11
-972.230973
 21
264.112057
  0
LINE
  8
OBRYS
 10
-965.730973
 20
276.871144
 11
-977.730973
 21
265.769304
  0
ARC
  8
OBRYS
 10
-975.730973
 20
242.259301
 40
2.000000
 50
135.000000
 51
180.000000
  0
LINE
  8
OBRYS
 10
-972.230973
 20
248.587729
 11
-977.145187
 21
243.673515
  0
LINE
  8
OBRYS
 10
-965.730973
 20
267.525820
 11
-977.730973
 21
261.223489
  0
ARC
  8
OBRYS
 10
-1052.730973
 20
296.744437
 40
2.000000
 50
180.000000
 51
270.000000
  0
ARC
  8
OBRYS
 10
-1052.730973
 20
276.440180
 40
2.000000
 50
90.000000
 51
180.000000
  0
POLYLINE
  8
OBRYS
 66
    1
  0
VERTEX
  8
OBRYS
 10
-1042.230957
 20
294.744446
  0
VERTEX
  8
OBRYS
 10
-1042.092407
 20
294.743042
  0
VERTEX
  8
OBRYS
 10
-1041.934448
 20
294.738068
  0
VERTEX
  8
OBRYS
 10
-1041.754761
 20
294.727997
  0
VERTEX
  8
OBRYS
 10
-1041.550293
 20
294.710785
  0
VERTEX
  8
OBRYS
 10
-1041.317993
 20
294.683807
  0
VERTEX
  8
OBRYS
 10
-1041.054932
 20
294.643585
  0
VERTEX
  8
OBRYS
 10
-1040.757568
 20
294.585571
  0
VERTEX
  8
OBRYS
 10
-1040.422974
 20
294.504028
  0
VERTEX
  8
OBRYS
 10
-1040.048462
 20
294.391663
  0
VERTEX
  8
OBRYS
 10
-1039.632324
 20
294.239471
  0
VERTEX
  8
OBRYS
 10
-1039.174194
 20
294.036652
  0
VERTEX
  8
OBRYS
 10
-1038.676270
 20
293.770630
  0
VERTEX
  8
OBRYS
 10
-1038.143677
 20
293.427521
  0
VERTEX
  8
OBRYS
 10
-1037.586060
 20
292.992828
  0
VERTEX
  8
OBRYS
 10
-1037.017700
 20
292.452972
  0
VERTEX
  8
OBRYS
 10
-1036.458618
 20
291.797150
  0
VERTEX
  8
OBRYS
 10
-1035.933472
 20
291.019745
  0
VERTEX
  8
OBRYS
 10
-1035.470581
 20
290.122467
  0
VERTEX
  8
OBRYS
 10
-1035.099487
 20
289.116119
  0
VERTEX
  8
OBRYS
 10
-1034.847046
 20
288.021271
  0
VERTEX
  8
OBRYS
 10
-1034.735229
 20
286.867615
  0
VERTEX
  8
OBRYS
 10
-1034.776855
 20
285.692047
  0
VERTEX
  8
OBRYS
 10
-1034.973633
 20
284.535400
  0
VERTEX
  8
OBRYS
 10
-1035.315063
 20
283.438263
  0
VERTEX
  8
OBRYS
 10
-1035.778931
 20
282.436157
  0
VERTEX
  8
OBRYS
 10
-1036.334106
 20
281.554993
  0
VERTEX
  8
OBRYS
 10
-1036.945557
 20
280.808472
  0
VERTEX
  8
OBRYS
 10
-1037.578979
 20
280.197876
  0
VERTEX
  8
OBRYS
 10
-1038.204834
 20
279.714386
  0
VERTEX
  8
OBRYS
 10
-1038.801270
 20
279.342468
  0
VERTEX
  8
OBRYS
 10
-1039.354126
 20
279.063751
  0
VERTEX
  8
OBRYS
 10
-1039.855713
 20
278.859802
  0
VERTEX
  8
OBRYS
 10
-1040.303711
 20
278.713928
  0
VERTEX
  8
OBRYS
 10
-1040.699097
 20
278.612030
  0
VERTEX
  8
OBRYS
 10
-1041.045166
 20
278.542725
  0
VERTEX
  8
OBRYS
 10
-1041.346313
 20
278.497101
  0
VERTEX
  8
OBRYS
 10
-1041.607056
 20
278.468445
  0
VERTEX
  8
OBRYS
 10
-1041.832397
 20
278.451691
  0
VERTEX
  8
OBRYS
 10
-1042.026611
 20
278.443207
  0
VERTEX
  8
OBRYS
 10
-1042.193726
 20
278.440277
  0
VERTEX
  8
OBRYS
 10
-1042.230957
 20
278.440186
  0
SEQEND
  8
OBRYS
  0
LINE
  8
OBRYS
 10
-1052.730973
 20
278.440180
 11
-1042.230973
 21
278.440180
  0
LINE
  8
OBRYS
 10
-1052.730973
 20
294.744437
 11
-1042.230973
 21
294.744437
  0
POLYLINE
  8
0
 62
     2
 66
    1
  0
VERTEX
  8
0
 62
     2
 10
-1038.956665
 20
243.216034
  0
VERTEX
  8
0
 62
     2
 10
-1038.445313
 20
243.582123
  0
VERTEX
  8
0
 62
     2
 10
-1038.130493
 20
243.979370
  0
SEQEND
  8
0
  0
LINE
  8
0
 62
     2
 10
-1041.078368
 20
242.237265
 11
-1038.956697
 21
243.216016
  0
LINE
  8
0
 62
     2
 10
-1038.130492
 20
243.979330
 11
-1036.410041
 21
246.138672
  0
POLYLINE
  8
0
 62
     2
 66
    1
  0
VERTEX
  8
0
 62
     2
 10
-1034.904785
 20
249.158325
  0
VERTEX
  8
0
 62
     2
 10
-1034.735229
 20
249.816956
  0
VERTEX
  8
0
 62
     2
 10
-1034.904785
 20
250.475616
  0
VERTEX
  8
0
 62
     2
 10
-1035.406738
 20
251.108948
  0
VERTEX
  8
0
 62
     2
 10
-1036.222046
 20
251.692627
  0
VERTEX
  8
0
 62
     2
 10
-1037.319214
 20
252.204224
  0
VERTEX
  8
0
 62
     2
 10
-1038.656128
 20
252.624115
  0
VERTEX
  8
0
 62
     2
 10
-1040.181274
 20
252.936096
  0
VERTEX
  8
0
 62
     2
 10
-1041.836304
 20
253.128204
  0
VERTEX
  8
0
 62
     2
 10
-1043.557495
 20
253.193085
  0
SEQEND
  8
0
  0
LINE
  8
0
 62
     2
 10
-1036.410041
 20
246.138672
 11
-1034.904767
 21
249.158328
  0
LINE
  8
OBRYS
 10
-1043.557445
 20
253.193082
 11
-1054.730973
 21
253.193082
  0
POLYLINE
  8
0
 62
     2
 66
    1
  0
VERTEX
  8
0
 62
     2
 10
-1043.557495
 20
241.730194
  0
VERTEX
  8
0
 62
     2
 10
-1042.975708
 20
241.752136
  0
VERTEX
  8
0
 62
     2
 10
-1042.416504
 20
241.817047
  0
VERTEX
  8
0
 62
     2
 10
-1041.901001
 20
241.922485
  0
VERTEX
  8
0
 62
     2
 10
-1041.449219
 20
242.064392
  0
VERTEX
  8
0
 62
     2
 10
-1041.078369
 20
242.237305
  0
SEQEND
  8
0
  0
LINE
  8
OBRYS
 10
-1038.130492
 20
244.087729
 11
-1022.730973
 21
244.087729
  0
LINE
  8
OBRYS
 10
-1043.557445
 20
241.730174
 11
-1052.730973
 21
241.730174
  0
ARC
  8
OBRYS
 10
-1052.730973
 20
239.730174
 40
2.000000
 50
90.000000
 51
180.000000
  0
LINE
  8
OSA
 10
-1022.730973
 20
426.650815
 11
-1022.730973
 21
236.960083
  0
INSERT
  8
OSA
  2
M10x1__40
  6
CONTINUOUS
 10
-1022.730973
 20
241.087729
  0
ARC
  8
OBRYS
 10
-979.730973
 20
386.411906
 40
2.000000
 50
0.000000
 51
88.000000
  0
LINE
  8
OBRYS
 10
-977.730973
 20
312.587729
 11
-977.730973
 21
386.411906
  0
LINE
  8
OBRYS
 10
-987.730973
 20
388.692491
 11
-979.661174
 21
388.410687
  0
LINE
  8
OSA
 10
-1085.956862
 20
312.587729
 11
-949.542265
 21
312.587729
  0
ENDBLK
  8
OSA
  0
BLOCK
  8
OSA
  2
M10x1__40
 70
   66
 10
-1022.730973
 20
241.087729
  0
LINE
  8
OSA
 10
-1022.730973
 20
250.416631
 11
-1022.730973
 21
236.642380
  0
LINE
  8
OSA
 62
     2
  6
CONTINUOUS
 10
-1029.730973
 20
241.087729
 11
-1015.730973
 21
241.087729
  0
LINE
  8
OSA
 62
     2
  6
CONTINUOUS
 10
-1015.730973
 20
241.087729
 11
-1015.730973
 21
239.087729
  0
LINE
  8
OSA
 62
     2
  6
CONTINUOUS
 10
-1029.730973
 20
241.087729
 11
-1029.730973
 21
239.087729
  0
ARC
  8
OSA
 62
     2
  6
CONTINUOUS
 10
-1016.730973
 20
239.087729
 40
1.000000
 50
270.000000
 51
360.000000
  0
LINE
  8
OSA
 62
     2
  6
CONTINUOUS
 10
-1028.730973
 20
238.087729
 11
-1016.730973
 21
238.087729
  0
ARC
  8
OSA
 62
     2
  6
CONTINUOUS
 10
-1028.730973
 20
239.087729
 40
1.000000
 50
180.000000
 51
270.000000
  0
ENDBLK
  8
OSA
  0
BLOCK
  8
OSA
  2
_14
 70
   64
 10
-1060.730973
 20
312.587729
  0
LINE
  8
OBRYS
 10
-1073.230973
 20
248.587729
 11
-1072.730973
 21
248.087729
  0
INSERT
  8
OSA
  2
Srouby_s_valcovou_hlavou___42
  6
CONTINUOUS
 10
-1067.730973
 20
249.763920
  0
INSERT
  8
OSA
  2
Srouby_s_valcovou_hlavou___43
  6
CONTINUOUS
 10
-1067.730973
 20
286.565255
  0
LINE
  8
OBRYS
 10
-1073.230973
 20
376.587729
 11
-1072.730973
 21
377.087729
  0
INSERT
  8
OSA
  2
Srouby_s_valcovou_hlavou___44
  6
CONTINUOUS
 10
-1067.730973
 20
338.610202
  0
INSERT
  8
OSA
  2
Srouby_s_valcovou_hlavou___45
  6
CONTINUOUS
 10
-1067.730973
 20
375.411537
  0
LINE
  8
OBRYS
 10
-1079.730973
 20
357.649637
 11
-1067.730973
 21
363.951968
  0
LINE
  8
OBRYS
 10
-1079.730973
 20
348.304313
 11
-1067.730973
 21
359.406153
  0
LINE
  8
OBRYS
 10
-1073.230973
 20
376.587729
 11
-1073.230973
 21
361.063400
  0
LINE
  8
OBRYS
 10
-1073.230973
 20
317.133505
 11
-1067.730973
 21
315.802106
  0
ARC
  8
OBRYS
 10
-1065.730973
 20
386.411906
 40
2.000000
 50
92.000000
 51
180.000000
  0
LINE
  8
OBRYS
 10
-1060.730973
 20
388.587729
 11
-1065.800772
 21
388.410687
  0
ARC
  8
OBRYS
 10
-1069.730973
 20
382.916156
 40
2.000000
 50
315.000000
 51
360.000000
  0
LINE
  8
OBRYS
 10
-1079.730973
 20
352.587729
 11
-1082.730973
 21
352.587729
  0
LINE
  8
OBRYS
 10
-1083.230973
 20
352.087729
 11
-1082.730973
 21
352.587729
  0
LINE
  8
OBRYS
 10
-1067.730973
 20
312.587729
 11
-1067.730973
 21
386.411906
  0
LINE
  8
OBRYS
 10
-1082.730973
 20
352.587729
 11
-1082.730973
 21
312.587729
  0
LINE
  8
OBRYS
 10
-1083.230973
 20
312.587729
 11
-1083.230973
 21
352.087729
  0
LINE
  8
OBRYS
 10
-1073.230973
 20
312.587729
 11
-1073.230973
 21
327.251015
  0
LINE
  8
OBRYS
 10
-1079.730973
 20
312.587729
 11
-1079.730973
 21
357.649637
  0
LINE
  8
OBRYS
 10
-1079.730973
 20
312.587729
 11
-1079.730973
 21
267.525820
  0
LINE
  8
OBRYS
 10
-1073.230973
 20
312.587729
 11
-1073.230973
 21
297.924442
  0
LINE
  8
OBRYS
 10
-1083.230973
 20
312.587729
 11
-1083.230973
 21
273.087729
  0
LINE
  8
OBRYS
 10
-1082.730973
 20
272.587729
 11
-1082.730973
 21
312.587729
  0
LINE
  8
OBRYS
 10
-1067.730973
 20
312.587729
 11
-1067.730973
 21
238.763551
  0
LINE
  8
OBRYS
 10
-1083.230973
 20
273.087729
 11
-1082.730973
 21
272.587729
  0
LINE
  8
OBRYS
 10
-1079.730973
 20
272.587729
 11
-1082.730973
 21
272.587729
  0
LINE
  8
OBRYS
 10
-1060.730973
 20
236.587729
 11
-1065.800772
 21
236.764770
  0
ARC
  8
OBRYS
 10
-1065.730973
 20
238.763551
 40
2.000000
 50
180.000000
 51
268.000000
  0
LINE
  8
OBRYS
 10
-1073.230973
 20
308.041952
 11
-1067.730973
 21
309.373351
  0
LINE
  8
OBRYS
 10
-1073.230973
 20
248.587729
 11
-1073.230973
 21
264.112057
  0
LINE
  8
OBRYS
 10
-1079.730973
 20
276.871144
 11
-1067.730973
 21
265.769304
  0
ARC
  8
OBRYS
 10
-1069.730973
 20
242.259301
 40
2.000000
 50
0.000000
 51
45.000000
  0
LINE
  8
OBRYS
 10
-1079.730973
 20
267.525820
 11
-1067.730973
 21
261.223489
  0
LINE
  8
OBRYS
 10
-1060.730973
 20
236.587729
 11
-1060.730973
 21
312.587729
  0
LINE
  8
OBRYS
 10
-1060.730973
 20
388.587729
 11
-1060.730973
 21
312.587729
  0
LINE
  8
OSA
 10
-1053.230977
 20
312.587729
 11
-1090.730969
 21
312.587729
  0
ENDBLK
  8
OSA
  0
BLOCK
  8
OSA
  2
Srouby_s_valcovou_hlavou___42
 70
   66
 10
-1067.730973
 20
249.763920
  0
LINE
  8
OSA
 62
     2
  6
CONTINUOUS
 10
-1072.730973
 20
244.063920
 11
-1072.730973
 21
255.463920
  0
LINE
  8
OSA
 62
     2
  6
CONTINUOUS
 10
-1071.930973
 20
243.263920
 11
-1067.730973
 21
243.263920
  0
LINE
  8
OSA
 62
     2
  6
CONTINUOUS
 10
-1067.730973
 20
243.263920
 11
-1067.730973
 21
256.263920
  0
LINE
  8
OSA
 62
     2
  6
CONTINUOUS
 10
-1067.730973
 20
256.263920
 11
-1071.930973
 21
256.263920
  0
ARC
  8
OSA
 62
     2
  6
CONTINUOUS
 10
-1071.930973
 20
244.063920
 40
0.800000
 50
180.000000
 51
270.000000
  0
ARC
  8
OSA
 62
     2
  6
CONTINUOUS
 10
-1071.930973
 20
255.463920
 40
0.800000
 50
90.000000
 51
180.000000
  0
LINE
  8
OSA
  6
DOT
 10
-1072.730973
 20
246.299797
 11
-1070.230973
 21
246.299797
  0
LINE
  8
OSA
  6
DOT
 10
-1072.730973
 20
248.031859
 11
-1070.230973
 21
248.031859
  0
LINE
  8
OSA
  6
DOT
 10
-1072.730973
 20
251.495982
 11
-1070.230973
 21
251.495982
  0
LINE
  8
OSA
  6
DOT
 10
-1072.730973
 20
253.228044
 11
-1070.230973
 21
253.228044
  0
ARC
  8
OSA
  6
DOT
 10
-1073.230982
 20
247.165828
 40
1.000009
 50
300.000310
 51
59.999690
  0
ARC
  8
OSA
  6
DOT
 10
-1075.481010
 20
249.763920
 40
3.250037
 50
327.795963
 51
32.204037
  0
ARC
  8
OSA
  6
DOT
 10
-1073.230982
 20
252.362013
 40
1.000009
 50
300.000310
 51
59.999690
  0
ARC
  8
OSA
  6
DOT
 10
-1070.730982
 20
247.165828
 40
1.000009
 50
300.000310
 51
59.999690
  0
ARC
  8
OSA
  6
DOT
 10
-1072.981010
 20
249.763920
 40
3.250037
 50
327.795963
 51
32.204037
  0
ARC
  8
OSA
  6
DOT
 10
-1070.730982
 20
252.362013
 40
1.000009
 50
300.000310
 51
59.999690
  0
LINE
  8
OSA
  6
DOT
 10
-1069.730973
 20
247.165828
 11
-1067.998911
 21
249.763920
  0
LINE
  8
OSA
  6
DOT
 10
-1067.998911
 20
249.763920
 11
-1069.730973
 21
252.362013
  0
ENDBLK
  8
OSA
  0
BLOCK
  8
OSA
  2
Srouby_s_valcovou_hlavou___43
 70
   66
 10
-1067.730973
 20
286.565255
  0
LINE
  8
OSA
 62
     2
  6
CONTINUOUS
 10
-1072.730973
 20
280.865255
 11
-1072.730973
 21
292.265255
  0
LINE
  8
OSA
 62
     2
  6
CONTINUOUS
 10
-1071.930973
 20
280.065255
 11
-1067.730973
 21
280.065255
  0
LINE
  8
OSA
 62
     2
  6
CONTINUOUS
 10
-1067.730973
 20
280.065255
 11
-1067.730973
 21
293.065255
  0
LINE
  8
OSA
 62
     2
  6
CONTINUOUS
 10
-1067.730973
 20
293.065255
 11
-1071.930973
 21
293.065255
  0
ARC
  8
OSA
 62
     2
  6
CONTINUOUS
 10
-1071.930973
 20
280.865255
 40
0.800000
 50
180.000000
 51
270.000000
  0
ARC
  8
OSA
 62
     2
  6
CONTINUOUS
 10
-1071.930973
 20
292.265255
 40
0.800000
 50
90.000000
 51
180.000000
  0
LINE
  8
OSA
  6
DOT
 10
-1072.730973
 20
283.101132
 11
-1070.230973
 21
283.101132
  0
LINE
  8
OSA
  6
DOT
 10
-1072.730973
 20
284.833193
 11
-1070.230973
 21
284.833193
  0
LINE
  8
OSA
  6
DOT
 10
-1072.730973
 20
288.297317
 11
-1070.230973
 21
288.297317
  0
LINE
  8
OSA
  6
DOT
 10
-1072.730973
 20
290.029378
 11
-1070.230973
 21
290.029378
  0
ARC
  8
OSA
  6
DOT
 10
-1073.230982
 20
283.967163
 40
1.000009
 50
300.000310
 51
59.999690
  0
ARC
  8
OSA
  6
DOT
 10
-1075.481010
 20
286.565255
 40
3.250037
 50
327.795963
 51
32.204037
  0
ARC
  8
OSA
  6
DOT
 10
-1073.230982
 20
289.163348
 40
1.000009
 50
300.000310
 51
59.999690
  0
ARC
  8
OSA
  6
DOT
 10
-1070.730982
 20
283.967163
 40
1.000009
 50
300.000310
 51
59.999690
  0
ARC
  8
OSA
  6
DOT
 10
-1072.981010
 20
286.565255
 40
3.250037
 50
327.795963
 51
32.204037
  0
ARC
  8
OSA
  6
DOT
 10
-1070.730982
 20
289.163348
 40
1.000009
 50
300.000310
 51
59.999690
  0
LINE
  8
OSA
  6
DOT
 10
-1069.730973
 20
283.967163
 11
-1067.998911
 21
286.565255
  0
LINE
  8
OSA
  6
DOT
 10
-1067.998911
 20
286.565255
 11
-1069.730973
 21
289.163348
  0
ENDBLK
  8
OSA
  0
BLOCK
  8
OSA
  2
Srouby_s_valcovou_hlavou___44
 70
   66
 10
-1067.730973
 20
338.610202
  0
LINE
  8
OSA
 62
     2
  6
CONTINUOUS
 10
-1072.730973
 20
344.310202
 11
-1072.730973
 21
332.910202
  0
LINE
  8
OSA
 62
     2
  6
CONTINUOUS
 10
-1071.930973
 20
345.110202
 11
-1067.730973
 21
345.110202
  0
LINE
  8
OSA
 62
     2
  6
CONTINUOUS
 10
-1067.730973
 20
345.110202
 11
-1067.730973
 21
332.110202
  0
LINE
  8
OSA
 62
     2
  6
CONTINUOUS
 10
-1067.730973
 20
332.110202
 11
-1071.930973
 21
332.110202
  0
ARC
  8
OSA
 62
     2
  6
CONTINUOUS
 10
-1071.930973
 20
344.310202
 40
0.800000
 50
90.000000
 51
180.000000
  0
ARC
  8
OSA
 62
     2
  6
CONTINUOUS
 10
-1071.930973
 20
332.910202
 40
0.800000
 50
180.000000
 51
270.000000
  0
LINE
  8
OSA
  6
DOT
 10
-1072.730973
 20
342.074325
 11
-1070.230973
 21
342.074325
  0
LINE
  8
OSA
  6
DOT
 10
-1072.730973
 20
340.342264
 11
-1070.230973
 21
340.342264
  0
LINE
  8
OSA
  6
DOT
 10
-1072.730973
 20
336.878140
 11
-1070.230973
 21
336.878140
  0
LINE
  8
OSA
  6
DOT
 10
-1072.730973
 20
335.146079
 11
-1070.230973
 21
335.146079
  0
ARC
  8
OSA
  6
DOT
 10
-1073.230982
 20
341.208294
 40
1.000009
 50
300.000310
 51
59.999690
  0
ARC
  8
OSA
  6
DOT
 10
-1075.481010
 20
338.610202
 40
3.250037
 50
327.795963
 51
32.204037
  0
ARC
  8
OSA
  6
DOT
 10
-1073.230982
 20
336.012109
 40
1.000009
 50
300.000310
 51
59.999690
  0
ARC
  8
OSA
  6
DOT
 10
-1070.730982
 20
341.208294
 40
1.000009
 50
300.000310
 51
59.999690
  0
ARC
  8
OSA
  6
DOT
 10
-1072.981010
 20
338.610202
 40
3.250037
 50
327.795963
 51
32.204037
  0
ARC
  8
OSA
  6
DOT
 10
-1070.730982
 20
336.012109
 40
1.000009
 50
300.000310
 51
59.999690
  0
LINE
  8
OSA
  6
DOT
 10
-1069.730973
 20
341.208294
 11
-1067.998911
 21
338.610202
  0
LINE
  8
OSA
  6
DOT
 10
-1067.998911
 20
338.610202
 11
-1069.730973
 21
336.012109
  0
ENDBLK
  8
OSA
  0
BLOCK
  8
OSA
  2
Srouby_s_valcovou_hlavou___45
 70
   66
 10
-1067.730973
 20
375.411537
  0
LINE
  8
OSA
 62
     2
  6
CONTINUOUS
 10
-1072.730973
 20
381.111537
 11
-1072.730973
 21
369.711537
  0
LINE
  8
OSA
 62
     2
  6
CONTINUOUS
 10
-1071.930973
 20
381.911537
 11
-1067.730973
 21
381.911537
  0
LINE
  8
OSA
 62
     2
  6
CONTINUOUS
 10
-1067.730973
 20
381.911537
 11
-1067.730973
 21
368.911537
  0
LINE
  8
OSA
 62
     2
  6
CONTINUOUS
 10
-1067.730973
 20
368.911537
 11
-1071.930973
 21
368.911537
  0
ARC
  8
OSA
 62
     2
  6
CONTINUOUS
 10
-1071.930973
 20
381.111537
 40
0.800000
 50
90.000000
 51
180.000000
  0
ARC
  8
OSA
 62
     2
  6
CONTINUOUS
 10
-1071.930973
 20
369.711537
 40
0.800000
 50
180.000000
 51
270.000000
  0
LINE
  8
OSA
  6
DOT
 10
-1072.730973
 20
378.875660
 11
-1070.230973
 21
378.875660
  0
LINE
  8
OSA
  6
DOT
 10
-1072.730973
 20
377.143598
 11
-1070.230973
 21
377.143598
  0
LINE
  8
OSA
  6
DOT
 10
-1072.730973
 20
373.679475
 11
-1070.230973
 21
373.679475
  0
LINE
  8
OSA
  6
DOT
 10
-1072.730973
 20
371.947413
 11
-1070.230973
 21
371.947413
  0
ARC
  8
OSA
  6
DOT
 10
-1073.230982
 20
378.009629
 40
1.000009
 50
300.000310
 51
59.999690
  0
ARC
  8
OSA
  6
DOT
 10
-1075.481010
 20
375.411537
 40
3.250037
 50
327.795963
 51
32.204037
  0
ARC
  8
OSA
  6
DOT
 10
-1073.230982
 20
372.813444
 40
1.000009
 50
300.000310
 51
59.999690
  0
ARC
  8
OSA
  6
DOT
 10
-1070.730982
 20
378.009629
 40
1.000009
 50
300.000310
 51
59.999690
  0
ARC
  8
OSA
  6
DOT
 10
-1072.981010
 20
375.411537
 40
3.250037
 50
327.795963
 51
32.204037
  0
ARC
  8
OSA
  6
DOT
 10
-1070.730982
 20
372.813444
 40
1.000009
 50
300.000310
 51
59.999690
  0
LINE
  8
OSA
  6
DOT
 10
-1069.730973
 20
378.009629
 11
-1067.998911
 21
375.411537
  0
LINE
  8
OSA
  6
DOT
 10
-1067.998911
 20
375.411537
 11
-1069.730973
 21
372.813444
  0
ENDBLK
  8
OSA
  0
BLOCK
  8
OSA
  2
_15
 70
   64
 10
-768.023376
 20
19.880131
  0
LINE
  8
OBRYS
 10
-704.023376
 20
7.380131
 11
-703.523376
 21
7.880131
  0
INSERT
  8
OSA
  2
Srouby_s_valcovou_hlavou___47
  6
CONTINUOUS
 10
-705.199568
 20
12.880131
  0
INSERT
  8
OSA
  2
Srouby_s_valcovou_hlavou___48
  6
CONTINUOUS
 10
-742.000902
 20
12.880131
  0
LINE
  8
OBRYS
 10
-832.023376
 20
7.380131
 11
-832.523376
 21
7.880131
  0
INSERT
  8
OSA
  2
Srouby_s_valcovou_hlavou___49
  6
CONTINUOUS
 10
-794.045849
 20
12.880131
  0
INSERT
  8
OSA
  2
Srouby_s_valcovou_hlavou___50
  6
CONTINUOUS
 10
-830.847184
 20
12.880131
  0
LINE
  8
OBRYS
 10
-813.085284
 20
0.880131
 11
-819.387616
 21
12.880131
  0
LINE
  8
OBRYS
 10
-803.739960
 20
0.880131
 11
-814.841800
 21
12.880131
  0
LINE
  8
OBRYS
 10
-832.023376
 20
7.380131
 11
-816.499047
 21
7.380131
  0
LINE
  8
OBRYS
 10
-772.569152
 20
7.380131
 11
-771.237753
 21
12.880131
  0
ARC
  8
OBRYS
 10
-841.847553
 20
14.880131
 40
2.000000
 50
182.000000
 51
270.000000
  0
LINE
  8
OBRYS
 10
-844.023376
 20
19.880131
 11
-843.846334
 21
14.810332
  0
ARC
  8
OBRYS
 10
-838.351803
 20
10.880131
 40
2.000000
 50
45.000000
 51
90.000000
  0
LINE
  8
OBRYS
 10
-808.023376
 20
0.880131
 11
-808.023376
 21
-2.119869
  0
LINE
  8
OBRYS
 10
-807.523376
 20
-2.619869
 11
-808.023376
 21
-2.119869
  0
LINE
  8
OBRYS
 10
-768.023376
 20
12.880131
 11
-841.847553
 21
12.880131
  0
LINE
  8
OBRYS
 10
-808.023376
 20
-2.119869
 11
-768.023376
 21
-2.119869
  0
LINE
  8
OBRYS
 10
-768.023376
 20
-2.619869
 11
-807.523376
 21
-2.619869
  0
LINE
  8
OBRYS
 10
-768.023376
 20
7.380131
 11
-782.686662
 21
7.380131
  0
LINE
  8
OBRYS
 10
-768.023376
 20
0.880131
 11
-813.085284
 21
0.880131
  0
LINE
  8
OBRYS
 10
-768.023376
 20
0.880131
 11
-722.961467
 21
0.880131
  0
LINE
  8
OBRYS
 10
-768.023376
 20
7.380131
 11
-753.360089
 21
7.380131
  0
LINE
  8
OBRYS
 10
-768.023376
 20
-2.619869
 11
-728.523376
 21
-2.619869
  0
LINE
  8
OBRYS
 10
-728.023376
 20
-2.119869
 11
-768.023376
 21
-2.119869
  0
LINE
  8
OBRYS
 10
-768.023376
 20
12.880131
 11
-694.199199
 21
12.880131
  0
LINE
  8
OBRYS
 10
-728.523376
 20
-2.619869
 11
-728.023376
 21
-2.119869
  0
LINE
  8
OBRYS
 10
-728.023376
 20
0.880131
 11
-728.023376
 21
-2.119869
  0
LINE
  8
OBRYS
 10
-692.023376
 20
19.880131
 11
-692.200417
 21
14.810332
  0
ARC
  8
OBRYS
 10
-694.199199
 20
14.880131
 40
2.000000
 50
270.000000
 51
358.000000
  0
LINE
  8
OBRYS
 10
-763.477599
 20
7.380131
 11
-764.808999
 21
12.880131
  0
LINE
  8
OBRYS
 10
-704.023376
 20
7.380131
 11
-719.547704
 21
7.380131
  0
LINE
  8
OBRYS
 10
-732.306792
 20
0.880131
 11
-721.204951
 21
12.880131
  0
ARC
  8
OBRYS
 10
-697.694949
 20
10.880131
 40
2.000000
 50
90.000000
 51
135.000000
  0
LINE
  8
OBRYS
 10
-722.961467
 20
0.880131
 11
-716.659136
 21
12.880131
  0
LINE
  8
OBRYS
 10
-692.023376
 20
19.880131
 11
-768.023376
 21
19.880131
  0
LINE
  8
OBRYS
 10
-844.023376
 20
19.880131
 11
-768.023376
 21
19.880131
  0
LINE
  8
OSA
 10
-768.023376
 20
27.380128
 11
-768.023376
 21
-10.119865
  0
ENDBLK
  8
OSA
  0
BLOCK
  8
OSA
  2
Srouby_s_valcovou_hlavou___47
 70
   66
 10
-705.199568
 20
12.880131
  0
LINE
  8
OSA
 62
     2
  6
CONTINUOUS
 10
-699.499568
 20
7.880131
 11
-710.899568
 21
7.880131
  0
LINE
  8
OSA
 62
     2
  6
CONTINUOUS
 10
-698.699568
 20
8.680131
 11
-698.699568
 21
12.880131
  0
LINE
  8
OSA
 62
     2
  6
CONTINUOUS
 10
-698.699568
 20
12.880131
 11
-711.699568
 21
12.880131
  0
LINE
  8
OSA
 62
     2
  6
CONTINUOUS
 10
-711.699568
 20
12.880131
 11
-711.699568
 21
8.680131
  0
ARC
  8
OSA
 62
     2
  6
CONTINUOUS
 10
-699.499568
 20
8.680131
 40
0.800000
 50
270.000000
 51
360.000000
  0
ARC
  8
OSA
 62
     2
  6
CONTINUOUS
 10
-710.899568
 20
8.680131
 40
0.800000
 50
180.000000
 51
270.000000
  0
LINE
  8
OSA
  6
DOT
 10
-701.735444
 20
7.880131
 11
-701.735444
 21
10.380131
  0
LINE
  8
OSA
  6
DOT
 10
-703.467506
 20
7.880131
 11
-703.467506
 21
10.380131
  0
LINE
  8
OSA
  6
DOT
 10
-706.931629
 20
7.880131
 11
-706.931629
 21
10.380131
  0
LINE
  8
OSA
  6
DOT
 10
-708.663691
 20
7.880131
 11
-708.663691
 21
10.380131
  0
ARC
  8
OSA
  6
DOT
 10
-702.601475
 20
7.380122
 40
1.000009
 50
30.000310
 51
149.999690
  0
ARC
  8
OSA
  6
DOT
 10
-705.199568
 20
5.130094
 40
3.250037
 50
57.795963
 51
122.204037
  0
ARC
  8
OSA
  6
DOT
 10
-707.797660
 20
7.380122
 40
1.000009
 50
30.000310
 51
149.999690
  0
ARC
  8
OSA
  6
DOT
 10
-702.601475
 20
9.880122
 40
1.000009
 50
30.000310
 51
149.999690
  0
ARC
  8
OSA
  6
DOT
 10
-705.199568
 20
7.630094
 40
3.250037
 50
57.795963
 51
122.204037
  0
ARC
  8
OSA
  6
DOT
 10
-707.797660
 20
9.880122
 40
1.000009
 50
30.000310
 51
149.999690
  0
LINE
  8
OSA
  6
DOT
 10
-702.601475
 20
10.880131
 11
-705.199568
 21
12.612193
  0
LINE
  8
OSA
  6
DOT
 10
-705.199568
 20
12.612193
 11
-707.797660
 21
10.880131
  0
ENDBLK
  8
OSA
  0
BLOCK
  8
OSA
  2
Srouby_s_valcovou_hlavou___48
 70
   66
 10
-742.000902
 20
12.880131
  0
LINE
  8
OSA
 62
     2
  6
CONTINUOUS
 10
-736.300902
 20
7.880131
 11
-747.700902
 21
7.880131
  0
LINE
  8
OSA
 62
     2
  6
CONTINUOUS
 10
-735.500902
 20
8.680131
 11
-735.500902
 21
12.880131
  0
LINE
  8
OSA
 62
     2
  6
CONTINUOUS
 10
-735.500902
 20
12.880131
 11
-748.500902
 21
12.880131
  0
LINE
  8
OSA
 62
     2
  6
CONTINUOUS
 10
-748.500902
 20
12.880131
 11
-748.500902
 21
8.680131
  0
ARC
  8
OSA
 62
     2
  6
CONTINUOUS
 10
-736.300902
 20
8.680131
 40
0.800000
 50
270.000000
 51
360.000000
  0
ARC
  8
OSA
 62
     2
  6
CONTINUOUS
 10
-747.700902
 20
8.680131
 40
0.800000
 50
180.000000
 51
270.000000
  0
LINE
  8
OSA
  6
DOT
 10
-738.536779
 20
7.880131
 11
-738.536779
 21
10.380131
  0
LINE
  8
OSA
  6
DOT
 10
-740.268841
 20
7.880131
 11
-740.268841
 21
10.380131
  0
LINE
  8
OSA
  6
DOT
 10
-743.732964
 20
7.880131
 11
-743.732964
 21
10.380131
  0
LINE
  8
OSA
  6
DOT
 10
-745.465026
 20
7.880131
 11
-745.465026
 21
10.380131
  0
ARC
  8
OSA
  6
DOT
 10
-739.402810
 20
7.380122
 40
1.000009
 50
30.000310
 51
149.999690
  0
ARC
  8
OSA
  6
DOT
 10
-742.000902
 20
5.130094
 40
3.250037
 50
57.795963
 51
122.204037
  0
ARC
  8
OSA
  6
DOT
 10
-744.598995
 20
7.380122
 40
1.000009
 50
30.000310
 51
149.999690
  0
ARC
  8
OSA
  6
DOT
 10
-739.402810
 20
9.880122
 40
1.000009
 50
30.000310
 51
149.999690
  0
ARC
  8
OSA
  6
DOT
 10
-742.000902
 20
7.630094
 40
3.250037
 50
57.795963
 51
122.204037
  0
ARC
  8
OSA
  6
DOT
 10
-744.598995
 20
9.880122
 40
1.000009
 50
30.000310
 51
149.999690
  0
LINE
  8
OSA
  6
DOT
 10
-739.402810
 20
10.880131
 11
-742.000902
 21
12.612193
  0
LINE
  8
OSA
  6
DOT
 10
-742.000902
 20
12.612193
 11
-744.598995
 21
10.880131
  0
ENDBLK
  8
OSA
  0
BLOCK
  8
OSA
  2
Srouby_s_valcovou_hlavou___49
 70
   66
 10
-794.045849
 20
12.880131
  0
LINE
  8
OSA
 62
     2
  6
CONTINUOUS
 10
-799.745849
 20
7.880131
 11
-788.345849
 21
7.880131
  0
LINE
  8
OSA
 62
     2
  6
CONTINUOUS
 10
-800.545849
 20
8.680131
 11
-800.545849
 21
12.880131
  0
LINE
  8
OSA
 62
     2
  6
CONTINUOUS
 10
-800.545849
 20
12.880131
 11
-787.545849
 21
12.880131
  0
LINE
  8
OSA
 62
     2
  6
CONTINUOUS
 10
-787.545849
 20
12.880131
 11
-787.545849
 21
8.680131
  0
ARC
  8
OSA
 62
     2
  6
CONTINUOUS
 10
-799.745849
 20
8.680131
 40
0.800000
 50
180.000000
 51
270.000000
  0
ARC
  8
OSA
 62
     2
  6
CONTINUOUS
 10
-788.345849
 20
8.680131
 40
0.800000
 50
270.000000
 51
360.000000
  0
LINE
  8
OSA
  6
DOT
 10
-797.509972
 20
7.880131
 11
-797.509972
 21
10.380131
  0
LINE
  8
OSA
  6
DOT
 10
-795.777911
 20
7.880131
 11
-795.777911
 21
10.380131
  0
LINE
  8
OSA
  6
DOT
 10
-792.313788
 20
7.880131
 11
-792.313788
 21
10.380131
  0
LINE
  8
OSA
  6
DOT
 10
-790.581726
 20
7.880131
 11
-790.581726
 21
10.380131
  0
ARC
  8
OSA
  6
DOT
 10
-796.643942
 20
7.380122
 40
1.000009
 50
30.000310
 51
149.999690
  0
ARC
  8
OSA
  6
DOT
 10
-794.045849
 20
5.130094
 40
3.250037
 50
57.795963
 51
122.204037
  0
ARC
  8
OSA
  6
DOT
 10
-791.447757
 20
7.380122
 40
1.000009
 50
30.000310
 51
149.999690
  0
ARC
  8
OSA
  6
DOT
 10
-796.643942
 20
9.880122
 40
1.000009
 50
30.000310
 51
149.999690
  0
ARC
  8
OSA
  6
DOT
 10
-794.045849
 20
7.630094
 40
3.250037
 50
57.795963
 51
122.204037
  0
ARC
  8
OSA
  6
DOT
 10
-791.447757
 20
9.880122
 40
1.000009
 50
30.000310
 51
149.999690
  0
LINE
  8
OSA
  6
DOT
 10
-796.643942
 20
10.880131
 11
-794.045849
 21
12.612193
  0
LINE
  8
OSA
  6
DOT
 10
-794.045849
 20
12.612193
 11
-791.447757
 21
10.880131
  0
ENDBLK
  8
OSA
  0
BLOCK
  8
OSA
  2
Srouby_s_valcovou_hlavou___50
 70
   66
 10
-830.847184
 20
12.880131
  0
LINE
  8
OSA
 62
     2
  6
CONTINUOUS
 10
-836.547184
 20
7.880131
 11
-825.147184
 21
7.880131
  0
LINE
  8
OSA
 62
     2
  6
CONTINUOUS
 10
-837.347184
 20
8.680131
 11
-837.347184
 21
12.880131
  0
LINE
  8
OSA
 62
     2
  6
CONTINUOUS
 10
-837.347184
 20
12.880131
 11
-824.347184
 21
12.880131
  0
LINE
  8
OSA
 62
     2
  6
CONTINUOUS
 10
-824.347184
 20
12.880131
 11
-824.347184
 21
8.680131
  0
ARC
  8
OSA
 62
     2
  6
CONTINUOUS
 10
-836.547184
 20
8.680131
 40
0.800000
 50
180.000000
 51
270.000000
  0
ARC
  8
OSA
 62
     2
  6
CONTINUOUS
 10
-825.147184
 20
8.680131
 40
0.800000
 50
270.000000
 51
360.000000
  0
LINE
  8
OSA
  6
DOT
 10
-834.311307
 20
7.880131
 11
-834.311307
 21
10.380131
  0
LINE
  8
OSA
  6
DOT
 10
-832.579246
 20
7.880131
 11
-832.579246
 21
10.380131
  0
LINE
  8
OSA
  6
DOT
 10
-829.115122
 20
7.880131
 11
-829.115122
 21
10.380131
  0
LINE
  8
OSA
  6
DOT
 10
-827.383061
 20
7.880131
 11
-827.383061
 21
10.380131
  0
ARC
  8
OSA
  6
DOT
 10
-833.445276
 20
7.380122
 40
1.000009
 50
30.000310
 51
149.999690
  0
ARC
  8
OSA
  6
DOT
 10
-830.847184
 20
5.130094
 40
3.250037
 50
57.795963
 51
122.204037
  0
ARC
  8
OSA
  6
DOT
 10
-828.249092
 20
7.380122
 40
1.000009
 50
30.000310
 51
149.999690
  0
ARC
  8
OSA
  6
DOT
 10
-833.445276
 20
9.880122
 40
1.000009
 50
30.000310
 51
149.999690
  0
ARC
  8
OSA
  6
DOT
 10
-830.847184
 20
7.630094
 40
3.250037
 50
57.795963
 51
122.204037
  0
ARC
  8
OSA
  6
DOT
 10
-828.249092
 20
9.880122
 40
1.000009
 50
30.000310
 51
149.999690
  0
LINE
  8
OSA
  6
DOT
 10
-833.445276
 20
10.880131
 11
-830.847184
 21
12.612193
  0
LINE
  8
OSA
  6
DOT
 10
-830.847184
 20
12.612193
 11
-828.249092
 21
10.880131
  0
ENDBLK
  8
OSA
  0
BLOCK
  8
OSA
  2
_16
 70
   64
 10
-768.023376
 20
567.295326
  0
ARC
  8
OBRYS
 10
-841.847553
 20
524.295326
 40
2.000000
 50
182.000000
 51
270.000000
  0
LINE
  8
OBRYS
 10
-844.023376
 20
529.295326
 11
-843.846334
 21
524.225527
  0
LINE
  8
OBRYS
 10
-844.023376
 20
529.295326
 11
-844.023376
 21
533.295326
  0
ARC
  8
OBRYS
 10
-842.023376
 20
533.295326
 40
2.000000
 50
90.000000
 51
180.000000
  0
ARC
  8
OBRYS
 10
-840.880931
 20
597.295326
 40
2.000000
 50
0.000000
 51
90.000000
  0
LINE
  8
OBRYS
 10
-838.880931
 20
588.121798
 11
-838.880931
 21
597.295326
  0
LINE
  8
OBRYS
 10
-836.523376
 20
582.694845
 11
-836.523376
 21
567.295326
  0
POLYLINE
  8
0
 62
     2
 66
    1
  0
VERTEX
  8
0
 62
     2
 10
-838.880920
 20
588.121826
  0
VERTEX
  8
0
 62
     2
 10
-838.858948
 20
587.540100
  0
VERTEX
  8
0
 62
     2
 10
-838.794067
 20
586.980835
  0
VERTEX
  8
0
 62
     2
 10
-838.688599
 20
586.465332
  0
VERTEX
  8
0
 62
     2
 10
-838.546692
 20
586.013550
  0
VERTEX
  8
0
 62
     2
 10
-838.373779
 20
585.642700
  0
SEQEND
  8
0
  0
LINE
  8
OBRYS
 10
-827.418022
 20
588.121798
 11
-827.418022
 21
599.295326
  0
LINE
  8
0
 62
     2
 10
-834.472432
 20
580.974394
 11
-831.452776
 21
579.469120
  0
POLYLINE
  8
0
 62
     2
 66
    1
  0
VERTEX
  8
0
 62
     2
 10
-831.452759
 20
579.469116
  0
VERTEX
  8
0
 62
     2
 10
-830.794128
 20
579.299622
  0
VERTEX
  8
0
 62
     2
 10
-830.135498
 20
579.469116
  0
VERTEX
  8
0
 62
     2
 10
-829.502136
 20
579.971130
  0
VERTEX
  8
0
 62
     2
 10
-828.918457
 20
580.786438
  0
VERTEX
  8
0
 62
     2
 10
-828.406860
 20
581.883545
  0
VERTEX
  8
0
 62
     2
 10
-827.987000
 20
583.220459
  0
VERTEX
  8
0
 62
     2
 10
-827.674988
 20
584.745667
  0
VERTEX
  8
0
 62
     2
 10
-827.482910
 20
586.400696
  0
VERTEX
  8
0
 62
     2
 10
-827.418030
 20
588.121826
  0
SEQEND
  8
0
  0
LINE
  8
0
 62
     2
 10
-836.631775
 20
582.694845
 11
-834.472432
 21
580.974394
  0
LINE
  8
0
 62
     2
 10
-838.373839
 20
585.642721
 11
-837.395088
 21
583.521049
  0
POLYLINE
  8
0
 62
     2
 66
    1
  0
VERTEX
  8
0
 62
     2
 10
-837.395081
 20
583.521057
  0
VERTEX
  8
0
 62
     2
 10
-837.028992
 20
583.009705
  0
VERTEX
  8
0
 62
     2
 10
-836.631714
 20
582.694824
  0
SEQEND
  8
0
  0
LINE
  8
OBRYS
 10
-785.866667
 20
597.295326
 11
-785.866667
 21
586.795326
  0
LINE
  8
OBRYS
 10
-802.170924
 20
597.295326
 11
-802.170924
 21
586.795326
  0
POLYLINE
  8
OBRYS
 66
    1
  0
VERTEX
  8
OBRYS
 10
-785.866638
 20
586.795349
  0
VERTEX
  8
OBRYS
 10
-785.868042
 20
586.656738
  0
VERTEX
  8
OBRYS
 10
-785.873047
 20
586.498840
  0
VERTEX
  8
OBRYS
 10
-785.883118
 20
586.319092
  0
VERTEX
  8
OBRYS
 10
-785.900330
 20
586.114624
  0
VERTEX
  8
OBRYS
 10
-785.927307
 20
585.882385
  0
VERTEX
  8
OBRYS
 10
-785.967529
 20
585.619263
  0
VERTEX
  8
OBRYS
 10
-786.025513
 20
585.321960
  0
VERTEX
  8
OBRYS
 10
-786.107056
 20
584.987366
  0
VERTEX
  8
OBRYS
 10
-786.219421
 20
584.612854
  0
VERTEX
  8
OBRYS
 10
-786.371643
 20
584.196655
  0
VERTEX
  8
OBRYS
 10
-786.574463
 20
583.738586
  0
VERTEX
  8
OBRYS
 10
-786.840454
 20
583.240662
  0
VERTEX
  8
OBRYS
 10
-787.183594
 20
582.708069
  0
VERTEX
  8
OBRYS
 10
-787.618286
 20
582.150391
  0
VERTEX
  8
OBRYS
 10
-788.158142
 20
581.582031
  0
VERTEX
  8
OBRYS
 10
-788.813965
 20
581.022949
  0
VERTEX
  8
OBRYS
 10
-789.591370
 20
580.497803
  0
VERTEX
  8
OBRYS
 10
-790.488647
 20
580.034973
  0
VERTEX
  8
OBRYS
 10
-791.494995
 20
579.663818
  0
VERTEX
  8
OBRYS
 10
-792.589844
 20
579.411438
  0
VERTEX
  8
OBRYS
 10
-793.743469
 20
579.299622
  0
VERTEX
  8
OBRYS
 10
-794.919067
 20
579.341187
  0
VERTEX
  8
OBRYS
 10
-796.075684
 20
579.538025
  0
VERTEX
  8
OBRYS
 10
-797.172852
 20
579.879395
  0
VERTEX
  8
OBRYS
 10
-798.174927
 20
580.343262
  0
VERTEX
  8
OBRYS
 10
-799.056091
 20
580.898499
  0
VERTEX
  8
OBRYS
 10
-799.802612
 20
581.509949
  0
VERTEX
  8
OBRYS
 10
-800.413208
 20
582.143311
  0
VERTEX
  8
OBRYS
 10
-800.896729
 20
582.769165
  0
VERTEX
  8
OBRYS
 10
-801.268616
 20
583.365662
  0
VERTEX
  8
OBRYS
 10
-801.547363
 20
583.918518
  0
VERTEX
  8
OBRYS
 10
-801.751282
 20
584.420105
  0
VERTEX
  8
OBRYS
 10
-801.897156
 20
584.868042
  0
VERTEX
  8
OBRYS
 10
-801.999084
 20
585.263489
  0
VERTEX
  8
OBRYS
 10
-802.068359
 20
585.609558
  0
VERTEX
  8
OBRYS
 10
-802.114014
 20
585.910645
  0
VERTEX
  8
OBRYS
 10
-802.142639
 20
586.171448
  0
VERTEX
  8
OBRYS
 10
-802.159424
 20
586.396729
  0
VERTEX
  8
OBRYS
 10
-802.167908
 20
586.590942
  0
VERTEX
  8
OBRYS
 10
-802.170837
 20
586.758118
  0
VERTEX
  8
OBRYS
 10
-802.170898
 20
586.795349
  0
SEQEND
  8
OBRYS
  0
ARC
  8
OBRYS
 10
-804.170924
 20
597.295326
 40
2.000000
 50
0.000000
 51
90.000000
  0
ARC
  8
OBRYS
 10
-783.866667
 20
597.295326
 40
2.000000
 50
90.000000
 51
180.000000
  0
ARC
  8
OBRYS
 10
-842.023376
 20
601.295326
 40
2.000000
 50
180.000000
 51
270.000000
  0
LINE
  8
OBRYS
 10
-844.023376
 20
605.295326
 11
-844.023376
 21
601.295326
  0
LINE
  8
OBRYS
 10
-842.023376
 20
599.295326
 11
-768.023376
 21
599.295326
  0
ARC
  8
OBRYS
 10
-838.523376
 20
537.295326
 40
2.000000
 50
270.000000
 51
360.000000
  0
LINE
  8
OBRYS
 10
-836.523376
 20
567.295326
 11
-836.523376
 21
537.295326
  0
LINE
  8
OBRYS
 10
-842.023376
 20
535.295326
 11
-768.023376
 21
535.295326
  0
LINE
  8
OBRYS
 10
-782.686662
 20
516.795326
 11
-768.023376
 21
516.795326
  0
LINE
  8
OBRYS
 10
-813.085284
 20
510.295326
 11
-768.023376
 21
510.295326
  0
LINE
  8
OBRYS
 10
-768.023376
 20
507.295326
 11
-808.023376
 21
507.295326
  0
LINE
  8
OBRYS
 10
-807.523376
 20
506.795326
 11
-768.023376
 21
506.795326
  0
LINE
  8
OBRYS
 10
-844.023376
 20
605.295326
 11
-844.023376
 21
602.295326
  0
LINE
  8
OBRYS
 10
-772.569152
 20
516.795326
 11
-771.237753
 21
522.295326
  0
LINE
  8
OBRYS
 10
-832.023376
 20
516.795326
 11
-816.499047
 21
516.795326
  0
LINE
  8
OBRYS
 10
-813.085284
 20
510.295326
 11
-819.387616
 21
522.295326
  0
LINE
  8
OBRYS
 10
-803.739960
 20
510.295326
 11
-814.841800
 21
522.295326
  0
ARC
  8
OBRYS
 10
-838.351803
 20
520.295326
 40
2.000000
 50
45.000000
 51
90.000000
  0
LINE
  8
OBRYS
 10
-807.523376
 20
506.795326
 11
-808.023376
 21
507.295326
  0
LINE
  8
OBRYS
 10
-808.023376
 20
510.295326
 11
-808.023376
 21
507.295326
  0
LINE
  8
OBRYS
 10
-832.023376
 20
516.795326
 11
-836.937589
 21
521.709539
  0
LINE
  8
OBRYS
 10
-844.023376
 20
605.295326
 11
-768.023376
 21
605.295326
  0
LINE
  8
OBRYS
 10
-694.023376
 20
599.295326
 11
-768.023376
 21
599.295326
  0
LINE
  8
OBRYS
 10
-768.023376
 20
510.295326
 11
-722.961467
 21
510.295326
  0
LINE
  8
OBRYS
 10
-768.023376
 20
516.795326
 11
-753.360089
 21
516.795326
  0
LINE
  8
OBRYS
 10
-768.023376
 20
506.795326
 11
-728.523376
 21
506.795326
  0
LINE
  8
OBRYS
 10
-728.023376
 20
507.295326
 11
-768.023376
 21
507.295326
  0
LINE
  8
OBRYS
 10
-694.023376
 20
535.295326
 11
-768.023376
 21
535.295326
  0
LINE
  8
OBRYS
 10
-699.523376
 20
567.295326
 11
-699.523376
 21
537.295326
  0
LINE
  8
OBRYS
 10
-768.023376
 20
522.295326
 11
-694.199199
 21
522.295326
  0
LINE
  8
OBRYS
 10
-728.523376
 20
506.795326
 11
-728.023376
 21
507.295326
  0
LINE
  8
OBRYS
 10
-728.023376
 20
510.295326
 11
-728.023376
 21
507.295326
  0
ARC
  8
OBRYS
 10
-697.694949
 20
520.295326
 40
2.000000
 50
90.000000
 51
135.000000
  0
ARC
  8
OBRYS
 10
-697.523376
 20
537.295326
 40
2.000000
 50
180.000000
 51
270.000000
  0
LINE
  8
OBRYS
 10
-692.023376
 20
605.295326
 11
-768.023376
 21
605.295326
  0
LINE
  8
OBRYS
 10
-692.023376
 20
605.295326
 11
-692.023376
 21
601.295326
  0
ARC
  8
OBRYS
 10
-694.023376
 20
601.295326
 40
2.000000
 50
270.000000
 51
360.000000
  0
ARC
  8
OBRYS
 10
-694.023376
 20
533.295326
 40
2.000000
 50
0.000000
 51
90.000000
  0
LINE
  8
OBRYS
 10
-692.023376
 20
529.295326
 11
-692.023376
 21
533.295326
  0
LINE
  8
OBRYS
 10
-692.023376
 20
529.295326
 11
-692.200417
 21
524.225527
  0
ARC
  8
OBRYS
 10
-694.199199
 20
524.295326
 40
2.000000
 50
270.000000
 51
358.000000
  0
LINE
  8
OBRYS
 10
-696.523376
 20
576.295393
 11
-696.523376
 21
558.295259
  0
LINE
  8
OBRYS
 10
-696.523376
 20
558.295259
 11
-697.523239
 21
558.295327
  0
ARC
  8
OBRYS
 10
-697.523376
 20
556.295327
 40
2.000000
 50
89.996087
 51
180.000000
  0
LINE
  8
OBRYS
 10
-696.523376
 20
576.295393
 11
-697.523239
 21
576.295325
  0
ARC
  8
OBRYS
 10
-697.523376
 20
578.295325
 40
2.000000
 50
180.000000
 51
270.003913
  0
LINE
  8
OBRYS
 10
-763.477599
 20
516.795326
 11
-764.808999
 21
522.295326
  0
LINE
  8
OBRYS
 10
-704.023376
 20
516.795326
 11
-719.547704
 21
516.795326
  0
LINE
  8
OBRYS
 10
-732.306792
 20
510.295326
 11
-721.204951
 21
522.295326
  0
ARC
  8
OBRYS
 10
-697.694949
 20
520.295326
 40
2.000000
 50
90.000000
 51
135.000000
  0
LINE
  8
OBRYS
 10
-704.023376
 20
516.795326
 11
-699.109162
 21
521.709539
  0
LINE
  8
OBRYS
 10
-722.961467
 20
510.295326
 11
-716.659136
 21
522.295326
  0
ARC
  8
OBRYS
 10
-752.180084
 20
597.295326
 40
2.000000
 50
0.000000
 51
90.000000
  0
ARC
  8
OBRYS
 10
-731.875827
 20
597.295326
 40
2.000000
 50
90.000000
 51
180.000000
  0
POLYLINE
  8
OBRYS
 66
    1
  0
VERTEX
  8
OBRYS
 10
-750.180054
 20
586.795349
  0
VERTEX
  8
OBRYS
 10
-750.178650
 20
586.656738
  0
VERTEX
  8
OBRYS
 10
-750.173706
 20
586.498840
  0
VERTEX
  8
OBRYS
 10
-750.163635
 20
586.319092
  0
VERTEX
  8
OBRYS
 10
-750.146423
 20
586.114624
  0
VERTEX
  8
OBRYS
 10
-750.119446
 20
585.882385
  0
VERTEX
  8
OBRYS
 10
-750.079224
 20
585.619263
  0
VERTEX
  8
OBRYS
 10
-750.021179
 20
585.321960
  0
VERTEX
  8
OBRYS
 10
-749.939636
 20
584.987366
  0
VERTEX
  8
OBRYS
 10
-749.827271
 20
584.612854
  0
VERTEX
  8
OBRYS
 10
-749.675110
 20
584.196655
  0
VERTEX
  8
OBRYS
 10
-749.472290
 20
583.738586
  0
VERTEX
  8
OBRYS
 10
-749.206238
 20
583.240662
  0
VERTEX
  8
OBRYS
 10
-748.863159
 20
582.708069
  0
VERTEX
  8
OBRYS
 10
-748.428467
 20
582.150391
  0
VERTEX
  8
OBRYS
 10
-747.888611
 20
581.582031
  0
VERTEX
  8
OBRYS
 10
-747.232788
 20
581.022949
  0
VERTEX
  8
OBRYS
 10
-746.455383
 20
580.497803
  0
VERTEX
  8
OBRYS
 10
-745.558105
 20
580.034973
  0
VERTEX
  8
OBRYS
 10
-744.551758
 20
579.663818
  0
VERTEX
  8
OBRYS
 10
-743.456909
 20
579.411438
  0
VERTEX
  8
OBRYS
 10
-742.303223
 20
579.299622
  0
VERTEX
  8
OBRYS
 10
-741.127686
 20
579.341187
  0
VERTEX
  8
OBRYS
 10
-739.971008
 20
579.538025
  0
VERTEX
  8
OBRYS
 10
-738.873901
 20
579.879395
  0
VERTEX
  8
OBRYS
 10
-737.871765
 20
580.343262
  0
VERTEX
  8
OBRYS
 10
-736.990601
 20
580.898499
  0
VERTEX
  8
OBRYS
 10
-736.244080
 20
581.509949
  0
VERTEX
  8
OBRYS
 10
-735.633484
 20
582.143311
  0
VERTEX
  8
OBRYS
 10
-735.150024
 20
582.769165
  0
VERTEX
  8
OBRYS
 10
-734.778076
 20
583.365662
  0
VERTEX
  8
OBRYS
 10
-734.499390
 20
583.918518
  0
VERTEX
  8
OBRYS
 10
-734.295410
 20
584.420105
  0
VERTEX
  8
OBRYS
 10
-734.149536
 20
584.868042
  0
VERTEX
  8
OBRYS
 10
-734.047668
 20
585.263489
  0
VERTEX
  8
OBRYS
 10
-733.978333
 20
585.609558
  0
VERTEX
  8
OBRYS
 10
-733.932739
 20
585.910645
  0
VERTEX
  8
OBRYS
 10
-733.904053
 20
586.171448
  0
VERTEX
  8
OBRYS
 10
-733.887329
 20
586.396729
  0
VERTEX
  8
OBRYS
 10
-733.878845
 20
586.590942
  0
VERTEX
  8
OBRYS
 10
-733.875916
 20
586.758118
  0
VERTEX
  8
OBRYS
 10
-733.875793
 20
586.795349
  0
SEQEND
  8
OBRYS
  0
LINE
  8
OBRYS
 10
-733.875827
 20
597.295326
 11
-733.875827
 21
586.795326
  0
LINE
  8
OBRYS
 10
-750.180084
 20
597.295326
 11
-750.180084
 21
586.795326
  0
POLYLINE
  8
0
 62
     2
 66
    1
  0
VERTEX
  8
0
 62
     2
 10
-698.651672
 20
583.521057
  0
VERTEX
  8
0
 62
     2
 10
-699.017761
 20
583.009705
  0
VERTEX
  8
0
 62
     2
 10
-699.414978
 20
582.694824
  0
SEQEND
  8
0
  0
LINE
  8
0
 62
     2
 10
-697.672913
 20
585.642721
 11
-698.651664
 21
583.521049
  0
LINE
  8
0
 62
     2
 10
-699.414977
 20
582.694845
 11
-701.574319
 21
580.974394
  0
POLYLINE
  8
0
 62
     2
 66
    1
  0
VERTEX
  8
0
 62
     2
 10
-704.593933
 20
579.469116
  0
VERTEX
  8
0
 62
     2
 10
-705.252563
 20
579.299622
  0
VERTEX
  8
0
 62
     2
 10
-705.911255
 20
579.469116
  0
VERTEX
  8
0
 62
     2
 10
-706.544556
 20
579.971130
  0
VERTEX
  8
0
 62
     2
 10
-707.128235
 20
580.786438
  0
VERTEX
  8
0
 62
     2
 10
-707.639832
 20
581.883545
  0
VERTEX
  8
0
 62
     2
 10
-708.059753
 20
583.220459
  0
VERTEX
  8
0
 62
     2
 10
-708.371704
 20
584.745667
  0
VERTEX
  8
0
 62
     2
 10
-708.563843
 20
586.400696
  0
VERTEX
  8
0
 62
     2
 10
-708.628723
 20
588.121826
  0
SEQEND
  8
0
  0
LINE
  8
0
 62
     2
 10
-701.574319
 20
580.974394
 11
-704.593976
 21
579.469120
  0
LINE
  8
OBRYS
 10
-708.628729
 20
588.121798
 11
-708.628729
 21
599.295326
  0
POLYLINE
  8
0
 62
     2
 66
    1
  0
VERTEX
  8
0
 62
     2
 10
-697.165833
 20
588.121826
  0
VERTEX
  8
0
 62
     2
 10
-697.187744
 20
587.540100
  0
VERTEX
  8
0
 62
     2
 10
-697.252686
 20
586.980835
  0
VERTEX
  8
0
 62
     2
 10
-697.358093
 20
586.465332
  0
VERTEX
  8
0
 62
     2
 10
-697.500000
 20
586.013550
  0
VERTEX
  8
0
 62
     2
 10
-697.672913
 20
585.642700
  0
SEQEND
  8
0
  0
LINE
  8
OBRYS
 10
-699.523376
 20
582.694845
 11
-699.523376
 21
567.295326
  0
LINE
  8
OBRYS
 10
-697.165821
 20
588.121798
 11
-697.165821
 21
597.295326
  0
ARC
  8
OBRYS
 10
-695.165821
 20
597.295326
 40
2.000000
 50
90.000000
 51
180.000000
  0
LINE
  8
OSA
 10
-882.086462
 20
567.295326
 11
-692.395730
 21
567.295326
  0
INSERT
  8
OSA
  2
M10x1__52
  6
CONTINUOUS
 10
-696.523376
 20
567.295326
  0
LINE
  8
OBRYS
 10
-768.023376
 20
522.295326
 11
-841.847553
 21
522.295326
  0
LINE
  8
OSA
 10
-768.023376
 20
630.521215
 11
-768.023376
 21
494.106617
  0
LINE
  8
OBRYS
 10
-687.023376
 20
602.295326
 11
-687.023376
 21
532.295326
  0
LINE
  8
OSA
 62
     2
  6
CONTINUOUS
 10
-692.023376
 20
602.295326
 11
-687.023376
 21
602.295326
  0
LINE
  8
OSA
 62
     2
  6
CONTINUOUS
 10
-687.023376
 20
532.295326
 11
-692.023376
 21
532.295326
  0
LINE
  8
OSA
 62
     2
  6
CONTINUOUS
 10
-693.523376
 20
570.295326
 11
-687.023376
 21
570.295326
  0
LINE
  8
OSA
 62
     2
  6
CONTINUOUS
 10
-693.523376
 20
564.295326
 11
-687.023376
 21
564.295326
  0
LINE
  8
OBRYS
 10
-854.023376
 20
602.295326
 11
-854.023376
 21
532.295326
  0
LINE
  8
OSA
 62
     2
  6
CONTINUOUS
 10
-854.023376
 20
602.295326
 11
-844.023376
 21
602.295326
  0
LINE
  8
OSA
 62
     2
  6
CONTINUOUS
 10
-844.023376
 20
532.295326
 11
-854.023376
 21
532.295326
  0
LINE
  8
OSA
 62
     2
  6
CONTINUOUS
 10
-836.523376
 20
564.295326
 11
-854.023376
 21
564.295326
  0
LINE
  8
OSA
 62
     2
  6
CONTINUOUS
 10
-836.523376
 20
570.295326
 11
-854.023376
 21
570.295326
  0
ENDBLK
  8
OSA
  0
BLOCK
  8
OSA
  2
M10x1__52
 70
   66
 10
-696.523376
 20
567.295326
  0
LINE
  8
OSA
 10
-705.852278
 20
567.295326
 11
-692.078028
 21
567.295326
  0
LINE
  8
OSA
 62
     2
  6
CONTINUOUS
 10
-696.523376
 20
574.295326
 11
-696.523376
 21
560.295326
  0
LINE
  8
OSA
 62
     2
  6
CONTINUOUS
 10
-696.523376
 20
560.295326
 11
-694.523376
 21
560.295326
  0
LINE
  8
OSA
 62
     2
  6
CONTINUOUS
 10
-696.523376
 20
574.295326
 11
-694.523376
 21
574.295326
  0
ARC
  8
OSA
 62
     2
  6
CONTINUOUS
 10
-694.523376
 20
561.295326
 40
1.000000
 50
270.000000
 51
360.000000
  0
LINE
  8
OSA
 62
     2
  6
CONTINUOUS
 10
-693.523376
 20
573.295326
 11
-693.523376
 21
561.295326
  0
ARC
  8
OSA
 62
     2
  6
CONTINUOUS
 10
-694.523376
 20
573.295326
 40
1.000000
 50
0.000000
 51
90.000000
  0
ENDBLK
  8
OSA
  0
BLOCK
  8
OSA
  2
_17
 70
   64
 10
-768.023376
 20
605.295326
  0
LINE
  8
OBRYS
 10
-704.023376
 20
617.795326
 11
-703.523376
 21
617.295326
  0
INSERT
  8
OSA
  2
Srouby_s_valcovou_hlavou___54
  6
CONTINUOUS
 10
-705.199568
 20
12.880131
  0
INSERT
  8
OSA
  2
Srouby_s_valcovou_hlavou___55
  6
CONTINUOUS
 10
-742.000902
 20
12.880131
  0
LINE
  8
OBRYS
 10
-832.023376
 20
617.795326
 11
-832.523376
 21
617.295326
  0
INSERT
  8
OSA
  2
Srouby_s_valcovou_hlavou___56
  6
CONTINUOUS
 10
-794.045849
 20
12.880131
  0
INSERT
  8
OSA
  2
Srouby_s_valcovou_hlavou___57
  6
CONTINUOUS
 10
-830.847184
 20
12.880131
  0
LINE
  8
OBRYS
 10
-813.085284
 20
624.295326
 11
-819.387616
 21
612.295326
  0
LINE
  8
OBRYS
 10
-803.739960
 20
624.295326
 11
-814.841800
 21
612.295326
  0
LINE
  8
OBRYS
 10
-832.023376
 20
617.795326
 11
-816.499047
 21
617.795326
  0
LINE
  8
OBRYS
 10
-772.569152
 20
617.795326
 11
-771.237753
 21
612.295326
  0
ARC
  8
OBRYS
 10
-841.847553
 20
610.295326
 40
2.000000
 50
90.000000
 51
178.000000
  0
LINE
  8
OBRYS
 10
-844.023376
 20
605.295326
 11
-843.846334
 21
610.365125
  0
ARC
  8
OBRYS
 10
-838.351803
 20
614.295326
 40
2.000000
 50
270.000000
 51
315.000000
  0
LINE
  8
OBRYS
 10
-808.023376
 20
624.295326
 11
-808.023376
 21
627.295326
  0
LINE
  8
OBRYS
 10
-807.523376
 20
627.795326
 11
-808.023376
 21
627.295326
  0
LINE
  8
OBRYS
 10
-768.023376
 20
612.295326
 11
-841.847553
 21
612.295326
  0
LINE
  8
OBRYS
 10
-808.023376
 20
627.295326
 11
-768.023376
 21
627.295326
  0
LINE
  8
OBRYS
 10
-768.023376
 20
627.795326
 11
-807.523376
 21
627.795326
  0
LINE
  8
OBRYS
 10
-768.023376
 20
617.795326
 11
-782.686662
 21
617.795326
  0
LINE
  8
OBRYS
 10
-768.023376
 20
624.295326
 11
-813.085284
 21
624.295326
  0
LINE
  8
OBRYS
 10
-768.023376
 20
624.295326
 11
-722.961467
 21
624.295326
  0
LINE
  8
OBRYS
 10
-768.023376
 20
617.795326
 11
-753.360089
 21
617.795326
  0
LINE
  8
OBRYS
 10
-768.023376
 20
627.795326
 11
-728.523376
 21
627.795326
  0
LINE
  8
OBRYS
 10
-728.023376
 20
627.295326
 11
-768.023376
 21
627.295326
  0
LINE
  8
OBRYS
 10
-768.023376
 20
612.295326
 11
-694.199199
 21
612.295326
  0
LINE
  8
OBRYS
 10
-728.523376
 20
627.795326
 11
-728.023376
 21
627.295326
  0
LINE
  8
OBRYS
 10
-728.023376
 20
624.295326
 11
-728.023376
 21
627.295326
  0
LINE
  8
OBRYS
 10
-692.023376
 20
605.295326
 11
-692.200417
 21
610.365125
  0
ARC
  8
OBRYS
 10
-694.199199
 20
610.295326
 40
2.000000
 50
2.000000
 51
90.000000
  0
LINE
  8
OBRYS
 10
-763.477599
 20
617.795326
 11
-764.808999
 21
612.295326
  0
LINE
  8
OBRYS
 10
-704.023376
 20
617.795326
 11
-719.547704
 21
617.795326
  0
LINE
  8
OBRYS
 10
-732.306792
 20
624.295326
 11
-721.204951
 21
612.295326
  0
ARC
  8
OBRYS
 10
-697.694949
 20
614.295326
 40
2.000000
 50
225.000000
 51
270.000000
  0
LINE
  8
OBRYS
 10
-722.961467
 20
624.295326
 11
-716.659136
 21
612.295326
  0
LINE
  8
OBRYS
 10
-692.023376
 20
605.295326
 11
-768.023376
 21
605.295326
  0
LINE
  8
OBRYS
 10
-844.023376
 20
605.295326
 11
-768.023376
 21
605.295326
  0
LINE
  8
OSA
 10
-768.023376
 20
597.795329
 11
-768.023376
 21
635.295322
  0
ENDBLK
  8
OSA
  0
BLOCK
  8
OSA
  2
Srouby_s_valcovou_hlavou___54
 70
   66
 10
-705.199568
 20
12.880131
  0
LINE
  8
OSA
 62
     2
  6
CONTINUOUS
 10
-699.499568
 20
617.295326
 11
-710.899568
 21
617.295326
  0
LINE
  8
OSA
 62
     2
  6
CONTINUOUS
 10
-698.699568
 20
616.495326
 11
-698.699568
 21
612.295326
  0
LINE
  8
OSA
 62
     2
  6
CONTINUOUS
 10
-698.699568
 20
612.295326
 11
-711.699568
 21
612.295326
  0
LINE
  8
OSA
 62
     2
  6
CONTINUOUS
 10
-711.699568
 20
612.295326
 11
-711.699568
 21
616.495326
  0
ARC
  8
OSA
 62
     2
  6
CONTINUOUS
 10
-699.499568
 20
616.495326
 40
0.800000
 50
0.000000
 51
90.000000
  0
ARC
  8
OSA
 62
     2
  6
CONTINUOUS
 10
-710.899568
 20
616.495326
 40
0.800000
 50
90.000000
 51
180.000000
  0
LINE
  8
OSA
  6
DOT
 10
-701.735444
 20
617.295326
 11
-701.735444
 21
614.795326
  0
LINE
  8
OSA
  6
DOT
 10
-703.467506
 20
617.295326
 11
-703.467506
 21
614.795326
  0
LINE
  8
OSA
  6
DOT
 10
-706.931629
 20
617.295326
 11
-706.931629
 21
614.795326
  0
LINE
  8
OSA
  6
DOT
 10
-708.663691
 20
617.295326
 11
-708.663691
 21
614.795326
  0
ARC
  8
OSA
  6
DOT
 10
-702.601475
 20
617.795335
 40
1.000009
 50
210.000310
 51
329.999690
  0
ARC
  8
OSA
  6
DOT
 10
-705.199568
 20
620.045363
 40
3.250037
 50
237.795963
 51
302.204037
  0
ARC
  8
OSA
  6
DOT
 10
-707.797660
 20
617.795335
 40
1.000009
 50
210.000310
 51
329.999690
  0
ARC
  8
OSA
  6
DOT
 10
-702.601475
 20
615.295335
 40
1.000009
 50
210.000310
 51
329.999690
  0
ARC
  8
OSA
  6
DOT
 10
-705.199568
 20
617.545363
 40
3.250037
 50
237.795963
 51
302.204037
  0
ARC
  8
OSA
  6
DOT
 10
-707.797660
 20
615.295335
 40
1.000009
 50
210.000310
 51
329.999690
  0
LINE
  8
OSA
  6
DOT
 10
-702.601475
 20
614.295326
 11
-705.199568
 21
612.563264
  0
LINE
  8
OSA
  6
DOT
 10
-705.199568
 20
612.563264
 11
-707.797660
 21
614.295326
  0
ENDBLK
  8
OSA
  0
BLOCK
  8
OSA
  2
Srouby_s_valcovou_hlavou___55
 70
   66
 10
-742.000902
 20
12.880131
  0
LINE
  8
OSA
 62
     2
  6
CONTINUOUS
 10
-736.300902
 20
617.295326
 11
-747.700902
 21
617.295326
  0
LINE
  8
OSA
 62
     2
  6
CONTINUOUS
 10
-735.500902
 20
616.495326
 11
-735.500902
 21
612.295326
  0
LINE
  8
OSA
 62
     2
  6
CONTINUOUS
 10
-735.500902
 20
612.295326
 11
-748.500902
 21
612.295326
  0
LINE
  8
OSA
 62
     2
  6
CONTINUOUS
 10
-748.500902
 20
612.295326
 11
-748.500902
 21
616.495326
  0
ARC
  8
OSA
 62
     2
  6
CONTINUOUS
 10
-736.300902
 20
616.495326
 40
0.800000
 50
0.000000
 51
90.000000
  0
ARC
  8
OSA
 62
     2
  6
CONTINUOUS
 10
-747.700902
 20
616.495326
 40
0.800000
 50
90.000000
 51
180.000000
  0
LINE
  8
OSA
  6
DOT
 10
-738.536779
 20
617.295326
 11
-738.536779
 21
614.795326
  0
LINE
  8
OSA
  6
DOT
 10
-740.268841
 20
617.295326
 11
-740.268841
 21
614.795326
  0
LINE
  8
OSA
  6
DOT
 10
-743.732964
 20
617.295326
 11
-743.732964
 21
614.795326
  0
LINE
  8
OSA
  6
DOT
 10
-745.465026
 20
617.295326
 11
-745.465026
 21
614.795326
  0
ARC
  8
OSA
  6
DOT
 10
-739.402810
 20
617.795335
 40
1.000009
 50
210.000310
 51
329.999690
  0
ARC
  8
OSA
  6
DOT
 10
-742.000902
 20
620.045363
 40
3.250037
 50
237.795963
 51
302.204037
  0
ARC
  8
OSA
  6
DOT
 10
-744.598995
 20
617.795335
 40
1.000009
 50
210.000310
 51
329.999690
  0
ARC
  8
OSA
  6
DOT
 10
-739.402810
 20
615.295335
 40
1.000009
 50
210.000310
 51
329.999690
  0
ARC
  8
OSA
  6
DOT
 10
-742.000902
 20
617.545363
 40
3.250037
 50
237.795963
 51
302.204037
  0
ARC
  8
OSA
  6
DOT
 10
-744.598995
 20
615.295335
 40
1.000009
 50
210.000310
 51
329.999690
  0
LINE
  8
OSA
  6
DOT
 10
-739.402810
 20
614.295326
 11
-742.000902
 21
612.563264
  0
LINE
  8
OSA
  6
DOT
 10
-742.000902
 20
612.563264
 11
-744.598995
 21
614.295326
  0
ENDBLK
  8
OSA
  0
BLOCK
  8
OSA
  2
Srouby_s_valcovou_hlavou___56
 70
   66
 10
-794.045849
 20
12.880131
  0
LINE
  8
OSA
 62
     2
  6
CONTINUOUS
 10
-799.745849
 20
617.295326
 11
-788.345849
 21
617.295326
  0
LINE
  8
OSA
 62
     2
  6
CONTINUOUS
 10
-800.545849
 20
616.495326
 11
-800.545849
 21
612.295326
  0
LINE
  8
OSA
 62
     2
  6
CONTINUOUS
 10
-800.545849
 20
612.295326
 11
-787.545849
 21
612.295326
  0
LINE
  8
OSA
 62
     2
  6
CONTINUOUS
 10
-787.545849
 20
612.295326
 11
-787.545849
 21
616.495326
  0
ARC
  8
OSA
 62
     2
  6
CONTINUOUS
 10
-799.745849
 20
616.495326
 40
0.800000
 50
90.000000
 51
180.000000
  0
ARC
  8
OSA
 62
     2
  6
CONTINUOUS
 10
-788.345849
 20
616.495326
 40
0.800000
 50
0.000000
 51
90.000000
  0
LINE
  8
OSA
  6
DOT
 10
-797.509972
 20
617.295326
 11
-797.509972
 21
614.795326
  0
LINE
  8
OSA
  6
DOT
 10
-795.777911
 20
617.295326
 11
-795.777911
 21
614.795326
  0
LINE
  8
OSA
  6
DOT
 10
-792.313788
 20
617.295326
 11
-792.313788
 21
614.795326
  0
LINE
  8
OSA
  6
DOT
 10
-790.581726
 20
617.295326
 11
-790.581726
 21
614.795326
  0
ARC
  8
OSA
  6
DOT
 10
-796.643942
 20
617.795335
 40
1.000009
 50
210.000310
 51
329.999690
  0
ARC
  8
OSA
  6
DOT
 10
-794.045849
 20
620.045363
 40
3.250037
 50
237.795963
 51
302.204037
  0
ARC
  8
OSA
  6
DOT
 10
-791.447757
 20
617.795335
 40
1.000009
 50
210.000310
 51
329.999690
  0
ARC
  8
OSA
  6
DOT
 10
-796.643942
 20
615.295335
 40
1.000009
 50
210.000310
 51
329.999690
  0
ARC
  8
OSA
  6
DOT
 10
-794.045849
 20
617.545363
 40
3.250037
 50
237.795963
 51
302.204037
  0
ARC
  8
OSA
  6
DOT
 10
-791.447757
 20
615.295335
 40
1.000009
 50
210.000310
 51
329.999690
  0
LINE
  8
OSA
  6
DOT
 10
-796.643942
 20
614.295326
 11
-794.045849
 21
612.563264
  0
LINE
  8
OSA
  6
DOT
 10
-794.045849
 20
612.563264
 11
-791.447757
 21
614.295326
  0
ENDBLK
  8
OSA
  0
BLOCK
  8
OSA
  2
Srouby_s_valcovou_hlavou___57
 70
   66
 10
-830.847184
 20
12.880131
  0
LINE
  8
OSA
 62
     2
  6
CONTINUOUS
 10
-836.547184
 20
617.295326
 11
-825.147184
 21
617.295326
  0
LINE
  8
OSA
 62
     2
  6
CONTINUOUS
 10
-837.347184
 20
616.495326
 11
-837.347184
 21
612.295326
  0
LINE
  8
OSA
 62
     2
  6
CONTINUOUS
 10
-837.347184
 20
612.295326
 11
-824.347184
 21
612.295326
  0
LINE
  8
OSA
 62
     2
  6
CONTINUOUS
 10
-824.347184
 20
612.295326
 11
-824.347184
 21
616.495326
  0
ARC
  8
OSA
 62
     2
  6
CONTINUOUS
 10
-836.547184
 20
616.495326
 40
0.800000
 50
90.000000
 51
180.000000
  0
ARC
  8
OSA
 62
     2
  6
CONTINUOUS
 10
-825.147184
 20
616.495326
 40
0.800000
 50
0.000000
 51
90.000000
  0
LINE
  8
OSA
  6
DOT
 10
-834.311307
 20
617.295326
 11
-834.311307
 21
614.795326
  0
LINE
  8
OSA
  6
DOT
 10
-832.579246
 20
617.295326
 11
-832.579246
 21
614.795326
  0
LINE
  8
OSA
  6
DOT
 10
-829.115122
 20
617.295326
 11
-829.115122
 21
614.795326
  0
LINE
  8
OSA
  6
DOT
 10
-827.383061
 20
617.295326
 11
-827.383061
 21
614.795326
  0
ARC
  8
OSA
  6
DOT
 10
-833.445276
 20
617.795335
 40
1.000009
 50
210.000310
 51
329.999690
  0
ARC
  8
OSA
  6
DOT
 10
-830.847184
 20
620.045363
 40
3.250037
 50
237.795963
 51
302.204037
  0
ARC
  8
OSA
  6
DOT
 10
-828.249092
 20
617.795335
 40
1.000009
 50
210.000310
 51
329.999690
  0
ARC
  8
OSA
  6
DOT
 10
-833.445276
 20
615.295335
 40
1.000009
 50
210.000310
 51
329.999690
  0
ARC
  8
OSA
  6
DOT
 10
-830.847184
 20
617.545363
 40
3.250037
 50
237.795963
 51
302.204037
  0
ARC
  8
OSA
  6
DOT
 10
-828.249092
 20
615.295335
 40
1.000009
 50
210.000310
 51
329.999690
  0
LINE
  8
OSA
  6
DOT
 10
-833.445276
 20
614.295326
 11
-830.847184
 21
612.563264
  0
LINE
  8
OSA
  6
DOT
 10
-830.847184
 20
612.563264
 11
-828.249092
 21
614.295326
  0
ENDBLK
  8
OSA
  0
BLOCK
  8
OBRYS
  2
_18
 70
   64
 10
-768.023376
 20
57.880131
  0
LINE
  8
OBRYS
 10
-854.023376
 20
92.880131
 11
-854.023376
 21
22.880131
  0
LINE
  8
OBRYS
 10
-687.023376
 20
22.880131
 11
-854.023376
 21
22.880131
  0
LINE
  8
OBRYS
 10
-854.023376
 20
92.880131
 11
-687.023376
 21
92.880131
  0
LINE
  8
OBRYS
 10
-818.309779
 20
92.880131
 11
-818.309779
 21
22.880131
  0
POLYLINE
  8
OBRYS
 66
    1
  0
VERTEX
  8
OBRYS
 10
-826.311096
 20
92.894913
  0
VERTEX
  8
OBRYS
 10
-826.311096
 20
92.894913
  0
VERTEX
  8
OBRYS
 10
-825.611450
 20
92.149673
  0
VERTEX
  8
OBRYS
 10
-825.465027
 20
91.880127
  0
VERTEX
  8
OBRYS
 10
-820.570496
 20
84.966011
  0
VERTEX
  8
OBRYS
 10
-818.447266
 20
78.480331
  0
VERTEX
  8
OBRYS
 10
-818.862793
 20
72.161598
  0
VERTEX
  8
OBRYS
 10
-821.901428
 20
65.503021
  0
VERTEX
  8
OBRYS
 10
-825.735657
 20
60.880135
  0
VERTEX
  8
OBRYS
 10
-826.423828
 20
59.734230
  0
VERTEX
  8
OBRYS
 10
-826.666260
 20
58.507301
  0
VERTEX
  8
OBRYS
 10
-826.559265
 20
57.880135
  0
VERTEX
  8
OBRYS
 10
-826.666260
 20
57.252960
  0
VERTEX
  8
OBRYS
 10
-826.423828
 20
56.026031
  0
VERTEX
  8
OBRYS
 10
-825.735657
 20
54.880135
  0
VERTEX
  8
OBRYS
 10
-821.901428
 20
50.257248
  0
VERTEX
  8
OBRYS
 10
-818.862793
 20
43.598663
  0
VERTEX
  8
OBRYS
 10
-818.447266
 20
37.279930
  0
VERTEX
  8
OBRYS
 10
-820.570496
 20
30.794249
  0
VERTEX
  8
OBRYS
 10
-825.465027
 20
23.880133
  0
VERTEX
  8
OBRYS
 10
-825.611450
 20
23.610586
  0
VERTEX
  8
OBRYS
 10
-826.311096
 20
22.865347
  0
SEQEND
  8
OBRYS
  0
LINE
  8
OBRYS
 10
-818.309779
 20
92.880131
 11
-818.309779
 21
22.880131
  0
LINE
  8
OBRYS
 10
-717.736972
 20
92.880131
 11
-717.736972
 21
22.880131
  0
LINE
  8
OBRYS
 10
-692.023376
 20
95.880131
 11
-692.023376
 21
92.880131
  0
LINE
  8
OBRYS
 10
-844.023376
 20
95.880131
 11
-844.023376
 21
92.880131
  0
LINE
  8
OBRYS
 10
-844.023376
 20
19.880131
 11
-844.023376
 21
22.880131
  0
LINE
  8
OBRYS
 10
-692.023376
 20
19.880131
 11
-692.023376
 21
22.880131
  0
LINE
  8
OBRYS
 10
-687.023376
 20
92.880131
 11
-687.023376
 21
22.880131
  0
LINE
  8
OBRYS
 10
-710.311077
 20
60.880131
 11
-687.023376
 21
60.880131
  0
LINE
  8
OBRYS
 10
-710.311077
 20
54.880131
 11
-687.023376
 21
54.880131
  0
LINE
  8
OBRYS
 10
-717.736972
 20
92.880131
 11
-717.736972
 21
22.880131
  0
POLYLINE
  8
OBRYS
 66
    1
  0
VERTEX
  8
OBRYS
 10
-709.735596
 20
92.894913
  0
VERTEX
  8
OBRYS
 10
-709.735596
 20
92.894913
  0
VERTEX
  8
OBRYS
 10
-710.435242
 20
92.149673
  0
VERTEX
  8
OBRYS
 10
-710.581665
 20
91.880127
  0
VERTEX
  8
OBRYS
 10
-715.476257
 20
84.966011
  0
VERTEX
  8
OBRYS
 10
-717.599426
 20
78.480331
  0
VERTEX
  8
OBRYS
 10
-717.183960
 20
72.161598
  0
VERTEX
  8
OBRYS
 10
-714.145325
 20
65.503021
  0
VERTEX
  8
OBRYS
 10
-710.311035
 20
60.880135
  0
VERTEX
  8
OBRYS
 10
-709.622864
 20
59.734230
  0
VERTEX
  8
OBRYS
 10
-709.380493
 20
58.507301
  0
VERTEX
  8
OBRYS
 10
-709.487488
 20
57.880135
  0
VERTEX
  8
OBRYS
 10
-709.380493
 20
57.252960
  0
VERTEX
  8
OBRYS
 10
-709.622864
 20
56.026031
  0
VERTEX
  8
OBRYS
 10
-710.311035
 20
54.880135
  0
VERTEX
  8
OBRYS
 10
-714.145325
 20
50.257248
  0
VERTEX
  8
OBRYS
 10
-717.183960
 20
43.598663
  0
VERTEX
  8
OBRYS
 10
-717.599426
 20
37.279930
  0
VERTEX
  8
OBRYS
 10
-715.476257
 20
30.794249
  0
VERTEX
  8
OBRYS
 10
-710.581665
 20
23.880133
  0
VERTEX
  8
OBRYS
 10
-710.435242
 20
23.610586
  0
VERTEX
  8
OBRYS
 10
-709.735596
 20
22.865347
  0
SEQEND
  8
OBRYS
  0
ARC
  8
OBRYS
 10
-841.847553
 20
100.880131
 40
2.000000
 50
90.000000
 51
178.000000
  0
LINE
  8
OBRYS
 10
-844.023376
 20
95.880131
 11
-843.846334
 21
100.949930
  0
LINE
  8
OBRYS
 10
-782.686662
 20
108.380131
 11
-768.023376
 21
108.380131
  0
LINE
  8
OBRYS
 10
-813.085284
 20
114.880131
 11
-768.023376
 21
114.880131
  0
LINE
  8
OBRYS
 10
-768.023376
 20
117.880131
 11
-808.023376
 21
117.880131
  0
LINE
  8
OBRYS
 10
-807.523376
 20
118.380131
 11
-768.023376
 21
118.380131
  0
LINE
  8
OBRYS
 10
-844.023376
 20
19.880131
 11
-844.023376
 21
22.880131
  0
LINE
  8
OBRYS
 10
-772.569152
 20
108.380131
 11
-771.237753
 21
102.880131
  0
LINE
  8
OBRYS
 10
-832.023376
 20
108.380131
 11
-816.499047
 21
108.380131
  0
LINE
  8
OBRYS
 10
-813.085284
 20
114.880131
 11
-819.387616
 21
102.880131
  0
LINE
  8
OBRYS
 10
-803.739960
 20
114.880131
 11
-814.841800
 21
102.880131
  0
ARC
  8
OBRYS
 10
-838.351803
 20
104.880131
 40
2.000000
 50
270.000000
 51
315.000000
  0
LINE
  8
OBRYS
 10
-807.523376
 20
118.380131
 11
-808.023376
 21
117.880131
  0
LINE
  8
OBRYS
 10
-808.023376
 20
114.880131
 11
-808.023376
 21
117.880131
  0
LINE
  8
OBRYS
 10
-832.023376
 20
108.380131
 11
-836.937589
 21
103.465918
  0
LINE
  8
OBRYS
 10
-844.023376
 20
19.880131
 11
-768.023376
 21
19.880131
  0
LINE
  8
OBRYS
 10
-768.023376
 20
114.880131
 11
-722.961467
 21
114.880131
  0
LINE
  8
OBRYS
 10
-768.023376
 20
108.380131
 11
-753.360089
 21
108.380131
  0
LINE
  8
OBRYS
 10
-768.023376
 20
118.380131
 11
-728.523376
 21
118.380131
  0
LINE
  8
OBRYS
 10
-728.023376
 20
117.880131
 11
-768.023376
 21
117.880131
  0
LINE
  8
OBRYS
 10
-768.023376
 20
102.880131
 11
-694.199199
 21
102.880131
  0
LINE
  8
OBRYS
 10
-728.523376
 20
118.380131
 11
-728.023376
 21
117.880131
  0
LINE
  8
OBRYS
 10
-728.023376
 20
114.880131
 11
-728.023376
 21
117.880131
  0
ARC
  8
OBRYS
 10
-697.694949
 20
104.880131
 40
2.000000
 50
225.000000
 51
270.000000
  0
LINE
  8
OBRYS
 10
-692.023376
 20
19.880131
 11
-768.023376
 21
19.880131
  0
LINE
  8
OBRYS
 10
-692.023376
 20
95.880131
 11
-692.200417
 21
100.949930
  0
ARC
  8
OBRYS
 10
-694.199199
 20
100.880131
 40
2.000000
 50
2.000000
 51
90.000000
  0
LINE
  8
OBRYS
 10
-763.477599
 20
108.380131
 11
-764.808999
 21
102.880131
  0
LINE
  8
OBRYS
 10
-704.023376
 20
108.380131
 11
-719.547704
 21
108.380131
  0
LINE
  8
OBRYS
 10
-732.306792
 20
114.880131
 11
-721.204951
 21
102.880131
  0
ARC
  8
OBRYS
 10
-697.694949
 20
104.880131
 40
2.000000
 50
225.000000
 51
270.000000
  0
LINE
  8
OBRYS
 10
-704.023376
 20
108.380131
 11
-699.109162
 21
103.465918
  0
LINE
  8
OBRYS
 10
-722.961467
 20
114.880131
 11
-716.659136
 21
102.880131
  0
LINE
  8
OBRYS
 62
     7
  6
DASHDOT
 10
-882.086462
 20
57.880131
 11
-692.395730
 21
57.880131
  0
LINE
  8
OBRYS
 10
-768.023376
 20
102.880131
 11
-841.847553
 21
102.880131
  0
LINE
  8
OBRYS
 62
     7
  6
DASHDOT
 10
-768.023376
 20
-5.345758
 11
-768.023376
 21
131.068840
  0
LINE
  8
OBRYS
 10
-825.735681
 20
54.880131
 11
-854.023376
 21
54.880131
  0
LINE
  8
OBRYS
 10
-825.735681
 20
60.880131
 11
-854.023376
 21
60.880131
  0
ENDBLK
  8
OBRYS
  0
BLOCK
  8
OSA
  2
Sroub_M10x16_19
 70
   66
 10
-768.023376
 20
567.295326
  0
LINE
  8
OSA
 62
     2
  6
CONTINUOUS
 10
-765.713960
 20
571.295326
 11
-770.332791
 21
571.295326
  0
LINE
  8
OSA
 62
     2
  6
CONTINUOUS
 10
-770.332791
 20
571.295326
 11
-772.642207
 21
567.295326
  0
LINE
  8
OSA
 62
     2
  6
CONTINUOUS
 10
-772.642207
 20
567.295326
 11
-770.332791
 21
563.295326
  0
LINE
  8
OSA
 62
     2
  6
CONTINUOUS
 10
-770.332791
 20
563.295326
 11
-765.713960
 21
563.295326
  0
LINE
  8
OSA
 62
     2
  6
CONTINUOUS
 10
-765.713960
 20
563.295326
 11
-763.404545
 21
567.295326
  0
LINE
  8
OSA
 62
     2
  6
CONTINUOUS
 10
-763.404545
 20
567.295326
 11
-765.713960
 21
571.295326
  0
CIRCLE
  8
OSA
 62
     2
  6
CONTINUOUS
 10
-768.023376
 20
567.295326
 40
4.618831
  0
CIRCLE
  8
OSA
 62
     2
  6
CONTINUOUS
 10
-768.023376
 20
567.295326
 40
8.000000
  0
ENDBLK
  8
OSA
  0
BLOCK
  8
OSA
  2
Sroub_M10x16_20
 70
   66
 10
-1022.730973
 20
312.587729
  0
LINE
  8
OSA
 62
     2
  6
CONTINUOUS
 10
-1020.421558
 20
316.587729
 11
-1025.040389
 21
316.587729
  0
LINE
  8
OSA
 62
     2
  6
CONTINUOUS
 10
-1025.040389
 20
316.587729
 11
-1027.349804
 21
312.587729
  0
LINE
  8
OSA
 62
     2
  6
CONTINUOUS
 10
-1027.349804
 20
312.587729
 11
-1025.040389
 21
308.587729
  0
LINE
  8
OSA
 62
     2
  6
CONTINUOUS
 10
-1025.040389
 20
308.587729
 11
-1020.421558
 21
308.587729
  0
LINE
  8
OSA
 62
     2
  6
CONTINUOUS
 10
-1020.421558
 20
308.587729
 11
-1018.112142
 21
312.587729
  0
LINE
  8
OSA
 62
     2
  6
CONTINUOUS
 10
-1018.112142
 20
312.587729
 11
-1020.421558
 21
316.587729
  0
CIRCLE
  8
OSA
 62
     2
  6
CONTINUOUS
 10
-1022.730973
 20
312.587729
 40
4.618831
  0
CIRCLE
  8
OSA
 62
     2
  6
CONTINUOUS
 10
-1022.730973
 20
312.587729
 40
8.000000
  0
ENDBLK
  8
OSA
  0
BLOCK
  8
OSA
  2
_21
 70
   64
 10
672.240453
 20
307.575956
  0
LINE
  8
OSA
 10
664.740456
 20
307.575956
 11
702.240449
 21
307.575956
  0
ARC
  8
OSA
 62
     2
  6
CONTINUOUS
 10
681.240453
 20
237.247528
 40
2.000000
 50
135.000000
 51
180.000000
  0
ARC
  8
OSA
 62
     2
  6
CONTINUOUS
 10
677.240453
 20
233.751778
 40
2.000000
 50
272.000000
 51
360.000000
  0
LINE
  8
OSA
 62
     2
  6
CONTINUOUS
 10
672.240453
 20
231.575956
 11
677.310252
 21
231.752997
  0
LINE
  8
OSA
  6
DOT
 10
681.240453
 20
242.154055
 11
679.508391
 21
244.752147
  0
LINE
  8
OSA
  6
DOT
 10
679.508391
 20
244.752147
 11
681.240453
 21
247.350240
  0
ARC
  8
OSA
  6
DOT
 10
682.240462
 20
247.350240
 40
1.000009
 50
120.000310
 51
239.999690
  0
ARC
  8
OSA
  6
DOT
 10
684.490490
 20
244.752147
 40
3.250037
 50
147.795963
 51
212.204037
  0
ARC
  8
OSA
  6
DOT
 10
682.240462
 20
242.154055
 40
1.000009
 50
120.000310
 51
239.999690
  0
ARC
  8
OSA
  6
DOT
 10
684.740462
 20
247.350240
 40
1.000009
 50
120.000310
 51
239.999690
  0
ARC
  8
OSA
  6
DOT
 10
686.990490
 20
244.752147
 40
3.250037
 50
147.795963
 51
212.204037
  0
ARC
  8
OSA
  6
DOT
 10
684.740462
 20
242.154055
 40
1.000009
 50
120.000310
 51
239.999690
  0
LINE
  8
OSA
  6
DOT
 10
684.240453
 20
248.216271
 11
681.740453
 21
248.216271
  0
LINE
  8
OSA
  6
DOT
 10
684.240453
 20
246.484209
 11
681.740453
 21
246.484209
  0
LINE
  8
OSA
  6
DOT
 10
684.240453
 20
243.020086
 11
681.740453
 21
243.020086
  0
LINE
  8
OSA
  6
DOT
 10
684.240453
 20
241.288024
 11
681.740453
 21
241.288024
  0
ARC
  8
OSA
 62
     2
  6
CONTINUOUS
 10
683.440453
 20
239.052147
 40
0.800000
 50
270.000000
 51
360.000000
  0
LINE
  8
OSA
 62
     2
  6
CONTINUOUS
 10
684.740453
 20
243.575956
 11
684.240453
 21
243.075956
  0
LINE
  8
OSA
 62
     2
  6
CONTINUOUS
 10
691.240453
 20
352.637864
 11
689.272848
 21
353.671239
  0
LINE
  8
OSA
 62
     2
  6
CONTINUOUS
 10
672.240453
 20
231.575956
 11
672.240453
 21
241.177092
  0
LINE
  8
OSA
 62
     2
  6
CONTINUOUS
 10
679.240453
 20
245.432173
 11
679.240453
 21
233.751778
  0
LINE
  8
OSA
 62
     2
  6
CONTINUOUS
 10
684.740453
 20
243.575956
 11
684.740453
 21
249.529602
  0
LINE
  8
OSA
 62
     2
  6
CONTINUOUS
 10
684.240453
 20
239.052147
 11
684.240453
 21
249.125976
  0
LINE
  8
OSA
 62
     2
  6
CONTINUOUS
 10
683.440453
 20
238.252147
 11
679.240453
 21
238.252147
  0
LINE
  8
OSA
 62
     2
  6
CONTINUOUS
 10
679.240453
 20
238.252147
 11
679.240453
 21
245.432173
  0
ENDBLK
  8
OSA
  0
BLOCK
  8
OSA
  2
_22
 70
   64
 10
634.240453
 20
307.575956
  0
LINE
  8
OSA
 10
603.240456
 20
377.575956
 11
665.240449
 21
377.575956
  0
LINE
  8
OSA
 10
697.466342
 20
307.575956
 11
561.051744
 21
307.575956
  0
LINE
  8
OSA
 10
634.240453
 20
421.639042
 11
634.240453
 21
231.948310
  0
ARC
  8
OSA
 62
     2
  6
CONTINUOUS
 10
664.240453
 20
234.718401
 40
2.000000
 50
0.000000
 51
90.000000
  0
LINE
  8
OSA
 62
     2
  6
CONTINUOUS
 10
583.740453
 20
243.575956
 11
588.654666
 21
238.661742
  0
ARC
  8
OSA
 62
     2
  6
CONTINUOUS
 10
587.240453
 20
237.247528
 40
2.000000
 50
0.000000
 51
45.000000
  0
ARC
  8
OSA
 62
     2
  6
CONTINUOUS
 10
591.240453
 20
233.751778
 40
2.000000
 50
180.000000
 51
268.000000
  0
LINE
  8
OSA
 62
     2
  6
CONTINUOUS
 10
596.240453
 20
231.575956
 11
591.170654
 21
231.752997
  0
LINE
  8
OSA
 62
     2
  6
CONTINUOUS
 10
596.240453
 20
231.575956
 11
600.240453
 21
231.575956
  0
ARC
  8
OSA
 62
     2
  6
CONTINUOUS
 10
600.240453
 20
233.575956
 40
2.000000
 50
270.000000
 51
360.000000
  0
ARC
  8
OSA
 62
     2
  6
CONTINUOUS
 10
668.240453
 20
233.575956
 40
2.000000
 50
180.000000
 51
270.000000
  0
LINE
  8
OSA
 62
     2
  6
CONTINUOUS
 10
672.240453
 20
231.575956
 11
668.240453
 21
231.575956
  0
ARC
  8
OSA
 62
     2
  6
CONTINUOUS
 10
587.240453
 20
237.247528
 40
2.000000
 50
0.000000
 51
45.000000
  0
LINE
  8
OSA
 62
     2
  6
CONTINUOUS
 10
602.240453
 20
233.575956
 11
602.240453
 21
238.254744
  0
LINE
  8
OSA
 62
     2
  6
CONTINUOUS
 10
589.240453
 20
245.432173
 11
589.240453
 21
233.751778
  0
LINE
  8
OSA
 62
     2
  6
CONTINUOUS
 10
583.740453
 20
243.575956
 11
583.740453
 21
249.529602
  0
LINE
  8
OSA
 62
     2
  6
CONTINUOUS
 10
662.460064
 20
236.718401
 11
664.240453
 21
236.718401
  0
LINE
  8
OSA
 62
     2
  6
CONTINUOUS
 10
666.240453
 20
233.575956
 11
666.240453
 21
238.254744
  0
LINE
  8
OSA
 62
     2
  6
CONTINUOUS
 10
672.240453
 20
231.575956
 11
672.240453
 21
241.177092
  0
ENDBLK
  8
OSA
  0
BLOCK
  8
OBRYS
  2
_23
 70
   64
 10
634.240453
 20
377.575956
  0
ARC
  8
OBRYS
 10
634.240453
 20
311.575956
 40
92.000000
 50
45.920846
 51
134.079154
  0
ARC
  8
OBRYS
 10
634.240453
 20
311.575956
 40
52.000000
 50
44.999997
 51
135.000047
  0
ARC
  8
OBRYS
 10
634.240453
 20
311.575956
 40
32.000000
 50
44.999996
 51
135.000004
  0
ARC
  8
OBRYS
 10
604.541968
 20
341.274440
 40
10.000000
 50
135.000000
 51
315.000000
  0
ARC
  8
OBRYS
 10
663.938937
 20
341.274440
 40
10.000000
 50
225.000000
 51
45.000000
  0
CIRCLE
  8
OBRYS
 10
689.640453
 20
407.575956
 40
5.500000
  0
CIRCLE
  8
OBRYS
 10
634.240453
 20
440.575956
 40
5.500000
  0
CIRCLE
  8
OBRYS
 10
578.840453
 20
407.575956
 40
5.500000
  0
CIRCLE
  8
OBRYS
 10
634.240453
 20
277.575956
 40
5.500000
  0
CIRCLE
  8
OBRYS
 10
578.840453
 20
347.575956
 40
5.500000
  0
CIRCLE
  8
OBRYS
 10
689.640453
 20
347.575956
 40
5.500000
  0
ARC
  8
OBRYS
 10
634.240453
 20
311.575956
 40
74.000000
 50
333.573390
 51
17.140998
  0
ARC
  8
OBRYS
 10
634.240453
 20
311.575956
 40
61.000000
 50
333.573390
 51
17.140998
  0
ARC
  8
OBRYS
 10
698.742262
 20
331.469837
 40
6.500000
 50
17.141009
 51
197.141009
  0
ARC
  8
OBRYS
 10
569.738643
 20
331.469837
 40
6.500000
 50
342.858991
 51
162.858991
  0
ARC
  8
OBRYS
 10
634.240453
 20
311.575956
 40
61.000000
 50
162.858989
 51
206.426677
  0
ARC
  8
OBRYS
 10
634.240453
 20
311.575956
 40
74.000000
 50
162.858989
 51
206.426680
  0
ARC
  8
OBRYS
 10
634.240453
 20
311.575956
 40
61.000000
 50
63.573333
 51
116.426645
  0
ARC
  8
OBRYS
 10
634.240453
 20
311.575956
 40
74.000000
 50
63.573335
 51
116.426619
  0
ARC
  8
OBRYS
 10
634.240453
 20
311.575956
 40
61.000000
 50
243.573355
 51
296.426659
  0
ARC
  8
OBRYS
 10
634.240453
 20
311.575956
 40
74.000000
 50
243.573377
 51
296.426631
  0
ARC
  8
OBRYS
 10
664.281441
 20
372.022535
 40
6.500000
 50
243.573499
 51
63.573499
  0
ARC
  8
OBRYS
 10
604.199464
 20
372.022535
 40
6.500000
 50
116.426501
 51
296.426501
  0
ARC
  8
OBRYS
 10
604.199464
 20
251.129376
 40
6.500000
 50
63.573499
 51
243.573499
  0
ARC
  8
OBRYS
 10
573.793873
 20
281.534967
 40
6.500000
 50
206.427008
 51
26.427008
  0
ARC
  8
OBRYS
 10
694.687032
 20
281.534967
 40
6.500000
 50
153.572992
 51
333.572992
  0
ARC
  8
OBRYS
 10
664.281441
 20
251.129376
 40
6.500000
 50
296.426501
 51
116.426501
  0
CIRCLE
  8
OBRYS
 10
634.240453
 20
311.575956
 40
55.000000
  0
CIRCLE
  8
OBRYS
 10
634.240453
 20
311.575956
 40
80.000000
  0
ARC
  8
OBRYS
 10
634.240453
 20
377.575956
 40
64.000000
 50
345.942370
 51
19.389830
  0
ARC
  8
OBRYS
 10
634.240453
 20
377.575956
 40
64.000000
 50
160.610170
 51
194.057630
  0
INSERT
  8
OBRYS
  2
Vnitrni_metricky_zavit_M8__59
 62
     7
 10
680.202393
 20
357.537896
  0
INSERT
  8
OBRYS
  2
Vnitrni_metricky_zavit_M8__60
 62
     7
 10
588.278512
 20
357.537896
  0
LINE
  8
OSA
 10
595.879910
 20
349.936498
 11
580.677114
 21
365.139294
  0
LINE
  8
OSA
 10
672.600996
 20
349.936498
 11
687.803791
 21
365.139294
  0
CIRCLE
  8
OBRYS
 10
680.202393
 20
265.614015
 40
4.500000
  0
LINE
  8
OSA
 10
672.600996
 20
273.215413
 11
687.803791
 21
258.012617
  0
LINE
  8
OSA
 10
595.879910
 20
273.215413
 11
580.677114
 21
258.012617
  0
CIRCLE
  8
OBRYS
 10
588.278512
 20
265.614015
 40
4.500000
  0
CIRCLE
  8
OSA
 10
634.240453
 20
311.575956
 40
65.000000
  0
CIRCLE
  8
OBRYS
 10
609.240453
 20
288.575956
 40
3.000000
  0
LINE
  8
OSA
 10
609.240453
 20
288.575956
 11
617.240453
 21
288.575956
  0
LINE
  8
OSA
 10
609.240453
 20
288.575956
 11
609.240453
 21
296.575956
  0
LINE
  8
OSA
 10
609.240453
 20
288.575956
 11
609.240453
 21
280.575956
  0
LINE
  8
OSA
 10
609.240453
 20
288.575956
 11
599.097886
 21
288.575956
  0
CIRCLE
  8
OBRYS
 10
634.240453
 20
277.575956
 40
3.200000
  0
LINE
  8
OSA
 10
634.240453
 20
277.575956
 11
642.240453
 21
277.575956
  0
LINE
  8
OSA
 10
634.240453
 20
277.575956
 11
626.240453
 21
277.575956
  0
CIRCLE
  8
OBRYS
 10
689.640453
 20
407.575956
 40
3.200000
  0
CIRCLE
  8
OBRYS
 10
689.640453
 20
347.575956
 40
3.200000
  0
CIRCLE
  8
OBRYS
 10
578.840453
 20
347.575956
 40
3.200000
  0
CIRCLE
  8
OBRYS
 10
578.840453
 20
407.575956
 40
3.200000
  0
CIRCLE
  8
OBRYS
 10
677.240453
 20
423.575956
 40
3.000000
  0
LINE
  8
OSA
 10
677.240453
 20
423.575956
 11
689.240453
 21
423.575956
  0
LINE
  8
OSA
 10
677.240453
 20
423.575956
 11
665.240453
 21
423.575956
  0
LINE
  8
OSA
 10
677.240453
 20
423.575956
 11
677.240453
 21
435.575956
  0
LINE
  8
OSA
 10
677.240453
 20
423.575956
 11
677.240453
 21
411.575956
  0
LINE
  8
OSA
 10
570.840453
 20
407.575956
 11
586.840453
 21
407.575956
  0
LINE
  8
OSA
 10
570.840453
 20
347.575956
 11
586.840453
 21
347.575956
  0
LINE
  8
OSA
 10
578.840453
 20
414.983991
 11
578.840453
 21
338.683745
  0
LINE
  8
OSA
 10
689.640453
 20
414.983991
 11
689.640453
 21
338.683745
  0
LINE
  8
OSA
 10
697.640453
 20
347.575956
 11
681.640453
 21
347.575956
  0
LINE
  8
OSA
 10
697.640453
 20
407.575956
 11
681.640453
 21
407.575956
  0
ARC
  8
OBRYS
 10
645.025410
 20
442.740369
 40
3.000000
 50
191.347840
 51
254.724588
  0
ARC
  8
OBRYS
 10
634.240453
 20
440.575956
 40
8.000000
 50
11.347840
 51
168.652160
  0
LINE
  8
OBRYS
 10
644.235033
 20
439.846357
 11
679.084666
 21
430.328650
  0
ARC
  8
OBRYS
 10
623.455495
 20
442.740369
 40
3.000000
 50
285.275412
 51
348.652160
  0
LINE
  8
OBRYS
 10
624.245872
 20
439.846357
 11
589.396239
 21
430.328650
  0
ARC
  8
OBRYS
 10
578.840453
 20
407.575956
 40
8.000000
 50
139.392698
 51
224.840000
  0
ARC
  8
OBRYS
 10
571.040585
 20
399.819534
 40
3.000000
 50
340.610170
 51
44.839984
  0
LINE
  8
0
 62
     2
 10
572.766946
 20
412.782923
 11
585.926134
 21
428.132052
  0
ARC
  8
OBRYS
 10
591.240453
 20
423.575956
 40
7.000000
 50
105.275412
 51
139.392700
  0
ARC
  8
OBRYS
 10
677.240453
 20
423.575956
 40
7.000000
 50
40.607300
 51
74.724588
  0
ARC
  8
OBRYS
 10
689.640453
 20
407.575956
 40
8.000000
 50
315.160016
 51
40.607302
  0
LINE
  8
0
 62
     2
 10
695.713959
 20
412.782923
 11
682.554771
 21
428.132052
  0
ARC
  8
OBRYS
 10
697.440320
 20
399.819534
 40
3.000000
 50
135.160016
 51
199.389830
  0
LINE
  8
OSA
 10
643.690452
 20
440.575956
 11
624.790453
 21
440.575956
  0
CIRCLE
  8
OBRYS
 10
634.240453
 20
440.575956
 40
3.200000
  0
LINE
  8
OSA
 10
634.240453
 20
311.575956
 11
634.240453
 21
450.873896
  0
LINE
  8
OSA
 10
563.990453
 20
377.575956
 11
704.490452
 21
377.575956
  0
CIRCLE
  8
OBRYS
 10
634.240453
 20
311.575956
 40
23.500000
  0
LINE
  8
OSA
 10
634.240453
 20
311.575956
 11
634.240453
 21
225.325956
  0
LINE
  8
OSA
 10
634.240453
 20
311.575956
 11
720.490452
 21
311.575956
  0
LINE
  8
OSA
 10
634.240453
 20
311.575956
 11
547.990453
 21
311.575956
  0
CIRCLE
  8
OBRYS
 10
634.240453
 20
311.575956
 40
12.500000
  0
LINE
  8
OBRYS
 10
631.740453
 20
320.775956
 11
636.740453
 21
320.775956
  0
LINE
  8
OBRYS
 10
636.740453
 20
318.114304
 11
636.740453
 21
320.775956
  0
LINE
  8
OBRYS
 10
631.740453
 20
318.114304
 11
631.740453
 21
320.775956
  0
ARC
  8
OBRYS
 10
634.240453
 20
311.575956
 40
7.000000
 50
110.924832
 51
69.075168
  0
ENDBLK
  8
OBRYS
  0
BLOCK
  8
OBRYS
  2
Vnitrni_metricky_zavit_M8__59
 70
   66
 10
680.202393
 20
357.537896
  0
CIRCLE
  8
OBRYS
 10
680.202393
 20
357.537896
 40
3.323500
  0
ARC
  8
OBRYS
 62
     7
 10
680.202393
 20
357.537896
 40
4.000000
 50
265.000000
 51
185.000000
  0
ENDBLK
  8
OBRYS
  0
BLOCK
  8
OBRYS
  2
Vnitrni_metricky_zavit_M8__60
 70
   66
 10
588.278512
 20
357.537896
  0
CIRCLE
  8
OBRYS
 10
588.278512
 20
357.537896
 40
3.323500
  0
ARC
  8
OBRYS
 62
     7
 10
588.278512
 20
357.537896
 40
4.000000
 50
265.000000
 51
185.000000
  0
ENDBLK
  8
OBRYS
  0
BLOCK
  8
OBRYS
  2
_24
 70
   64
 10
974.948050
 20
377.575956
  0
ARC
  8
OBRYS
 10
994.934287
 20
444.575956
 40
3.000000
 50
90.000000
 51
130.000000
  0
LINE
  8
OBRYS
 10
981.520174
 20
437.236400
 11
993.005924
 21
446.874089
  0
LINE
  8
OBRYS
 10
1017.948050
 20
447.575956
 11
994.934287
 21
447.575956
  0
ARC
  8
OBRYS
 10
987.948050
 20
429.575956
 40
10.000000
 50
130.000000
 51
180.000000
  0
LINE
  8
OSA
 10
1022.948050
 20
377.575956
 11
964.948050
 21
377.575956
  0
ARC
  8
OBRYS
 10
974.948050
 20
335.089640
 40
3.000000
 50
0.000000
 51
90.000000
  0
ARC
  8
OBRYS
 10
974.948050
 20
420.062271
 40
3.000000
 50
270.000000
 51
360.000000
  0
ARC
  8
OBRYS
 10
987.948050
 20
279.575956
 40
10.000000
 50
180.000000
 51
270.000000
  0
LINE
  8
OBRYS
 10
1017.948050
 20
269.575956
 11
987.948050
 21
269.575956
  0
LINE
  8
OBRYS
 10
1017.948050
 20
447.575956
 11
1017.948050
 21
269.575956
  0
LINE
  8
OSA
 10
1022.902310
 20
311.575956
 11
972.948050
 21
311.575956
  0
LINE
  8
OBRYS
 10
974.948050
 20
417.062271
 11
974.948050
 21
377.575956
  0
LINE
  8
OBRYS
 10
974.948050
 20
338.089640
 11
974.948050
 21
377.575956
  0
LINE
  8
OBRYS
 10
977.948050
 20
430.896464
 11
977.948050
 21
377.575956
  0
LINE
  8
OBRYS
 10
977.948050
 20
377.575956
 11
977.948050
 21
279.575956
  0
LINE
  8
OBRYS
 10
1017.948050
 20
442.575956
 11
987.263049
 21
442.575956
  0
LINE
  8
OBRYS
 10
1010.948050
 20
399.951288
 11
987.883608
 21
399.951288
  0
LINE
  8
OBRYS
 10
1010.948050
 20
355.200623
 11
987.883608
 21
355.200623
  0
LINE
  8
OBRYS
 10
1012.948050
 20
397.951288
 11
1012.948050
 21
357.200623
  0
LINE
  8
OBRYS
 10
1010.948050
 20
340.122356
 11
987.883608
 21
340.122356
  0
LINE
  8
OBRYS
 10
1012.948050
 20
338.122356
 11
1012.948050
 21
269.575956
  0
LINE
  8
OBRYS
 10
1012.948050
 20
429.762752
 11
987.883608
 21
429.762752
  0
LINE
  8
OBRYS
 10
1034.948050
 20
391.575956
 11
1034.948050
 21
234.575956
  0
LINE
  8
OBRYS
 10
1044.948050
 20
391.575956
 11
1044.948050
 21
231.575956
  0
LINE
  8
OBRYS
 10
1044.948050
 20
231.575956
 11
1037.948050
 21
231.575956
  0
ARC
  8
OBRYS
 10
1037.948050
 20
234.575956
 40
3.000000
 50
180.000000
 51
270.000000
  0
ARC
  8
OBRYS
 10
1031.948050
 20
266.575956
 40
3.000000
 50
0.000000
 51
90.000000
  0
LINE
  8
OBRYS
 10
1031.948050
 20
269.575956
 11
1017.948050
 21
269.575956
  0
LINE
  8
OBRYS
 10
1017.948050
 20
447.575956
 11
1017.948050
 21
269.575956
  0
LINE
  8
OBRYS
 10
1025.948050
 20
447.575956
 11
1017.948050
 21
447.575956
  0
ARC
  8
OBRYS
 10
1025.948050
 20
445.575956
 40
2.000000
 50
0.000000
 51
90.000000
  0
LINE
  8
OBRYS
 10
1027.948050
 20
445.575956
 11
1027.948050
 21
404.987498
  0
ARC
  8
OBRYS
 10
1030.948050
 20
404.987498
 40
3.000000
 50
180.000000
 51
210.000000
  0
LINE
  8
OBRYS
 10
1044.948050
 20
391.575956
 11
1036.959157
 21
391.575956
  0
LINE
  8
OBRYS
 10
1028.349974
 20
403.487498
 11
1034.361081
 21
393.075956
  0
ARC
  8
OBRYS
 10
1036.959157
 20
394.575956
 40
3.000000
 50
210.000000
 51
270.000000
  0
LINE
  8
OSA
 10
1051.198050
 20
311.575956
 11
1011.698050
 21
311.575956
  0
LINE
  8
OBRYS
 10
1017.948050
 20
442.575956
 11
1027.948050
 21
442.575956
  0
LINE
  8
OBRYS
 10
1017.948050
 20
429.762752
 11
1025.165834
 21
429.762752
  0
LINE
  8
OBRYS
 10
1017.948050
 20
399.951288
 11
1026.752407
 21
399.951288
  0
LINE
  8
OBRYS
 10
1017.948050
 20
355.200623
 11
1032.451442
 21
355.200623
  0
LINE
  8
OBRYS
 10
1017.948050
 20
340.122356
 11
1032.451442
 21
340.122356
  0
ENDBLK
  8
OBRYS
  0
BLOCK
  8
OBRYS
  2
_25
 70
   64
 10
293.532855
 20
562.283553
  0
LINE
  8
OSA
 10
217.282855
 20
562.283553
 11
301.107607
 21
562.283553
  0
ARC
  8
OBRYS
 10
230.532855
 20
485.283553
 40
3.000000
 50
270.000000
 51
360.000000
  0
LINE
  8
OBRYS
 10
223.532855
 20
482.283553
 11
230.532855
 21
482.283553
  0
LINE
  8
OBRYS
 10
223.532855
 20
642.283553
 11
223.532855
 21
482.283553
  0
ARC
  8
OBRYS
 10
293.532855
 20
524.283553
 40
3.000000
 50
90.000000
 51
180.000000
  0
ARC
  8
OBRYS
 10
293.532855
 20
600.283553
 40
3.000000
 50
180.000000
 51
270.000000
  0
LINE
  8
OBRYS
 10
293.532855
 20
597.283553
 11
293.532855
 21
562.283553
  0
LINE
  8
OBRYS
 10
293.532855
 20
527.283553
 11
293.532855
 21
562.283553
  0
LINE
  8
OBRYS
 10
290.532855
 20
616.283488
 11
290.532855
 21
562.283553
  0
ARC
  8
OBRYS
 10
280.532855
 20
616.283488
 40
10.000000
 50
0.000000
 51
90.000000
  0
LINE
  8
OBRYS
 10
290.532855
 20
562.283553
 11
290.532855
 21
508.283617
  0
ARC
  8
OBRYS
 10
280.532855
 20
508.283617
 40
10.000000
 50
270.000000
 51
360.000000
  0
LINE
  8
OBRYS
 10
235.532855
 20
626.283488
 11
280.532855
 21
626.283488
  0
ARC
  8
OBRYS
 10
235.532855
 20
628.283488
 40
2.000000
 50
180.000000
 51
270.000000
  0
LINE
  8
OBRYS
 10
235.532855
 20
498.283617
 11
280.532855
 21
498.283617
  0
ARC
  8
OBRYS
 10
235.532855
 20
496.283617
 40
2.000000
 50
90.000000
 51
180.000000
  0
LINE
  8
OBRYS
 10
223.532855
 20
642.283553
 11
230.532855
 21
642.283553
  0
LINE
  8
OBRYS
 10
233.532855
 20
639.283553
 11
233.532855
 21
485.283553
  0
ARC
  8
OBRYS
 10
230.532855
 20
639.283553
 40
3.000000
 50
0.000000
 51
90.000000
  0
LINE
  8
OBRYS
 10
250.532855
 20
626.283488
 11
250.532855
 21
498.283617
  0
LINE
  8
OBRYS
 10
242.532855
 20
609.199832
 11
280.597297
 21
609.199832
  0
LINE
  8
OBRYS
 10
242.532855
 20
570.281430
 11
280.597297
 21
570.281430
  0
ARC
  8
OBRYS
 10
243.532855
 20
623.283488
 40
3.000000
 50
90.000000
 51
180.000000
  0
LINE
  8
OBRYS
 10
240.532855
 20
623.283488
 11
240.532855
 21
501.283617
  0
ARC
  8
OBRYS
 10
243.532855
 20
501.283617
 40
3.000000
 50
180.000000
 51
270.000000
  0
LINE
  8
OBRYS
 10
242.532855
 20
515.367274
 11
280.597297
 21
515.367274
  0
LINE
  8
OBRYS
 10
242.532855
 20
554.285676
 11
280.597297
 21
554.285676
  0
ENDBLK
  8
OBRYS
  0
BLOCK
  8
OBRYS
  2
_26
 70
   64
 10
293.532855
 20
52.868358
  0
LINE
  8
OSA
 10
217.282855
 20
52.868358
 11
301.107607
 21
52.868358
  0
ARC
  8
OBRYS
 10
230.532855
 20
-24.131642
 40
3.000000
 50
270.000000
 51
360.000000
  0
LINE
  8
OBRYS
 10
223.532855
 20
-27.131642
 11
230.532855
 21
-27.131642
  0
LINE
  8
OBRYS
 10
223.532855
 20
132.868358
 11
223.532855
 21
-27.131642
  0
ARC
  8
OBRYS
 10
293.532855
 20
14.868358
 40
3.000000
 50
90.000000
 51
180.000000
  0
ARC
  8
OBRYS
 10
293.532855
 20
90.868358
 40
3.000000
 50
180.000000
 51
270.000000
  0
LINE
  8
OBRYS
 10
293.532855
 20
87.868358
 11
293.532855
 21
52.868358
  0
LINE
  8
OBRYS
 10
293.532855
 20
17.868358
 11
293.532855
 21
52.868358
  0
LINE
  8
OBRYS
 10
290.532855
 20
106.868294
 11
290.532855
 21
52.868358
  0
ARC
  8
OBRYS
 10
280.532855
 20
106.868294
 40
10.000000
 50
0.000000
 51
90.000000
  0
LINE
  8
OBRYS
 10
290.532855
 20
52.868358
 11
290.532855
 21
-1.131577
  0
ARC
  8
OBRYS
 10
280.532855
 20
-1.131577
 40
10.000000
 50
270.000000
 51
360.000000
  0
LINE
  8
OBRYS
 10
235.532855
 20
116.868294
 11
280.532855
 21
116.868294
  0
ARC
  8
OBRYS
 10
235.532855
 20
118.868294
 40
2.000000
 50
180.000000
 51
270.000000
  0
LINE
  8
OBRYS
 10
235.532855
 20
-11.131577
 11
280.532855
 21
-11.131577
  0
ARC
  8
OBRYS
 10
235.532855
 20
-13.131577
 40
2.000000
 50
90.000000
 51
180.000000
  0
LINE
  8
OBRYS
 10
223.532855
 20
132.868358
 11
230.532855
 21
132.868358
  0
LINE
  8
OBRYS
 10
233.532855
 20
129.868358
 11
233.532855
 21
-24.131642
  0
ARC
  8
OBRYS
 10
230.532855
 20
129.868358
 40
3.000000
 50
0.000000
 51
90.000000
  0
LINE
  8
OBRYS
 10
250.532855
 20
116.868294
 11
250.532855
 21
-11.131577
  0
LINE
  8
OBRYS
 10
280.532855
 20
107.311246
 11
233.532855
 21
107.311246
  0
LINE
  8
OBRYS
 10
256.532855
 20
105.701762
 11
256.532855
 21
-0.031895
  0
LINE
  8
OBRYS
 10
280.532855
 20
-1.574529
 11
233.532855
 21
-1.574529
  0
ENDBLK
  8
OBRYS
  0
BLOCK
  8
OBRYS
  2
_27
 70
   64
 10
293.532855
 20
377.575956
  0
ARC
  8
OBRYS
 10
273.546618
 20
444.575956
 40
3.000000
 50
50.000000
 51
90.000000
  0
LINE
  8
OBRYS
 10
286.960731
 20
437.236400
 11
275.474981
 21
446.874089
  0
LINE
  8
OBRYS
 10
250.532855
 20
447.575956
 11
273.546618
 21
447.575956
  0
ARC
  8
OBRYS
 10
280.532855
 20
429.575956
 40
10.000000
 50
0.000000
 51
50.000000
  0
LINE
  8
OSA
 10
245.532855
 20
377.575956
 11
303.532855
 21
377.575956
  0
ARC
  8
OBRYS
 10
293.532855
 20
335.089640
 40
3.000000
 50
90.000000
 51
180.000000
  0
ARC
  8
OBRYS
 10
293.532855
 20
420.062271
 40
3.000000
 50
180.000000
 51
270.000000
  0
ARC
  8
OBRYS
 10
280.532855
 20
279.575956
 40
10.000000
 50
270.000000
 51
360.000000
  0
LINE
  8
OBRYS
 10
250.532855
 20
269.575956
 11
280.532855
 21
269.575956
  0
LINE
  8
OBRYS
 10
250.532855
 20
447.575956
 11
250.532855
 21
269.575956
  0
LINE
  8
OSA
 10
245.578595
 20
311.575956
 11
295.532855
 21
311.575956
  0
LINE
  8
OBRYS
 10
293.532855
 20
417.062271
 11
293.532855
 21
377.575956
  0
LINE
  8
OBRYS
 10
293.532855
 20
338.089640
 11
293.532855
 21
377.575956
  0
LINE
  8
OBRYS
 10
290.532855
 20
430.896464
 11
290.532855
 21
377.575956
  0
LINE
  8
OBRYS
 10
290.532855
 20
377.575956
 11
290.532855
 21
279.575956
  0
LINE
  8
OBRYS
 10
250.532855
 20
442.575956
 11
281.217856
 21
442.575956
  0
LINE
  8
OBRYS
 10
257.532855
 20
399.951288
 11
280.597297
 21
399.951288
  0
LINE
  8
OBRYS
 10
257.532855
 20
355.200623
 11
280.597297
 21
355.200623
  0
LINE
  8
OBRYS
 10
255.532855
 20
397.951288
 11
255.532855
 21
357.200623
  0
LINE
  8
OBRYS
 10
257.532855
 20
340.122356
 11
280.597297
 21
340.122356
  0
LINE
  8
OBRYS
 10
255.532855
 20
338.122356
 11
255.532855
 21
269.575956
  0
LINE
  8
OBRYS
 10
255.532855
 20
429.762752
 11
280.597297
 21
429.762752
  0
LINE
  8
OBRYS
 10
233.532855
 20
391.575956
 11
233.532855
 21
234.575956
  0
LINE
  8
OBRYS
 10
223.532855
 20
391.575956
 11
223.532855
 21
231.575956
  0
LINE
  8
OBRYS
 10
223.532855
 20
231.575956
 11
230.532855
 21
231.575956
  0
ARC
  8
OBRYS
 10
230.532855
 20
234.575956
 40
3.000000
 50
270.000000
 51
360.000000
  0
ARC
  8
OBRYS
 10
236.532855
 20
266.575956
 40
3.000000
 50
90.000000
 51
180.000000
  0
LINE
  8
OBRYS
 10
236.532855
 20
269.575956
 11
250.532855
 21
269.575956
  0
LINE
  8
OBRYS
 10
250.532855
 20
447.575956
 11
250.532855
 21
269.575956
  0
LINE
  8
OBRYS
 10
242.532855
 20
447.575956
 11
250.532855
 21
447.575956
  0
ARC
  8
OBRYS
 10
242.532855
 20
445.575956
 40
2.000000
 50
90.000000
 51
180.000000
  0
LINE
  8
OBRYS
 10
240.532855
 20
445.575956
 11
240.532855
 21
404.987498
  0
ARC
  8
OBRYS
 10
237.532855
 20
404.987498
 40
3.000000
 50
330.000000
 51
360.000000
  0
LINE
  8
OBRYS
 10
223.532855
 20
391.575956
 11
231.521748
 21
391.575956
  0
LINE
  8
OBRYS
 10
240.130931
 20
403.487498
 11
234.119824
 21
393.075956
  0
ARC
  8
OBRYS
 10
231.521748
 20
394.575956
 40
3.000000
 50
270.000000
 51
330.000000
  0
LINE
  8
OSA
 10
217.282855
 20
311.575956
 11
256.782855
 21
311.575956
  0
LINE
  8
OBRYS
 10
250.532855
 20
442.575956
 11
240.532855
 21
442.575956
  0
LINE
  8
OBRYS
 10
250.532855
 20
429.762752
 11
243.315071
 21
429.762752
  0
LINE
  8
OBRYS
 10
250.532855
 20
399.951288
 11
241.728498
 21
399.951288
  0
LINE
  8
OBRYS
 10
250.532855
 20
355.200623
 11
236.029463
 21
355.200623
  0
LINE
  8
OBRYS
 10
250.532855
 20
340.122356
 11
236.029463
 21
340.122356
  0
ENDBLK
  8
OBRYS
  0
BLOCK
  8
OSA
  2
Sroub_M10x16_28
 70
   66
 10
124.825258
 20
307.575956
  0
LINE
  8
OSA
 62
     2
  6
CONTINUOUS
 10
127.134673
 20
311.575956
 11
122.515842
 21
311.575956
  0
LINE
  8
OSA
 62
     2
  6
CONTINUOUS
 10
122.515842
 20
311.575956
 11
120.206427
 21
307.575956
  0
LINE
  8
OSA
 62
     2
  6
CONTINUOUS
 10
120.206427
 20
307.575956
 11
122.515842
 21
303.575956
  0
LINE
  8
OSA
 62
     2
  6
CONTINUOUS
 10
122.515842
 20
303.575956
 11
127.134673
 21
303.575956
  0
LINE
  8
OSA
 62
     2
  6
CONTINUOUS
 10
127.134673
 20
303.575956
 11
129.444089
 21
307.575956
  0
LINE
  8
OSA
 62
     2
  6
CONTINUOUS
 10
129.444089
 20
307.575956
 11
127.134673
 21
311.575956
  0
CIRCLE
  8
OSA
 62
     2
  6
CONTINUOUS
 10
124.825258
 20
307.575956
 40
4.618831
  0
CIRCLE
  8
OSA
 62
     2
  6
CONTINUOUS
 10
124.825258
 20
307.575956
 40
8.000000
  0
ENDBLK
  8
OSA
  0
BLOCK
  8
OSA
  2
Sroub_M10x16_29
 70
   66
 10
379.532855
 20
562.283553
  0
LINE
  8
OSA
 62
     2
  6
CONTINUOUS
 10
381.842271
 20
566.283553
 11
377.223440
 21
566.283553
  0
LINE
  8
OSA
 62
     2
  6
CONTINUOUS
 10
377.223440
 20
566.283553
 11
374.914024
 21
562.283553
  0
LINE
  8
OSA
 62
     2
  6
CONTINUOUS
 10
374.914024
 20
562.283553
 11
377.223440
 21
558.283553
  0
LINE
  8
OSA
 62
     2
  6
CONTINUOUS
 10
377.223440
 20
558.283553
 11
381.842271
 21
558.283553
  0
LINE
  8
OSA
 62
     2
  6
CONTINUOUS
 10
381.842271
 20
558.283553
 11
384.151686
 21
562.283553
  0
LINE
  8
OSA
 62
     2
  6
CONTINUOUS
 10
384.151686
 20
562.283553
 11
381.842271
 21
566.283553
  0
CIRCLE
  8
OSA
 62
     2
  6
CONTINUOUS
 10
379.532855
 20
562.283553
 40
4.618831
  0
CIRCLE
  8
OSA
 62
     2
  6
CONTINUOUS
 10
379.532855
 20
562.283553
 40
8.000000
  0
ENDBLK
  8
OSA
  0
BLOCK
  8
OBRYS
  2
_30
 70
   64
 10
379.532855
 20
52.868358
  0
LINE
  8
OBRYS
 10
293.532855
 20
87.868358
 11
293.532855
 21
17.868358
  0
LINE
  8
OBRYS
 10
460.532855
 20
17.868358
 11
293.532855
 21
17.868358
  0
LINE
  8
OBRYS
 10
293.532855
 20
87.868358
 11
460.532855
 21
87.868358
  0
LINE
  8
OBRYS
 10
329.246452
 20
87.868358
 11
329.246452
 21
17.868358
  0
POLYLINE
  8
OBRYS
 66
    1
  0
VERTEX
  8
OBRYS
 10
321.245117
 20
87.883141
  0
VERTEX
  8
OBRYS
 10
321.245117
 20
87.883141
  0
VERTEX
  8
OBRYS
 10
321.944763
 20
87.137901
  0
VERTEX
  8
OBRYS
 10
322.091187
 20
86.868355
  0
VERTEX
  8
OBRYS
 10
326.985748
 20
79.954239
  0
VERTEX
  8
OBRYS
 10
329.108948
 20
73.468559
  0
VERTEX
  8
OBRYS
 10
328.693451
 20
67.149826
  0
VERTEX
  8
OBRYS
 10
325.654816
 20
60.491249
  0
VERTEX
  8
OBRYS
 10
321.820557
 20
55.868362
  0
VERTEX
  8
OBRYS
 10
321.132385
 20
54.722458
  0
VERTEX
  8
OBRYS
 10
320.889984
 20
53.495529
  0
VERTEX
  8
OBRYS
 10
320.996948
 20
52.868362
  0
VERTEX
  8
OBRYS
 10
320.889984
 20
52.241188
  0
VERTEX
  8
OBRYS
 10
321.132385
 20
51.014259
  0
VERTEX
  8
OBRYS
 10
321.820557
 20
49.868362
  0
VERTEX
  8
OBRYS
 10
325.654816
 20
45.245476
  0
VERTEX
  8
OBRYS
 10
328.693451
 20
38.586891
  0
VERTEX
  8
OBRYS
 10
329.108948
 20
32.268158
  0
VERTEX
  8
OBRYS
 10
326.985748
 20
25.782476
  0
VERTEX
  8
OBRYS
 10
322.091187
 20
18.868361
  0
VERTEX
  8
OBRYS
 10
321.944763
 20
18.598814
  0
VERTEX
  8
OBRYS
 10
321.245117
 20
17.853575
  0
SEQEND
  8
OBRYS
  0
LINE
  8
OBRYS
 10
329.246452
 20
87.868358
 11
329.246452
 21
17.868358
  0
LINE
  8
OBRYS
 10
429.819259
 20
87.868358
 11
429.819259
 21
17.868358
  0
LINE
  8
OBRYS
 10
455.532855
 20
90.868358
 11
455.532855
 21
87.868358
  0
LINE
  8
OBRYS
 10
303.532855
 20
90.868358
 11
303.532855
 21
87.868358
  0
LINE
  8
OBRYS
 10
303.532855
 20
14.868358
 11
303.532855
 21
17.868358
  0
LINE
  8
OBRYS
 10
455.532855
 20
14.868358
 11
455.532855
 21
17.868358
  0
LINE
  8
OBRYS
 10
460.532855
 20
87.868358
 11
460.532855
 21
17.868358
  0
LINE
  8
OBRYS
 10
437.245155
 20
55.868358
 11
460.532855
 21
55.868358
  0
LINE
  8
OBRYS
 10
437.245155
 20
49.868358
 11
460.532855
 21
49.868358
  0
LINE
  8
OBRYS
 10
429.819259
 20
87.868358
 11
429.819259
 21
17.868358
  0
POLYLINE
  8
OBRYS
 66
    1
  0
VERTEX
  8
OBRYS
 10
437.820618
 20
87.883141
  0
VERTEX
  8
OBRYS
 10
437.820618
 20
87.883141
  0
VERTEX
  8
OBRYS
 10
437.120972
 20
87.137901
  0
VERTEX
  8
OBRYS
 10
436.974548
 20
86.868355
  0
VERTEX
  8
OBRYS
 10
432.079987
 20
79.954239
  0
VERTEX
  8
OBRYS
 10
429.956787
 20
73.468559
  0
VERTEX
  8
OBRYS
 10
430.372253
 20
67.149826
  0
VERTEX
  8
OBRYS
 10
433.410919
 20
60.491249
  0
VERTEX
  8
OBRYS
 10
437.245178
 20
55.868362
  0
VERTEX
  8
OBRYS
 10
437.933350
 20
54.722458
  0
VERTEX
  8
OBRYS
 10
438.175751
 20
53.495529
  0
VERTEX
  8
OBRYS
 10
438.068756
 20
52.868362
  0
VERTEX
  8
OBRYS
 10
438.175751
 20
52.241188
  0
VERTEX
  8
OBRYS
 10
437.933350
 20
51.014259
  0
VERTEX
  8
OBRYS
 10
437.245178
 20
49.868362
  0
VERTEX
  8
OBRYS
 10
433.410919
 20
45.245476
  0
VERTEX
  8
OBRYS
 10
430.372253
 20
38.586891
  0
VERTEX
  8
OBRYS
 10
429.956787
 20
32.268158
  0
VERTEX
  8
OBRYS
 10
432.079987
 20
25.782476
  0
VERTEX
  8
OBRYS
 10
436.974548
 20
18.868361
  0
VERTEX
  8
OBRYS
 10
437.120972
 20
18.598814
  0
VERTEX
  8
OBRYS
 10
437.820618
 20
17.853575
  0
SEQEND
  8
OBRYS
  0
ARC
  8
OBRYS
 10
305.708678
 20
95.868358
 40
2.000000
 50
90.000000
 51
178.000000
  0
LINE
  8
OBRYS
 10
303.532855
 20
90.868358
 11
303.709897
 21
95.938157
  0
LINE
  8
OBRYS
 10
364.869569
 20
103.368358
 11
379.532855
 21
103.368358
  0
LINE
  8
OBRYS
 10
334.470947
 20
109.868358
 11
379.532855
 21
109.868358
  0
LINE
  8
OBRYS
 10
379.532855
 20
112.868358
 11
339.532855
 21
112.868358
  0
LINE
  8
OBRYS
 10
340.032855
 20
113.368358
 11
379.532855
 21
113.368358
  0
LINE
  8
OBRYS
 10
303.532855
 20
14.868358
 11
303.532855
 21
17.868358
  0
LINE
  8
OBRYS
 10
374.987079
 20
103.368358
 11
376.318478
 21
97.868358
  0
LINE
  8
OBRYS
 10
315.532855
 20
103.368358
 11
331.057184
 21
103.368358
  0
LINE
  8
OBRYS
 10
334.470947
 20
109.868358
 11
328.168615
 21
97.868358
  0
LINE
  8
OBRYS
 10
343.816271
 20
109.868358
 11
332.714431
 21
97.868358
  0
ARC
  8
OBRYS
 10
309.204428
 20
99.868358
 40
2.000000
 50
270.000000
 51
315.000000
  0
LINE
  8
OBRYS
 10
340.032855
 20
113.368358
 11
339.532855
 21
112.868358
  0
LINE
  8
OBRYS
 10
339.532855
 20
109.868358
 11
339.532855
 21
112.868358
  0
LINE
  8
OBRYS
 10
315.532855
 20
103.368358
 11
310.618642
 21
98.454145
  0
LINE
  8
OBRYS
 10
303.532855
 20
14.868358
 11
379.532855
 21
14.868358
  0
LINE
  8
OBRYS
 10
379.532855
 20
109.868358
 11
424.594764
 21
109.868358
  0
LINE
  8
OBRYS
 10
379.532855
 20
103.368358
 11
394.196142
 21
103.368358
  0
LINE
  8
OBRYS
 10
379.532855
 20
113.368358
 11
419.032855
 21
113.368358
  0
LINE
  8
OBRYS
 10
419.532855
 20
112.868358
 11
379.532855
 21
112.868358
  0
LINE
  8
OBRYS
 10
379.532855
 20
97.868358
 11
453.357032
 21
97.868358
  0
LINE
  8
OBRYS
 10
419.032855
 20
113.368358
 11
419.532855
 21
112.868358
  0
LINE
  8
OBRYS
 10
419.532855
 20
109.868358
 11
419.532855
 21
112.868358
  0
ARC
  8
OBRYS
 10
449.861282
 20
99.868358
 40
2.000000
 50
225.000000
 51
270.000000
  0
LINE
  8
OBRYS
 10
455.532855
 20
14.868358
 11
379.532855
 21
14.868358
  0
LINE
  8
OBRYS
 10
455.532855
 20
90.868358
 11
455.355814
 21
95.938157
  0
ARC
  8
OBRYS
 10
453.357032
 20
95.868358
 40
2.000000
 50
2.000000
 51
90.000000
  0
LINE
  8
OBRYS
 10
384.078632
 20
103.368358
 11
382.747232
 21
97.868358
  0
LINE
  8
OBRYS
 10
443.532855
 20
103.368358
 11
428.008527
 21
103.368358
  0
LINE
  8
OBRYS
 10
415.249439
 20
109.868358
 11
426.351280
 21
97.868358
  0
ARC
  8
OBRYS
 10
449.861282
 20
99.868358
 40
2.000000
 50
225.000000
 51
270.000000
  0
LINE
  8
OBRYS
 10
443.532855
 20
103.368358
 11
448.447069
 21
98.454145
  0
LINE
  8
OBRYS
 10
424.594764
 20
109.868358
 11
430.897095
 21
97.868358
  0
LINE
  8
OBRYS
 62
     7
  6
DASHDOT
 10
265.469769
 20
52.868358
 11
455.160501
 21
52.868358
  0
LINE
  8
OBRYS
 10
379.532855
 20
97.868358
 11
305.708678
 21
97.868358
  0
LINE
  8
OBRYS
 62
     7
  6
DASHDOT
 10
379.532855
 20
-10.357531
 11
379.532855
 21
126.057067
  0
LINE
  8
OBRYS
 10
321.820550
 20
49.868358
 11
293.532855
 21
49.868358
  0
LINE
  8
OBRYS
 10
321.820550
 20
55.868358
 11
293.532855
 21
55.868358
  0
ENDBLK
  8
OBRYS
  0
BLOCK
  8
OSA
  2
_31
 70
   64
 10
379.532855
 20
600.283553
  0
LINE
  8
OBRYS
 10
443.532855
 20
612.783553
 11
444.032855
 21
612.283553
  0
INSERT
  8
OSA
  2
Srouby_s_valcovou_hlavou___62
  6
CONTINUOUS
 10
442.356663
 20
7.868358
  0
INSERT
  8
OSA
  2
Srouby_s_valcovou_hlavou___63
  6
CONTINUOUS
 10
405.555329
 20
7.868358
  0
LINE
  8
OBRYS
 10
315.532855
 20
612.783553
 11
315.032855
 21
612.283553
  0
INSERT
  8
OSA
  2
Srouby_s_valcovou_hlavou___64
  6
CONTINUOUS
 10
353.510382
 20
7.868358
  0
INSERT
  8
OSA
  2
Srouby_s_valcovou_hlavou___65
  6
CONTINUOUS
 10
316.709047
 20
7.868358
  0
LINE
  8
OBRYS
 10
334.470947
 20
619.283553
 11
328.168615
 21
607.283553
  0
LINE
  8
OBRYS
 10
343.816271
 20
619.283553
 11
332.714431
 21
607.283553
  0
LINE
  8
OBRYS
 10
315.532855
 20
612.783553
 11
331.057184
 21
612.783553
  0
LINE
  8
OBRYS
 10
374.987079
 20
612.783553
 11
376.318478
 21
607.283553
  0
ARC
  8
OBRYS
 10
305.708678
 20
605.283553
 40
2.000000
 50
90.000000
 51
178.000000
  0
LINE
  8
OBRYS
 10
303.532855
 20
600.283553
 11
303.709897
 21
605.353352
  0
ARC
  8
OBRYS
 10
309.204428
 20
609.283553
 40
2.000000
 50
270.000000
 51
315.000000
  0
LINE
  8
OBRYS
 10
339.532855
 20
619.283553
 11
339.532855
 21
622.283553
  0
LINE
  8
OBRYS
 10
340.032855
 20
622.783553
 11
339.532855
 21
622.283553
  0
LINE
  8
OBRYS
 10
379.532855
 20
607.283553
 11
305.708678
 21
607.283553
  0
LINE
  8
OBRYS
 10
339.532855
 20
622.283553
 11
379.532855
 21
622.283553
  0
LINE
  8
OBRYS
 10
379.532855
 20
622.783553
 11
340.032855
 21
622.783553
  0
LINE
  8
OBRYS
 10
379.532855
 20
612.783553
 11
364.869569
 21
612.783553
  0
LINE
  8
OBRYS
 10
379.532855
 20
619.283553
 11
334.470947
 21
619.283553
  0
LINE
  8
OBRYS
 10
379.532855
 20
619.283553
 11
424.594764
 21
619.283553
  0
LINE
  8
OBRYS
 10
379.532855
 20
612.783553
 11
394.196142
 21
612.783553
  0
LINE
  8
OBRYS
 10
379.532855
 20
622.783553
 11
419.032855
 21
622.783553
  0
LINE
  8
OBRYS
 10
419.532855
 20
622.283553
 11
379.532855
 21
622.283553
  0
LINE
  8
OBRYS
 10
379.532855
 20
607.283553
 11
453.357032
 21
607.283553
  0
LINE
  8
OBRYS
 10
419.032855
 20
622.783553
 11
419.532855
 21
622.283553
  0
LINE
  8
OBRYS
 10
419.532855
 20
619.283553
 11
419.532855
 21
622.283553
  0
LINE
  8
OBRYS
 10
455.532855
 20
600.283553
 11
455.355814
 21
605.353352
  0
ARC
  8
OBRYS
 10
453.357032
 20
605.283553
 40
2.000000
 50
2.000000
 51
90.000000
  0
LINE
  8
OBRYS
 10
384.078632
 20
612.783553
 11
382.747232
 21
607.283553
  0
LINE
  8
OBRYS
 10
443.532855
 20
612.783553
 11
428.008527
 21
612.783553
  0
LINE
  8
OBRYS
 10
415.249439
 20
619.283553
 11
426.351280
 21
607.283553
  0
ARC
  8
OBRYS
 10
449.861282
 20
609.283553
 40
2.000000
 50
225.000000
 51
270.000000
  0
LINE
  8
OBRYS
 10
424.594764
 20
619.283553
 11
430.897095
 21
607.283553
  0
LINE
  8
OBRYS
 10
455.532855
 20
600.283553
 11
379.532855
 21
600.283553
  0
LINE
  8
OBRYS
 10
303.532855
 20
600.283553
 11
379.532855
 21
600.283553
  0
LINE
  8
OSA
 10
379.532855
 20
592.783556
 11
379.532855
 21
630.283549
  0
ENDBLK
  8
OSA
  0
BLOCK
  8
OSA
  2
Srouby_s_valcovou_hlavou___62
 70
   66
 10
442.356663
 20
7.868358
  0
LINE
  8
OSA
 62
     2
  6
CONTINUOUS
 10
448.056663
 20
612.283553
 11
436.656663
 21
612.283553
  0
LINE
  8
OSA
 62
     2
  6
CONTINUOUS
 10
448.856663
 20
611.483553
 11
448.856663
 21
607.283553
  0
LINE
  8
OSA
 62
     2
  6
CONTINUOUS
 10
448.856663
 20
607.283553
 11
435.856663
 21
607.283553
  0
LINE
  8
OSA
 62
     2
  6
CONTINUOUS
 10
435.856663
 20
607.283553
 11
435.856663
 21
611.483553
  0
ARC
  8
OSA
 62
     2
  6
CONTINUOUS
 10
448.056663
 20
611.483553
 40
0.800000
 50
0.000000
 51
90.000000
  0
ARC
  8
OSA
 62
     2
  6
CONTINUOUS
 10
436.656663
 20
611.483553
 40
0.800000
 50
90.000000
 51
180.000000
  0
LINE
  8
OSA
  6
DOT
 10
445.820787
 20
612.283553
 11
445.820787
 21
609.783553
  0
LINE
  8
OSA
  6
DOT
 10
444.088725
 20
612.283553
 11
444.088725
 21
609.783553
  0
LINE
  8
OSA
  6
DOT
 10
440.624602
 20
612.283553
 11
440.624602
 21
609.783553
  0
LINE
  8
OSA
  6
DOT
 10
438.892540
 20
612.283553
 11
438.892540
 21
609.783553
  0
ARC
  8
OSA
  6
DOT
 10
444.954756
 20
612.783562
 40
1.000009
 50
210.000310
 51
329.999690
  0
ARC
  8
OSA
  6
DOT
 10
442.356663
 20
615.033590
 40
3.250037
 50
237.795963
 51
302.204037
  0
ARC
  8
OSA
  6
DOT
 10
439.758571
 20
612.783562
 40
1.000009
 50
210.000310
 51
329.999690
  0
ARC
  8
OSA
  6
DOT
 10
444.954756
 20
610.283562
 40
1.000009
 50
210.000310
 51
329.999690
  0
ARC
  8
OSA
  6
DOT
 10
442.356663
 20
612.533590
 40
3.250037
 50
237.795963
 51
302.204037
  0
ARC
  8
OSA
  6
DOT
 10
439.758571
 20
610.283562
 40
1.000009
 50
210.000310
 51
329.999690
  0
LINE
  8
OSA
  6
DOT
 10
444.954756
 20
609.283553
 11
442.356663
 21
607.551491
  0
LINE
  8
OSA
  6
DOT
 10
442.356663
 20
607.551491
 11
439.758571
 21
609.283553
  0
ENDBLK
  8
OSA
  0
BLOCK
  8
OSA
  2
Srouby_s_valcovou_hlavou___63
 70
   66
 10
405.555329
 20
7.868358
  0
LINE
  8
OSA
 62
     2
  6
CONTINUOUS
 10
411.255329
 20
612.283553
 11
399.855329
 21
612.283553
  0
LINE
  8
OSA
 62
     2
  6
CONTINUOUS
 10
412.055329
 20
611.483553
 11
412.055329
 21
607.283553
  0
LINE
  8
OSA
 62
     2
  6
CONTINUOUS
 10
412.055329
 20
607.283553
 11
399.055329
 21
607.283553
  0
LINE
  8
OSA
 62
     2
  6
CONTINUOUS
 10
399.055329
 20
607.283553
 11
399.055329
 21
611.483553
  0
ARC
  8
OSA
 62
     2
  6
CONTINUOUS
 10
411.255329
 20
611.483553
 40
0.800000
 50
0.000000
 51
90.000000
  0
ARC
  8
OSA
 62
     2
  6
CONTINUOUS
 10
399.855329
 20
611.483553
 40
0.800000
 50
90.000000
 51
180.000000
  0
LINE
  8
OSA
  6
DOT
 10
409.019452
 20
612.283553
 11
409.019452
 21
609.783553
  0
LINE
  8
OSA
  6
DOT
 10
407.287390
 20
612.283553
 11
407.287390
 21
609.783553
  0
LINE
  8
OSA
  6
DOT
 10
403.823267
 20
612.283553
 11
403.823267
 21
609.783553
  0
LINE
  8
OSA
  6
DOT
 10
402.091205
 20
612.283553
 11
402.091205
 21
609.783553
  0
ARC
  8
OSA
  6
DOT
 10
408.153421
 20
612.783562
 40
1.000009
 50
210.000310
 51
329.999690
  0
ARC
  8
OSA
  6
DOT
 10
405.555329
 20
615.033590
 40
3.250037
 50
237.795963
 51
302.204037
  0
ARC
  8
OSA
  6
DOT
 10
402.957236
 20
612.783562
 40
1.000009
 50
210.000310
 51
329.999690
  0
ARC
  8
OSA
  6
DOT
 10
408.153421
 20
610.283562
 40
1.000009
 50
210.000310
 51
329.999690
  0
ARC
  8
OSA
  6
DOT
 10
405.555329
 20
612.533590
 40
3.250037
 50
237.795963
 51
302.204037
  0
ARC
  8
OSA
  6
DOT
 10
402.957236
 20
610.283562
 40
1.000009
 50
210.000310
 51
329.999690
  0
LINE
  8
OSA
  6
DOT
 10
408.153421
 20
609.283553
 11
405.555329
 21
607.551491
  0
LINE
  8
OSA
  6
DOT
 10
405.555329
 20
607.551491
 11
402.957236
 21
609.283553
  0
ENDBLK
  8
OSA
  0
BLOCK
  8
OSA
  2
Srouby_s_valcovou_hlavou___64
 70
   66
 10
353.510382
 20
7.868358
  0
LINE
  8
OSA
 62
     2
  6
CONTINUOUS
 10
347.810382
 20
612.283553
 11
359.210382
 21
612.283553
  0
LINE
  8
OSA
 62
     2
  6
CONTINUOUS
 10
347.010382
 20
611.483553
 11
347.010382
 21
607.283553
  0
LINE
  8
OSA
 62
     2
  6
CONTINUOUS
 10
347.010382
 20
607.283553
 11
360.010382
 21
607.283553
  0
LINE
  8
OSA
 62
     2
  6
CONTINUOUS
 10
360.010382
 20
607.283553
 11
360.010382
 21
611.483553
  0
ARC
  8
OSA
 62
     2
  6
CONTINUOUS
 10
347.810382
 20
611.483553
 40
0.800000
 50
90.000000
 51
180.000000
  0
ARC
  8
OSA
 62
     2
  6
CONTINUOUS
 10
359.210382
 20
611.483553
 40
0.800000
 50
0.000000
 51
90.000000
  0
LINE
  8
OSA
  6
DOT
 10
350.046259
 20
612.283553
 11
350.046259
 21
609.783553
  0
LINE
  8
OSA
  6
DOT
 10
351.778320
 20
612.283553
 11
351.778320
 21
609.783553
  0
LINE
  8
OSA
  6
DOT
 10
355.242443
 20
612.283553
 11
355.242443
 21
609.783553
  0
LINE
  8
OSA
  6
DOT
 10
356.974505
 20
612.283553
 11
356.974505
 21
609.783553
  0
ARC
  8
OSA
  6
DOT
 10
350.912289
 20
612.783562
 40
1.000009
 50
210.000310
 51
329.999690
  0
ARC
  8
OSA
  6
DOT
 10
353.510382
 20
615.033590
 40
3.250037
 50
237.795963
 51
302.204037
  0
ARC
  8
OSA
  6
DOT
 10
356.108474
 20
612.783562
 40
1.000009
 50
210.000310
 51
329.999690
  0
ARC
  8
OSA
  6
DOT
 10
350.912289
 20
610.283562
 40
1.000009
 50
210.000310
 51
329.999690
  0
ARC
  8
OSA
  6
DOT
 10
353.510382
 20
612.533590
 40
3.250037
 50
237.795963
 51
302.204037
  0
ARC
  8
OSA
  6
DOT
 10
356.108474
 20
610.283562
 40
1.000009
 50
210.000310
 51
329.999690
  0
LINE
  8
OSA
  6
DOT
 10
350.912289
 20
609.283553
 11
353.510382
 21
607.551491
  0
LINE
  8
OSA
  6
DOT
 10
353.510382
 20
607.551491
 11
356.108474
 21
609.283553
  0
ENDBLK
  8
OSA
  0
BLOCK
  8
OSA
  2
Srouby_s_valcovou_hlavou___65
 70
   66
 10
316.709047
 20
7.868358
  0
LINE
  8
OSA
 62
     2
  6
CONTINUOUS
 10
311.009047
 20
612.283553
 11
322.409047
 21
612.283553
  0
LINE
  8
OSA
 62
     2
  6
CONTINUOUS
 10
310.209047
 20
611.483553
 11
310.209047
 21
607.283553
  0
LINE
  8
OSA
 62
     2
  6
CONTINUOUS
 10
310.209047
 20
607.283553
 11
323.209047
 21
607.283553
  0
LINE
  8
OSA
 62
     2
  6
CONTINUOUS
 10
323.209047
 20
607.283553
 11
323.209047
 21
611.483553
  0
ARC
  8
OSA
 62
     2
  6
CONTINUOUS
 10
311.009047
 20
611.483553
 40
0.800000
 50
90.000000
 51
180.000000
  0
ARC
  8
OSA
 62
     2
  6
CONTINUOUS
 10
322.409047
 20
611.483553
 40
0.800000
 50
0.000000
 51
90.000000
  0
LINE
  8
OSA
  6
DOT
 10
313.244924
 20
612.283553
 11
313.244924
 21
609.783553
  0
LINE
  8
OSA
  6
DOT
 10
314.976985
 20
612.283553
 11
314.976985
 21
609.783553
  0
LINE
  8
OSA
  6
DOT
 10
318.441109
 20
612.283553
 11
318.441109
 21
609.783553
  0
LINE
  8
OSA
  6
DOT
 10
320.173170
 20
612.283553
 11
320.173170
 21
609.783553
  0
ARC
  8
OSA
  6
DOT
 10
314.110955
 20
612.783562
 40
1.000009
 50
210.000310
 51
329.999690
  0
ARC
  8
OSA
  6
DOT
 10
316.709047
 20
615.033590
 40
3.250037
 50
237.795963
 51
302.204037
  0
ARC
  8
OSA
  6
DOT
 10
319.307139
 20
612.783562
 40
1.000009
 50
210.000310
 51
329.999690
  0
ARC
  8
OSA
  6
DOT
 10
314.110955
 20
610.283562
 40
1.000009
 50
210.000310
 51
329.999690
  0
ARC
  8
OSA
  6
DOT
 10
316.709047
 20
612.533590
 40
3.250037
 50
237.795963
 51
302.204037
  0
ARC
  8
OSA
  6
DOT
 10
319.307139
 20
610.283562
 40
1.000009
 50
210.000310
 51
329.999690
  0
LINE
  8
OSA
  6
DOT
 10
314.110955
 20
609.283553
 11
316.709047
 21
607.551491
  0
LINE
  8
OSA
  6
DOT
 10
316.709047
 20
607.551491
 11
319.307139
 21
609.283553
  0
ENDBLK
  8
OSA
  0
BLOCK
  8
OSA
  2
_32
 70
   64
 10
379.532855
 20
562.283553
  0
ARC
  8
OBRYS
 10
305.708678
 20
519.283553
 40
2.000000
 50
182.000000
 51
270.000000
  0
LINE
  8
OBRYS
 10
303.532855
 20
524.283553
 11
303.709897
 21
519.213754
  0
LINE
  8
OBRYS
 10
303.532855
 20
524.283553
 11
303.532855
 21
528.283553
  0
ARC
  8
OBRYS
 10
305.532855
 20
528.283553
 40
2.000000
 50
90.000000
 51
180.000000
  0
ARC
  8
OBRYS
 10
306.675300
 20
592.283553
 40
2.000000
 50
0.000000
 51
90.000000
  0
LINE
  8
OBRYS
 10
308.675300
 20
583.110025
 11
308.675300
 21
592.283553
  0
LINE
  8
OBRYS
 10
311.032855
 20
577.683072
 11
311.032855
 21
562.283553
  0
POLYLINE
  8
0
 62
     2
 66
    1
  0
VERTEX
  8
0
 62
     2
 10
308.675323
 20
583.110046
  0
VERTEX
  8
0
 62
     2
 10
308.697266
 20
582.528320
  0
VERTEX
  8
0
 62
     2
 10
308.762177
 20
581.969055
  0
VERTEX
  8
0
 62
     2
 10
308.867615
 20
581.453552
  0
VERTEX
  8
0
 62
     2
 10
309.009521
 20
581.001770
  0
VERTEX
  8
0
 62
     2
 10
309.182434
 20
580.630920
  0
SEQEND
  8
0
  0
LINE
  8
OBRYS
 10
320.138209
 20
583.110025
 11
320.138209
 21
594.283553
  0
LINE
  8
0
 62
     2
 10
313.083799
 20
575.962621
 11
316.103455
 21
574.457347
  0
POLYLINE
  8
0
 62
     2
 66
    1
  0
VERTEX
  8
0
 62
     2
 10
316.103455
 20
574.457336
  0
VERTEX
  8
0
 62
     2
 10
316.762085
 20
574.287842
  0
VERTEX
  8
0
 62
     2
 10
317.420746
 20
574.457336
  0
VERTEX
  8
0
 62
     2
 10
318.054077
 20
574.959351
  0
VERTEX
  8
0
 62
     2
 10
318.637756
 20
575.774658
  0
VERTEX
  8
0
 62
     2
 10
319.149353
 20
576.871765
  0
VERTEX
  8
0
 62
     2
 10
319.569244
 20
578.208679
  0
VERTEX
  8
0
 62
     2
 10
319.881226
 20
579.733887
  0
VERTEX
  8
0
 62
     2
 10
320.073334
 20
581.388916
  0
VERTEX
  8
0
 62
     2
 10
320.138214
 20
583.110046
  0
SEQEND
  8
0
  0
LINE
  8
0
 62
     2
 10
310.924456
 20
577.683072
 11
313.083799
 21
575.962621
  0
LINE
  8
0
 62
     2
 10
309.182392
 20
580.630948
 11
310.161143
 21
578.509276
  0
POLYLINE
  8
0
 62
     2
 66
    1
  0
VERTEX
  8
0
 62
     2
 10
310.161163
 20
578.509277
  0
VERTEX
  8
0
 62
     2
 10
310.527252
 20
577.997925
  0
VERTEX
  8
0
 62
     2
 10
310.924500
 20
577.683044
  0
SEQEND
  8
0
  0
LINE
  8
OBRYS
 10
361.689564
 20
592.283553
 11
361.689564
 21
581.783553
  0
LINE
  8
OBRYS
 10
345.385307
 20
592.283553
 11
345.385307
 21
581.783553
  0
POLYLINE
  8
OBRYS
 66
    1
  0
VERTEX
  8
OBRYS
 10
361.689575
 20
581.783569
  0
VERTEX
  8
OBRYS
 10
361.688171
 20
581.644958
  0
VERTEX
  8
OBRYS
 10
361.683197
 20
581.487061
  0
VERTEX
  8
OBRYS
 10
361.673126
 20
581.307312
  0
VERTEX
  8
OBRYS
 10
361.655914
 20
581.102844
  0
VERTEX
  8
OBRYS
 10
361.628937
 20
580.870605
  0
VERTEX
  8
OBRYS
 10
361.588715
 20
580.607483
  0
VERTEX
  8
OBRYS
 10
361.530701
 20
580.310181
  0
VERTEX
  8
OBRYS
 10
361.449158
 20
579.975586
  0
VERTEX
  8
OBRYS
 10
361.336792
 20
579.601074
  0
VERTEX
  8
OBRYS
 10
361.184601
 20
579.184875
  0
VERTEX
  8
OBRYS
 10
360.981781
 20
578.726807
  0
VERTEX
  8
OBRYS
 10
360.715759
 20
578.228882
  0
VERTEX
  8
OBRYS
 10
360.372650
 20
577.696289
  0
VERTEX
  8
OBRYS
 10
359.937958
 20
577.138611
  0
VERTEX
  8
OBRYS
 10
359.398102
 20
576.570251
  0
VERTEX
  8
OBRYS
 10
358.742279
 20
576.011169
  0
VERTEX
  8
OBRYS
 10
357.964874
 20
575.486023
  0
VERTEX
  8
OBRYS
 10
357.067596
 20
575.023193
  0
VERTEX
  8
OBRYS
 10
356.061249
 20
574.652039
  0
VERTEX
  8
OBRYS
 10
354.966400
 20
574.399658
  0
VERTEX
  8
OBRYS
 10
353.812744
 20
574.287842
  0
VERTEX
  8
OBRYS
 10
352.637177
 20
574.329407
  0
VERTEX
  8
OBRYS
 10
351.480530
 20
574.526245
  0
VERTEX
  8
OBRYS
 10
350.383392
 20
574.867615
  0
VERTEX
  8
OBRYS
 10
349.381287
 20
575.331482
  0
VERTEX
  8
OBRYS
 10
348.500122
 20
575.886719
  0
VERTEX
  8
OBRYS
 10
347.753601
 20
576.498169
  0
VERTEX
  8
OBRYS
 10
347.143005
 20
577.131531
  0
VERTEX
  8
OBRYS
 10
346.659515
 20
577.757385
  0
VERTEX
  8
OBRYS
 10
346.287598
 20
578.353882
  0
VERTEX
  8
OBRYS
 10
346.008881
 20
578.906738
  0
VERTEX
  8
OBRYS
 10
345.804932
 20
579.408325
  0
VERTEX
  8
OBRYS
 10
345.659058
 20
579.856262
  0
VERTEX
  8
OBRYS
 10
345.557159
 20
580.251709
  0
VERTEX
  8
OBRYS
 10
345.487854
 20
580.597778
  0
VERTEX
  8
OBRYS
 10
345.442230
 20
580.898865
  0
VERTEX
  8
OBRYS
 10
345.413574
 20
581.159668
  0
VERTEX
  8
OBRYS
 10
345.396820
 20
581.384949
  0
VERTEX
  8
OBRYS
 10
345.388336
 20
581.579163
  0
VERTEX
  8
OBRYS
 10
345.385406
 20
581.746338
  0
VERTEX
  8
OBRYS
 10
345.385315
 20
581.783569
  0
SEQEND
  8
OBRYS
  0
ARC
  8
OBRYS
 10
343.385307
 20
592.283553
 40
2.000000
 50
0.000000
 51
90.000000
  0
ARC
  8
OBRYS
 10
363.689564
 20
592.283553
 40
2.000000
 50
90.000000
 51
180.000000
  0
ARC
  8
OBRYS
 10
305.532855
 20
596.283553
 40
2.000000
 50
180.000000
 51
270.000000
  0
LINE
  8
OBRYS
 10
303.532855
 20
600.283553
 11
303.532855
 21
596.283553
  0
LINE
  8
OBRYS
 10
305.532855
 20
594.283553
 11
379.532855
 21
594.283553
  0
ARC
  8
OBRYS
 10
309.032855
 20
532.283553
 40
2.000000
 50
270.000000
 51
360.000000
  0
LINE
  8
OBRYS
 10
311.032855
 20
562.283553
 11
311.032855
 21
532.283553
  0
LINE
  8
OBRYS
 10
305.532855
 20
530.283553
 11
379.532855
 21
530.283553
  0
LINE
  8
OBRYS
 10
364.869569
 20
511.783553
 11
379.532855
 21
511.783553
  0
LINE
  8
OBRYS
 10
334.470947
 20
505.283553
 11
379.532855
 21
505.283553
  0
LINE
  8
OBRYS
 10
379.532855
 20
502.283553
 11
339.532855
 21
502.283553
  0
LINE
  8
OBRYS
 10
340.032855
 20
501.783553
 11
379.532855
 21
501.783553
  0
LINE
  8
OBRYS
 10
303.532855
 20
600.283553
 11
303.532855
 21
597.283553
  0
LINE
  8
OBRYS
 10
374.987079
 20
511.783553
 11
376.318478
 21
517.283553
  0
LINE
  8
OBRYS
 10
315.532855
 20
511.783553
 11
331.057184
 21
511.783553
  0
LINE
  8
OBRYS
 10
334.470947
 20
505.283553
 11
328.168615
 21
517.283553
  0
LINE
  8
OBRYS
 10
343.816271
 20
505.283553
 11
332.714431
 21
517.283553
  0
ARC
  8
OBRYS
 10
309.204428
 20
515.283553
 40
2.000000
 50
45.000000
 51
90.000000
  0
LINE
  8
OBRYS
 10
340.032855
 20
501.783553
 11
339.532855
 21
502.283553
  0
LINE
  8
OBRYS
 10
339.532855
 20
505.283553
 11
339.532855
 21
502.283553
  0
LINE
  8
OBRYS
 10
315.532855
 20
511.783553
 11
310.618642
 21
516.697766
  0
LINE
  8
OBRYS
 10
303.532855
 20
600.283553
 11
379.532855
 21
600.283553
  0
LINE
  8
OBRYS
 10
453.532855
 20
594.283553
 11
379.532855
 21
594.283553
  0
LINE
  8
OBRYS
 10
379.532855
 20
505.283553
 11
424.594764
 21
505.283553
  0
LINE
  8
OBRYS
 10
379.532855
 20
511.783553
 11
394.196142
 21
511.783553
  0
LINE
  8
OBRYS
 10
379.532855
 20
501.783553
 11
419.032855
 21
501.783553
  0
LINE
  8
OBRYS
 10
419.532855
 20
502.283553
 11
379.532855
 21
502.283553
  0
LINE
  8
OBRYS
 10
453.532855
 20
530.283553
 11
379.532855
 21
530.283553
  0
LINE
  8
OBRYS
 10
448.032855
 20
562.283553
 11
448.032855
 21
532.283553
  0
LINE
  8
OBRYS
 10
379.532855
 20
517.283553
 11
453.357032
 21
517.283553
  0
LINE
  8
OBRYS
 10
419.032855
 20
501.783553
 11
419.532855
 21
502.283553
  0
LINE
  8
OBRYS
 10
419.532855
 20
505.283553
 11
419.532855
 21
502.283553
  0
ARC
  8
OBRYS
 10
449.861282
 20
515.283553
 40
2.000000
 50
90.000000
 51
135.000000
  0
ARC
  8
OBRYS
 10
450.032855
 20
532.283553
 40
2.000000
 50
180.000000
 51
270.000000
  0
LINE
  8
OBRYS
 10
455.532855
 20
600.283553
 11
379.532855
 21
600.283553
  0
LINE
  8
OBRYS
 10
455.532855
 20
600.283553
 11
455.532855
 21
596.283553
  0
ARC
  8
OBRYS
 10
453.532855
 20
596.283553
 40
2.000000
 50
270.000000
 51
360.000000
  0
ARC
  8
OBRYS
 10
453.532855
 20
528.283553
 40
2.000000
 50
0.000000
 51
90.000000
  0
LINE
  8
OBRYS
 10
455.532855
 20
524.283553
 11
455.532855
 21
528.283553
  0
LINE
  8
OBRYS
 10
455.532855
 20
524.283553
 11
455.355814
 21
519.213754
  0
ARC
  8
OBRYS
 10
453.357032
 20
519.283553
 40
2.000000
 50
270.000000
 51
358.000000
  0
LINE
  8
OBRYS
 10
451.032855
 20
571.283620
 11
451.032855
 21
553.283486
  0
LINE
  8
OBRYS
 10
451.032855
 20
553.283486
 11
450.032992
 21
553.283554
  0
ARC
  8
OBRYS
 10
450.032855
 20
551.283554
 40
2.000000
 50
89.996087
 51
180.000000
  0
LINE
  8
OBRYS
 10
451.032855
 20
571.283620
 11
450.032992
 21
571.283552
  0
ARC
  8
OBRYS
 10
450.032855
 20
573.283552
 40
2.000000
 50
180.000000
 51
270.003913
  0
LINE
  8
OBRYS
 10
384.078632
 20
511.783553
 11
382.747232
 21
517.283553
  0
LINE
  8
OBRYS
 10
443.532855
 20
511.783553
 11
428.008527
 21
511.783553
  0
LINE
  8
OBRYS
 10
415.249439
 20
505.283553
 11
426.351280
 21
517.283553
  0
ARC
  8
OBRYS
 10
449.861282
 20
515.283553
 40
2.000000
 50
90.000000
 51
135.000000
  0
LINE
  8
OBRYS
 10
443.532855
 20
511.783553
 11
448.447069
 21
516.697766
  0
LINE
  8
OBRYS
 10
424.594764
 20
505.283553
 11
430.897095
 21
517.283553
  0
ARC
  8
OBRYS
 10
395.376147
 20
592.283553
 40
2.000000
 50
0.000000
 51
90.000000
  0
ARC
  8
OBRYS
 10
415.680404
 20
592.283553
 40
2.000000
 50
90.000000
 51
180.000000
  0
POLYLINE
  8
OBRYS
 66
    1
  0
VERTEX
  8
OBRYS
 10
397.376160
 20
581.783569
  0
VERTEX
  8
OBRYS
 10
397.377563
 20
581.644958
  0
VERTEX
  8
OBRYS
 10
397.382538
 20
581.487061
  0
VERTEX
  8
OBRYS
 10
397.392609
 20
581.307312
  0
VERTEX
  8
OBRYS
 10
397.409821
 20
581.102844
  0
VERTEX
  8
OBRYS
 10
397.436798
 20
580.870605
  0
VERTEX
  8
OBRYS
 10
397.477020
 20
580.607483
  0
VERTEX
  8
OBRYS
 10
397.535034
 20
580.310181
  0
VERTEX
  8
OBRYS
 10
397.616577
 20
579.975586
  0
VERTEX
  8
OBRYS
 10
397.728943
 20
579.601074
  0
VERTEX
  8
OBRYS
 10
397.881134
 20
579.184875
  0
VERTEX
  8
OBRYS
 10
398.083954
 20
578.726807
  0
VERTEX
  8
OBRYS
 10
398.349976
 20
578.228882
  0
VERTEX
  8
OBRYS
 10
398.693085
 20
577.696289
  0
VERTEX
  8
OBRYS
 10
399.127777
 20
577.138611
  0
VERTEX
  8
OBRYS
 10
399.667633
 20
576.570251
  0
VERTEX
  8
OBRYS
 10
400.323456
 20
576.011169
  0
VERTEX
  8
OBRYS
 10
401.100861
 20
575.486023
  0
VERTEX
  8
OBRYS
 10
401.998138
 20
575.023193
  0
VERTEX
  8
OBRYS
 10
403.004486
 20
574.652039
  0
VERTEX
  8
OBRYS
 10
404.099335
 20
574.399658
  0
VERTEX
  8
OBRYS
 10
405.252991
 20
574.287842
  0
VERTEX
  8
OBRYS
 10
406.428558
 20
574.329407
  0
VERTEX
  8
OBRYS
 10
407.585205
 20
574.526245
  0
VERTEX
  8
OBRYS
 10
408.682343
 20
574.867615
  0
VERTEX
  8
OBRYS
 10
409.684448
 20
575.331482
  0
VERTEX
  8
OBRYS
 10
410.565613
 20
575.886719
  0
VERTEX
  8
OBRYS
 10
411.312134
 20
576.498169
  0
VERTEX
  8
OBRYS
 10
411.922729
 20
577.131531
  0
VERTEX
  8
OBRYS
 10
412.406219
 20
577.757385
  0
VERTEX
  8
OBRYS
 10
412.778137
 20
578.353882
  0
VERTEX
  8
OBRYS
 10
413.056854
 20
578.906738
  0
VERTEX
  8
OBRYS
 10
413.260803
 20
579.408325
  0
VERTEX
  8
OBRYS
 10
413.406677
 20
579.856262
  0
VERTEX
  8
OBRYS
 10
413.508575
 20
580.251709
  0
VERTEX
  8
OBRYS
 10
413.577881
 20
580.597778
  0
VERTEX
  8
OBRYS
 10
413.623505
 20
580.898865
  0
VERTEX
  8
OBRYS
 10
413.652161
 20
581.159668
  0
VERTEX
  8
OBRYS
 10
413.668915
 20
581.384949
  0
VERTEX
  8
OBRYS
 10
413.677399
 20
581.579163
  0
VERTEX
  8
OBRYS
 10
413.680328
 20
581.746338
  0
VERTEX
  8
OBRYS
 10
413.680420
 20
581.783569
  0
SEQEND
  8
OBRYS
  0
LINE
  8
OBRYS
 10
413.680404
 20
592.283553
 11
413.680404
 21
581.783553
  0
LINE
  8
OBRYS
 10
397.376147
 20
592.283553
 11
397.376147
 21
581.783553
  0
POLYLINE
  8
0
 62
     2
 66
    1
  0
VERTEX
  8
0
 62
     2
 10
448.904572
 20
578.509277
  0
VERTEX
  8
0
 62
     2
 10
448.538483
 20
577.997925
  0
VERTEX
  8
0
 62
     2
 10
448.141235
 20
577.683044
  0
SEQEND
  8
0
  0
LINE
  8
0
 62
     2
 10
449.883318
 20
580.630948
 11
448.904567
 21
578.509276
  0
LINE
  8
0
 62
     2
 10
448.141254
 20
577.683072
 11
445.981912
 21
575.962621
  0
POLYLINE
  8
0
 62
     2
 66
    1
  0
VERTEX
  8
0
 62
     2
 10
442.962280
 20
574.457336
  0
VERTEX
  8
0
 62
     2
 10
442.303650
 20
574.287842
  0
VERTEX
  8
0
 62
     2
 10
441.644989
 20
574.457336
  0
VERTEX
  8
0
 62
     2
 10
441.011658
 20
574.959351
  0
VERTEX
  8
0
 62
     2
 10
440.427979
 20
575.774658
  0
VERTEX
  8
0
 62
     2
 10
439.916382
 20
576.871765
  0
VERTEX
  8
0
 62
     2
 10
439.496490
 20
578.208679
  0
VERTEX
  8
0
 62
     2
 10
439.184509
 20
579.733887
  0
VERTEX
  8
0
 62
     2
 10
438.992401
 20
581.388916
  0
VERTEX
  8
0
 62
     2
 10
438.927521
 20
583.110046
  0
SEQEND
  8
0
  0
LINE
  8
0
 62
     2
 10
445.981912
 20
575.962621
 11
442.962255
 21
574.457347
  0
LINE
  8
OBRYS
 10
438.927502
 20
583.110025
 11
438.927502
 21
594.283553
  0
POLYLINE
  8
0
 62
     2
 66
    1
  0
VERTEX
  8
0
 62
     2
 10
450.390411
 20
583.110046
  0
VERTEX
  8
0
 62
     2
 10
450.368469
 20
582.528320
  0
VERTEX
  8
0
 62
     2
 10
450.303558
 20
581.969055
  0
VERTEX
  8
0
 62
     2
 10
450.198120
 20
581.453552
  0
VERTEX
  8
0
 62
     2
 10
450.056213
 20
581.001770
  0
VERTEX
  8
0
 62
     2
 10
449.883301
 20
580.630920
  0
SEQEND
  8
0
  0
LINE
  8
OBRYS
 10
448.032855
 20
577.683072
 11
448.032855
 21
562.283553
  0
LINE
  8
OBRYS
 10
450.390410
 20
583.110025
 11
450.390410
 21
592.283553
  0
ARC
  8
OBRYS
 10
452.390410
 20
592.283553
 40
2.000000
 50
90.000000
 51
180.000000
  0
LINE
  8
OSA
 10
265.469769
 20
562.283553
 11
455.160501
 21
562.283553
  0
INSERT
  8
OSA
  2
M10x1__67
  6
CONTINUOUS
 10
451.032855
 20
562.283553
  0
LINE
  8
OBRYS
 10
379.532855
 20
517.283553
 11
305.708678
 21
517.283553
  0
LINE
  8
OSA
 10
379.532855
 20
625.509442
 11
379.532855
 21
489.094844
  0
LINE
  8
OBRYS
 10
460.532855
 20
597.283553
 11
460.532855
 21
527.283553
  0
LINE
  8
OSA
 62
     2
  6
CONTINUOUS
 10
455.532855
 20
597.283553
 11
460.532855
 21
597.283553
  0
LINE
  8
OSA
 62
     2
  6
CONTINUOUS
 10
460.532855
 20
527.283553
 11
455.532855
 21
527.283553
  0
LINE
  8
OSA
 62
     2
  6
CONTINUOUS
 10
454.032855
 20
565.283553
 11
460.532855
 21
565.283553
  0
LINE
  8
OSA
 62
     2
  6
CONTINUOUS
 10
454.032855
 20
559.283553
 11
460.532855
 21
559.283553
  0
LINE
  8
OBRYS
 10
293.532855
 20
597.283553
 11
293.532855
 21
527.283553
  0
LINE
  8
OSA
 62
     2
  6
CONTINUOUS
 10
293.532855
 20
597.283553
 11
303.532855
 21
597.283553
  0
LINE
  8
OSA
 62
     2
  6
CONTINUOUS
 10
303.532855
 20
527.283553
 11
293.532855
 21
527.283553
  0
LINE
  8
OSA
 62
     2
  6
CONTINUOUS
 10
311.032855
 20
559.283553
 11
293.532855
 21
559.283553
  0
LINE
  8
OSA
 62
     2
  6
CONTINUOUS
 10
311.032855
 20
565.283553
 11
293.532855
 21
565.283553
  0
ENDBLK
  8
OSA
  0
BLOCK
  8
OSA
  2
M10x1__67
 70
   66
 10
451.032855
 20
562.283553
  0
LINE
  8
OSA
 10
441.703953
 20
562.283553
 11
455.478203
 21
562.283553
  0
LINE
  8
OSA
 62
     2
  6
CONTINUOUS
 10
451.032855
 20
569.283553
 11
451.032855
 21
555.283553
  0
LINE
  8
OSA
 62
     2
  6
CONTINUOUS
 10
451.032855
 20
555.283553
 11
453.032855
 21
555.283553
  0
LINE
  8
OSA
 62
     2
  6
CONTINUOUS
 10
451.032855
 20
569.283553
 11
453.032855
 21
569.283553
  0
ARC
  8
OSA
 62
     2
  6
CONTINUOUS
 10
453.032855
 20
556.283553
 40
1.000000
 50
270.000000
 51
360.000000
  0
LINE
  8
OSA
 62
     2
  6
CONTINUOUS
 10
454.032855
 20
568.283553
 11
454.032855
 21
556.283553
  0
ARC
  8
OSA
 62
     2
  6
CONTINUOUS
 10
453.032855
 20
568.283553
 40
1.000000
 50
0.000000
 51
90.000000
  0
ENDBLK
  8
OSA
  0
BLOCK
  8
OSA
  2
_33
 70
   64
 10
379.532855
 20
14.868358
  0
LINE
  8
OBRYS
 10
443.532855
 20
2.368358
 11
444.032855
 21
2.868358
  0
INSERT
  8
OSA
  2
Srouby_s_valcovou_hlavou___69
  6
CONTINUOUS
 10
442.356663
 20
7.868358
  0
INSERT
  8
OSA
  2
Srouby_s_valcovou_hlavou___70
  6
CONTINUOUS
 10
405.555329
 20
7.868358
  0
LINE
  8
OBRYS
 10
315.532855
 20
2.368358
 11
315.032855
 21
2.868358
  0
INSERT
  8
OSA
  2
Srouby_s_valcovou_hlavou___71
  6
CONTINUOUS
 10
353.510382
 20
7.868358
  0
INSERT
  8
OSA
  2
Srouby_s_valcovou_hlavou___72
  6
CONTINUOUS
 10
316.709047
 20
7.868358
  0
LINE
  8
OBRYS
 10
334.470947
 20
-4.131642
 11
328.168615
 21
7.868358
  0
LINE
  8
OBRYS
 10
343.816271
 20
-4.131642
 11
332.714431
 21
7.868358
  0
LINE
  8
OBRYS
 10
315.532855
 20
2.368358
 11
331.057184
 21
2.368358
  0
LINE
  8
OBRYS
 10
374.987079
 20
2.368358
 11
376.318478
 21
7.868358
  0
ARC
  8
OBRYS
 10
305.708678
 20
9.868358
 40
2.000000
 50
182.000000
 51
270.000000
  0
LINE
  8
OBRYS
 10
303.532855
 20
14.868358
 11
303.709897
 21
9.798559
  0
ARC
  8
OBRYS
 10
309.204428
 20
5.868358
 40
2.000000
 50
45.000000
 51
90.000000
  0
LINE
  8
OBRYS
 10
339.532855
 20
-4.131642
 11
339.532855
 21
-7.131642
  0
LINE
  8
OBRYS
 10
340.032855
 20
-7.631642
 11
339.532855
 21
-7.131642
  0
LINE
  8
OBRYS
 10
379.532855
 20
7.868358
 11
305.708678
 21
7.868358
  0
LINE
  8
OBRYS
 10
339.532855
 20
-7.131642
 11
379.532855
 21
-7.131642
  0
LINE
  8
OBRYS
 10
379.532855
 20
-7.631642
 11
340.032855
 21
-7.631642
  0
LINE
  8
OBRYS
 10
379.532855
 20
2.368358
 11
364.869569
 21
2.368358
  0
LINE
  8
OBRYS
 10
379.532855
 20
-4.131642
 11
334.470947
 21
-4.131642
  0
LINE
  8
OBRYS
 10
379.532855
 20
-4.131642
 11
424.594764
 21
-4.131642
  0
LINE
  8
OBRYS
 10
379.532855
 20
2.368358
 11
394.196142
 21
2.368358
  0
LINE
  8
OBRYS
 10
379.532855
 20
-7.631642
 11
419.032855
 21
-7.631642
  0
LINE
  8
OBRYS
 10
419.532855
 20
-7.131642
 11
379.532855
 21
-7.131642
  0
LINE
  8
OBRYS
 10
379.532855
 20
7.868358
 11
453.357032
 21
7.868358
  0
LINE
  8
OBRYS
 10
419.032855
 20
-7.631642
 11
419.532855
 21
-7.131642
  0
LINE
  8
OBRYS
 10
419.532855
 20
-4.131642
 11
419.532855
 21
-7.131642
  0
LINE
  8
OBRYS
 10
455.532855
 20
14.868358
 11
455.355814
 21
9.798559
  0
ARC
  8
OBRYS
 10
453.357032
 20
9.868358
 40
2.000000
 50
270.000000
 51
358.000000
  0
LINE
  8
OBRYS
 10
384.078632
 20
2.368358
 11
382.747232
 21
7.868358
  0
LINE
  8
OBRYS
 10
443.532855
 20
2.368358
 11
428.008527
 21
2.368358
  0
LINE
  8
OBRYS
 10
415.249439
 20
-4.131642
 11
426.351280
 21
7.868358
  0
ARC
  8
OBRYS
 10
449.861282
 20
5.868358
 40
2.000000
 50
90.000000
 51
135.000000
  0
LINE
  8
OBRYS
 10
424.594764
 20
-4.131642
 11
430.897095
 21
7.868358
  0
LINE
  8
OBRYS
 10
455.532855
 20
14.868358
 11
379.532855
 21
14.868358
  0
LINE
  8
OBRYS
 10
303.532855
 20
14.868358
 11
379.532855
 21
14.868358
  0
LINE
  8
OSA
 10
379.532855
 20
22.368355
 11
379.532855
 21
-15.131638
  0
ENDBLK
  8
OSA
  0
BLOCK
  8
OSA
  2
Srouby_s_valcovou_hlavou___69
 70
   66
 10
442.356663
 20
7.868358
  0
LINE
  8
OSA
 62
     2
  6
CONTINUOUS
 10
448.056663
 20
2.868358
 11
436.656663
 21
2.868358
  0
LINE
  8
OSA
 62
     2
  6
CONTINUOUS
 10
448.856663
 20
3.668358
 11
448.856663
 21
7.868358
  0
LINE
  8
OSA
 62
     2
  6
CONTINUOUS
 10
448.856663
 20
7.868358
 11
435.856663
 21
7.868358
  0
LINE
  8
OSA
 62
     2
  6
CONTINUOUS
 10
435.856663
 20
7.868358
 11
435.856663
 21
3.668358
  0
ARC
  8
OSA
 62
     2
  6
CONTINUOUS
 10
448.056663
 20
3.668358
 40
0.800000
 50
270.000000
 51
360.000000
  0
ARC
  8
OSA
 62
     2
  6
CONTINUOUS
 10
436.656663
 20
3.668358
 40
0.800000
 50
180.000000
 51
270.000000
  0
LINE
  8
OSA
  6
DOT
 10
445.820787
 20
2.868358
 11
445.820787
 21
5.368358
  0
LINE
  8
OSA
  6
DOT
 10
444.088725
 20
2.868358
 11
444.088725
 21
5.368358
  0
LINE
  8
OSA
  6
DOT
 10
440.624602
 20
2.868358
 11
440.624602
 21
5.368358
  0
LINE
  8
OSA
  6
DOT
 10
438.892540
 20
2.868358
 11
438.892540
 21
5.368358
  0
ARC
  8
OSA
  6
DOT
 10
444.954756
 20
2.368349
 40
1.000009
 50
30.000310
 51
149.999690
  0
ARC
  8
OSA
  6
DOT
 10
442.356663
 20
0.118321
 40
3.250037
 50
57.795963
 51
122.204037
  0
ARC
  8
OSA
  6
DOT
 10
439.758571
 20
2.368349
 40
1.000009
 50
30.000310
 51
149.999690
  0
ARC
  8
OSA
  6
DOT
 10
444.954756
 20
4.868349
 40
1.000009
 50
30.000310
 51
149.999690
  0
ARC
  8
OSA
  6
DOT
 10
442.356663
 20
2.618321
 40
3.250037
 50
57.795963
 51
122.204037
  0
ARC
  8
OSA
  6
DOT
 10
439.758571
 20
4.868349
 40
1.000009
 50
30.000310
 51
149.999690
  0
LINE
  8
OSA
  6
DOT
 10
444.954756
 20
5.868358
 11
442.356663
 21
7.600420
  0
LINE
  8
OSA
  6
DOT
 10
442.356663
 20
7.600420
 11
439.758571
 21
5.868358
  0
ENDBLK
  8
OSA
  0
BLOCK
  8
OSA
  2
Srouby_s_valcovou_hlavou___70
 70
   66
 10
405.555329
 20
7.868358
  0
LINE
  8
OSA
 62
     2
  6
CONTINUOUS
 10
411.255329
 20
2.868358
 11
399.855329
 21
2.868358
  0
LINE
  8
OSA
 62
     2
  6
CONTINUOUS
 10
412.055329
 20
3.668358
 11
412.055329
 21
7.868358
  0
LINE
  8
OSA
 62
     2
  6
CONTINUOUS
 10
412.055329
 20
7.868358
 11
399.055329
 21
7.868358
  0
LINE
  8
OSA
 62
     2
  6
CONTINUOUS
 10
399.055329
 20
7.868358
 11
399.055329
 21
3.668358
  0
ARC
  8
OSA
 62
     2
  6
CONTINUOUS
 10
411.255329
 20
3.668358
 40
0.800000
 50
270.000000
 51
360.000000
  0
ARC
  8
OSA
 62
     2
  6
CONTINUOUS
 10
399.855329
 20
3.668358
 40
0.800000
 50
180.000000
 51
270.000000
  0
LINE
  8
OSA
  6
DOT
 10
409.019452
 20
2.868358
 11
409.019452
 21
5.368358
  0
LINE
  8
OSA
  6
DOT
 10
407.287390
 20
2.868358
 11
407.287390
 21
5.368358
  0
LINE
  8
OSA
  6
DOT
 10
403.823267
 20
2.868358
 11
403.823267
 21
5.368358
  0
LINE
  8
OSA
  6
DOT
 10
402.091205
 20
2.868358
 11
402.091205
 21
5.368358
  0
ARC
  8
OSA
  6
DOT
 10
408.153421
 20
2.368349
 40
1.000009
 50
30.000310
 51
149.999690
  0
ARC
  8
OSA
  6
DOT
 10
405.555329
 20
0.118321
 40
3.250037
 50
57.795963
 51
122.204037
  0
ARC
  8
OSA
  6
DOT
 10
402.957236
 20
2.368349
 40
1.000009
 50
30.000310
 51
149.999690
  0
ARC
  8
OSA
  6
DOT
 10
408.153421
 20
4.868349
 40
1.000009
 50
30.000310
 51
149.999690
  0
ARC
  8
OSA
  6
DOT
 10
405.555329
 20
2.618321
 40
3.250037
 50
57.795963
 51
122.204037
  0
ARC
  8
OSA
  6
DOT
 10
402.957236
 20
4.868349
 40
1.000009
 50
30.000310
 51
149.999690
  0
LINE
  8
OSA
  6
DOT
 10
408.153421
 20
5.868358
 11
405.555329
 21
7.600420
  0
LINE
  8
OSA
  6
DOT
 10
405.555329
 20
7.600420
 11
402.957236
 21
5.868358
  0
ENDBLK
  8
OSA
  0
BLOCK
  8
OSA
  2
Srouby_s_valcovou_hlavou___71
 70
   66
 10
353.510382
 20
7.868358
  0
LINE
  8
OSA
 62
     2
  6
CONTINUOUS
 10
347.810382
 20
2.868358
 11
359.210382
 21
2.868358
  0
LINE
  8
OSA
 62
     2
  6
CONTINUOUS
 10
347.010382
 20
3.668358
 11
347.010382
 21
7.868358
  0
LINE
  8
OSA
 62
     2
  6
CONTINUOUS
 10
347.010382
 20
7.868358
 11
360.010382
 21
7.868358
  0
LINE
  8
OSA
 62
     2
  6
CONTINUOUS
 10
360.010382
 20
7.868358
 11
360.010382
 21
3.668358
  0
ARC
  8
OSA
 62
     2
  6
CONTINUOUS
 10
347.810382
 20
3.668358
 40
0.800000
 50
180.000000
 51
270.000000
  0
ARC
  8
OSA
 62
     2
  6
CONTINUOUS
 10
359.210382
 20
3.668358
 40
0.800000
 50
270.000000
 51
360.000000
  0
LINE
  8
OSA
  6
DOT
 10
350.046259
 20
2.868358
 11
350.046259
 21
5.368358
  0
LINE
  8
OSA
  6
DOT
 10
351.778320
 20
2.868358
 11
351.778320
 21
5.368358
  0
LINE
  8
OSA
  6
DOT
 10
355.242443
 20
2.868358
 11
355.242443
 21
5.368358
  0
LINE
  8
OSA
  6
DOT
 10
356.974505
 20
2.868358
 11
356.974505
 21
5.368358
  0
ARC
  8
OSA
  6
DOT
 10
350.912289
 20
2.368349
 40
1.000009
 50
30.000310
 51
149.999690
  0
ARC
  8
OSA
  6
DOT
 10
353.510382
 20
0.118321
 40
3.250037
 50
57.795963
 51
122.204037
  0
ARC
  8
OSA
  6
DOT
 10
356.108474
 20
2.368349
 40
1.000009
 50
30.000310
 51
149.999690
  0
ARC
  8
OSA
  6
DOT
 10
350.912289
 20
4.868349
 40
1.000009
 50
30.000310
 51
149.999690
  0
ARC
  8
OSA
  6
DOT
 10
353.510382
 20
2.618321
 40
3.250037
 50
57.795963
 51
122.204037
  0
ARC
  8
OSA
  6
DOT
 10
356.108474
 20
4.868349
 40
1.000009
 50
30.000310
 51
149.999690
  0
LINE
  8
OSA
  6
DOT
 10
350.912289
 20
5.868358
 11
353.510382
 21
7.600420
  0
LINE
  8
OSA
  6
DOT
 10
353.510382
 20
7.600420
 11
356.108474
 21
5.868358
  0
ENDBLK
  8
OSA
  0
BLOCK
  8
OSA
  2
Srouby_s_valcovou_hlavou___72
 70
   66
 10
316.709047
 20
7.868358
  0
LINE
  8
OSA
 62
     2
  6
CONTINUOUS
 10
311.009047
 20
2.868358
 11
322.409047
 21
2.868358
  0
LINE
  8
OSA
 62
     2
  6
CONTINUOUS
 10
310.209047
 20
3.668358
 11
310.209047
 21
7.868358
  0
LINE
  8
OSA
 62
     2
  6
CONTINUOUS
 10
310.209047
 20
7.868358
 11
323.209047
 21
7.868358
  0
LINE
  8
OSA
 62
     2
  6
CONTINUOUS
 10
323.209047
 20
7.868358
 11
323.209047
 21
3.668358
  0
ARC
  8
OSA
 62
     2
  6
CONTINUOUS
 10
311.009047
 20
3.668358
 40
0.800000
 50
180.000000
 51
270.000000
  0
ARC
  8
OSA
 62
     2
  6
CONTINUOUS
 10
322.409047
 20
3.668358
 40
0.800000
 50
270.000000
 51
360.000000
  0
LINE
  8
OSA
  6
DOT
 10
313.244924
 20
2.868358
 11
313.244924
 21
5.368358
  0
LINE
  8
OSA
  6
DOT
 10
314.976985
 20
2.868358
 11
314.976985
 21
5.368358
  0
LINE
  8
OSA
  6
DOT
 10
318.441109
 20
2.868358
 11
318.441109
 21
5.368358
  0
LINE
  8
OSA
  6
DOT
 10
320.173170
 20
2.868358
 11
320.173170
 21
5.368358
  0
ARC
  8
OSA
  6
DOT
 10
314.110955
 20
2.368349
 40
1.000009
 50
30.000310
 51
149.999690
  0
ARC
  8
OSA
  6
DOT
 10
316.709047
 20
0.118321
 40
3.250037
 50
57.795963
 51
122.204037
  0
ARC
  8
OSA
  6
DOT
 10
319.307139
 20
2.368349
 40
1.000009
 50
30.000310
 51
149.999690
  0
ARC
  8
OSA
  6
DOT
 10
314.110955
 20
4.868349
 40
1.000009
 50
30.000310
 51
149.999690
  0
ARC
  8
OSA
  6
DOT
 10
316.709047
 20
2.618321
 40
3.250037
 50
57.795963
 51
122.204037
  0
ARC
  8
OSA
  6
DOT
 10
319.307139
 20
4.868349
 40
1.000009
 50
30.000310
 51
149.999690
  0
LINE
  8
OSA
  6
DOT
 10
314.110955
 20
5.868358
 11
316.709047
 21
7.600420
  0
LINE
  8
OSA
  6
DOT
 10
316.709047
 20
7.600420
 11
319.307139
 21
5.868358
  0
ENDBLK
  8
OSA
  0
BLOCK
  8
OSA
  2
_34
 70
   64
 10
86.825258
 20
307.575956
  0
LINE
  8
OBRYS
 10
74.325258
 20
243.575956
 11
74.825258
 21
243.075956
  0
INSERT
  8
OSA
  2
Srouby_s_valcovou_hlavou___74
  6
CONTINUOUS
 10
79.825258
 20
244.752147
  0
INSERT
  8
OSA
  2
Srouby_s_valcovou_hlavou___75
  6
CONTINUOUS
 10
79.825258
 20
281.553482
  0
LINE
  8
OBRYS
 10
74.325258
 20
371.575956
 11
74.825258
 21
372.075956
  0
INSERT
  8
OSA
  2
Srouby_s_valcovou_hlavou___76
  6
CONTINUOUS
 10
79.825258
 20
333.598429
  0
INSERT
  8
OSA
  2
Srouby_s_valcovou_hlavou___77
  6
CONTINUOUS
 10
79.825258
 20
370.399764
  0
LINE
  8
OBRYS
 10
67.825258
 20
352.637864
 11
79.825258
 21
358.940195
  0
LINE
  8
OBRYS
 10
67.825258
 20
343.292540
 11
79.825258
 21
354.394380
  0
LINE
  8
OBRYS
 10
74.325258
 20
371.575956
 11
74.325258
 21
356.051627
  0
LINE
  8
OBRYS
 10
74.325258
 20
312.121732
 11
79.825258
 21
310.790333
  0
ARC
  8
OBRYS
 10
81.825258
 20
381.400133
 40
2.000000
 50
92.000000
 51
180.000000
  0
LINE
  8
OBRYS
 10
86.825258
 20
383.575956
 11
81.755459
 21
383.398914
  0
ARC
  8
OBRYS
 10
77.825258
 20
377.904383
 40
2.000000
 50
315.000000
 51
360.000000
  0
LINE
  8
OBRYS
 10
67.825258
 20
347.575956
 11
64.825258
 21
347.575956
  0
LINE
  8
OBRYS
 10
64.325258
 20
347.075956
 11
64.825258
 21
347.575956
  0
LINE
  8
OBRYS
 10
79.825258
 20
307.575956
 11
79.825258
 21
381.400133
  0
LINE
  8
OBRYS
 10
64.825258
 20
347.575956
 11
64.825258
 21
307.575956
  0
LINE
  8
OBRYS
 10
64.325258
 20
307.575956
 11
64.325258
 21
347.075956
  0
LINE
  8
OBRYS
 10
74.325258
 20
307.575956
 11
74.325258
 21
322.239242
  0
LINE
  8
OBRYS
 10
67.825258
 20
307.575956
 11
67.825258
 21
352.637864
  0
LINE
  8
OBRYS
 10
67.825258
 20
307.575956
 11
67.825258
 21
262.514047
  0
LINE
  8
OBRYS
 10
74.325258
 20
307.575956
 11
74.325258
 21
292.912669
  0
LINE
  8
OBRYS
 10
64.325258
 20
307.575956
 11
64.325258
 21
268.075956
  0
LINE
  8
OBRYS
 10
64.825258
 20
267.575956
 11
64.825258
 21
307.575956
  0
LINE
  8
OBRYS
 10
79.825258
 20
307.575956
 11
79.825258
 21
233.751778
  0
LINE
  8
OBRYS
 10
64.325258
 20
268.075956
 11
64.825258
 21
267.575956
  0
LINE
  8
OBRYS
 10
67.825258
 20
267.575956
 11
64.825258
 21
267.575956
  0
LINE
  8
OBRYS
 10
86.825258
 20
231.575956
 11
81.755459
 21
231.752997
  0
ARC
  8
OBRYS
 10
81.825258
 20
233.751778
 40
2.000000
 50
180.000000
 51
268.000000
  0
LINE
  8
OBRYS
 10
74.325258
 20
303.030179
 11
79.825258
 21
304.361578
  0
LINE
  8
OBRYS
 10
74.325258
 20
243.575956
 11
74.325258
 21
259.100284
  0
LINE
  8
OBRYS
 10
67.825258
 20
271.859371
 11
79.825258
 21
260.757531
  0
ARC
  8
OBRYS
 10
77.825258
 20
237.247528
 40
2.000000
 50
0.000000
 51
45.000000
  0
LINE
  8
OBRYS
 10
67.825258
 20
262.514047
 11
79.825258
 21
256.211716
  0
LINE
  8
OBRYS
 10
86.825258
 20
231.575956
 11
86.825258
 21
307.575956
  0
LINE
  8
OBRYS
 10
86.825258
 20
383.575956
 11
86.825258
 21
307.575956
  0
LINE
  8
OSA
 10
94.325254
 20
307.575956
 11
56.825262
 21
307.575956
  0
ENDBLK
  8
OSA
  0
BLOCK
  8
OSA
  2
Srouby_s_valcovou_hlavou___74
 70
   66
 10
79.825258
 20
244.752147
  0
LINE
  8
OSA
 62
     2
  6
CONTINUOUS
 10
74.825258
 20
239.052147
 11
74.825258
 21
250.452147
  0
LINE
  8
OSA
 62
     2
  6
CONTINUOUS
 10
75.625258
 20
238.252147
 11
79.825258
 21
238.252147
  0
LINE
  8
OSA
 62
     2
  6
CONTINUOUS
 10
79.825258
 20
238.252147
 11
79.825258
 21
251.252147
  0
LINE
  8
OSA
 62
     2
  6
CONTINUOUS
 10
79.825258
 20
251.252147
 11
75.625258
 21
251.252147
  0
ARC
  8
OSA
 62
     2
  6
CONTINUOUS
 10
75.625258
 20
239.052147
 40
0.800000
 50
180.000000
 51
270.000000
  0
ARC
  8
OSA
 62
     2
  6
CONTINUOUS
 10
75.625258
 20
250.452147
 40
0.800000
 50
90.000000
 51
180.000000
  0
LINE
  8
OSA
  6
DOT
 10
74.825258
 20
241.288024
 11
77.325258
 21
241.288024
  0
LINE
  8
OSA
  6
DOT
 10
74.825258
 20
243.020086
 11
77.325258
 21
243.020086
  0
LINE
  8
OSA
  6
DOT
 10
74.825258
 20
246.484209
 11
77.325258
 21
246.484209
  0
LINE
  8
OSA
  6
DOT
 10
74.825258
 20
248.216271
 11
77.325258
 21
248.216271
  0
ARC
  8
OSA
  6
DOT
 10
74.325249
 20
242.154055
 40
1.000009
 50
300.000310
 51
59.999690
  0
ARC
  8
OSA
  6
DOT
 10
72.075221
 20
244.752147
 40
3.250037
 50
327.795963
 51
32.204037
  0
ARC
  8
OSA
  6
DOT
 10
74.325249
 20
247.350240
 40
1.000009
 50
300.000310
 51
59.999690
  0
ARC
  8
OSA
  6
DOT
 10
76.825249
 20
242.154055
 40
1.000009
 50
300.000310
 51
59.999690
  0
ARC
  8
OSA
  6
DOT
 10
74.575221
 20
244.752147
 40
3.250037
 50
327.795963
 51
32.204037
  0
ARC
  8
OSA
  6
DOT
 10
76.825249
 20
247.350240
 40
1.000009
 50
300.000310
 51
59.999690
  0
LINE
  8
OSA
  6
DOT
 10
77.825258
 20
242.154055
 11
79.557320
 21
244.752147
  0
LINE
  8
OSA
  6
DOT
 10
79.557320
 20
244.752147
 11
77.825258
 21
247.350240
  0
ENDBLK
  8
OSA
  0
BLOCK
  8
OSA
  2
Srouby_s_valcovou_hlavou___75
 70
   66
 10
79.825258
 20
281.553482
  0
LINE
  8
OSA
 62
     2
  6
CONTINUOUS
 10
74.825258
 20
275.853482
 11
74.825258
 21
287.253482
  0
LINE
  8
OSA
 62
     2
  6
CONTINUOUS
 10
75.625258
 20
275.053482
 11
79.825258
 21
275.053482
  0
LINE
  8
OSA
 62
     2
  6
CONTINUOUS
 10
79.825258
 20
275.053482
 11
79.825258
 21
288.053482
  0
LINE
  8
OSA
 62
     2
  6
CONTINUOUS
 10
79.825258
 20
288.053482
 11
75.625258
 21
288.053482
  0
ARC
  8
OSA
 62
     2
  6
CONTINUOUS
 10
75.625258
 20
275.853482
 40
0.800000
 50
180.000000
 51
270.000000
  0
ARC
  8
OSA
 62
     2
  6
CONTINUOUS
 10
75.625258
 20
287.253482
 40
0.800000
 50
90.000000
 51
180.000000
  0
LINE
  8
OSA
  6
DOT
 10
74.825258
 20
278.089359
 11
77.325258
 21
278.089359
  0
LINE
  8
OSA
  6
DOT
 10
74.825258
 20
279.821421
 11
77.325258
 21
279.821421
  0
LINE
  8
OSA
  6
DOT
 10
74.825258
 20
283.285544
 11
77.325258
 21
283.285544
  0
LINE
  8
OSA
  6
DOT
 10
74.825258
 20
285.017605
 11
77.325258
 21
285.017605
  0
ARC
  8
OSA
  6
DOT
 10
74.325249
 20
278.955390
 40
1.000009
 50
300.000310
 51
59.999690
  0
ARC
  8
OSA
  6
DOT
 10
72.075221
 20
281.553482
 40
3.250037
 50
327.795963
 51
32.204037
  0
ARC
  8
OSA
  6
DOT
 10
74.325249
 20
284.151575
 40
1.000009
 50
300.000310
 51
59.999690
  0
ARC
  8
OSA
  6
DOT
 10
76.825249
 20
278.955390
 40
1.000009
 50
300.000310
 51
59.999690
  0
ARC
  8
OSA
  6
DOT
 10
74.575221
 20
281.553482
 40
3.250037
 50
327.795963
 51
32.204037
  0
ARC
  8
OSA
  6
DOT
 10
76.825249
 20
284.151575
 40
1.000009
 50
300.000310
 51
59.999690
  0
LINE
  8
OSA
  6
DOT
 10
77.825258
 20
278.955390
 11
79.557320
 21
281.553482
  0
LINE
  8
OSA
  6
DOT
 10
79.557320
 20
281.553482
 11
77.825258
 21
284.151575
  0
ENDBLK
  8
OSA
  0
BLOCK
  8
OSA
  2
Srouby_s_valcovou_hlavou___76
 70
   66
 10
79.825258
 20
333.598429
  0
LINE
  8
OSA
 62
     2
  6
CONTINUOUS
 10
74.825258
 20
339.298429
 11
74.825258
 21
327.898429
  0
LINE
  8
OSA
 62
     2
  6
CONTINUOUS
 10
75.625258
 20
340.098429
 11
79.825258
 21
340.098429
  0
LINE
  8
OSA
 62
     2
  6
CONTINUOUS
 10
79.825258
 20
340.098429
 11
79.825258
 21
327.098429
  0
LINE
  8
OSA
 62
     2
  6
CONTINUOUS
 10
79.825258
 20
327.098429
 11
75.625258
 21
327.098429
  0
ARC
  8
OSA
 62
     2
  6
CONTINUOUS
 10
75.625258
 20
339.298429
 40
0.800000
 50
90.000000
 51
180.000000
  0
ARC
  8
OSA
 62
     2
  6
CONTINUOUS
 10
75.625258
 20
327.898429
 40
0.800000
 50
180.000000
 51
270.000000
  0
LINE
  8
OSA
  6
DOT
 10
74.825258
 20
337.062552
 11
77.325258
 21
337.062552
  0
LINE
  8
OSA
  6
DOT
 10
74.825258
 20
335.330491
 11
77.325258
 21
335.330491
  0
LINE
  8
OSA
  6
DOT
 10
74.825258
 20
331.866367
 11
77.325258
 21
331.866367
  0
LINE
  8
OSA
  6
DOT
 10
74.825258
 20
330.134306
 11
77.325258
 21
330.134306
  0
ARC
  8
OSA
  6
DOT
 10
74.325249
 20
336.196521
 40
1.000009
 50
300.000310
 51
59.999690
  0
ARC
  8
OSA
  6
DOT
 10
72.075221
 20
333.598429
 40
3.250037
 50
327.795963
 51
32.204037
  0
ARC
  8
OSA
  6
DOT
 10
74.325249
 20
331.000337
 40
1.000009
 50
300.000310
 51
59.999690
  0
ARC
  8
OSA
  6
DOT
 10
76.825249
 20
336.196521
 40
1.000009
 50
300.000310
 51
59.999690
  0
ARC
  8
OSA
  6
DOT
 10
74.575221
 20
333.598429
 40
3.250037
 50
327.795963
 51
32.204037
  0
ARC
  8
OSA
  6
DOT
 10
76.825249
 20
331.000337
 40
1.000009
 50
300.000310
 51
59.999690
  0
LINE
  8
OSA
  6
DOT
 10
77.825258
 20
336.196521
 11
79.557320
 21
333.598429
  0
LINE
  8
OSA
  6
DOT
 10
79.557320
 20
333.598429
 11
77.825258
 21
331.000337
  0
ENDBLK
  8
OSA
  0
BLOCK
  8
OSA
  2
Srouby_s_valcovou_hlavou___77
 70
   66
 10
79.825258
 20
370.399764
  0
LINE
  8
OSA
 62
     2
  6
CONTINUOUS
 10
74.825258
 20
376.099764
 11
74.825258
 21
364.699764
  0
LINE
  8
OSA
 62
     2
  6
CONTINUOUS
 10
75.625258
 20
376.899764
 11
79.825258
 21
376.899764
  0
LINE
  8
OSA
 62
     2
  6
CONTINUOUS
 10
79.825258
 20
376.899764
 11
79.825258
 21
363.899764
  0
LINE
  8
OSA
 62
     2
  6
CONTINUOUS
 10
79.825258
 20
363.899764
 11
75.625258
 21
363.899764
  0
ARC
  8
OSA
 62
     2
  6
CONTINUOUS
 10
75.625258
 20
376.099764
 40
0.800000
 50
90.000000
 51
180.000000
  0
ARC
  8
OSA
 62
     2
  6
CONTINUOUS
 10
75.625258
 20
364.699764
 40
0.800000
 50
180.000000
 51
270.000000
  0
LINE
  8
OSA
  6
DOT
 10
74.825258
 20
373.863887
 11
77.325258
 21
373.863887
  0
LINE
  8
OSA
  6
DOT
 10
74.825258
 20
372.131825
 11
77.325258
 21
372.131825
  0
LINE
  8
OSA
  6
DOT
 10
74.825258
 20
368.667702
 11
77.325258
 21
368.667702
  0
LINE
  8
OSA
  6
DOT
 10
74.825258
 20
366.935641
 11
77.325258
 21
366.935641
  0
ARC
  8
OSA
  6
DOT
 10
74.325249
 20
372.997856
 40
1.000009
 50
300.000310
 51
59.999690
  0
ARC
  8
OSA
  6
DOT
 10
72.075221
 20
370.399764
 40
3.250037
 50
327.795963
 51
32.204037
  0
ARC
  8
OSA
  6
DOT
 10
74.325249
 20
367.801671
 40
1.000009
 50
300.000310
 51
59.999690
  0
ARC
  8
OSA
  6
DOT
 10
76.825249
 20
372.997856
 40
1.000009
 50
300.000310
 51
59.999690
  0
ARC
  8
OSA
  6
DOT
 10
74.575221
 20
370.399764
 40
3.250037
 50
327.795963
 51
32.204037
  0
ARC
  8
OSA
  6
DOT
 10
76.825249
 20
367.801671
 40
1.000009
 50
300.000310
 51
59.999690
  0
LINE
  8
OSA
  6
DOT
 10
77.825258
 20
372.997856
 11
79.557320
 21
370.399764
  0
LINE
  8
OSA
  6
DOT
 10
79.557320
 20
370.399764
 11
77.825258
 21
367.801671
  0
ENDBLK
  8
OSA
  0
BLOCK
  8
OSA
  2
_35
 70
   64
 10
124.825258
 20
307.575956
  0
LINE
  8
OBRYS
 10
92.825258
 20
307.575956
 11
92.825258
 21
355.636645
  0
LINE
  8
OBRYS
 10
175.325258
 20
322.239242
 11
175.325258
 21
307.575956
  0
LINE
  8
OBRYS
 10
181.825258
 20
352.637864
 11
181.825258
 21
307.575956
  0
LINE
  8
OBRYS
 10
184.825258
 20
307.575956
 11
184.825258
 21
347.575956
  0
LINE
  8
OBRYS
 10
185.325258
 20
347.075956
 11
185.325258
 21
307.575956
  0
LINE
  8
OBRYS
 10
156.825258
 20
307.575956
 11
156.825258
 21
355.636645
  0
LINE
  8
OSA
 10
82.825258
 20
377.575956
 11
124.825258
 21
377.575956
  0
ARC
  8
OBRYS
 10
114.800182
 20
340.640016
 40
2.000000
 50
60.000000
 51
180.000000
  0
LINE
  8
OBRYS
 10
112.800182
 20
333.883863
 11
112.800182
 21
340.640016
  0
LINE
  8
OBRYS
 10
86.825258
 20
383.575956
 11
89.825258
 21
383.575956
  0
ARC
  8
OSA
 62
     2
  6
CONTINUOUS
 10
124.825258
 20
411.062271
 40
6.000000
 50
60.000000
 51
120.000000
  0
LINE
  8
OSA
 62
     2
  6
CONTINUOUS
 10
156.825258
 20
399.515266
 11
127.825258
 21
416.258424
  0
ARC
  8
OSA
 62
     2
  6
CONTINUOUS
 10
153.825258
 20
394.319113
 40
6.000000
 50
0.000000
 51
60.000000
  0
ARC
  8
OSA
 62
     2
  6
CONTINUOUS
 10
95.825258
 20
360.832798
 40
6.000000
 50
180.000000
 51
240.000000
  0
LINE
  8
OSA
 62
     2
  6
CONTINUOUS
 10
92.825258
 20
355.636645
 11
121.825258
 21
338.893487
  0
ARC
  8
OSA
 62
     2
  6
CONTINUOUS
 10
124.825258
 20
344.089640
 40
6.000000
 50
240.000000
 51
300.000000
  0
LINE
  8
OSA
 62
     2
  6
CONTINUOUS
 10
92.825258
 20
399.515266
 11
121.825258
 21
416.258424
  0
LINE
  8
OSA
 62
     2
  6
CONTINUOUS
 10
89.825258
 20
394.319113
 11
89.825258
 21
360.832798
  0
ARC
  8
OSA
 62
     2
  6
CONTINUOUS
 10
95.825258
 20
394.319113
 40
6.000000
 50
120.000000
 51
180.000000
  0
LINE
  8
OSA
 62
     2
  6
CONTINUOUS
 10
156.825258
 20
355.636645
 11
127.825258
 21
338.893487
  0
LINE
  8
OSA
 62
     2
  6
CONTINUOUS
 10
159.825258
 20
360.832798
 11
159.825258
 21
394.319113
  0
ARC
  8
OSA
 62
     2
  6
CONTINUOUS
 10
153.825258
 20
360.832798
 40
6.000000
 50
300.000000
 51
360.000000
  0
CIRCLE
  8
OBRYS
 10
124.825258
 20
377.575956
 40
27.500000
  0
POLYLINE
  8
OBRYS
 66
    1
  0
VERTEX
  8
OBRYS
 10
105.325279
 20
325.419250
  0
VERTEX
  8
OBRYS
 10
105.463829
 20
325.420624
  0
VERTEX
  8
OBRYS
 10
105.621727
 20
325.425629
  0
VERTEX
  8
OBRYS
 10
105.801537
 20
325.435699
  0
VERTEX
  8
OBRYS
 10
106.006004
 20
325.452881
  0
VERTEX
  8
OBRYS
 10
106.238182
 20
325.479858
  0
VERTEX
  8
OBRYS
 10
106.501305
 20
325.520081
  0
VERTEX
  8
OBRYS
 10
106.798668
 20
325.578094
  0
VERTEX
  8
OBRYS
 10
107.133263
 20
325.659668
  0
VERTEX
  8
OBRYS
 10
107.507713
 20
325.772034
  0
VERTEX
  8
OBRYS
 10
107.923912
 20
325.924225
  0
VERTEX
  8
OBRYS
 10
108.381981
 20
326.127045
  0
VERTEX
  8
OBRYS
 10
108.879967
 20
326.393036
  0
VERTEX
  8
OBRYS
 10
109.412498
 20
326.736176
  0
VERTEX
  8
OBRYS
 10
109.970177
 20
327.170868
  0
VERTEX
  8
OBRYS
 10
110.538536
 20
327.710724
  0
VERTEX
  8
OBRYS
 10
111.097618
 20
328.366516
  0
VERTEX
  8
OBRYS
 10
111.622765
 20
329.143921
  0
VERTEX
  8
OBRYS
 10
112.085594
 20
330.041199
  0
VERTEX
  8
OBRYS
 10
112.456810
 20
331.047546
  0
VERTEX
  8
OBRYS
 10
112.709129
 20
332.142395
  0
VERTEX
  8
OBRYS
 10
112.821007
 20
333.296082
  0
VERTEX
  8
OBRYS
 10
112.800194
 20
333.883850
  0
SEQEND
  8
OBRYS
  0
ARC
  8
OBRYS
 10
94.825258
 20
323.419247
 40
2.000000
 50
90.000000
 51
180.000000
  0
LINE
  8
OBRYS
 10
94.825258
 20
325.419247
 11
105.325258
 21
325.419247
  0
LINE
  8
OBRYS
 10
175.325258
 20
312.121732
 11
169.825258
 21
310.790333
  0
LINE
  8
OBRYS
 10
175.325258
 20
371.575956
 11
175.325258
 21
356.051627
  0
LINE
  8
OBRYS
 10
181.825258
 20
352.637864
 11
169.825258
 21
358.940195
  0
LINE
  8
OBRYS
 10
181.825258
 20
343.292540
 11
169.825258
 21
354.394380
  0
ARC
  8
OBRYS
 10
171.825258
 20
377.904383
 40
2.000000
 50
180.000000
 51
225.000000
  0
LINE
  8
OBRYS
 10
185.325258
 20
347.075956
 11
184.825258
 21
347.575956
  0
LINE
  8
OBRYS
 10
162.825258
 20
383.575956
 11
161.825258
 21
383.575956
  0
LINE
  8
OBRYS
 10
181.825258
 20
347.575956
 11
184.825258
 21
347.575956
  0
LINE
  8
OBRYS
 10
175.325258
 20
371.575956
 11
170.411044
 21
376.490169
  0
LINE
  8
OSA
 10
124.825258
 20
377.575956
 11
166.825258
 21
377.575956
  0
LINE
  8
OBRYS
 10
86.825258
 20
383.575956
 11
86.825258
 21
307.575956
  0
LINE
  8
OBRYS
 10
92.825258
 20
233.575956
 11
92.825258
 21
307.575956
  0
LINE
  8
OBRYS
 10
181.825258
 20
307.575956
 11
181.825258
 21
262.514047
  0
LINE
  8
OBRYS
 10
175.325258
 20
307.575956
 11
175.325258
 21
292.912669
  0
LINE
  8
OBRYS
 10
185.325258
 20
307.575956
 11
185.325258
 21
268.075956
  0
LINE
  8
OBRYS
 10
184.825258
 20
267.575956
 11
184.825258
 21
307.575956
  0
LINE
  8
OBRYS
 10
156.825258
 20
233.575956
 11
156.825258
 21
307.575956
  0
LINE
  8
OBRYS
 10
124.825258
 20
239.075956
 11
154.825258
 21
239.075956
  0
LINE
  8
OBRYS
 10
169.825258
 20
307.575956
 11
169.825258
 21
233.751778
  0
LINE
  8
OBRYS
 10
185.325258
 20
268.075956
 11
184.825258
 21
267.575956
  0
LINE
  8
OBRYS
 10
181.825258
 20
267.575956
 11
184.825258
 21
267.575956
  0
ARC
  8
OBRYS
 10
171.825258
 20
237.247528
 40
2.000000
 50
135.000000
 51
180.000000
  0
ARC
  8
OBRYS
 10
154.825258
 20
237.075956
 40
2.000000
 50
0.000000
 51
90.000000
  0
LINE
  8
OBRYS
 10
86.825258
 20
231.575956
 11
86.825258
 21
307.575956
  0
LINE
  8
OBRYS
 10
86.825258
 20
231.575956
 11
90.825258
 21
231.575956
  0
ARC
  8
OBRYS
 10
90.825258
 20
233.575956
 40
2.000000
 50
270.000000
 51
360.000000
  0
ARC
  8
OBRYS
 10
158.825258
 20
233.575956
 40
2.000000
 50
180.000000
 51
270.000000
  0
LINE
  8
OBRYS
 10
162.825258
 20
231.575956
 11
158.825258
 21
231.575956
  0
LINE
  8
OBRYS
 10
162.825258
 20
231.575956
 11
167.895057
 21
231.752997
  0
ARC
  8
OBRYS
 10
167.825258
 20
233.751778
 40
2.000000
 50
272.000000
 51
360.000000
  0
LINE
  8
OBRYS
 10
115.825191
 20
236.075956
 11
133.825325
 21
236.075956
  0
LINE
  8
OBRYS
 10
133.825325
 20
236.075956
 11
133.825257
 21
237.075819
  0
ARC
  8
OBRYS
 10
135.825257
 20
237.075956
 40
2.000000
 50
90.000000
 51
180.003913
  0
LINE
  8
OBRYS
 10
115.825191
 20
236.075956
 11
115.825259
 21
237.075819
  0
ARC
  8
OBRYS
 10
113.825259
 20
237.075956
 40
2.000000
 50
359.996087
 51
90.000000
  0
LINE
  8
OBRYS
 10
175.325258
 20
303.030179
 11
169.825258
 21
304.361578
  0
LINE
  8
OBRYS
 10
175.325258
 20
243.575956
 11
175.325258
 21
259.100284
  0
LINE
  8
OBRYS
 10
181.825258
 20
271.859371
 11
169.825258
 21
260.757531
  0
ARC
  8
OBRYS
 10
171.825258
 20
237.247528
 40
2.000000
 50
135.000000
 51
180.000000
  0
LINE
  8
OBRYS
 10
175.325258
 20
243.575956
 11
170.411044
 21
238.661742
  0
LINE
  8
OBRYS
 10
181.825258
 20
262.514047
 11
169.825258
 21
256.211716
  0
ARC
  8
OBRYS
 10
94.825258
 20
291.732664
 40
2.000000
 50
180.000000
 51
270.000000
  0
ARC
  8
OBRYS
 10
94.825258
 20
271.428407
 40
2.000000
 50
90.000000
 51
180.000000
  0
POLYLINE
  8
OBRYS
 66
    1
  0
VERTEX
  8
OBRYS
 10
105.325249
 20
289.732666
  0
VERTEX
  8
OBRYS
 10
105.463829
 20
289.731262
  0
VERTEX
  8
OBRYS
 10
105.621727
 20
289.726288
  0
VERTEX
  8
OBRYS
 10
105.801506
 20
289.716217
  0
VERTEX
  8
OBRYS
 10
106.005974
 20
289.699005
  0
VERTEX
  8
OBRYS
 10
106.238182
 20
289.672028
  0
VERTEX
  8
OBRYS
 10
106.501335
 20
289.631805
  0
VERTEX
  8
OBRYS
 10
106.798637
 20
289.573792
  0
VERTEX
  8
OBRYS
 10
107.133232
 20
289.492249
  0
VERTEX
  8
OBRYS
 10
107.507744
 20
289.379883
  0
VERTEX
  8
OBRYS
 10
107.923912
 20
289.227692
  0
VERTEX
  8
OBRYS
 10
108.381981
 20
289.024872
  0
VERTEX
  8
OBRYS
 10
108.879936
 20
288.758850
  0
VERTEX
  8
OBRYS
 10
109.412498
 20
288.415741
  0
VERTEX
  8
OBRYS
 10
109.970207
 20
287.981049
  0
VERTEX
  8
OBRYS
 10
110.538536
 20
287.441193
  0
VERTEX
  8
OBRYS
 10
111.097649
 20
286.785370
  0
VERTEX
  8
OBRYS
 10
111.622765
 20
286.007965
  0
VERTEX
  8
OBRYS
 10
112.085594
 20
285.110687
  0
VERTEX
  8
OBRYS
 10
112.456779
 20
284.104340
  0
VERTEX
  8
OBRYS
 10
112.709129
 20
283.009491
  0
VERTEX
  8
OBRYS
 10
112.820976
 20
281.855835
  0
VERTEX
  8
OBRYS
 10
112.779381
 20
280.680267
  0
VERTEX
  8
OBRYS
 10
112.582573
 20
279.523621
  0
VERTEX
  8
OBRYS
 10
112.241173
 20
278.426483
  0
VERTEX
  8
OBRYS
 10
111.777336
 20
277.424377
  0
VERTEX
  8
OBRYS
 10
111.222069
 20
276.543213
  0
VERTEX
  8
OBRYS
 10
110.610619
 20
275.796692
  0
VERTEX
  8
OBRYS
 10
109.977287
 20
275.186096
  0
VERTEX
  8
OBRYS
 10
109.351402
 20
274.702606
  0
VERTEX
  8
OBRYS
 10
108.754906
 20
274.330688
  0
VERTEX
  8
OBRYS
 10
108.202080
 20
274.051971
  0
VERTEX
  8
OBRYS
 10
107.700493
 20
273.848022
  0
VERTEX
  8
OBRYS
 10
107.252525
 20
273.702148
  0
VERTEX
  8
OBRYS
 10
106.857109
 20
273.600250
  0
VERTEX
  8
OBRYS
 10
106.511040
 20
273.530945
  0
VERTEX
  8
OBRYS
 10
106.209953
 20
273.485321
  0
VERTEX
  8
OBRYS
 10
105.949120
 20
273.456665
  0
VERTEX
  8
OBRYS
 10
105.723839
 20
273.439911
  0
VERTEX
  8
OBRYS
 10
105.529655
 20
273.431427
  0
VERTEX
  8
OBRYS
 10
105.362480
 20
273.428497
  0
VERTEX
  8
OBRYS
 10
105.325249
 20
273.428406
  0
SEQEND
  8
OBRYS
  0
LINE
  8
OBRYS
 10
94.825258
 20
273.428407
 11
105.325258
 21
273.428407
  0
LINE
  8
OBRYS
 10
94.825258
 20
289.732664
 11
105.325258
 21
289.732664
  0
POLYLINE
  8
0
 62
     2
 66
    1
  0
VERTEX
  8
0
 62
     2
 10
108.599541
 20
238.204254
  0
VERTEX
  8
0
 62
     2
 10
109.110863
 20
238.570343
  0
VERTEX
  8
0
 62
     2
 10
109.425743
 20
238.967590
  0
SEQEND
  8
0
  0
LINE
  8
0
 62
     2
 10
106.477863
 20
237.225492
 11
108.599534
 21
238.204243
  0
LINE
  8
0
 62
     2
 10
109.425739
 20
238.967557
 11
111.146190
 21
241.126899
  0
POLYLINE
  8
0
 62
     2
 66
    1
  0
VERTEX
  8
0
 62
     2
 10
112.651451
 20
244.146545
  0
VERTEX
  8
0
 62
     2
 10
112.820976
 20
244.805176
  0
VERTEX
  8
0
 62
     2
 10
112.651451
 20
245.463837
  0
VERTEX
  8
0
 62
     2
 10
112.149437
 20
246.097168
  0
VERTEX
  8
0
 62
     2
 10
111.334160
 20
246.680847
  0
VERTEX
  8
0
 62
     2
 10
110.237022
 20
247.192444
  0
VERTEX
  8
0
 62
     2
 10
108.900139
 20
247.612335
  0
VERTEX
  8
0
 62
     2
 10
107.374901
 20
247.924316
  0
VERTEX
  8
0
 62
     2
 10
105.719902
 20
248.116425
  0
VERTEX
  8
0
 62
     2
 10
103.998772
 20
248.181305
  0
SEQEND
  8
0
  0
LINE
  8
0
 62
     2
 10
111.146190
 20
241.126899
 11
112.651464
 21
244.146555
  0
LINE
  8
OBRYS
 10
103.998786
 20
248.181309
 11
92.825258
 21
248.181309
  0
POLYLINE
  8
0
 62
     2
 66
    1
  0
VERTEX
  8
0
 62
     2
 10
103.998772
 20
236.718414
  0
VERTEX
  8
0
 62
     2
 10
104.580467
 20
236.740356
  0
VERTEX
  8
0
 62
     2
 10
105.139763
 20
236.805267
  0
VERTEX
  8
0
 62
     2
 10
105.655235
 20
236.910706
  0
VERTEX
  8
0
 62
     2
 10
106.107048
 20
237.052612
  0
VERTEX
  8
0
 62
     2
 10
106.477867
 20
237.225525
  0
SEQEND
  8
0
  0
LINE
  8
OBRYS
 10
109.425739
 20
239.075956
 11
124.825258
 21
239.075956
  0
LINE
  8
OBRYS
 10
103.998786
 20
236.718401
 11
94.825258
 21
236.718401
  0
ARC
  8
OBRYS
 10
94.825258
 20
234.718401
 40
2.000000
 50
90.000000
 51
180.000000
  0
LINE
  8
OSA
 10
124.825258
 20
421.639042
 11
124.825258
 21
231.948310
  0
INSERT
  8
OSA
  2
M10x1__79
  6
CONTINUOUS
 10
124.825258
 20
236.075956
  0
ARC
  8
OBRYS
 10
167.825258
 20
381.400133
 40
2.000000
 50
0.000000
 51
88.000000
  0
LINE
  8
OBRYS
 10
169.825258
 20
307.575956
 11
169.825258
 21
381.400133
  0
LINE
  8
OBRYS
 10
159.825258
 20
383.680718
 11
167.895057
 21
383.398914
  0
LINE
  8
OSA
 10
61.599369
 20
307.575956
 11
198.013966
 21
307.575956
  0
ENDBLK
  8
OSA
  0
BLOCK
  8
OSA
  2
M10x1__79
 70
   66
 10
124.825258
 20
236.075956
  0
LINE
  8
OSA
 10
124.825258
 20
245.404858
 11
124.825258
 21
231.630607
  0
LINE
  8
OSA
 62
     2
  6
CONTINUOUS
 10
117.825258
 20
236.075956
 11
131.825258
 21
236.075956
  0
LINE
  8
OSA
 62
     2
  6
CONTINUOUS
 10
131.825258
 20
236.075956
 11
131.825258
 21
234.075956
  0
LINE
  8
OSA
 62
     2
  6
CONTINUOUS
 10
117.825258
 20
236.075956
 11
117.825258
 21
234.075956
  0
ARC
  8
OSA
 62
     2
  6
CONTINUOUS
 10
130.825258
 20
234.075956
 40
1.000000
 50
270.000000
 51
360.000000
  0
LINE
  8
OSA
 62
     2
  6
CONTINUOUS
 10
118.825258
 20
233.075956
 11
130.825258
 21
233.075956
  0
ARC
  8
OSA
 62
     2
  6
CONTINUOUS
 10
118.825258
 20
234.075956
 40
1.000000
 50
180.000000
 51
270.000000
  0
ENDBLK
  8
OSA
  0
BLOCK
  8
OBRYS
  2
_36
 70
   64
 10
888.948050
 20
307.575956
  0
LINE
  8
OSA
 10
888.948050
 20
307.575956
 11
974.448046
 21
307.575956
  0
INSERT
  8
OBRYS
  2
Vnitrni_metricky_zavit_M8__81
 62
     7
 10
938.948050
 20
307.575956
  0
INSERT
  8
OBRYS
  2
Vnitrni_metricky_zavit_M8__82
 62
     7
 10
924.303389
 20
272.220616
  0
CIRCLE
  8
OSA
 10
888.948050
 20
307.575956
 40
50.000000
  0
LINE
  8
OSA
 10
888.948050
 20
307.575956
 11
888.948050
 21
222.075959
  0
LINE
  8
OSA
 10
888.948050
 20
307.575956
 11
803.448053
 21
307.575956
  0
CIRCLE
  8
OBRYS
 10
888.948050
 20
307.575956
 40
40.000000
  0
CIRCLE
  8
OBRYS
 10
888.948050
 20
307.575956
 40
30.000000
  0
ARC
  8
OBRYS
 10
932.598118
 20
325.656406
 40
5.000000
 50
164.065930
 51
240.934070
  0
ARC
  8
OBRYS
 10
932.598118
 20
289.495505
 40
5.000000
 50
119.065930
 51
195.934070
  0
LINE
  8
OBRYS
 10
928.948050
 20
322.239242
 11
928.948050
 21
292.912669
  0
ARC
  8
OBRYS
 10
888.948050
 20
307.575956
 40
57.500000
 50
308.400746
 51
321.599254
  0
ARC
  8
OBRYS
 10
888.948050
 20
307.575956
 40
64.000000
 50
355.926980
 51
4.073020
  0
ARC
  8
OBRYS
 10
888.948050
 20
307.575956
 40
69.500000
 50
357.334468
 51
2.650877
  0
CIRCLE
  8
OBRYS
 10
888.948050
 20
307.575956
 40
76.000000
  0
ARC
  8
OBRYS
 10
1023.948050
 20
299.575956
 40
100.000000
 50
148.188412
 51
164.065930
  0
ARC
  8
OBRYS
 10
941.518799
 20
350.707341
 40
3.000000
 50
39.366980
 51
148.188412
  0
ARC
  8
OBRYS
 10
978.750611
 20
408.692225
 40
100.000000
 50
240.934070
 51
256.811588
  0
ARC
  8
OBRYS
 10
888.948050
 20
307.575956
 40
71.000000
 50
5.633020
 51
39.366980
  0
ARC
  8
OBRYS
 10
956.619678
 20
314.250594
 40
3.000000
 50
256.811588
 51
5.633020
  0
ARC
  8
OBRYS
 10
978.750611
 20
206.459686
 40
100.000000
 50
103.188412
 51
119.065930
  0
ARC
  8
OBRYS
 10
956.619678
 20
300.901317
 40
3.000000
 50
354.366980
 51
103.188412
  0
ARC
  8
OBRYS
 10
1023.948050
 20
315.575956
 40
100.000000
 50
195.934070
 51
211.811588
  0
ARC
  8
OBRYS
 10
888.948050
 20
307.575956
 40
71.000000
 50
320.633020
 51
354.366980
  0
ARC
  8
OBRYS
 10
941.518799
 20
264.444570
 40
3.000000
 50
211.811588
 51
320.633020
  0
ARC
  8
OBRYS
 10
932.079435
 20
360.146704
 40
3.000000
 50
301.811588
 51
50.633020
  0
ARC
  8
OBRYS
 10
836.377301
 20
350.707341
 40
3.000000
 50
31.811588
 51
140.633020
  0
ARC
  8
OBRYS
 10
845.816665
 20
255.005207
 40
3.000000
 50
121.811588
 51
230.633020
  0
ARC
  8
OBRYS
 10
888.948050
 20
307.575956
 40
71.000000
 50
50.633020
 51
84.366980
  0
ARC
  8
OBRYS
 10
888.948050
 20
307.575956
 40
71.000000
 50
140.633020
 51
174.366980
  0
ARC
  8
OBRYS
 10
888.948050
 20
307.575956
 40
71.000000
 50
230.633020
 51
264.366980
  0
ARC
  8
OBRYS
 10
880.948050
 20
442.575956
 40
100.000000
 50
285.934070
 51
301.811588
  0
ARC
  8
OBRYS
 10
753.948050
 20
299.575956
 40
100.000000
 50
15.934070
 51
31.811588
  0
ARC
  8
OBRYS
 10
896.948050
 20
172.575956
 40
100.000000
 50
105.934070
 51
121.811588
  0
ARC
  8
OBRYS
 10
895.622688
 20
375.247583
 40
3.000000
 50
84.366980
 51
193.188412
  0
ARC
  8
OBRYS
 10
821.276422
 20
314.250594
 40
3.000000
 50
174.366980
 51
283.188412
  0
ARC
  8
OBRYS
 10
882.273412
 20
239.904328
 40
3.000000
 50
264.366980
 51
13.188412
  0
ARC
  8
OBRYS
 10
990.064320
 20
397.378517
 40
100.000000
 50
193.188412
 51
209.065930
  0
ARC
  8
OBRYS
 10
799.145489
 20
408.692225
 40
100.000000
 50
283.188412
 51
299.065930
  0
ARC
  8
OBRYS
 10
787.831780
 20
217.773394
 40
100.000000
 50
13.188412
 51
29.065930
  0
ARC
  8
OBRYS
 10
882.273412
 20
375.247583
 40
3.000000
 50
346.811588
 51
95.633020
  0
ARC
  8
OBRYS
 10
821.276422
 20
300.901317
 40
3.000000
 50
76.811588
 51
185.633020
  0
ARC
  8
OBRYS
 10
895.622688
 20
239.904328
 40
3.000000
 50
166.811588
 51
275.633020
  0
ARC
  8
OBRYS
 10
888.948050
 20
307.575956
 40
71.000000
 50
95.633020
 51
129.366980
  0
ARC
  8
OBRYS
 10
888.948050
 20
307.575956
 40
71.000000
 50
185.633020
 51
219.366980
  0
ARC
  8
OBRYS
 10
888.948050
 20
307.575956
 40
71.000000
 50
275.633020
 51
309.366980
  0
ARC
  8
OBRYS
 10
787.831780
 20
397.378517
 40
100.000000
 50
330.934070
 51
346.811588
  0
ARC
  8
OBRYS
 10
799.145489
 20
206.459686
 40
100.000000
 50
60.934070
 51
76.811588
  0
ARC
  8
OBRYS
 10
990.064320
 20
217.773394
 40
100.000000
 50
150.934070
 51
166.811588
  0
ARC
  8
OBRYS
 10
845.816665
 20
360.146704
 40
3.000000
 50
129.366980
 51
238.188412
  0
ARC
  8
OBRYS
 10
836.377301
 20
264.444570
 40
3.000000
 50
219.366980
 51
328.188412
  0
ARC
  8
OBRYS
 10
932.079435
 20
255.005207
 40
3.000000
 50
309.366980
 51
58.188412
  0
ARC
  8
OBRYS
 10
896.948050
 20
442.575956
 40
100.000000
 50
238.188412
 51
254.065930
  0
ARC
  8
OBRYS
 10
753.948050
 20
315.575956
 40
100.000000
 50
328.188412
 51
344.065930
  0
ARC
  8
OBRYS
 10
880.948050
 20
172.575956
 40
100.000000
 50
58.188412
 51
74.065930
  0
ARC
  8
OBRYS
 10
888.948050
 20
307.575956
 40
69.500000
 50
87.334468
 51
92.650877
  0
ARC
  8
OBRYS
 10
888.948050
 20
307.575956
 40
69.500000
 50
177.334468
 51
182.650877
  0
ARC
  8
OBRYS
 10
888.948050
 20
307.575956
 40
69.500000
 50
267.334468
 51
272.650877
  0
ARC
  8
OBRYS
 10
888.948050
 20
307.575956
 40
64.000000
 50
85.926980
 51
94.073020
  0
ARC
  8
OBRYS
 10
888.948050
 20
307.575956
 40
64.000000
 50
175.926980
 51
184.073020
  0
ARC
  8
OBRYS
 10
888.948050
 20
307.575956
 40
64.000000
 50
265.926980
 51
274.073020
  0
ARC
  8
OBRYS
 10
888.948050
 20
307.575956
 40
57.500000
 50
128.400746
 51
141.599254
  0
LINE
  8
OBRYS
 10
874.284763
 20
347.575956
 11
903.611337
 21
347.575956
  0
LINE
  8
OBRYS
 10
848.948050
 20
292.912669
 11
848.948050
 21
322.239242
  0
LINE
  8
OBRYS
 10
903.611337
 20
267.575956
 11
874.284763
 21
267.575956
  0
ARC
  8
OBRYS
 10
907.028500
 20
351.226023
 40
5.000000
 50
209.065930
 51
285.934070
  0
ARC
  8
OBRYS
 10
845.297982
 20
325.656406
 40
5.000000
 50
299.065930
 51
15.934070
  0
ARC
  8
OBRYS
 10
870.867600
 20
263.925888
 40
5.000000
 50
29.065930
 51
105.934070
  0
ARC
  8
OBRYS
 10
870.867600
 20
351.226023
 40
5.000000
 50
254.065930
 51
330.934070
  0
ARC
  8
OBRYS
 10
845.297982
 20
289.495505
 40
5.000000
 50
344.065930
 51
60.934070
  0
ARC
  8
OBRYS
 10
907.028500
 20
263.925888
 40
5.000000
 50
74.065930
 51
150.934070
  0
INSERT
  8
OBRYS
  2
Vnitrni_metricky_zavit_M8__83
 62
     7
 10
924.303389
 20
342.931295
  0
INSERT
  8
OBRYS
  2
Vnitrni_metricky_zavit_M8__84
 62
     7
 10
853.592711
 20
342.931295
  0
INSERT
  8
OBRYS
  2
Vnitrni_metricky_zavit_M8__85
 62
     7
 10
853.592711
 20
272.220616
  0
INSERT
  8
OBRYS
  2
Vnitrni_metricky_zavit_M8__86
 62
     7
 10
888.948050
 20
357.575956
  0
INSERT
  8
OBRYS
  2
Vnitrni_metricky_zavit_M8__87
 62
     7
 10
838.948050
 20
307.575956
  0
INSERT
  8
OBRYS
  2
Vnitrni_metricky_zavit_M8__88
 62
     7
 10
888.948050
 20
257.575956
  0
ARC
  8
OBRYS
 10
888.948050
 20
307.575956
 40
69.500000
 50
312.334468
 51
317.650877
  0
ARC
  8
OBRYS
 10
888.948050
 20
307.575956
 40
69.500000
 50
222.334468
 51
227.650877
  0
ARC
  8
OBRYS
 10
888.948050
 20
307.575956
 40
69.500000
 50
132.334468
 51
137.650877
  0
ARC
  8
OBRYS
 10
888.948050
 20
307.575956
 40
69.500000
 50
42.334468
 51
47.650877
  0
ARC
  8
OBRYS
 10
888.948050
 20
307.575956
 40
57.500000
 50
38.400746
 51
51.599254
  0
ARC
  8
OBRYS
 10
888.948050
 20
307.575956
 40
57.500000
 50
218.400746
 51
231.599254
  0
CIRCLE
  8
OBRYS
 10
888.948050
 20
307.575956
 40
22.500000
  0
LINE
  8
OBRYS
 10
885.948050
 20
317.638262
 11
885.948050
 21
320.550956
  0
LINE
  8
OBRYS
 10
888.948050
 20
320.550956
 11
885.948050
 21
320.550956
  0
LINE
  8
OBRYS
 10
891.948050
 20
317.638262
 11
891.948050
 21
320.550956
  0
LINE
  8
OBRYS
 10
888.948050
 20
320.550956
 11
891.948050
 21
320.550956
  0
ARC
  8
OBRYS
 10
888.948050
 20
307.575956
 40
10.500000
 50
106.601550
 51
270.000000
  0
ARC
  8
OBRYS
 10
888.948050
 20
307.575956
 40
10.500000
 50
270.000000
 51
73.398450
  0
LINE
  8
OSA
 10
919.398977
 20
277.125029
 11
928.827362
 21
267.696644
  0
LINE
  8
OSA
 10
858.497123
 20
277.125029
 11
849.068738
 21
267.696644
  0
LINE
  8
OSA
 10
858.497123
 20
338.026883
 11
849.068738
 21
347.455267
  0
LINE
  8
OSA
 10
919.398977
 20
338.026883
 11
928.827362
 21
347.455267
  0
ENDBLK
  8
OBRYS
  0
BLOCK
  8
OBRYS
  2
Vnitrni_metricky_zavit_M8__81
 70
   66
 10
938.948050
 20
307.575956
  0
CIRCLE
  8
OBRYS
 10
938.948050
 20
307.575956
 40
3.323500
  0
ARC
  8
OBRYS
 62
     7
 10
938.948050
 20
307.575956
 40
4.000000
 50
130.000000
 51
50.000000
  0
ENDBLK
  8
OBRYS
  0
BLOCK
  8
OBRYS
  2
Vnitrni_metricky_zavit_M8__82
 70
   66
 10
924.303389
 20
272.220616
  0
CIRCLE
  8
OBRYS
 10
924.303389
 20
272.220616
 40
3.323500
  0
ARC
  8
OBRYS
 62
     7
 10
924.303389
 20
272.220616
 40
4.000000
 50
85.000000
 51
5.000000
  0
ENDBLK
  8
OBRYS
  0
BLOCK
  8
OBRYS
  2
Vnitrni_metricky_zavit_M8__83
 70
   66
 10
924.303389
 20
342.931295
  0
CIRCLE
  8
OBRYS
 10
924.303389
 20
342.931295
 40
3.323500
  0
ARC
  8
OBRYS
 62
     7
 10
924.303389
 20
342.931295
 40
4.000000
 50
175.000000
 51
95.000000
  0
ENDBLK
  8
OBRYS
  0
BLOCK
  8
OBRYS
  2
Vnitrni_metricky_zavit_M8__84
 70
   66
 10
853.592711
 20
342.931295
  0
CIRCLE
  8
OBRYS
 10
853.592711
 20
342.931295
 40
3.323500
  0
ARC
  8
OBRYS
 62
     7
 10
853.592711
 20
342.931295
 40
4.000000
 50
265.000000
 51
185.000000
  0
ENDBLK
  8
OBRYS
  0
BLOCK
  8
OBRYS
  2
Vnitrni_metricky_zavit_M8__85
 70
   66
 10
853.592711
 20
272.220616
  0
CIRCLE
  8
OBRYS
 10
853.592711
 20
272.220616
 40
3.323500
  0
ARC
  8
OBRYS
 62
     7
 10
853.592711
 20
272.220616
 40
4.000000
 50
355.000000
 51
275.000000
  0
ENDBLK
  8
OBRYS
  0
BLOCK
  8
OBRYS
  2
Vnitrni_metricky_zavit_M8__86
 70
   66
 10
888.948050
 20
357.575956
  0
CIRCLE
  8
OBRYS
 10
888.948050
 20
357.575956
 40
3.323500
  0
ARC
  8
OBRYS
 62
     7
 10
888.948050
 20
357.575956
 40
4.000000
 50
220.000000
 51
140.000000
  0
ENDBLK
  8
OBRYS
  0
BLOCK
  8
OBRYS
  2
Vnitrni_metricky_zavit_M8__87
 70
   66
 10
838.948050
 20
307.575956
  0
CIRCLE
  8
OBRYS
 10
838.948050
 20
307.575956
 40
3.323500
  0
ARC
  8
OBRYS
 62
     7
 10
838.948050
 20
307.575956
 40
4.000000
 50
310.000000
 51
230.000000
  0
ENDBLK
  8
OBRYS
  0
BLOCK
  8
OBRYS
  2
Vnitrni_metricky_zavit_M8__88
 70
   66
 10
888.948050
 20
257.575956
  0
CIRCLE
  8
OBRYS
 10
888.948050
 20
257.575956
 40
3.323500
  0
ARC
  8
OBRYS
 62
     7
 10
888.948050
 20
257.575956
 40
4.000000
 50
40.000000
 51
320.000000
  0
ENDBLK
  8
OBRYS
  0
BLOCK
  8
OBRYS
  2
_37
 70
   64
 10
379.532855
 20
307.575956
  0
LINE
  8
OSA
 10
328.387188
 20
286.390727
 11
300.541159
 21
274.856523
  0
LINE
  8
OSA
 10
430.678522
 20
328.761184
 11
458.524552
 21
340.295388
  0
LINE
  8
OSA
 10
400.718084
 20
256.430289
 11
412.252287
 21
228.584259
  0
LINE
  8
OSA
 10
358.347626
 20
358.721623
 11
346.813423
 21
386.567652
  0
ARC
  8
OBRYS
 10
371.532855
 20
442.575956
 40
100.000000
 50
285.934070
 51
303.242533
  0
ARC
  8
OBRYS
 10
379.532855
 20
307.575956
 40
69.500000
 50
42.349123
 51
47.650877
  0
ARC
  8
OBRYS
 10
514.532855
 20
299.575956
 40
100.000000
 50
146.757467
 51
164.065930
  0
ARC
  8
OBRYS
 10
469.335416
 20
408.692225
 40
100.000000
 50
240.934070
 51
258.242533
  0
ARC
  8
OBRYS
 10
379.532855
 20
307.575956
 40
69.500000
 50
357.349123
 51
2.650877
  0
ARC
  8
OBRYS
 10
469.335416
 20
206.459686
 40
100.000000
 50
101.757467
 51
119.065930
  0
ARC
  8
OBRYS
 10
514.532855
 20
315.575956
 40
100.000000
 50
195.934070
 51
213.242533
  0
ARC
  8
OBRYS
 10
379.532855
 20
307.575956
 40
69.500000
 50
312.349123
 51
317.650877
  0
ARC
  8
OBRYS
 10
371.532855
 20
172.575956
 40
100.000000
 50
56.757467
 51
74.065930
  0
ARC
  8
OBRYS
 10
480.649125
 20
217.773394
 40
100.000000
 50
150.934070
 51
168.242533
  0
ARC
  8
OBRYS
 10
379.532855
 20
307.575956
 40
69.500000
 50
267.349123
 51
272.650877
  0
ARC
  8
OBRYS
 10
278.416586
 20
217.773394
 40
100.000000
 50
11.757467
 51
29.065930
  0
ARC
  8
OBRYS
 10
387.532855
 20
172.575956
 40
100.000000
 50
105.934070
 51
123.242533
  0
ARC
  8
OBRYS
 10
379.532855
 20
307.575956
 40
69.500000
 50
222.349123
 51
227.650877
  0
ARC
  8
OBRYS
 10
244.532855
 20
315.575956
 40
100.000000
 50
326.757467
 51
344.065930
  0
ARC
  8
OBRYS
 10
289.730294
 20
206.459686
 40
100.000000
 50
60.934070
 51
78.242533
  0
ARC
  8
OBRYS
 10
379.532855
 20
307.575956
 40
69.500000
 50
177.349123
 51
182.650877
  0
ARC
  8
OBRYS
 10
289.730294
 20
408.692225
 40
100.000000
 50
281.757467
 51
299.065930
  0
ARC
  8
OBRYS
 10
244.532855
 20
299.575956
 40
100.000000
 50
15.934070
 51
33.242533
  0
ARC
  8
OBRYS
 10
379.532855
 20
307.575956
 40
69.500000
 50
132.349123
 51
137.650877
  0
ARC
  8
OBRYS
 10
387.532855
 20
442.575956
 40
100.000000
 50
236.757467
 51
254.065930
  0
ARC
  8
OBRYS
 10
278.416586
 20
397.378517
 40
100.000000
 50
330.934070
 51
348.242533
  0
ARC
  8
OBRYS
 10
379.532855
 20
307.575956
 40
69.500000
 50
87.349123
 51
92.650877
  0
ARC
  8
OBRYS
 10
480.649125
 20
397.378517
 40
100.000000
 50
191.757467
 51
209.065930
  0
INSERT
  8
OBRYS
  2
Vnitrni_metricky_zavit_M8__90
 62
     7
 10
379.532855
 20
257.575956
  0
INSERT
  8
OBRYS
  2
Vnitrni_metricky_zavit_M8__91
 62
     7
 10
329.532855
 20
307.575956
  0
INSERT
  8
OBRYS
  2
Vnitrni_metricky_zavit_M8__92
 62
     7
 10
379.532855
 20
357.575956
  0
INSERT
  8
OBRYS
  2
Vnitrni_metricky_zavit_M8__93
 62
     7
 10
344.177516
 20
272.220616
  0
INSERT
  8
OBRYS
  2
Vnitrni_metricky_zavit_M8__94
 62
     7
 10
344.177516
 20
342.931295
  0
INSERT
  8
OBRYS
  2
Vnitrni_metricky_zavit_M8__95
 62
     7
 10
414.888194
 20
342.931295
  0
LINE
  8
OSA
 10
358.347626
 20
256.430289
 11
346.813423
 21
228.584259
  0
LINE
  8
OSA
 10
328.387188
 20
328.761184
 11
300.541159
 21
340.295388
  0
LINE
  8
OSA
 10
400.718084
 20
358.721623
 11
412.252287
 21
386.567652
  0
ARC
  8
OBRYS
 10
397.613305
 20
263.925888
 40
5.000000
 50
74.065930
 51
150.934070
  0
ARC
  8
OBRYS
 10
335.882788
 20
289.495505
 40
5.000000
 50
344.065930
 51
60.934070
  0
ARC
  8
OBRYS
 10
361.452405
 20
351.226023
 40
5.000000
 50
254.065930
 51
330.934070
  0
ARC
  8
OBRYS
 10
361.452405
 20
263.925888
 40
5.000000
 50
29.065930
 51
105.934070
  0
ARC
  8
OBRYS
 10
335.882788
 20
325.656406
 40
5.000000
 50
299.065930
 51
15.934070
  0
ARC
  8
OBRYS
 10
397.613305
 20
351.226023
 40
5.000000
 50
209.065930
 51
285.934070
  0
LINE
  8
OBRYS
 10
394.196142
 20
267.575956
 11
364.869569
 21
267.575956
  0
LINE
  8
OBRYS
 10
339.532855
 20
292.912669
 11
339.532855
 21
322.239242
  0
LINE
  8
OBRYS
 10
364.869569
 20
347.575956
 11
394.196142
 21
347.575956
  0
ARC
  8
OBRYS
 10
379.532855
 20
307.575956
 40
57.500000
 50
218.400746
 51
231.599254
  0
ARC
  8
OBRYS
 10
379.532855
 20
307.575956
 40
57.500000
 50
128.400746
 51
141.599254
  0
ARC
  8
OBRYS
 10
379.532855
 20
307.575956
 40
57.500000
 50
38.400746
 51
51.599254
  0
ARC
  8
OBRYS
 10
379.532855
 20
307.575956
 40
64.000000
 50
265.926980
 51
274.073020
  0
ARC
  8
OBRYS
 10
379.532855
 20
307.575956
 40
64.000000
 50
175.926980
 51
184.073020
  0
ARC
  8
OBRYS
 10
379.532855
 20
307.575956
 40
64.000000
 50
85.926980
 51
94.073020
  0
CIRCLE
  8
OBRYS
 10
379.532855
 20
307.575956
 40
76.000000
  0
ARC
  8
OBRYS
 10
379.532855
 20
307.575956
 40
64.000000
 50
355.926980
 51
4.073020
  0
ARC
  8
OBRYS
 10
379.532855
 20
307.575956
 40
57.500000
 50
308.400746
 51
321.599254
  0
LINE
  8
OBRYS
 10
419.532855
 20
322.239242
 11
419.532855
 21
292.912669
  0
ARC
  8
OBRYS
 10
423.182923
 20
289.495505
 40
5.000000
 50
119.065930
 51
195.934070
  0
ARC
  8
OBRYS
 10
423.182923
 20
325.656406
 40
5.000000
 50
164.065930
 51
240.934070
  0
CIRCLE
  8
OBRYS
 10
379.532855
 20
307.575956
 40
30.000000
  0
CIRCLE
  8
OBRYS
 10
379.532855
 20
307.575956
 40
40.000000
  0
LINE
  8
OSA
 10
379.532855
 20
307.575956
 11
465.032852
 21
307.575956
  0
LINE
  8
OSA
 10
379.532855
 20
307.575956
 11
379.532855
 21
393.075952
  0
LINE
  8
OSA
 10
379.532855
 20
307.575956
 11
379.532855
 21
222.075959
  0
CIRCLE
  8
OSA
 10
379.532855
 20
307.575956
 40
68.000000
  0
LINE
  8
OSA
 10
430.678522
 20
286.390727
 11
458.524552
 21
274.856523
  0
CIRCLE
  8
OSA
 10
379.532855
 20
307.575956
 40
50.000000
  0
INSERT
  8
OBRYS
  2
Vnitrni_metricky_zavit_M8__96
 62
     7
 10
414.888194
 20
272.220616
  0
INSERT
  8
OBRYS
  2
Vnitrni_metricky_zavit_M8__97
 62
     7
 10
429.532855
 20
307.575956
  0
LINE
  8
OSA
 10
379.532855
 20
307.575956
 11
379.532855
 21
222.075959
  0
LINE
  8
OSA
 10
379.532855
 20
307.575956
 11
294.032859
 21
307.575956
  0
LINE
  8
OSA
 10
409.983782
 20
338.026883
 11
419.412167
 21
347.455267
  0
LINE
  8
OSA
 10
349.081928
 20
338.026883
 11
339.653543
 21
347.455267
  0
LINE
  8
OSA
 10
349.081928
 20
277.125029
 11
339.653543
 21
267.696644
  0
LINE
  8
OSA
 10
409.983782
 20
277.125029
 11
419.412167
 21
267.696644
  0
INSERT
  8
OBRYS
  2
Srouby_s_valcovou_hlavou___98
 62
     7
 10
353.510382
 20
370.399764
  0
INSERT
  8
OBRYS
  2
Srouby_s_valcovou_hlavou___99
 62
     7
 10
316.709047
 20
333.598429
  0
INSERT
  8
OBRYS
  2
Srouby_s_valcovou_hlavou___100
 62
     7
 10
316.709047
 20
281.553482
  0
INSERT
  8
OBRYS
  2
Srouby_s_valcovou_hlavou___101
 62
     7
 10
353.510382
 20
244.752147
  0
INSERT
  8
OBRYS
  2
Srouby_s_valcovou_hlavou___102
 62
     7
 10
405.555329
 20
244.752147
  0
INSERT
  8
OBRYS
  2
Srouby_s_valcovou_hlavou___103
 62
     7
 10
442.356663
 20
281.553482
  0
INSERT
  8
OBRYS
  2
Srouby_s_valcovou_hlavou___104
 62
     7
 10
442.356663
 20
333.598429
  0
INSERT
  8
OBRYS
  2
Srouby_s_valcovou_hlavou___105
 62
     7
 10
405.555329
 20
370.399764
  0
ARC
  8
OBRYS
 10
379.532855
 20
307.575956
 40
10.500000
 50
270.000000
 51
73.398450
  0
ARC
  8
OBRYS
 10
379.532855
 20
307.575956
 40
10.500000
 50
106.601550
 51
270.000000
  0
LINE
  8
OBRYS
 10
379.532855
 20
320.550956
 11
382.532855
 21
320.550956
  0
LINE
  8
OBRYS
 10
382.532855
 20
317.638262
 11
382.532855
 21
320.550956
  0
LINE
  8
OBRYS
 10
379.532855
 20
320.550956
 11
376.532855
 21
320.550956
  0
LINE
  8
OBRYS
 10
376.532855
 20
317.638262
 11
376.532855
 21
320.550956
  0
CIRCLE
  8
OBRYS
 10
379.532855
 20
307.575956
 40
22.500000
  0
ENDBLK
  8
OBRYS
  0
BLOCK
  8
OBRYS
  2
Vnitrni_metricky_zavit_M8__90
 70
   66
 10
379.532855
 20
257.575956
  0
CIRCLE
  8
OBRYS
 10
379.532855
 20
257.575956
 40
3.323500
  0
ARC
  8
OBRYS
 62
     7
 10
379.532855
 20
257.575956
 40
4.000000
 50
40.000000
 51
320.000000
  0
ENDBLK
  8
OBRYS
  0
BLOCK
  8
OBRYS
  2
Vnitrni_metricky_zavit_M8__91
 70
   66
 10
329.532855
 20
307.575956
  0
CIRCLE
  8
OBRYS
 10
329.532855
 20
307.575956
 40
3.323500
  0
ARC
  8
OBRYS
 62
     7
 10
329.532855
 20
307.575956
 40
4.000000
 50
310.000000
 51
230.000000
  0
ENDBLK
  8
OBRYS
  0
BLOCK
  8
OBRYS
  2
Vnitrni_metricky_zavit_M8__92
 70
   66
 10
379.532855
 20
357.575956
  0
CIRCLE
  8
OBRYS
 10
379.532855
 20
357.575956
 40
3.323500
  0
ARC
  8
OBRYS
 62
     7
 10
379.532855
 20
357.575956
 40
4.000000
 50
220.000000
 51
140.000000
  0
ENDBLK
  8
OBRYS
  0
BLOCK
  8
OBRYS
  2
Vnitrni_metricky_zavit_M8__93
 70
   66
 10
344.177516
 20
272.220616
  0
CIRCLE
  8
OBRYS
 10
344.177516
 20
272.220616
 40
3.323500
  0
ARC
  8
OBRYS
 62
     7
 10
344.177516
 20
272.220616
 40
4.000000
 50
355.000000
 51
275.000000
  0
ENDBLK
  8
OBRYS
  0
BLOCK
  8
OBRYS
  2
Vnitrni_metricky_zavit_M8__94
 70
   66
 10
344.177516
 20
342.931295
  0
CIRCLE
  8
OBRYS
 10
344.177516
 20
342.931295
 40
3.323500
  0
ARC
  8
OBRYS
 62
     7
 10
344.177516
 20
342.931295
 40
4.000000
 50
265.000000
 51
185.000000
  0
ENDBLK
  8
OBRYS
  0
BLOCK
  8
OBRYS
  2
Vnitrni_metricky_zavit_M8__95
 70
   66
 10
414.888194
 20
342.931295
  0
CIRCLE
  8
OBRYS
 10
414.888194
 20
342.931295
 40
3.323500
  0
ARC
  8
OBRYS
 62
     7
 10
414.888194
 20
342.931295
 40
4.000000
 50
175.000000
 51
95.000000
  0
ENDBLK
  8
OBRYS
  0
BLOCK
  8
OBRYS
  2
Vnitrni_metricky_zavit_M8__96
 70
   66
 10
414.888194
 20
272.220616
  0
CIRCLE
  8
OBRYS
 10
414.888194
 20
272.220616
 40
3.323500
  0
ARC
  8
OBRYS
 62
     7
 10
414.888194
 20
272.220616
 40
4.000000
 50
85.000000
 51
5.000000
  0
ENDBLK
  8
OBRYS
  0
BLOCK
  8
OBRYS
  2
Vnitrni_metricky_zavit_M8__97
 70
   66
 10
429.532855
 20
307.575956
  0
CIRCLE
  8
OBRYS
 10
429.532855
 20
307.575956
 40
3.323500
  0
ARC
  8
OBRYS
 62
     7
 10
429.532855
 20
307.575956
 40
4.000000
 50
130.000000
 51
50.000000
  0
ENDBLK
  8
OBRYS
  0
BLOCK
  8
OBRYS
  2
Srouby_s_valcovou_hlavou___98
 70
   66
 10
353.510382
 20
370.399764
  0
LINE
  8
OBRYS
 10
350.510382
 20
368.667702
 11
350.510382
 21
372.131825
  0
LINE
  8
OBRYS
 10
350.510382
 20
372.131825
 11
353.510382
 21
373.863887
  0
LINE
  8
OBRYS
 10
353.510382
 20
373.863887
 11
356.510382
 21
372.131825
  0
LINE
  8
OBRYS
 10
356.510382
 20
372.131825
 11
356.510382
 21
368.667702
  0
LINE
  8
OBRYS
 10
356.510382
 20
368.667702
 11
353.510382
 21
366.935641
  0
LINE
  8
OBRYS
 10
353.510382
 20
366.935641
 11
350.510382
 21
368.667702
  0
CIRCLE
  8
OBRYS
 10
353.510382
 20
370.399764
 40
3.464123
  0
CIRCLE
  8
OBRYS
 10
353.510382
 20
370.399764
 40
6.500000
  0
ENDBLK
  8
OBRYS
  0
BLOCK
  8
OBRYS
  2
Srouby_s_valcovou_hlavou___99
 70
   66
 10
316.709047
 20
333.598429
  0
LINE
  8
OBRYS
 10
315.812479
 20
330.252356
 11
313.362974
 21
332.701861
  0
LINE
  8
OBRYS
 10
313.362974
 20
332.701861
 11
314.259542
 21
336.047934
  0
LINE
  8
OBRYS
 10
314.259542
 20
336.047934
 11
317.605615
 21
336.944502
  0
LINE
  8
OBRYS
 10
317.605615
 20
336.944502
 11
320.055120
 21
334.494997
  0
LINE
  8
OBRYS
 10
320.055120
 20
334.494997
 11
319.158552
 21
331.148924
  0
LINE
  8
OBRYS
 10
319.158552
 20
331.148924
 11
315.812479
 21
330.252356
  0
CIRCLE
  8
OBRYS
 10
316.709047
 20
333.598429
 40
3.464123
  0
CIRCLE
  8
OBRYS
 10
316.709047
 20
333.598429
 40
6.500000
  0
ENDBLK
  8
OBRYS
  0
BLOCK
  8
OBRYS
  2
Srouby_s_valcovou_hlavou___100
 70
   66
 10
316.709047
 20
281.553482
  0
LINE
  8
OBRYS
 10
318.441109
 20
278.553482
 11
314.976985
 21
278.553482
  0
LINE
  8
OBRYS
 10
314.976985
 20
278.553482
 11
313.244924
 21
281.553482
  0
LINE
  8
OBRYS
 10
313.244924
 20
281.553482
 11
314.976985
 21
284.553482
  0
LINE
  8
OBRYS
 10
314.976985
 20
284.553482
 11
318.441109
 21
284.553482
  0
LINE
  8
OBRYS
 10
318.441109
 20
284.553482
 11
320.173170
 21
281.553482
  0
LINE
  8
OBRYS
 10
320.173170
 20
281.553482
 11
318.441109
 21
278.553482
  0
CIRCLE
  8
OBRYS
 10
316.709047
 20
281.553482
 40
3.464123
  0
CIRCLE
  8
OBRYS
 10
316.709047
 20
281.553482
 40
6.500000
  0
ENDBLK
  8
OBRYS
  0
BLOCK
  8
OBRYS
  2
Srouby_s_valcovou_hlavou___101
 70
   66
 10
353.510382
 20
244.752147
  0
LINE
  8
OBRYS
 10
356.856455
 20
243.855579
 11
354.406950
 21
241.406074
  0
LINE
  8
OBRYS
 10
354.406950
 20
241.406074
 11
351.060877
 21
242.302642
  0
LINE
  8
OBRYS
 10
351.060877
 20
242.302642
 11
350.164309
 21
245.648715
  0
LINE
  8
OBRYS
 10
350.164309
 20
245.648715
 11
352.613814
 21
248.098220
  0
LINE
  8
OBRYS
 10
352.613814
 20
248.098220
 11
355.959887
 21
247.201652
  0
LINE
  8
OBRYS
 10
355.959887
 20
247.201652
 11
356.856455
 21
243.855579
  0
CIRCLE
  8
OBRYS
 10
353.510382
 20
244.752147
 40
3.464123
  0
CIRCLE
  8
OBRYS
 10
353.510382
 20
244.752147
 40
6.500000
  0
ENDBLK
  8
OBRYS
  0
BLOCK
  8
OBRYS
  2
Srouby_s_valcovou_hlavou___102
 70
   66
 10
405.555329
 20
244.752147
  0
LINE
  8
OBRYS
 10
408.555329
 20
246.484209
 11
408.555329
 21
243.020086
  0
LINE
  8
OBRYS
 10
408.555329
 20
243.020086
 11
405.555329
 21
241.288024
  0
LINE
  8
OBRYS
 10
405.555329
 20
241.288024
 11
402.555329
 21
243.020086
  0
LINE
  8
OBRYS
 10
402.555329
 20
243.020086
 11
402.555329
 21
246.484209
  0
LINE
  8
OBRYS
 10
402.555329
 20
246.484209
 11
405.555329
 21
248.216271
  0
LINE
  8
OBRYS
 10
405.555329
 20
248.216271
 11
408.555329
 21
246.484209
  0
CIRCLE
  8
OBRYS
 10
405.555329
 20
244.752147
 40
3.464123
  0
CIRCLE
  8
OBRYS
 10
405.555329
 20
244.752147
 40
6.500000
  0
ENDBLK
  8
OBRYS
  0
BLOCK
  8
OBRYS
  2
Srouby_s_valcovou_hlavou___103
 70
   66
 10
442.356663
 20
281.553482
  0
LINE
  8
OBRYS
 10
443.253231
 20
284.899555
 11
445.702736
 21
282.450050
  0
LINE
  8
OBRYS
 10
445.702736
 20
282.450050
 11
444.806169
 21
279.103977
  0
LINE
  8
OBRYS
 10
444.806169
 20
279.103977
 11
441.460096
 21
278.207409
  0
LINE
  8
OBRYS
 10
441.460096
 20
278.207409
 11
439.010591
 21
280.656914
  0
LINE
  8
OBRYS
 10
439.010591
 20
280.656914
 11
439.907158
 21
284.002987
  0
LINE
  8
OBRYS
 10
439.907158
 20
284.002987
 11
443.253231
 21
284.899555
  0
CIRCLE
  8
OBRYS
 10
442.356663
 20
281.553482
 40
3.464123
  0
CIRCLE
  8
OBRYS
 10
442.356663
 20
281.553482
 40
6.500000
  0
ENDBLK
  8
OBRYS
  0
BLOCK
  8
OBRYS
  2
Srouby_s_valcovou_hlavou___104
 70
   66
 10
442.356663
 20
333.598429
  0
LINE
  8
OBRYS
 10
440.624602
 20
336.598429
 11
444.088725
 21
336.598429
  0
LINE
  8
OBRYS
 10
444.088725
 20
336.598429
 11
445.820787
 21
333.598429
  0
LINE
  8
OBRYS
 10
445.820787
 20
333.598429
 11
444.088725
 21
330.598429
  0
LINE
  8
OBRYS
 10
444.088725
 20
330.598429
 11
440.624602
 21
330.598429
  0
LINE
  8
OBRYS
 10
440.624602
 20
330.598429
 11
438.892540
 21
333.598429
  0
LINE
  8
OBRYS
 10
438.892540
 20
333.598429
 11
440.624602
 21
336.598429
  0
CIRCLE
  8
OBRYS
 10
442.356663
 20
333.598429
 40
3.464123
  0
CIRCLE
  8
OBRYS
 10
442.356663
 20
333.598429
 40
6.500000
  0
ENDBLK
  8
OBRYS
  0
BLOCK
  8
OBRYS
  2
Srouby_s_valcovou_hlavou___105
 70
   66
 10
405.555329
 20
370.399764
  0
LINE
  8
OBRYS
 10
402.209256
 20
371.296332
 11
404.658761
 21
373.745837
  0
LINE
  8
OBRYS
 10
404.658761
 20
373.745837
 11
408.004834
 21
372.849269
  0
LINE
  8
OBRYS
 10
408.004834
 20
372.849269
 11
408.901402
 21
369.503196
  0
LINE
  8
OBRYS
 10
408.901402
 20
369.503196
 11
406.451897
 21
367.053691
  0
LINE
  8
OBRYS
 10
406.451897
 20
367.053691
 11
403.105824
 21
367.950259
  0
LINE
  8
OBRYS
 10
403.105824
 20
367.950259
 11
402.209256
 21
371.296332
  0
CIRCLE
  8
OBRYS
 10
405.555329
 20
370.399764
 40
3.464123
  0
CIRCLE
  8
OBRYS
 10
405.555329
 20
370.399764
 40
6.500000
  0
ENDBLK
  8
OBRYS
  0
ENDSEC
  0
SECTION
  2
ENTITIES
  0
LINE
  8
OBRYS
 10
-19.918911
 20
838.566088
 11
-19.918911
 21
-195.693152
  0
INSERT
  8
OSA
  2
_0
  6
CONTINUOUS
 10
-513.315778
 20
312.587729
  0
INSERT
  8
OBRYS
  2
_1
 62
     7
 10
-513.315778
 20
382.587729
  0
INSERT
  8
OSA
  2
_2
  6
CONTINUOUS
 10
-475.315778
 20
312.587729
  0
LINE
  8
OSA
 10
-477.253333
 20
528.252201
 11
-457.454343
 21
508.453212
  0
LINE
  8
OSA
 10
-549.378224
 20
528.252201
 11
-569.177214
 21
508.453212
  0
LINE
  8
OSA
 10
-549.378224
 20
600.377093
 11
-569.177214
 21
620.176083
  0
LINE
  8
OSA
 10
-477.253333
 20
600.377093
 11
-457.454343
 21
620.176083
  0
LINE
  8
OSA
 10
-513.315778
 20
606.814647
 11
-513.315778
 21
584.314647
  0
LINE
  8
OSA
 10
-513.315778
 20
564.314647
 11
-513.315778
 21
541.814647
  0
LINE
  8
OSA
 10
-513.315778
 20
564.314647
 11
-513.315778
 21
586.814647
  0
LINE
  8
OSA
 10
-513.315778
 20
564.314647
 11
-535.815778
 21
564.314647
  0
LINE
  8
OSA
 10
-513.315778
 20
564.314647
 11
-490.815778
 21
564.314647
  0
CIRCLE
  8
OBRYS
 10
-513.315778
 20
564.314647
 40
12.500000
  0
ARC
  8
OBRYS
 10
-513.315778
 20
564.314647
 40
7.000000
 50
110.924832
 51
69.075168
  0
LINE
  8
OBRYS
 10
-515.815778
 20
570.852996
 11
-515.815778
 21
573.514647
  0
LINE
  8
OBRYS
 10
-510.815778
 20
570.852996
 11
-510.815778
 21
573.514647
  0
LINE
  8
OBRYS
 10
-515.815778
 20
573.514647
 11
-510.815778
 21
573.514647
  0
CIRCLE
  8
OBRYS
 10
-513.315778
 20
564.314647
 40
80.000000
  0
CIRCLE
  8
OBRYS
 10
-513.315778
 20
564.314647
 40
55.000000
  0
LINE
  8
OSA
 10
-513.315778
 20
564.314647
 11
-428.315778
 21
564.314647
  0
LINE
  8
OSA
 10
-513.315778
 20
564.314647
 11
-598.315778
 21
564.314647
  0
LINE
  8
OSA
 10
-513.315778
 20
564.314647
 11
-513.315778
 21
649.314647
  0
LINE
  8
OSA
 10
-513.315778
 20
564.314647
 11
-513.315778
 21
479.314647
  0
CIRCLE
  8
OSA
 10
-513.315778
 20
564.314647
 40
65.000000
  0
INSERT
  8
OBRYS
 66
     1
  2
Vnitrni_metricky_zavit_M8_3
 62
     7
 10
-559.277719
 20
518.352707
  0
ATTRIB
  8
OBRYS
 10
-1147.556274
 20
5.011773
 40
25.000000
  1
CSN 02 1034
  2
norma roz.
 70
     1
  0
ATTRIB
  8
OBRYS
 10
-1147.556274
 20
5.011773
 40
25.000000
  1
1.25
  2
roztec
 70
     1
  0
ATTRIB
  8
OBRYS
 10
-1147.556274
 20
5.011773
 40
25.000000
  1
*NB
  2
puvod
 70
     1
  0
ATTRIB
  8
OBRYS
 10
-1147.556274
 20
5.011773
 40
25.000000
  1
02 1034
  2
tridici znak
 70
     1
  0
SEQEND
  8
OBRYS
  0
INSERT
  8
OBRYS
 66
     1
  2
Vnitrni_metricky_zavit_M8_4
 62
     7
 10
-467.353838
 20
518.352707
  0
ATTRIB
  8
OBRYS
 10
-1147.556274
 20
5.011773
 40
25.000000
  1
CSN 02 1034
  2
norma roz.
 70
     1
  0
ATTRIB
  8
OBRYS
 10
-1147.556274
 20
5.011773
 40
25.000000
  1
1.25
  2
roztec
 70
     1
  0
ATTRIB
  8
OBRYS
 10
-1147.556274
 20
5.011773
 40
25.000000
  1
*NB
  2
puvod
 70
     1
  0
ATTRIB
  8
OBRYS
 10
-1147.556274
 20
5.011773
 40
25.000000
  1
02 1034
  2
tridici znak
 70
     1
  0
SEQEND
  8
OBRYS
  0
INSERT
  8
OBRYS
 66
     1
  2
Vnitrni_metricky_zavit_M8_5
 62
     7
 10
-467.353838
 20
610.276588
  0
ATTRIB
  8
OBRYS
 10
-1147.556274
 20
5.011773
 40
25.000000
  1
CSN 02 1034
  2
norma roz.
 70
     1
  0
ATTRIB
  8
OBRYS
 10
-1147.556274
 20
5.011773
 40
25.000000
  1
1.25
  2
roztec
 70
     1
  0
ATTRIB
  8
OBRYS
 10
-1147.556274
 20
5.011773
 40
25.000000
  1
*NB
  2
puvod
 70
     1
  0
ATTRIB
  8
OBRYS
 10
-1147.556274
 20
5.011773
 40
25.000000
  1
02 1034
  2
tridici znak
 70
     1
  0
SEQEND
  8
OBRYS
  0
INSERT
  8
OBRYS
 66
     1
  2
Vnitrni_metricky_zavit_M8_6
 62
     7
 10
-559.277719
 20
610.276588
  0
ATTRIB
  8
OBRYS
 10
-1147.556274
 20
5.011773
 40
25.000000
  1
CSN 02 1034
  2
norma roz.
 70
     1
  0
ATTRIB
  8
OBRYS
 10
-1147.556274
 20
5.011773
 40
25.000000
  1
1.25
  2
roztec
 70
     1
  0
ATTRIB
  8
OBRYS
 10
-1147.556274
 20
5.011773
 40
25.000000
  1
*NB
  2
puvod
 70
     1
  0
ATTRIB
  8
OBRYS
 10
-1147.556274
 20
5.011773
 40
25.000000
  1
02 1034
  2
tridici znak
 70
     1
  0
SEQEND
  8
OBRYS
  0
LINE
  8
OBRYS
 10
-515.815778
 20
131.683294
 11
-510.815778
 21
131.683294
  0
LINE
  8
OBRYS
 10
-510.815778
 20
129.021643
 11
-510.815778
 21
131.683294
  0
LINE
  8
OBRYS
 10
-515.815778
 20
129.021643
 11
-515.815778
 21
131.683294
  0
ARC
  8
OBRYS
 10
-513.315778
 20
122.483294
 40
7.000000
 50
110.924832
 51
69.075168
  0
CIRCLE
  8
OBRYS
 10
-513.315778
 20
122.483294
 40
12.500000
  0
LINE
  8
OSA
 10
-513.315778
 20
122.483294
 11
-490.815778
 21
122.483294
  0
LINE
  8
OSA
 10
-513.315778
 20
122.483294
 11
-535.815778
 21
122.483294
  0
LINE
  8
OSA
 10
-513.315778
 20
122.483294
 11
-513.315778
 21
144.983294
  0
LINE
  8
OSA
 10
-513.315778
 20
122.483294
 11
-513.315778
 21
99.983294
  0
CIRCLE
  8
OBRYS
 10
-513.315778
 20
164.983294
 40
12.500000
  0
ARC
  8
OBRYS
 10
-513.315778
 20
164.983294
 40
5.500000
 50
110.654018
 51
68.003576
  0
LINE
  8
OBRYS
 10
-511.255760
 20
170.082934
 11
-511.255760
 21
172.172255
  0
LINE
  8
OBRYS
 10
-515.255760
 20
170.129795
 11
-515.255760
 21
172.172255
  0
LINE
  8
OBRYS
 10
-515.255760
 20
172.172255
 11
-511.255760
 21
172.172255
  0
LINE
  8
OSA
 10
-513.315778
 20
164.983294
 11
-490.815778
 21
164.983294
  0
LINE
  8
OSA
 10
-513.315778
 20
164.983294
 11
-535.815778
 21
164.983294
  0
LINE
  8
OSA
 10
-513.315778
 20
164.983294
 11
-513.315778
 21
187.483294
  0
LINE
  8
OSA
 10
-513.315778
 20
164.983294
 11
-513.315778
 21
142.483294
  0
ARC
  8
OBRYS
 10
-1022.730973
 20
382.587729
 40
60.000000
 50
340.005162
 51
21.101147
  0
ARC
  8
OBRYS
 10
-1022.730973
 20
382.587729
 40
60.000000
 50
158.898853
 51
199.994838
  0
ARC
  8
OBRYS
 10
-1022.730973
 20
320.587729
 40
70.000000
 50
136.172552
 51
211.002719
  0
ARC
  8
OBRYS
 10
-1022.730973
 20
320.587729
 40
70.000000
 50
328.997281
 51
43.827448
  0
ARC
  8
OBRYS
 10
-1060.730973
 20
427.587728
 40
5.000000
 50
109.216664
 51
131.452663
  0
ARC
  8
OBRYS
 10
-1022.730973
 20
382.587729
 40
60.000000
 50
98.898853
 51
109.216664
  0
LINE
  8
0
 62
     2
 10
-1042.479451
 20
439.244569
 11
-1062.376680
 21
432.309132
  0
LINE
  8
0
 62
     2
 10
-1079.326505
 20
417.834249
 11
-1064.040978
 21
431.335243
  0
ARC
  8
OBRYS
 10
-1074.692497
 20
412.587729
 40
7.000000
 50
140.000000
 51
227.046122
  0
ARC
  8
OBRYS
 10
-970.769449
 20
412.587729
 40
7.000000
 50
312.953878
 51
40.000000
  0
LINE
  8
0
 62
     2
 10
-966.135441
 20
417.834249
 11
-981.420968
 21
431.335243
  0
LINE
  8
0
 62
     2
 10
-1002.982495
 20
439.244569
 11
-983.085267
 21
432.309132
  0
ARC
  8
OBRYS
 10
-1022.730973
 20
382.587729
 40
60.000000
 50
70.783336
 51
81.101147
  0
ARC
  8
OBRYS
 10
-984.730973
 20
427.587728
 40
5.000000
 50
48.547337
 51
70.783336
  0
ARC
  8
OBRYS
 10
-1032.476481
 20
444.829395
 40
3.000000
 50
278.898853
 51
347.046120
  0
ARC
  8
OBRYS
 10
-1012.985465
 20
444.829395
 40
3.000000
 50
192.953880
 51
261.101147
  0
ARC
  8
OBRYS
 10
-963.955354
 20
405.268704
 40
3.000000
 50
132.953880
 51
201.101147
  0
ARC
  8
OBRYS
 10
-1081.506592
 20
405.268704
 40
3.000000
 50
338.898853
 51
47.046120
  0
ARC
  8
OBRYS
 10
-1022.730973
 20
442.587729
 40
7.000000
 50
12.953880
 51
167.046120
  0
INSERT
  8
OBRYS
  2
_7
 62
     7
 10
-172.608181
 20
382.587729
  0
INSERT
  8
OSA
  2
_8
  6
CONTINUOUS
 10
-854.023376
 20
57.880131
  0
INSERT
  8
OBRYS
  2
_9
 62
     7
 10
-854.023376
 20
382.587729
  0
INSERT
  8
OSA
  2
_10
  6
CONTINUOUS
 10
-854.023376
 20
567.295326
  0
LINE
  8
OSA
 10
-679.523379
 20
382.587729
 11
-861.523372
 21
382.587729
  0
LINE
  8
OSA
 10
-768.023376
 20
312.587729
 11
-768.023376
 21
424.383445
  0
LINE
  8
0
 62
     2
 10
-825.199777
 20
421.270197
 11
-854.023376
 21
421.270197
  0
LINE
  8
0
 62
     2
 10
-824.963484
 20
404.527039
 11
-854.023376
 21
404.527039
  0
LINE
  8
0
 62
     2
 10
-825.146975
 20
399.330886
 11
-854.023376
 21
399.330886
  0
LINE
  8
0
 62
     2
 10
-818.309779
 20
417.587729
 11
-826.023376
 21
422.041175
  0
LINE
  8
0
 62
     2
 10
-854.023376
 20
422.041175
 11
-826.130366
 21
422.041175
  0
LINE
  8
OBRYS
 10
-854.023376
 20
422.041175
 11
-854.023376
 21
343.134282
  0
POLYLINE
  8
0
 62
     2
 66
    1
  0
VERTEX
  8
0
 62
     2
 10
-826.023376
 20
422.041168
  0
VERTEX
  8
0
 62
     2
 10
-826.130310
 20
422.041168
  0
VERTEX
  8
0
 62
     2
 10
-825.887939
 20
421.780396
  0
VERTEX
  8
0
 62
     2
 10
-825.199768
 20
421.270203
  0
VERTEX
  8
0
 62
     2
 10
-821.707275
 20
418.839081
  0
VERTEX
  8
0
 62
     2
 10
-818.832825
 20
415.202545
  0
VERTEX
  8
0
 62
     2
 10
-818.439819
 20
411.751617
  0
VERTEX
  8
0
 62
     2
 10
-820.448242
 20
408.209503
  0
VERTEX
  8
0
 62
     2
 10
-824.963440
 20
404.527039
  0
VERTEX
  8
0
 62
     2
 10
-825.180603
 20
404.236572
  0
VERTEX
  8
0
 62
     2
 10
-825.757996
 20
403.789764
  0
VERTEX
  8
0
 62
     2
 10
-826.281494
 20
402.857605
  0
VERTEX
  8
0
 62
     2
 10
-826.352966
 20
401.771301
  0
VERTEX
  8
0
 62
     2
 10
-825.969177
 20
400.578369
  0
VERTEX
  8
0
 62
     2
 10
-825.146973
 20
399.330902
  0
VERTEX
  8
0
 62
     2
 10
-823.304504
 20
397.085205
  0
VERTEX
  8
0
 62
     2
 10
-819.497375
 20
389.549683
  0
VERTEX
  8
0
 62
     2
 10
-818.309753
 20
382.587738
  0
SEQEND
  8
0
  0
LINE
  8
0
 62
     2
 10
-818.309779
 20
382.587729
 11
-818.309779
 21
417.587729
  0
LINE
  8
0
 62
     2
 10
-818.309779
 20
382.587729
 11
-818.309779
 21
369.572618
  0
POLYLINE
  8
0
 62
     2
 66
    1
  0
VERTEX
  8
0
 62
     2
 10
-825.969849
 20
361.762970
  0
VERTEX
  8
0
 62
     2
 10
-826.281494
 20
362.317871
  0
VERTEX
  8
0
 62
     2
 10
-826.352966
 20
363.404175
  0
VERTEX
  8
0
 62
     2
 10
-825.969177
 20
364.597107
  0
VERTEX
  8
0
 62
     2
 10
-825.146973
 20
365.844574
  0
VERTEX
  8
0
 62
     2
 10
-823.304504
 20
368.090271
  0
VERTEX
  8
0
 62
     2
 10
-819.497375
 20
375.625793
  0
VERTEX
  8
0
 62
     2
 10
-818.309753
 20
382.587738
  0
SEQEND
  8
0
  0
LINE
  8
0
 62
     2
 10
-825.146975
 20
365.844571
 11
-854.023376
 21
365.844571
  0
LINE
  8
0
 62
     2
 10
-837.270846
 20
343.905260
 11
-854.023376
 21
343.905260
  0
LINE
  8
0
 62
     2
 10
-826.897564
 20
360.648418
 11
-854.023376
 21
360.648418
  0
LINE
  8
0
 62
     2
 10
-854.023376
 20
343.134282
 11
-837.614382
 21
343.134282
  0
LINE
  8
OBRYS
 10
-687.023376
 20
422.041175
 11
-687.023376
 21
343.134282
  0
POLYLINE
  8
0
 62
     2
 66
    1
  0
VERTEX
  8
0
 62
     2
 10
-710.076843
 20
361.762970
  0
VERTEX
  8
0
 62
     2
 10
-709.765198
 20
362.317871
  0
VERTEX
  8
0
 62
     2
 10
-709.693726
 20
363.404175
  0
VERTEX
  8
0
 62
     2
 10
-710.077515
 20
364.597107
  0
VERTEX
  8
0
 62
     2
 10
-710.899719
 20
365.844574
  0
VERTEX
  8
0
 62
     2
 10
-712.742188
 20
368.090271
  0
VERTEX
  8
0
 62
     2
 10
-716.549316
 20
375.625793
  0
VERTEX
  8
0
 62
     2
 10
-717.736938
 20
382.587738
  0
SEQEND
  8
0
  0
LINE
  8
0
 62
     2
 10
-717.736972
 20
382.587729
 11
-717.736972
 21
369.572618
  0
POLYLINE
  8
0
 62
     2
 66
    1
  0
VERTEX
  8
0
 62
     2
 10
-710.023315
 20
422.041168
  0
VERTEX
  8
0
 62
     2
 10
-709.916382
 20
422.041168
  0
VERTEX
  8
0
 62
     2
 10
-710.158752
 20
421.780396
  0
VERTEX
  8
0
 62
     2
 10
-710.846924
 20
421.270203
  0
VERTEX
  8
0
 62
     2
 10
-714.339417
 20
418.839081
  0
VERTEX
  8
0
 62
     2
 10
-717.213867
 20
415.202545
  0
VERTEX
  8
0
 62
     2
 10
-717.606873
 20
411.751617
  0
VERTEX
  8
0
 62
     2
 10
-715.598450
 20
408.209503
  0
VERTEX
  8
0
 62
     2
 10
-711.083252
 20
404.527039
  0
VERTEX
  8
0
 62
     2
 10
-710.866089
 20
404.236572
  0
VERTEX
  8
0
 62
     2
 10
-710.288696
 20
403.789764
  0
VERTEX
  8
0
 62
     2
 10
-709.765198
 20
402.857605
  0
VERTEX
  8
0
 62
     2
 10
-709.693726
 20
401.771301
  0
VERTEX
  8
0
 62
     2
 10
-710.077515
 20
400.578369
  0
VERTEX
  8
0
 62
     2
 10
-710.899719
 20
399.330902
  0
VERTEX
  8
0
 62
     2
 10
-712.742188
 20
397.085205
  0
VERTEX
  8
0
 62
     2
 10
-716.549316
 20
389.549683
  0
VERTEX
  8
0
 62
     2
 10
-717.736938
 20
382.587738
  0
SEQEND
  8
0
  0
LINE
  8
0
 62
     2
 10
-717.736972
 20
417.587729
 11
-710.023376
 21
422.041175
  0
LINE
  8
0
 62
     2
 10
-710.846974
 20
421.270197
 11
-687.023376
 21
421.270197
  0
LINE
  8
0
 62
     2
 10
-711.083268
 20
404.527039
 11
-687.023376
 21
404.527039
  0
LINE
  8
0
 62
     2
 10
-710.899776
 20
399.330886
 11
-687.023376
 21
399.330886
  0
LINE
  8
0
 62
     2
 10
-687.023376
 20
422.041175
 11
-709.916385
 21
422.041175
  0
LINE
  8
0
 62
     2
 10
-710.899776
 20
365.844571
 11
-687.023376
 21
365.844571
  0
LINE
  8
0
 62
     2
 10
-698.775905
 20
343.905260
 11
-687.023376
 21
343.905260
  0
LINE
  8
0
 62
     2
 10
-709.149187
 20
360.648418
 11
-687.023376
 21
360.648418
  0
LINE
  8
0
 62
     2
 10
-687.023376
 20
343.134282
 11
-698.432370
 21
343.134282
  0
LINE
  8
OBRYS
 10
-717.736972
 20
417.587729
 11
-818.309779
 21
417.587729
  0
LINE
  8
0
 62
     2
 10
-717.736972
 20
382.587729
 11
-717.736972
 21
417.587729
  0
INSERT
  8
OBRYS
  2
_11
 62
     7
 10
-768.023376
 20
312.587729
  0
INSERT
  8
OBRYS
  2
_12
 62
     7
 10
-258.608181
 20
312.587729
  0
LINE
  8
OSA
 10
-347.108178
 20
382.587729
 11
-165.108185
 21
382.587729
  0
LINE
  8
OSA
 10
-258.608181
 20
312.587729
 11
-258.608181
 21
424.383445
  0
LINE
  8
0
 62
     2
 10
-201.431780
 20
421.270197
 11
-172.608181
 21
421.270197
  0
LINE
  8
0
 62
     2
 10
-201.668073
 20
404.527039
 11
-172.608181
 21
404.527039
  0
LINE
  8
0
 62
     2
 10
-201.484582
 20
399.330886
 11
-172.608181
 21
399.330886
  0
LINE
  8
0
 62
     2
 10
-208.321778
 20
417.587729
 11
-200.608181
 21
422.041175
  0
LINE
  8
0
 62
     2
 10
-172.608181
 20
422.041175
 11
-200.501191
 21
422.041175
  0
LINE
  8
OBRYS
 10
-172.608181
 20
422.041175
 11
-172.608181
 21
343.134282
  0
POLYLINE
  8
0
 62
     2
 66
    1
  0
VERTEX
  8
0
 62
     2
 10
-200.608170
 20
422.041168
  0
VERTEX
  8
0
 62
     2
 10
-200.501236
 20
422.041168
  0
VERTEX
  8
0
 62
     2
 10
-200.743607
 20
421.780396
  0
VERTEX
  8
0
 62
     2
 10
-201.431778
 20
421.270203
  0
VERTEX
  8
0
 62
     2
 10
-204.924271
 20
418.839081
  0
VERTEX
  8
0
 62
     2
 10
-207.798721
 20
415.202545
  0
VERTEX
  8
0
 62
     2
 10
-208.191727
 20
411.751617
  0
VERTEX
  8
0
 62
     2
 10
-206.183304
 20
408.209503
  0
VERTEX
  8
0
 62
     2
 10
-201.668106
 20
404.527039
  0
VERTEX
  8
0
 62
     2
 10
-201.450943
 20
404.236572
  0
VERTEX
  8
0
 62
     2
 10
-200.873550
 20
403.789764
  0
VERTEX
  8
0
 62
     2
 10
-200.350052
 20
402.857605
  0
VERTEX
  8
0
 62
     2
 10
-200.278580
 20
401.771301
  0
VERTEX
  8
0
 62
     2
 10
-200.662369
 20
400.578369
  0
VERTEX
  8
0
 62
     2
 10
-201.484573
 20
399.330902
  0
VERTEX
  8
0
 62
     2
 10
-203.327042
 20
397.085205
  0
VERTEX
  8
0
 62
     2
 10
-207.134171
 20
389.549683
  0
VERTEX
  8
0
 62
     2
 10
-208.321793
 20
382.587738
  0
SEQEND
  8
0
  0
LINE
  8
0
 62
     2
 10
-208.321778
 20
382.587729
 11
-208.321778
 21
417.587729
  0
LINE
  8
0
 62
     2
 10
-208.321778
 20
382.587729
 11
-208.321778
 21
369.572618
  0
POLYLINE
  8
0
 62
     2
 66
    1
  0
VERTEX
  8
0
 62
     2
 10
-200.661697
 20
361.762970
  0
VERTEX
  8
0
 62
     2
 10
-200.350052
 20
362.317871
  0
VERTEX
  8
0
 62
     2
 10
-200.278580
 20
363.404175
  0
VERTEX
  8
0
 62
     2
 10
-200.662369
 20
364.597107
  0
VERTEX
  8
0
 62
     2
 10
-201.484573
 20
365.844574
  0
VERTEX
  8
0
 62
     2
 10
-203.327042
 20
368.090271
  0
VERTEX
  8
0
 62
     2
 10
-207.134171
 20
375.625793
  0
VERTEX
  8
0
 62
     2
 10
-208.321793
 20
382.587738
  0
SEQEND
  8
0
  0
LINE
  8
0
 62
     2
 10
-201.484582
 20
365.844571
 11
-172.608181
 21
365.844571
  0
LINE
  8
0
 62
     2
 10
-189.360711
 20
343.905260
 11
-172.608181
 21
343.905260
  0
LINE
  8
0
 62
     2
 10
-199.733992
 20
360.648418
 11
-172.608181
 21
360.648418
  0
LINE
  8
0
 62
     2
 10
-172.608181
 20
343.134282
 11
-189.017175
 21
343.134282
  0
LINE
  8
OBRYS
 10
-339.608181
 20
422.041175
 11
-339.608181
 21
343.134282
  0
POLYLINE
  8
0
 62
     2
 66
    1
  0
VERTEX
  8
0
 62
     2
 10
-316.554718
 20
361.762970
  0
VERTEX
  8
0
 62
     2
 10
-316.866364
 20
362.317871
  0
VERTEX
  8
0
 62
     2
 10
-316.937836
 20
363.404175
  0
VERTEX
  8
0
 62
     2
 10
-316.554047
 20
364.597107
  0
VERTEX
  8
0
 62
     2
 10
-315.731842
 20
365.844574
  0
VERTEX
  8
0
 62
     2
 10
-313.889374
 20
368.090271
  0
VERTEX
  8
0
 62
     2
 10
-310.082245
 20
375.625793
  0
VERTEX
  8
0
 62
     2
 10
-308.894623
 20
382.587738
  0
SEQEND
  8
0
  0
LINE
  8
0
 62
     2
 10
-308.894585
 20
382.587729
 11
-308.894585
 21
369.572618
  0
POLYLINE
  8
0
 62
     2
 66
    1
  0
VERTEX
  8
0
 62
     2
 10
-316.608246
 20
422.041168
  0
VERTEX
  8
0
 62
     2
 10
-316.715179
 20
422.041168
  0
VERTEX
  8
0
 62
     2
 10
-316.472809
 20
421.780396
  0
VERTEX
  8
0
 62
     2
 10
-315.784637
 20
421.270203
  0
VERTEX
  8
0
 62
     2
 10
-312.292145
 20
418.839081
  0
VERTEX
  8
0
 62
     2
 10
-309.417694
 20
415.202545
  0
VERTEX
  8
0
 62
     2
 10
-309.024689
 20
411.751617
  0
VERTEX
  8
0
 62
     2
 10
-311.033112
 20
408.209503
  0
VERTEX
  8
0
 62
     2
 10
-315.548309
 20
404.527039
  0
VERTEX
  8
0
 62
     2
 10
-315.765472
 20
404.236572
  0
VERTEX
  8
0
 62
     2
 10
-316.342865
 20
403.789764
  0
VERTEX
  8
0
 62
     2
 10
-316.866364
 20
402.857605
  0
VERTEX
  8
0
 62
     2
 10
-316.937836
 20
401.771301
  0
VERTEX
  8
0
 62
     2
 10
-316.554047
 20
400.578369
  0
VERTEX
  8
0
 62
     2
 10
-315.731842
 20
399.330902
  0
VERTEX
  8
0
 62
     2
 10
-313.889374
 20
397.085205
  0
VERTEX
  8
0
 62
     2
 10
-310.082245
 20
389.549683
  0
VERTEX
  8
0
 62
     2
 10
-308.894623
 20
382.587738
  0
SEQEND
  8
0
  0
LINE
  8
0
 62
     2
 10
-308.894585
 20
417.587729
 11
-316.608181
 21
422.041175
  0
LINE
  8
0
 62
     2
 10
-315.784583
 20
421.270197
 11
-339.608181
 21
421.270197
  0
LINE
  8
0
 62
     2
 10
-315.548289
 20
404.527039
 11
-339.608181
 21
404.527039
  0
LINE
  8
0
 62
     2
 10
-315.731781
 20
399.330886
 11
-339.608181
 21
399.330886
  0
LINE
  8
0
 62
     2
 10
-339.608181
 20
422.041175
 11
-316.715172
 21
422.041175
  0
LINE
  8
0
 62
     2
 10
-315.731781
 20
365.844571
 11
-339.608181
 21
365.844571
  0
LINE
  8
0
 62
     2
 10
-327.855652
 20
343.905260
 11
-339.608181
 21
343.905260
  0
LINE
  8
0
 62
     2
 10
-317.482370
 20
360.648418
 11
-339.608181
 21
360.648418
  0
LINE
  8
0
 62
     2
 10
-339.608181
 20
343.134282
 11
-328.199187
 21
343.134282
  0
LINE
  8
OBRYS
 10
-308.894585
 20
417.587729
 11
-208.321778
 21
417.587729
  0
LINE
  8
0
 62
     2
 10
-308.894585
 20
382.587729
 11
-308.894585
 21
417.587729
  0
INSERT
  8
OSA
  2
_13
  6
CONTINUOUS
 10
-1022.730973
 20
312.587729
  0
INSERT
  8
OSA
  2
_14
  6
CONTINUOUS
 10
-1060.730973
 20
312.587729
  0
INSERT
  8
OSA
  2
_15
  6
CONTINUOUS
 10
-768.023376
 20
19.880131
  0
INSERT
  8
OSA
  2
_16
  6
CONTINUOUS
 10
-768.023376
 20
567.295326
  0
INSERT
  8
OSA
  2
_17
  6
CONTINUOUS
 10
-768.023376
 20
605.295326
  0
INSERT
  8
OBRYS
  2
_18
 62
     7
 10
-768.023376
 20
57.880131
  0
INSERT
  8
OSA
 66
     1
  2
Sroub_M10x16_19
  6
CONTINUOUS
 10
-768.023376
 20
567.295326
  0
ATTRIB
  8
OSA
  6
CONTINUOUS
 10
-1147.556274
 20
5.011773
 40
2.500000
  1
DIN 912
  2
norma roz.
 70
     1
  0
ATTRIB
  8
OSA
  6
CONTINUOUS
 10
-1147.556274
 20
5.011773
 40
2.500000
  1
1.5
  2
roztec
 70
     1
  0
ATTRIB
  8
OSA
  6
CONTINUOUS
 10
-1147.556274
 20
5.011773
 40
2.500000
  1
*N
  2
puvod
 70
     1
  0
SEQEND
  8
OSA
  0
CIRCLE
  8
OSA
 62
     2
  6
CONTINUOUS
 10
-768.023376
 20
567.295326
 40
9.000000
  0
INSERT
  8
OSA
 66
     1
  2
Sroub_M10x16_20
  6
CONTINUOUS
 10
-1022.730973
 20
312.587729
  0
ATTRIB
  8
OSA
  6
CONTINUOUS
 10
-1147.556274
 20
5.011773
 40
2.500000
  1
DIN 912
  2
norma roz.
 70
     1
  0
ATTRIB
  8
OSA
  6
CONTINUOUS
 10
-1147.556274
 20
5.011773
 40
2.500000
  1
1.5
  2
roztec
 70
     1
  0
ATTRIB
  8
OSA
  6
CONTINUOUS
 10
-1147.556274
 20
5.011773
 40
2.500000
  1
*N
  2
puvod
 70
     1
  0
SEQEND
  8
OSA
  0
CIRCLE
  8
OSA
 62
     2
  6
CONTINUOUS
 10
-1022.730973
 20
312.587729
 40
9.000000
  0
TEXT
  8
NEVIDITELNA
 62
     2
  6
CONTINUOUS
 10
-785.940063
 20
769.857849
 40
15.000000
  1
MRP 70A - FT (P60)
 50
0.00
 51
0.00
 41
0.80
  0
TEXT
  8
NEVIDITELNA
 62
     2
  6
CONTINUOUS
 10
291.732391
 20
772.708862
 40
15.000000
  1
MRP 70A - FT (P80)
 50
0.00
 51
0.00
 41
0.80
  0
INSERT
  8
OSA
  2
_21
  6
CONTINUOUS
 10
672.240453
 20
307.575956
  0
INSERT
  8
OSA
  2
_22
  6
CONTINUOUS
 10
634.240453
 20
307.575956
  0
INSERT
  8
OBRYS
  2
_23
 62
     7
 10
634.240453
 20
377.575956
  0
ARC
  8
OBRYS
 10
124.825258
 20
377.575956
 40
64.000000
 50
160.610170
 51
207.953187
  0
ARC
  8
OBRYS
 10
124.825258
 20
377.575956
 40
64.000000
 50
332.951889
 51
19.389830
  0
ARC
  8
OBRYS
 10
124.825258
 20
311.575956
 40
80.000000
 50
309.142406
 51
39.100444
  0
ARC
  8
OBRYS
 10
124.825258
 20
311.575956
 40
80.000000
 50
140.899556
 51
230.857594
  0
ARC
  8
OBRYS
 10
114.040300
 20
442.740369
 40
3.000000
 50
285.275412
 51
348.652160
  0
ARC
  8
OBRYS
 10
124.825258
 20
440.575956
 40
8.000000
 50
11.347840
 51
168.652160
  0
LINE
  8
OBRYS
 10
114.830677
 20
439.846357
 11
79.981044
 21
430.328650
  0
ARC
  8
OBRYS
 10
135.610216
 20
442.740369
 40
3.000000
 50
191.347840
 51
254.724588
  0
LINE
  8
OBRYS
 10
134.819838
 20
439.846357
 11
169.669472
 21
430.328650
  0
ARC
  8
OBRYS
 10
180.225258
 20
407.575956
 40
8.000000
 50
315.160000
 51
40.607302
  0
ARC
  8
OBRYS
 10
188.025125
 20
399.819534
 40
3.000000
 50
135.160016
 51
199.389830
  0
LINE
  8
0
 62
     2
 10
186.298765
 20
412.782923
 11
173.139577
 21
428.132052
  0
ARC
  8
OBRYS
 10
167.825258
 20
423.575956
 40
7.000000
 50
40.607300
 51
74.724588
  0
ARC
  8
OBRYS
 10
81.825258
 20
423.575956
 40
7.000000
 50
105.275412
 51
139.392700
  0
ARC
  8
OBRYS
 10
69.425258
 20
407.575956
 40
8.000000
 50
139.392698
 51
224.839984
  0
LINE
  8
0
 62
     2
 10
63.351751
 20
412.782923
 11
76.510939
 21
428.132052
  0
ARC
  8
OBRYS
 10
61.625391
 20
399.819534
 40
3.000000
 50
340.610170
 51
44.839984
  0
INSERT
  8
OBRYS
  2
_24
 62
     7
 10
974.948050
 20
377.575956
  0
INSERT
  8
OBRYS
  2
_25
 62
     7
 10
293.532855
 20
562.283553
  0
INSERT
  8
OBRYS
  2
_26
 62
     7
 10
293.532855
 20
52.868358
  0
INSERT
  8
OBRYS
  2
_27
 62
     7
 10
293.532855
 20
377.575956
  0
CIRCLE
  8
OSA
 62
     2
  6
CONTINUOUS
 10
124.825258
 20
307.575956
 40
9.000000
  0
INSERT
  8
OSA
 66
     1
  2
Sroub_M10x16_28
  6
CONTINUOUS
 10
124.825258
 20
307.575956
  0
ATTRIB
  8
OSA
  6
CONTINUOUS
 10
0.000000
 20
0.000000
 40
2.500000
  1
DIN 912
  2
norma roz.
 70
     1
  0
ATTRIB
  8
OSA
  6
CONTINUOUS
 10
0.000000
 20
0.000000
 40
2.500000
  1
1.5
  2
roztec
 70
     1
  0
ATTRIB
  8
OSA
  6
CONTINUOUS
 10
0.000000
 20
0.000000
 40
2.500000
  1
*N
  2
puvod
 70
     1
  0
SEQEND
  8
OSA
  0
CIRCLE
  8
OSA
 62
     2
  6
CONTINUOUS
 10
379.532855
 20
562.283553
 40
9.000000
  0
INSERT
  8
OSA
 66
     1
  2
Sroub_M10x16_29
  6
CONTINUOUS
 10
379.532855
 20
562.283553
  0
ATTRIB
  8
OSA
  6
CONTINUOUS
 10
0.000000
 20
0.000000
 40
2.500000
  1
DIN 912
  2
norma roz.
 70
     1
  0
ATTRIB
  8
OSA
  6
CONTINUOUS
 10
0.000000
 20
0.000000
 40
2.500000
  1
1.5
  2
roztec
 70
     1
  0
ATTRIB
  8
OSA
  6
CONTINUOUS
 10
0.000000
 20
0.000000
 40
2.500000
  1
*N
  2
puvod
 70
     1
  0
SEQEND
  8
OSA
  0
INSERT
  8
OBRYS
  2
_30
 62
     7
 10
379.532855
 20
52.868358
  0
INSERT
  8
OSA
  2
_31
  6
CONTINUOUS
 10
379.532855
 20
600.283553
  0
INSERT
  8
OSA
  2
_32
  6
CONTINUOUS
 10
379.532855
 20
562.283553
  0
INSERT
  8
OSA
  2
_33
  6
CONTINUOUS
 10
379.532855
 20
14.868358
  0
INSERT
  8
OSA
  2
_34
  6
CONTINUOUS
 10
86.825258
 20
307.575956
  0
INSERT
  8
OSA
  2
_35
  6
CONTINUOUS
 10
124.825258
 20
307.575956
  0
LINE
  8
0
 62
     2
 10
838.661646
 20
377.575956
 11
838.661646
 21
412.575956
  0
LINE
  8
OBRYS
 10
838.661646
 20
412.575956
 11
939.234453
 21
412.575956
  0
LINE
  8
0
 62
     2
 10
807.948050
 20
338.122509
 11
819.357044
 21
338.122509
  0
LINE
  8
0
 62
     2
 10
830.073861
 20
355.636645
 11
807.948050
 21
355.636645
  0
LINE
  8
0
 62
     2
 10
819.700579
 20
338.893487
 11
807.948050
 21
338.893487
  0
LINE
  8
0
 62
     2
 10
831.824450
 20
360.832798
 11
807.948050
 21
360.832798
  0
LINE
  8
0
 62
     2
 10
807.948050
 20
417.029403
 11
830.841059
 21
417.029403
  0
LINE
  8
0
 62
     2
 10
831.824450
 20
394.319113
 11
807.948050
 21
394.319113
  0
LINE
  8
0
 62
     2
 10
832.007942
 20
399.515266
 11
807.948050
 21
399.515266
  0
LINE
  8
0
 62
     2
 10
831.771648
 20
416.258424
 11
807.948050
 21
416.258424
  0
LINE
  8
0
 62
     2
 10
838.661646
 20
412.575956
 11
830.948050
 21
417.029403
  0
POLYLINE
  8
0
 62
     2
 66
    1
  0
VERTEX
  8
0
 62
     2
 10
830.947998
 20
417.029388
  0
VERTEX
  8
0
 62
     2
 10
830.841064
 20
417.029388
  0
VERTEX
  8
0
 62
     2
 10
831.083435
 20
416.768616
  0
VERTEX
  8
0
 62
     2
 10
831.771606
 20
416.258423
  0
VERTEX
  8
0
 62
     2
 10
835.264099
 20
413.827301
  0
VERTEX
  8
0
 62
     2
 10
838.138550
 20
410.190765
  0
VERTEX
  8
0
 62
     2
 10
838.531555
 20
406.739838
  0
VERTEX
  8
0
 62
     2
 10
836.523132
 20
403.197723
  0
VERTEX
  8
0
 62
     2
 10
832.007935
 20
399.515259
  0
VERTEX
  8
0
 62
     2
 10
831.790771
 20
399.224792
  0
VERTEX
  8
0
 62
     2
 10
831.213379
 20
398.777985
  0
VERTEX
  8
0
 62
     2
 10
830.689880
 20
397.845825
  0
VERTEX
  8
0
 62
     2
 10
830.618408
 20
396.759521
  0
VERTEX
  8
0
 62
     2
 10
831.002197
 20
395.566589
  0
VERTEX
  8
0
 62
     2
 10
831.824402
 20
394.319122
  0
VERTEX
  8
0
 62
     2
 10
833.666870
 20
392.073425
  0
VERTEX
  8
0
 62
     2
 10
837.473999
 20
384.537903
  0
VERTEX
  8
0
 62
     2
 10
838.661621
 20
377.575958
  0
SEQEND
  8
0
  0
LINE
  8
0
 62
     2
 10
838.661646
 20
377.575956
 11
838.661646
 21
364.560845
  0
POLYLINE
  8
0
 62
     2
 66
    1
  0
VERTEX
  8
0
 62
     2
 10
831.001526
 20
356.751190
  0
VERTEX
  8
0
 62
     2
 10
830.689880
 20
357.306091
  0
VERTEX
  8
0
 62
     2
 10
830.618408
 20
358.392395
  0
VERTEX
  8
0
 62
     2
 10
831.002197
 20
359.585327
  0
VERTEX
  8
0
 62
     2
 10
831.824402
 20
360.832794
  0
VERTEX
  8
0
 62
     2
 10
833.666870
 20
363.078491
  0
VERTEX
  8
0
 62
     2
 10
837.473999
 20
370.614014
  0
VERTEX
  8
0
 62
     2
 10
838.661621
 20
377.575958
  0
SEQEND
  8
0
  0
LINE
  8
OBRYS
 10
807.948050
 20
417.029403
 11
807.948050
 21
338.122509
  0
LINE
  8
0
 62
     2
 10
974.948050
 20
338.122509
 11
958.539056
 21
338.122509
  0
LINE
  8
0
 62
     2
 10
947.822239
 20
355.636645
 11
974.948050
 21
355.636645
  0
LINE
  8
0
 62
     2
 10
958.195521
 20
338.893487
 11
974.948050
 21
338.893487
  0
LINE
  8
0
 62
     2
 10
946.071649
 20
360.832798
 11
974.948050
 21
360.832798
  0
POLYLINE
  8
0
 62
     2
 66
    1
  0
VERTEX
  8
0
 62
     2
 10
946.894531
 20
356.751190
  0
VERTEX
  8
0
 62
     2
 10
947.206177
 20
357.306091
  0
VERTEX
  8
0
 62
     2
 10
947.277649
 20
358.392395
  0
VERTEX
  8
0
 62
     2
 10
946.893860
 20
359.585327
  0
VERTEX
  8
0
 62
     2
 10
946.071655
 20
360.832794
  0
VERTEX
  8
0
 62
     2
 10
944.229187
 20
363.078491
  0
VERTEX
  8
0
 62
     2
 10
940.422058
 20
370.614014
  0
VERTEX
  8
0
 62
     2
 10
939.234436
 20
377.575958
  0
SEQEND
  8
0
  0
LINE
  8
0
 62
     2
 10
939.234453
 20
377.575956
 11
939.234453
 21
364.560845
  0
LINE
  8
0
 62
     2
 10
939.234453
 20
377.575956
 11
939.234453
 21
412.575956
  0
POLYLINE
  8
0
 62
     2
 66
    1
  0
VERTEX
  8
0
 62
     2
 10
946.948059
 20
417.029388
  0
VERTEX
  8
0
 62
     2
 10
947.054993
 20
417.029388
  0
VERTEX
  8
0
 62
     2
 10
946.812622
 20
416.768616
  0
VERTEX
  8
0
 62
     2
 10
946.124451
 20
416.258423
  0
VERTEX
  8
0
 62
     2
 10
942.631958
 20
413.827301
  0
VERTEX
  8
0
 62
     2
 10
939.757507
 20
410.190765
  0
VERTEX
  8
0
 62
     2
 10
939.364502
 20
406.739838
  0
VERTEX
  8
0
 62
     2
 10
941.372925
 20
403.197723
  0
VERTEX
  8
0
 62
     2
 10
945.888123
 20
399.515259
  0
VERTEX
  8
0
 62
     2
 10
946.105286
 20
399.224792
  0
VERTEX
  8
0
 62
     2
 10
946.682678
 20
398.777985
  0
VERTEX
  8
0
 62
     2
 10
947.206177
 20
397.845825
  0
VERTEX
  8
0
 62
     2
 10
947.277649
 20
396.759521
  0
VERTEX
  8
0
 62
     2
 10
946.893860
 20
395.566589
  0
VERTEX
  8
0
 62
     2
 10
946.071655
 20
394.319122
  0
VERTEX
  8
0
 62
     2
 10
944.229187
 20
392.073425
  0
VERTEX
  8
0
 62
     2
 10
940.422058
 20
384.537903
  0
VERTEX
  8
0
 62
     2
 10
939.234436
 20
377.575958
  0
SEQEND
  8
0
  0
LINE
  8
OBRYS
 10
974.948050
 20
417.029403
 11
974.948050
 21
338.122509
  0
LINE
  8
0
 62
     2
 10
974.948050
 20
417.029403
 11
947.055040
 21
417.029403
  0
LINE
  8
0
 62
     2
 10
939.234453
 20
412.575956
 11
946.948050
 21
417.029403
  0
LINE
  8
0
 62
     2
 10
946.071649
 20
394.319113
 11
974.948050
 21
394.319113
  0
LINE
  8
0
 62
     2
 10
945.888158
 20
399.515266
 11
974.948050
 21
399.515266
  0
LINE
  8
0
 62
     2
 10
946.124451
 20
416.258424
 11
974.948050
 21
416.258424
  0
LINE
  8
OSA
 10
888.948050
 20
307.575956
 11
888.948050
 21
419.371672
  0
LINE
  8
OSA
 10
800.448053
 20
377.575956
 11
982.448046
 21
377.575956
  0
INSERT
  8
OBRYS
  2
_36
 62
     7
 10
888.948050
 20
307.575956
  0
INSERT
  8
OBRYS
  2
_37
 62
     7
 10
379.532855
 20
307.575956
  0
LINE
  8
0
 62
     2
 10
429.819259
 20
377.575956
 11
429.819259
 21
412.575956
  0
LINE
  8
OBRYS
 10
429.819259
 20
412.575956
 11
329.246452
 21
412.575956
  0
LINE
  8
0
 62
     2
 10
460.532855
 20
338.122509
 11
449.123861
 21
338.122509
  0
LINE
  8
0
 62
     2
 10
438.407044
 20
355.636645
 11
460.532855
 21
355.636645
  0
LINE
  8
0
 62
     2
 10
448.780326
 20
338.893487
 11
460.532855
 21
338.893487
  0
LINE
  8
0
 62
     2
 10
436.656455
 20
360.832798
 11
460.532855
 21
360.832798
  0
LINE
  8
0
 62
     2
 10
460.532855
 20
417.029403
 11
437.639846
 21
417.029403
  0
LINE
  8
0
 62
     2
 10
436.656455
 20
394.319113
 11
460.532855
 21
394.319113
  0
LINE
  8
0
 62
     2
 10
436.472963
 20
399.515266
 11
460.532855
 21
399.515266
  0
LINE
  8
0
 62
     2
 10
436.709257
 20
416.258424
 11
460.532855
 21
416.258424
  0
LINE
  8
0
 62
     2
 10
429.819259
 20
412.575956
 11
437.532855
 21
417.029403
  0
POLYLINE
  8
0
 62
     2
 66
    1
  0
VERTEX
  8
0
 62
     2
 10
437.532898
 20
417.029388
  0
VERTEX
  8
0
 62
     2
 10
437.639832
 20
417.029388
  0
VERTEX
  8
0
 62
     2
 10
437.397461
 20
416.768616
  0
VERTEX
  8
0
 62
     2
 10
436.709290
 20
416.258423
  0
VERTEX
  8
0
 62
     2
 10
433.216797
 20
413.827301
  0
VERTEX
  8
0
 62
     2
 10
430.342346
 20
410.190765
  0
VERTEX
  8
0
 62
     2
 10
429.949341
 20
406.739838
  0
VERTEX
  8
0
 62
     2
 10
431.957764
 20
403.197723
  0
VERTEX
  8
0
 62
     2
 10
436.472961
 20
399.515259
  0
VERTEX
  8
0
 62
     2
 10
436.690125
 20
399.224792
  0
VERTEX
  8
0
 62
     2
 10
437.267517
 20
398.777985
  0
VERTEX
  8
0
 62
     2
 10
437.791016
 20
397.845825
  0
VERTEX
  8
0
 62
     2
 10
437.862488
 20
396.759521
  0
VERTEX
  8
0
 62
     2
 10
437.478699
 20
395.566589
  0
VERTEX
  8
0
 62
     2
 10
436.656494
 20
394.319122
  0
VERTEX
  8
0
 62
     2
 10
434.814026
 20
392.073425
  0
VERTEX
  8
0
 62
     2
 10
431.006897
 20
384.537903
  0
VERTEX
  8
0
 62
     2
 10
429.819275
 20
377.575958
  0
SEQEND
  8
0
  0
LINE
  8
0
 62
     2
 10
429.819259
 20
377.575956
 11
429.819259
 21
364.560845
  0
POLYLINE
  8
0
 62
     2
 66
    1
  0
VERTEX
  8
0
 62
     2
 10
437.479370
 20
356.751190
  0
VERTEX
  8
0
 62
     2
 10
437.791016
 20
357.306091
  0
VERTEX
  8
0
 62
     2
 10
437.862488
 20
358.392395
  0
VERTEX
  8
0
 62
     2
 10
437.478699
 20
359.585327
  0
VERTEX
  8
0
 62
     2
 10
436.656494
 20
360.832794
  0
VERTEX
  8
0
 62
     2
 10
434.814026
 20
363.078491
  0
VERTEX
  8
0
 62
     2
 10
431.006897
 20
370.614014
  0
VERTEX
  8
0
 62
     2
 10
429.819275
 20
377.575958
  0
SEQEND
  8
0
  0
LINE
  8
OBRYS
 10
460.532855
 20
417.029403
 11
460.532855
 21
338.122509
  0
LINE
  8
0
 62
     2
 10
293.532855
 20
338.122509
 11
309.941849
 21
338.122509
  0
LINE
  8
0
 62
     2
 10
320.658667
 20
355.636645
 11
293.532855
 21
355.636645
  0
LINE
  8
0
 62
     2
 10
310.285385
 20
338.893487
 11
293.532855
 21
338.893487
  0
LINE
  8
0
 62
     2
 10
322.409256
 20
360.832798
 11
293.532855
 21
360.832798
  0
POLYLINE
  8
0
 62
     2
 66
    1
  0
VERTEX
  8
0
 62
     2
 10
321.586365
 20
356.751190
  0
VERTEX
  8
0
 62
     2
 10
321.274719
 20
357.306091
  0
VERTEX
  8
0
 62
     2
 10
321.203247
 20
358.392395
  0
VERTEX
  8
0
 62
     2
 10
321.587036
 20
359.585327
  0
VERTEX
  8
0
 62
     2
 10
322.409241
 20
360.832794
  0
VERTEX
  8
0
 62
     2
 10
324.251709
 20
363.078491
  0
VERTEX
  8
0
 62
     2
 10
328.058838
 20
370.614014
  0
VERTEX
  8
0
 62
     2
 10
329.246460
 20
377.575958
  0
SEQEND
  8
0
  0
LINE
  8
0
 62
     2
 10
329.246452
 20
377.575956
 11
329.246452
 21
364.560845
  0
LINE
  8
0
 62
     2
 10
329.246452
 20
377.575956
 11
329.246452
 21
412.575956
  0
POLYLINE
  8
0
 62
     2
 66
    1
  0
VERTEX
  8
0
 62
     2
 10
321.532837
 20
417.029388
  0
VERTEX
  8
0
 62
     2
 10
321.425903
 20
417.029388
  0
VERTEX
  8
0
 62
     2
 10
321.668274
 20
416.768616
  0
VERTEX
  8
0
 62
     2
 10
322.356445
 20
416.258423
  0
VERTEX
  8
0
 62
     2
 10
325.848938
 20
413.827301
  0
VERTEX
  8
0
 62
     2
 10
328.723389
 20
410.190765
  0
VERTEX
  8
0
 62
     2
 10
329.116394
 20
406.739838
  0
VERTEX
  8
0
 62
     2
 10
327.107971
 20
403.197723
  0
VERTEX
  8
0
 62
     2
 10
322.592773
 20
399.515259
  0
VERTEX
  8
0
 62
     2
 10
322.375610
 20
399.224792
  0
VERTEX
  8
0
 62
     2
 10
321.798218
 20
398.777985
  0
VERTEX
  8
0
 62
     2
 10
321.274719
 20
397.845825
  0
VERTEX
  8
0
 62
     2
 10
321.203247
 20
396.759521
  0
VERTEX
  8
0
 62
     2
 10
321.587036
 20
395.566589
  0
VERTEX
  8
0
 62
     2
 10
322.409241
 20
394.319122
  0
VERTEX
  8
0
 62
     2
 10
324.251709
 20
392.073425
  0
VERTEX
  8
0
 62
     2
 10
328.058838
 20
384.537903
  0
VERTEX
  8
0
 62
     2
 10
329.246460
 20
377.575958
  0
SEQEND
  8
0
  0
LINE
  8
OBRYS
 10
293.532855
 20
417.029403
 11
293.532855
 21
338.122509
  0
LINE
  8
0
 62
     2
 10
293.532855
 20
417.029403
 11
321.425865
 21
417.029403
  0
LINE
  8
0
 62
     2
 10
329.246452
 20
412.575956
 11
321.532855
 21
417.029403
  0
LINE
  8
0
 62
     2
 10
322.409256
 20
394.319113
 11
293.532855
 21
394.319113
  0
LINE
  8
0
 62
     2
 10
322.592747
 20
399.515266
 11
293.532855
 21
399.515266
  0
LINE
  8
0
 62
     2
 10
322.356454
 20
416.258424
 11
293.532855
 21
416.258424
  0
LINE
  8
OSA
 10
379.532855
 20
307.575956
 11
379.532855
 21
419.371672
  0
LINE
  8
OSA
 10
468.032852
 20
377.575956
 11
286.032859
 21
377.575956
  0
ENDSEC
  0
EOF

