  0
SECTION
  2
HEADER
  9
$ACADVER
  1
AC1009
  9
$INSBASE
 10
0.0
 20
0.0
 30
0.0
  9
$LIMMIN
 10
0.0
 20
0.0
  9
$LIMMAX
 10
430.0000
 20
307.0000
  9
$EXTMIN
 10
99999999999999998000000000000000000000.0000
 20
99999999999999998000000000000000000000.0000
  9
$EXTMAX
 10
99999999999999998000000000000000000000.0000
 20
99999999999999998000000000000000000000.0000
  9
$VIEWCTR
 10
482.4740
 20
361.1928
  9
$VIEWSIZE
 40
891.9995
  9
$DIMLFAC
 40
0.6667
  9
$MEASUREMENT
 70
     1
  9
$DWGCODEPAGE
 3
ANSI_1250
  9
$CLAYER
  8
OBRYS
  9
$CELTYPE
  6
BYLAYER
  9
$CECOLOR
 62
  256
  9
$ORTHOMODE
 70
     0
  9
$REGENMODE
 70
     1
  9
$FILLMODE
 70
     1
  9
$QTEXTMODE
 70
     0
  9
$MIRRTEXT
 70
     1
  9
$DRAGMODE
 70
     2
  9
$LTSCALE
 40
1.0
  9
$OSMODE
 70
    37
  9
$ATTMODE
 70
     1
  9
$TEXTSIZE
 40
2.5
  9
$TRACEWID
 40
1.0
  9
$TEXTSTYLE
  7
STANDARD
  9
$CLAYER
  8
0
  9
$CELTYPE
  6
BYLAYER
  9
$CECOLOR
 62
   256
  9
$DIMSCALE
 40
1.0
  9
$DIMASZ
 40
2.5
  9
$DIMEXO
 40
0.625
  9
$DIMDLI
 40
3.75
  9
$DIMRND
 40
0.0
  9
$DIMDLE
 40
0.0
  9
$DIMEXE
 40
1.25
  9
$DIMTP
 40
0.0
  9
$DIMTM
 40
0.0
  9
$DIMTXT
 40
2.5
  9
$DIMCEN
 40
2.5
  9
$DIMTSZ
 40
0.0
  9
$DIMTOL
 70
     0
  9
$DIMLIM
 70
     0
  9
$DIMTIH
 70
     0
  9
$DIMTOH
 70
     0
  9
$DIMSE1
 70
     0
  9
$DIMSE2
 70
     0
  9
$DIMTAD
 70
     1
  9
$DIMZIN
 70
     8
  9
$DIMBLK
  1

  9
$DIMASO
 70
     1
  9
$DIMSHO
 70
     1
  9
$DIMPOST
  1

  9
$DIMAPOST
  1

  9
$DIMALT
 70
     0
  9
$DIMALTD
 70
     3
  9
$DIMALTF
 40
0.03937007874016
  9
$DIMTOFL
 70
     1
  9
$DIMTVP
 40
0.0
  9
$DIMTIX
 70
     0
  9
$DIMSOXD
 70
     0
  9
$DIMSAH
 70
     0
  9
$DIMBLK1
  1

  9
$DIMBLK2
  1

  9
$DIMSTYLE
  2
ISO-25
  9
$DIMCLRD
 70
     0
  9
$DIMCLRE
 70
     0
  9
$DIMCLRT
 70
     0
  9
$DIMTFAC
 40
1.0
  9
$DIMGAP
 40
0.625
  9
$LUNITS
 70
     2
  9
$LUPREC
 70
     4
  9
$SKETCHINC
 40
1.0
  9
$FILLETRAD
 40
10.0
  9
$AUNITS
 70
     0
  9
$AUPREC
 70
     0
  9
$MENU
  1
.
  9
$ELEVATION
 40
0.0
  9
$PELEVATION
 40
0.0
  9
$THICKNESS
 40
0.0
  9
$LIMCHECK
 70
     0
  9
$BLIPMODE
 70
     0
  9
$CHAMFERA
 40
10.0
  9
$CHAMFERB
 40
10.0
  9
$SKPOLY
 70
     0
  9
$TDCREATE
 40
2451579.5163292708
  9
$TDUPDATE
 40
2451579.6904035881
  9
$TDINDWG
 40
0.0082924769
  9
$TDUSRTIMER
 40
0.0082825116
  9
$USRTIMER
 70
     1
  9
$ANGBASE
 50
0.0
  9
$ANGDIR
 70
     0
  9
$PDMODE
 70
     0
  9
$PDSIZE
 40
0.0
  9
$PLINEWID
 40
0.0
  9
$COORDS
 70
     1
  9
$SPLFRAME
 70
     0
  9
$SPLINETYPE
 70
     6
  9
$SPLINESEGS
 70
     8
  9
$ATTDIA
 70
     0
  9
$ATTREQ
 70
     1
  9
$SURFTAB1
 70
     6
  9
$SURFTAB2
 70
     6
  9
$SURFTYPE
 70
     6
  9
$SURFU
 70
     6
  9
$SURFV
 70
     6
  9
$UCSNAME
  2

  9
$UCSORG
 10
0.0
 20
0.0
 30
0.0
  9
$UCSXDIR
 10
1.0
 20
0.0
 30
0.0
  9
$UCSYDIR
 10
0.0
 20
1.0
 30
0.0
  9
$PUCSNAME
  2

  9
$PUCSORG
 10
0.0
 20
0.0
 30
0.0
  9
$PUCSXDIR
 10
1.0
 20
0.0
 30
0.0
  9
$PUCSYDIR
 10
0.0
 20
1.0
 30
0.0
  9
$USERI1
 70
     0
  9
$USERI2
 70
     0
  9
$USERI3
 70
     0
  9
$USERI4
 70
     0
  9
$USERI5
 70
     0
  9
$USERR1
 40
0.0
  9
$USERR2
 40
0.0
  9
$USERR3
 40
0.0
  9
$USERR4
 40
0.0
  9
$USERR5
 40
0.0
  9
$WORLDVIEW
 70
     1
  9
$SHADEDGE
 70
     3
  9
$SHADEDIF
 70
    70
  9
$TILEMODE
 70
     1
  9
$MAXACTVP
 70
    64
  9
$PLIMCHECK
 70
     0
  9
$PEXTMIN
 10
1.0000000000000000E+020
 20
1.0000000000000000E+020
 30
1.0000000000000000E+020
  9
$PEXTMAX
 10
-1.0000000000000000E+020
 20
-1.0000000000000000E+020
 30
-1.0000000000000000E+020
  9
$PLIMMIN
 10
0.0
 20
0.0
  9
$PLIMMAX
 10
420.0
 20
297.0
  9
$UNITMODE
 70
     0
  9
$VISRETAIN
 70
     1
  9
$PLINEGEN
 70
     0
  9
$PSLTSCALE
 70
     1
  0
ENDSEC
  0
SECTION
  2
TABLES
  0
TABLE
  2
VPORT
 70
     2
  0
VPORT
  2
*ACTIVE
 70
     0
 10
0.0
 20
0.0
 11
1.0
 21
1.0
 12
482.4740
 22
361.1928
 13
0.0
 23
0.0
 14
10.0
 24
10.0
 15
10.0
 25
10.0
 16
0.0
 26
0.0
 36
1.0
 17
0.0
 27
0.0
 37
0.0
 40
891.9995
 41
1.6916
 42
50.0
 43
0.0
 44
0.0
 50
0.0
 51
0.0
 71
     0
 72
   100
 73
     1
 74
     3
 75
     0
 76
     0
 77
     0
 78
     0
  0
ENDTAB
  0
TABLE
  2
LTYPE
 70
     7
  0
LTYPE
  2
CONTINUOUS
 70
     0
  3
Solid line
 72
    65
 73
     0
 40
0.0
  0
LTYPE
  2
HIDDEN2
 70
     0
  3
Hidden (.5x) _ _ _ _ _ _ _ _ _ _ _ _ _ _ _ _ _
 72
    65
 73
     2
 40
5.1
 49
3.5
 49
-1.6
  0
LTYPE
  2
DASHDOT
 70
     0
  3
Dash dot __ . __ . __ . __ . __ . __ . __ . __
 72
    65
 73
     4
 40
10.4
 49
6.2
 49
-2.1
 49
0.0
 49
-2.1
  0
LTYPE
  2
DOT
 70
     0
  3
Dot . . . . . . . . . . . . . . . . . . . . . .
 72
    65
 73
     2
 40
2.2
 49
1.1
 49
-1.1
  0
LTYPE
  2
DASHED
 70
     0
  3
Dashed __ __ __ __ __ __ __ __ __ __ __ __ __ _
 72
    65
 73
     2
 40
11.049999999999979
 49
8.699999999999999
 49
-2.3499999999999979
  0
LTYPE
  2
PHANTOM2
 70
     0
  3
Phantom (.5x) ___ _ _ ___ _ _ ___ _ _ ___ _ _
 72
    65
 73
     6
 40
18.3
 49
7.8
 49
-2.1
 49
2.1
 49
-2.1
 49
2.1
 49
-2.1
  0
LTYPE
  2
CENTER
 70
     0
  3
Center ____ _ ____ _ ____ _ ____ _ ____ _ ____
 72
    65
 73
     4
 40
14.1
 49
7.8
 49
-2.1
 49
2.1
 49
-2.1
  0
ENDTAB
  0
TABLE
  2
LAYER
 70
     7
  0
LAYER
  2
0
 70
    64
 62
     7
  6
CONTINUOUS
  0
LAYER
  2
OBRYS
 70
    64
 62
     2
  6
CONTINUOUS
  0
LAYER
  2
OSA
 70
    64
 62
     7
  6
DASHDOT
  0
LAYER
  2
KOTA
 70
    64
 62
     3
  6
CONTINUOUS
  0
LAYER
  2
SRAFY
 70
    64
 62
     7
  6
CONTINUOUS
  0
LAYER
  2
POMOC
 70
    64
 62
     1
  6
DOT
  0
LAYER
  2
NEVIDITELNA
 70
    64
 62
     4
  6
HIDDEN2
  0
ENDTAB
  0
TABLE
  2
STYLE
 70
     1
  0
STYLE
  2
STANDARD
 70
     0
 40
0.0
 41
1.0
 50
0.0
 71
     0
 42
2.5
  3
txt
  4

  0
ENDTAB
  0
TABLE
  2
VIEW
 70
     0
  0
ENDTAB
  0
TABLE
  2
UCS
 70
     0
  0
ENDTAB
  0
TABLE
  2
APPID
 70
     1
  0
APPID
  2
ACAD
 70
     0
  0
ENDTAB
  0
TABLE
  2
DIMSTYLE
 70
     1
  0
DIMSTYLE
  2
ISO-25
 70
     0
  3

  4

  5

  6

  7

 40
1.0
 41
2.5
 42
0.625
 43
3.75
 44
1.25
 45
0.0
 46
0.0
 47
0.0
 48
0.0
140
2.5
141
2.5
142
0.0
143
0.03937007874016
144
1.0
145
0.0
146
1.0
147
0.625
 71
     0
 72
     0
 73
     0
 74
     0
 75
     0
 76
     0
 77
     1
 78
     8
170
     0
171
     3
172
     1
173
     0
174
     0
175
     0
176
     0
177
     0
178
     0
  0
ENDTAB
  0
ENDSEC
  0
SECTION
  2
BLOCKS
  0
BLOCK
  8
0
  2
$MODEL_SPACE
 70
     0
 10
0.0
 20
0.0
 30
0.0
  3
$MODEL_SPACE
  1

  0
ENDBLK
  8
0
  0
BLOCK
 67
     1
  8
0
  2
$PAPER_SPACE
 70
     0
 10
0.0
 20
0.0
 30
0.0
  3
$PAPER_SPACE
  1

  0
ENDBLK
 67
     1
  8
0
  0
BLOCK
  8
OBRYS
  2
_0
 70
   64
 10
723.136098
 20
277.009109
  0
POLYLINE
  8
OBRYS
 66
    1
  0
VERTEX
  8
OBRYS
 10
743.627930
 20
342.835480
  0
VERTEX
  8
OBRYS
 10
742.597656
 20
343.420685
  0
VERTEX
  8
OBRYS
 10
740.742310
 20
343.725159
  0
SEQEND
  8
OBRYS
  0
POLYLINE
  8
OBRYS
 66
    1
  0
VERTEX
  8
OBRYS
 10
745.642639
 20
333.937744
  0
VERTEX
  8
OBRYS
 10
747.434204
 20
332.507263
  0
VERTEX
  8
OBRYS
 10
747.955200
 20
331.902740
  0
VERTEX
  8
OBRYS
 10
748.085083
 20
331.409027
  0
SEQEND
  8
OBRYS
  0
LINE
  8
OBRYS
 10
748.136098
 20
220.533249
 11
748.136098
 21
252.279275
  0
LINE
  8
OBRYS
 10
748.136098
 20
329.738942
 11
748.136098
 21
333.484968
  0
LINE
  8
OBRYS
 10
737.528356
 20
213.601701
 11
737.528356
 21
237.412843
  0
LINE
  8
OBRYS
 10
730.136098
 20
150.009109
 11
730.136098
 21
230.214372
  0
LINE
  8
OBRYS
 10
723.136098
 20
198.174867
 11
723.136098
 21
224.865326
  0
LINE
  8
OBRYS
 10
767.186203
 20
147.711248
 11
746.641212
 21
191.770125
  0
ARC
  8
OBRYS
 10
766.136098
 20
146.009109
 40
2.000000
 50
0.000000
 51
90.000000
  0
LINE
  8
OBRYS
 10
768.136098
 20
135.009109
 11
768.136098
 21
146.009109
  0
LINE
  8
OBRYS
 10
762.136098
 20
148.009109
 11
766.136098
 21
148.009109
  0
ARC
  8
OBRYS
 10
732.136098
 20
150.009109
 40
2.000000
 50
180.000000
 51
270.000000
  0
LINE
  8
OBRYS
 10
732.136098
 20
148.009109
 11
762.136098
 21
148.009109
  0
POLYLINE
  8
OBRYS
 66
    1
  0
VERTEX
  8
OBRYS
 10
743.627930
 20
365.835052
  0
VERTEX
  8
OBRYS
 10
742.597656
 20
366.624725
  0
VERTEX
  8
OBRYS
 10
741.423279
 20
367.009094
  0
SEQEND
  8
OBRYS
  0
POLYLINE
  8
OBRYS
 66
    1
  0
VERTEX
  8
OBRYS
 10
741.423279
 20
367.009094
  0
VERTEX
  8
OBRYS
 10
741.423279
 20
367.009094
  0
VERTEX
  8
OBRYS
 10
747.434204
 20
359.455505
  0
VERTEX
  8
OBRYS
 10
747.955200
 20
358.557465
  0
VERTEX
  8
OBRYS
 10
748.085083
 20
357.824036
  0
SEQEND
  8
OBRYS
  0
LINE
  8
OBRYS
 10
730.136098
 20
135.009109
 11
768.136098
 21
135.009109
  0
LINE
  8
OBRYS
 10
762.136098
 20
135.009109
 11
730.136098
 21
135.009109
  0
LINE
  8
OBRYS
 10
723.136098
 20
135.009109
 11
730.136098
 21
135.009109
  0
LINE
  8
OBRYS
 10
723.136098
 20
137.009109
 11
723.136098
 21
135.009109
  0
LINE
  8
OBRYS
 10
742.873153
 20
199.850754
 11
767.047309
 21
148.009109
  0
LINE
  8
OBRYS
 10
748.085112
 20
357.824026
 11
748.136098
 21
357.824026
  0
LINE
  8
OBRYS
 10
748.136098
 20
357.824026
 11
748.136098
 21
359.377955
  0
LINE
  8
OBRYS
 10
747.434231
 20
361.304097
 11
743.627919
 21
365.835060
  0
LINE
  8
OBRYS
 10
743.627919
 20
342.835495
 11
747.434231
 21
339.477727
  0
LINE
  8
OBRYS
 10
748.085112
 20
331.409024
 11
748.136098
 21
331.409024
  0
LINE
  8
OBRYS
 10
747.434231
 20
333.751607
 11
743.627919
 21
336.801588
  0
LINE
  8
OBRYS
 10
747.434231
 20
214.540490
 11
738.833764
 21
206.953522
  0
LINE
  8
OBRYS
 10
731.827073
 20
210.898715
 11
730.750542
 21
210.036096
  0
LINE
  8
OBRYS
 10
738.833764
 20
213.375094
 11
747.434231
 21
220.266611
  0
LINE
  8
OBRYS
 10
748.136098
 20
222.609193
 11
748.085112
 21
222.609193
  0
LINE
  8
OBRYS
 10
746.641212
 20
191.770125
 11
747.434231
 21
192.714120
  0
LINE
  8
OBRYS
 10
748.136098
 20
194.640262
 11
748.136098
 21
196.194191
  0
LINE
  8
OBRYS
 10
748.136098
 20
196.194191
 11
748.085112
 21
196.194191
  0
LINE
  8
OBRYS
 10
748.085112
 20
357.824026
 11
748.136098
 21
357.824026
  0
LINE
  8
OBRYS
 10
737.528356
 20
192.663028
 11
737.528356
 21
206.119961
  0
POLYLINE
  8
OBRYS
 66
    1
  0
VERTEX
  8
OBRYS
 10
748.136108
 20
359.377960
  0
VERTEX
  8
OBRYS
 10
747.955200
 20
360.402832
  0
VERTEX
  8
OBRYS
 10
747.434204
 20
361.304108
  0
SEQEND
  8
OBRYS
  0
POLYLINE
  8
OBRYS
 66
    1
  0
VERTEX
  8
OBRYS
 10
747.434204
 20
339.477722
  0
VERTEX
  8
OBRYS
 10
747.955200
 20
338.809814
  0
VERTEX
  8
OBRYS
 10
748.136108
 20
338.050323
  0
SEQEND
  8
OBRYS
  0
LINE
  8
OBRYS
 10
743.627919
 20
336.801588
 11
743.627919
 21
342.835495
  0
POLYLINE
  8
OBRYS
 66
    1
  0
VERTEX
  8
OBRYS
 10
748.136108
 20
332.455048
  0
VERTEX
  8
OBRYS
 10
747.955200
 20
333.144928
  0
VERTEX
  8
OBRYS
 10
747.434204
 20
333.751617
  0
SEQEND
  8
OBRYS
  0
POLYLINE
  8
OBRYS
 66
    1
  0
VERTEX
  8
OBRYS
 10
748.136108
 20
215.967896
  0
VERTEX
  8
OBRYS
 10
747.955200
 20
215.208389
  0
VERTEX
  8
OBRYS
 10
747.434204
 20
214.540497
  0
SEQEND
  8
OBRYS
  0
POLYLINE
  8
OBRYS
 66
    1
  0
VERTEX
  8
OBRYS
 10
738.833740
 20
206.953522
  0
VERTEX
  8
OBRYS
 10
735.195068
 20
204.630066
  0
VERTEX
  8
OBRYS
 10
730.750549
 20
203.277573
  0
SEQEND
  8
OBRYS
  0
LINE
  8
OBRYS
 10
730.750542
 20
203.277571
 11
730.750542
 21
210.036096
  0
LINE
  8
OBRYS
 10
738.833764
 20
206.953522
 11
738.833764
 21
213.375094
  0
POLYLINE
  8
OBRYS
 66
    1
  0
VERTEX
  8
OBRYS
 10
748.085083
 20
222.609192
  0
VERTEX
  8
OBRYS
 10
747.955200
 20
222.115479
  0
VERTEX
  8
OBRYS
 10
747.434204
 20
221.510971
  0
VERTEX
  8
OBRYS
 10
737.528381
 20
213.601700
  0
VERTEX
  8
OBRYS
 10
734.280334
 20
211.665146
  0
VERTEX
  8
OBRYS
 10
731.827087
 20
210.898712
  0
SEQEND
  8
OBRYS
  0
POLYLINE
  8
OBRYS
 66
    1
  0
VERTEX
  8
OBRYS
 10
730.750549
 20
210.036102
  0
VERTEX
  8
OBRYS
 10
735.195068
 20
211.264618
  0
VERTEX
  8
OBRYS
 10
738.833740
 20
213.375092
  0
SEQEND
  8
OBRYS
  0
POLYLINE
  8
OBRYS
 66
    1
  0
VERTEX
  8
OBRYS
 10
747.434204
 20
220.266617
  0
VERTEX
  8
OBRYS
 10
747.955200
 20
220.873291
  0
VERTEX
  8
OBRYS
 10
748.136108
 20
221.563171
  0
SEQEND
  8
OBRYS
  0
POLYLINE
  8
OBRYS
 66
    1
  0
VERTEX
  8
OBRYS
 10
748.085083
 20
196.194199
  0
VERTEX
  8
OBRYS
 10
747.955200
 20
195.460754
  0
VERTEX
  8
OBRYS
 10
747.434204
 20
194.562698
  0
VERTEX
  8
OBRYS
 10
746.085205
 20
192.962540
  0
SEQEND
  8
OBRYS
  0
POLYLINE
  8
OBRYS
 66
    1
  0
VERTEX
  8
OBRYS
 10
747.434204
 20
192.714127
  0
VERTEX
  8
OBRYS
 10
747.955200
 20
193.615387
  0
VERTEX
  8
OBRYS
 10
748.136108
 20
194.640259
  0
SEQEND
  8
OBRYS
  0
POLYLINE
  8
OBRYS
 66
    1
  0
VERTEX
  8
OBRYS
 10
730.136108
 20
187.294128
  0
VERTEX
  8
OBRYS
 10
730.339722
 20
187.327789
  0
VERTEX
  8
OBRYS
 10
734.280334
 20
189.401306
  0
VERTEX
  8
OBRYS
 10
737.528381
 20
192.663025
  0
VERTEX
  8
OBRYS
 10
742.873169
 20
199.850754
  0
SEQEND
  8
OBRYS
  0
LINE
  8
OBRYS
 10
748.136098
 20
196.194191
 11
748.136098
 21
212.009109
  0
LINE
  8
OBRYS
 10
748.136098
 20
342.009109
 11
748.136098
 21
357.824026
  0
LINE
  8
OBRYS
 10
748.136098
 20
212.009109
 11
748.136098
 21
220.533249
  0
LINE
  8
OBRYS
 10
748.136098
 20
342.009109
 11
748.136098
 21
333.484968
  0
LINE
  8
OBRYS
 10
747.434231
 20
215.910421
 11
747.434231
 21
220.266611
  0
LINE
  8
OBRYS
 10
747.434231
 20
333.751607
 11
747.434231
 21
338.107796
  0
LINE
  8
OBRYS
 62
     7
  6
DASHDOT
 10
751.636098
 20
150.685302
 11
751.636098
 21
130.209109
  0
LINE
  8
OBRYS
 62
     4
  6
HIDDEN2
 10
757.136098
 20
148.009109
 11
757.136098
 21
135.009109
  0
LINE
  8
OBRYS
 62
     4
  6
HIDDEN2
 10
746.136098
 20
148.009109
 11
746.136098
 21
135.009109
  0
LINE
  8
OBRYS
 10
723.136098
 20
224.865326
 11
723.136098
 21
135.009109
  0
ENDBLK
  8
OBRYS
  0
BLOCK
  8
OBRYS
  2
_1
 70
   64
 10
633.136098
 20
277.009109
  0
POLYLINE
  8
OBRYS
 66
    1
  0
VERTEX
  8
OBRYS
 10
612.644287
 20
342.835480
  0
VERTEX
  8
OBRYS
 10
613.674561
 20
343.420685
  0
VERTEX
  8
OBRYS
 10
615.529907
 20
343.725159
  0
SEQEND
  8
OBRYS
  0
POLYLINE
  8
OBRYS
 66
    1
  0
VERTEX
  8
OBRYS
 10
610.629578
 20
333.937744
  0
VERTEX
  8
OBRYS
 10
608.837952
 20
332.507263
  0
VERTEX
  8
OBRYS
 10
608.317017
 20
331.902740
  0
VERTEX
  8
OBRYS
 10
608.187073
 20
331.409027
  0
SEQEND
  8
OBRYS
  0
LINE
  8
OBRYS
 10
608.136098
 20
220.533249
 11
608.136098
 21
252.279275
  0
LINE
  8
OBRYS
 10
608.136098
 20
329.738942
 11
608.136098
 21
333.484968
  0
LINE
  8
OBRYS
 10
618.743840
 20
213.601701
 11
618.743840
 21
237.412843
  0
LINE
  8
OBRYS
 10
626.136098
 20
150.009109
 11
626.136098
 21
230.214372
  0
LINE
  8
OBRYS
 10
633.136098
 20
198.174867
 11
633.136098
 21
224.865326
  0
LINE
  8
OBRYS
 10
589.085993
 20
147.711248
 11
609.630984
 21
191.770125
  0
ARC
  8
OBRYS
 10
590.136098
 20
146.009109
 40
2.000000
 50
90.000000
 51
180.000000
  0
LINE
  8
OBRYS
 10
588.136098
 20
135.009109
 11
588.136098
 21
146.009109
  0
LINE
  8
OBRYS
 10
594.136098
 20
148.009109
 11
590.136098
 21
148.009109
  0
ARC
  8
OBRYS
 10
624.136098
 20
150.009109
 40
2.000000
 50
270.000000
 51
360.000000
  0
LINE
  8
OBRYS
 10
624.136098
 20
148.009109
 11
594.136098
 21
148.009109
  0
POLYLINE
  8
OBRYS
 66
    1
  0
VERTEX
  8
OBRYS
 10
612.644287
 20
365.835052
  0
VERTEX
  8
OBRYS
 10
613.674561
 20
366.624725
  0
VERTEX
  8
OBRYS
 10
614.848877
 20
367.009094
  0
SEQEND
  8
OBRYS
  0
POLYLINE
  8
OBRYS
 66
    1
  0
VERTEX
  8
OBRYS
 10
614.848877
 20
367.009094
  0
VERTEX
  8
OBRYS
 10
614.848877
 20
367.009094
  0
VERTEX
  8
OBRYS
 10
608.837952
 20
359.455505
  0
VERTEX
  8
OBRYS
 10
608.317017
 20
358.557465
  0
VERTEX
  8
OBRYS
 10
608.187073
 20
357.824036
  0
SEQEND
  8
OBRYS
  0
LINE
  8
OBRYS
 10
626.136098
 20
135.009109
 11
588.136098
 21
135.009109
  0
LINE
  8
OBRYS
 10
594.136098
 20
135.009109
 11
626.136098
 21
135.009109
  0
LINE
  8
OBRYS
 10
633.136098
 20
135.009109
 11
626.136098
 21
135.009109
  0
LINE
  8
OBRYS
 10
633.136098
 20
137.009109
 11
633.136098
 21
135.009109
  0
LINE
  8
OBRYS
 10
613.399043
 20
199.850754
 11
589.224887
 21
148.009109
  0
LINE
  8
OBRYS
 10
608.187084
 20
357.824026
 11
608.136098
 21
357.824026
  0
LINE
  8
OBRYS
 10
608.136098
 20
357.824026
 11
608.136098
 21
359.377955
  0
LINE
  8
OBRYS
 10
608.837965
 20
361.304097
 11
612.644277
 21
365.835060
  0
LINE
  8
OBRYS
 10
612.644277
 20
342.835495
 11
608.837965
 21
339.477727
  0
LINE
  8
OBRYS
 10
608.187084
 20
331.409024
 11
608.136098
 21
331.409024
  0
LINE
  8
OBRYS
 10
608.837965
 20
333.751607
 11
612.644277
 21
336.801588
  0
LINE
  8
OBRYS
 10
608.837965
 20
214.540490
 11
617.438432
 21
206.953522
  0
LINE
  8
OBRYS
 10
624.445123
 20
210.898715
 11
625.521654
 21
210.036096
  0
LINE
  8
OBRYS
 10
617.438432
 20
213.375094
 11
608.837965
 21
220.266611
  0
LINE
  8
OBRYS
 10
608.136098
 20
222.609193
 11
608.187084
 21
222.609193
  0
LINE
  8
OBRYS
 10
609.630984
 20
191.770125
 11
608.837965
 21
192.714120
  0
LINE
  8
OBRYS
 10
608.136098
 20
194.640262
 11
608.136098
 21
196.194191
  0
LINE
  8
OBRYS
 10
608.136098
 20
196.194191
 11
608.187084
 21
196.194191
  0
LINE
  8
OBRYS
 10
608.187084
 20
357.824026
 11
608.136098
 21
357.824026
  0
LINE
  8
OBRYS
 10
618.743840
 20
192.663028
 11
618.743840
 21
206.119961
  0
POLYLINE
  8
OBRYS
 66
    1
  0
VERTEX
  8
OBRYS
 10
608.136108
 20
359.377960
  0
VERTEX
  8
OBRYS
 10
608.317017
 20
360.402832
  0
VERTEX
  8
OBRYS
 10
608.837952
 20
361.304108
  0
SEQEND
  8
OBRYS
  0
POLYLINE
  8
OBRYS
 66
    1
  0
VERTEX
  8
OBRYS
 10
608.837952
 20
339.477722
  0
VERTEX
  8
OBRYS
 10
608.317017
 20
338.809814
  0
VERTEX
  8
OBRYS
 10
608.136108
 20
338.050323
  0
SEQEND
  8
OBRYS
  0
LINE
  8
OBRYS
 10
612.644277
 20
336.801588
 11
612.644277
 21
342.835495
  0
POLYLINE
  8
OBRYS
 66
    1
  0
VERTEX
  8
OBRYS
 10
608.136108
 20
332.455048
  0
VERTEX
  8
OBRYS
 10
608.317017
 20
333.144928
  0
VERTEX
  8
OBRYS
 10
608.837952
 20
333.751617
  0
SEQEND
  8
OBRYS
  0
POLYLINE
  8
OBRYS
 66
    1
  0
VERTEX
  8
OBRYS
 10
608.136108
 20
215.967896
  0
VERTEX
  8
OBRYS
 10
608.317017
 20
215.208389
  0
VERTEX
  8
OBRYS
 10
608.837952
 20
214.540497
  0
SEQEND
  8
OBRYS
  0
POLYLINE
  8
OBRYS
 66
    1
  0
VERTEX
  8
OBRYS
 10
617.438416
 20
206.953522
  0
VERTEX
  8
OBRYS
 10
621.077087
 20
204.630066
  0
VERTEX
  8
OBRYS
 10
625.521667
 20
203.277573
  0
SEQEND
  8
OBRYS
  0
LINE
  8
OBRYS
 10
625.521654
 20
203.277571
 11
625.521654
 21
210.036096
  0
LINE
  8
OBRYS
 10
617.438432
 20
206.953522
 11
617.438432
 21
213.375094
  0
POLYLINE
  8
OBRYS
 66
    1
  0
VERTEX
  8
OBRYS
 10
608.187073
 20
222.609192
  0
VERTEX
  8
OBRYS
 10
608.317017
 20
222.115479
  0
VERTEX
  8
OBRYS
 10
608.837952
 20
221.510971
  0
VERTEX
  8
OBRYS
 10
618.743835
 20
213.601700
  0
VERTEX
  8
OBRYS
 10
621.991882
 20
211.665146
  0
VERTEX
  8
OBRYS
 10
624.445129
 20
210.898712
  0
SEQEND
  8
OBRYS
  0
POLYLINE
  8
OBRYS
 66
    1
  0
VERTEX
  8
OBRYS
 10
625.521667
 20
210.036102
  0
VERTEX
  8
OBRYS
 10
621.077087
 20
211.264618
  0
VERTEX
  8
OBRYS
 10
617.438416
 20
213.375092
  0
SEQEND
  8
OBRYS
  0
POLYLINE
  8
OBRYS
 66
    1
  0
VERTEX
  8
OBRYS
 10
608.837952
 20
220.266617
  0
VERTEX
  8
OBRYS
 10
608.317017
 20
220.873291
  0
VERTEX
  8
OBRYS
 10
608.136108
 20
221.563171
  0
SEQEND
  8
OBRYS
  0
POLYLINE
  8
OBRYS
 66
    1
  0
VERTEX
  8
OBRYS
 10
608.187073
 20
196.194199
  0
VERTEX
  8
OBRYS
 10
608.317017
 20
195.460754
  0
VERTEX
  8
OBRYS
 10
608.837952
 20
194.562698
  0
VERTEX
  8
OBRYS
 10
610.187012
 20
192.962540
  0
SEQEND
  8
OBRYS
  0
POLYLINE
  8
OBRYS
 66
    1
  0
VERTEX
  8
OBRYS
 10
608.837952
 20
192.714127
  0
VERTEX
  8
OBRYS
 10
608.317017
 20
193.615387
  0
VERTEX
  8
OBRYS
 10
608.136108
 20
194.640259
  0
SEQEND
  8
OBRYS
  0
POLYLINE
  8
OBRYS
 66
    1
  0
VERTEX
  8
OBRYS
 10
626.136108
 20
187.294128
  0
VERTEX
  8
OBRYS
 10
625.932434
 20
187.327789
  0
VERTEX
  8
OBRYS
 10
621.991882
 20
189.401306
  0
VERTEX
  8
OBRYS
 10
618.743835
 20
192.663025
  0
VERTEX
  8
OBRYS
 10
613.399048
 20
199.850754
  0
SEQEND
  8
OBRYS
  0
LINE
  8
OBRYS
 10
608.136098
 20
196.194191
 11
608.136098
 21
212.009109
  0
LINE
  8
OBRYS
 10
608.136098
 20
342.009109
 11
608.136098
 21
357.824026
  0
LINE
  8
OBRYS
 10
608.136098
 20
212.009109
 11
608.136098
 21
220.533249
  0
LINE
  8
OBRYS
 10
608.136098
 20
342.009109
 11
608.136098
 21
333.484968
  0
LINE
  8
OBRYS
 10
608.837965
 20
215.910421
 11
608.837965
 21
220.266611
  0
LINE
  8
OBRYS
 10
608.837965
 20
333.751607
 11
608.837965
 21
338.107796
  0
LINE
  8
OBRYS
 62
     7
  6
DASHDOT
 10
604.636098
 20
150.685302
 11
604.636098
 21
130.209109
  0
LINE
  8
OBRYS
 62
     4
  6
HIDDEN2
 10
599.136098
 20
148.009109
 11
599.136098
 21
135.009109
  0
LINE
  8
OBRYS
 62
     4
  6
HIDDEN2
 10
610.136098
 20
148.009109
 11
610.136098
 21
135.009109
  0
LINE
  8
OBRYS
 10
633.136098
 20
224.865326
 11
633.136098
 21
135.009109
  0
ENDBLK
  8
OBRYS
  0
BLOCK
  8
OBRYS
  2
_2
 70
   64
 10
678.136098
 20
357.009109
  0
ARC
  8
OBRYS
 10
678.136098
 20
291.009109
 40
92.000000
 50
45.920846
 51
134.079154
  0
ARC
  8
OBRYS
 10
678.136098
 20
291.009109
 40
52.000000
 50
44.999997
 51
135.000047
  0
ARC
  8
OBRYS
 10
678.136098
 20
291.009109
 40
32.000000
 50
44.999996
 51
135.000004
  0
ARC
  8
OBRYS
 10
648.437613
 20
320.707593
 40
10.000000
 50
135.000000
 51
315.000000
  0
ARC
  8
OBRYS
 10
707.834583
 20
320.707593
 40
10.000000
 50
225.000000
 51
45.000000
  0
CIRCLE
  8
OBRYS
 10
733.536098
 20
387.009109
 40
5.500000
  0
CIRCLE
  8
OBRYS
 10
678.136098
 20
420.009109
 40
5.500000
  0
CIRCLE
  8
OBRYS
 10
622.736098
 20
387.009109
 40
5.500000
  0
CIRCLE
  8
OBRYS
 10
678.136098
 20
257.009109
 40
5.500000
  0
CIRCLE
  8
OBRYS
 10
622.736098
 20
327.009109
 40
5.500000
  0
CIRCLE
  8
OBRYS
 10
733.536098
 20
327.009109
 40
5.500000
  0
ARC
  8
OBRYS
 10
678.136098
 20
291.009109
 40
74.000000
 50
333.573390
 51
17.140998
  0
ARC
  8
OBRYS
 10
678.136098
 20
291.009109
 40
61.000000
 50
333.573390
 51
17.140998
  0
ARC
  8
OBRYS
 10
742.637908
 20
310.902990
 40
6.500000
 50
17.141009
 51
197.141009
  0
ARC
  8
OBRYS
 10
613.634288
 20
310.902990
 40
6.500000
 50
342.858991
 51
162.858991
  0
ARC
  8
OBRYS
 10
678.136098
 20
291.009109
 40
61.000000
 50
162.858989
 51
206.426677
  0
ARC
  8
OBRYS
 10
678.136098
 20
291.009109
 40
74.000000
 50
162.858989
 51
206.426680
  0
ARC
  8
OBRYS
 10
678.136098
 20
291.009109
 40
61.000000
 50
63.573333
 51
116.426645
  0
ARC
  8
OBRYS
 10
678.136098
 20
291.009109
 40
74.000000
 50
63.573335
 51
116.426619
  0
ARC
  8
OBRYS
 10
678.136098
 20
291.009109
 40
61.000000
 50
243.573355
 51
296.426659
  0
ARC
  8
OBRYS
 10
678.136098
 20
291.009109
 40
74.000000
 50
243.573377
 51
296.426631
  0
ARC
  8
OBRYS
 10
708.177086
 20
351.455689
 40
6.500000
 50
243.573499
 51
63.573499
  0
ARC
  8
OBRYS
 10
648.095110
 20
351.455689
 40
6.500000
 50
116.426501
 51
296.426501
  0
ARC
  8
OBRYS
 10
648.095110
 20
230.562529
 40
6.500000
 50
63.573499
 51
243.573499
  0
ARC
  8
OBRYS
 10
617.689518
 20
260.968120
 40
6.500000
 50
206.427008
 51
26.427008
  0
ARC
  8
OBRYS
 10
738.582678
 20
260.968120
 40
6.500000
 50
153.572992
 51
333.572992
  0
ARC
  8
OBRYS
 10
708.177086
 20
230.562529
 40
6.500000
 50
296.426501
 51
116.426501
  0
CIRCLE
  8
OBRYS
 10
678.136098
 20
291.009109
 40
55.000000
  0
CIRCLE
  8
OBRYS
 10
678.136098
 20
291.009109
 40
80.000000
  0
ARC
  8
OBRYS
 10
678.136098
 20
357.009109
 40
64.000000
 50
345.942370
 51
19.389830
  0
ARC
  8
OBRYS
 10
678.136098
 20
357.009109
 40
64.000000
 50
160.610170
 51
194.057630
  0
INSERT
  8
OBRYS
  2
Vnitrni_metricky_zavit_M8__1
 62
     7
 10
724.098039
 20
336.971049
  0
INSERT
  8
OBRYS
  2
Vnitrni_metricky_zavit_M8__2
 62
     7
 10
632.174157
 20
336.971049
  0
LINE
  8
OSA
 10
639.775555
 20
329.369652
 11
624.572759
 21
344.572447
  0
LINE
  8
OSA
 10
716.496641
 20
329.369652
 11
731.699437
 21
344.572447
  0
CIRCLE
  8
OBRYS
 10
724.098039
 20
245.047168
 40
4.500000
  0
LINE
  8
OSA
 10
716.496641
 20
252.648566
 11
731.699437
 21
237.445770
  0
LINE
  8
OSA
 10
639.775555
 20
252.648566
 11
624.572759
 21
237.445770
  0
CIRCLE
  8
OBRYS
 10
632.174157
 20
245.047168
 40
4.500000
  0
CIRCLE
  8
OSA
 10
678.136098
 20
291.009109
 40
65.000000
  0
CIRCLE
  8
OBRYS
 10
653.136098
 20
268.009109
 40
3.000000
  0
LINE
  8
OSA
 10
653.136098
 20
268.009109
 11
661.136098
 21
268.009109
  0
LINE
  8
OSA
 10
653.136098
 20
268.009109
 11
653.136098
 21
276.009109
  0
LINE
  8
OSA
 10
653.136098
 20
268.009109
 11
653.136098
 21
260.009109
  0
LINE
  8
OSA
 10
653.136098
 20
268.009109
 11
642.993531
 21
268.009109
  0
CIRCLE
  8
OBRYS
 10
678.136098
 20
257.009109
 40
3.200000
  0
LINE
  8
OSA
 10
678.136098
 20
257.009109
 11
686.136098
 21
257.009109
  0
LINE
  8
OSA
 10
678.136098
 20
257.009109
 11
670.136098
 21
257.009109
  0
CIRCLE
  8
OBRYS
 10
733.536098
 20
387.009109
 40
3.200000
  0
CIRCLE
  8
OBRYS
 10
733.536098
 20
327.009109
 40
3.200000
  0
CIRCLE
  8
OBRYS
 10
622.736098
 20
327.009109
 40
3.200000
  0
CIRCLE
  8
OBRYS
 10
622.736098
 20
387.009109
 40
3.200000
  0
CIRCLE
  8
OBRYS
 10
721.136098
 20
403.009109
 40
3.000000
  0
LINE
  8
OSA
 10
721.136098
 20
403.009109
 11
733.136098
 21
403.009109
  0
LINE
  8
OSA
 10
721.136098
 20
403.009109
 11
709.136098
 21
403.009109
  0
LINE
  8
OSA
 10
721.136098
 20
403.009109
 11
721.136098
 21
415.009109
  0
LINE
  8
OSA
 10
721.136098
 20
403.009109
 11
721.136098
 21
391.009109
  0
LINE
  8
OSA
 10
614.736098
 20
387.009109
 11
630.736098
 21
387.009109
  0
LINE
  8
OSA
 10
614.736098
 20
327.009109
 11
630.736098
 21
327.009109
  0
LINE
  8
OSA
 10
622.736098
 20
394.417144
 11
622.736098
 21
318.116898
  0
LINE
  8
OSA
 10
733.536098
 20
394.417144
 11
733.536098
 21
318.116898
  0
LINE
  8
OSA
 10
741.536098
 20
327.009109
 11
725.536098
 21
327.009109
  0
LINE
  8
OSA
 10
741.536098
 20
387.009109
 11
725.536098
 21
387.009109
  0
ARC
  8
OBRYS
 10
688.921056
 20
422.173522
 40
3.000000
 50
191.347840
 51
254.724588
  0
ARC
  8
OBRYS
 10
678.136098
 20
420.009109
 40
8.000000
 50
11.347840
 51
168.652160
  0
LINE
  8
OBRYS
 10
688.130679
 20
419.279510
 11
722.980312
 21
409.761803
  0
ARC
  8
OBRYS
 10
667.351140
 20
422.173522
 40
3.000000
 50
285.275412
 51
348.652160
  0
LINE
  8
OBRYS
 10
668.141518
 20
419.279510
 11
633.291884
 21
409.761803
  0
ARC
  8
OBRYS
 10
622.736098
 20
387.009109
 40
8.000000
 50
139.392698
 51
224.840000
  0
ARC
  8
OBRYS
 10
614.936231
 20
379.252687
 40
3.000000
 50
340.610170
 51
44.839984
  0
LINE
  8
0
 62
     2
 10
616.662591
 20
392.216076
 11
629.821779
 21
407.565205
  0
ARC
  8
OBRYS
 10
635.136098
 20
403.009109
 40
7.000000
 50
105.275412
 51
139.392700
  0
ARC
  8
OBRYS
 10
721.136098
 20
403.009109
 40
7.000000
 50
40.607300
 51
74.724588
  0
ARC
  8
OBRYS
 10
733.536098
 20
387.009109
 40
8.000000
 50
315.160016
 51
40.607302
  0
LINE
  8
0
 62
     2
 10
739.609605
 20
392.216076
 11
726.450417
 21
407.565205
  0
ARC
  8
OBRYS
 10
741.335965
 20
379.252687
 40
3.000000
 50
135.160016
 51
199.389830
  0
LINE
  8
OSA
 10
687.586098
 20
420.009109
 11
668.686098
 21
420.009109
  0
CIRCLE
  8
OBRYS
 10
678.136098
 20
420.009109
 40
3.200000
  0
LINE
  8
OSA
 10
678.136098
 20
291.009109
 11
678.136098
 21
430.307049
  0
LINE
  8
OSA
 10
607.886098
 20
357.009109
 11
748.386098
 21
357.009109
  0
CIRCLE
  8
OBRYS
 10
678.136098
 20
291.009109
 40
23.500000
  0
LINE
  8
OSA
 10
678.136098
 20
291.009109
 11
678.136098
 21
204.759109
  0
LINE
  8
OSA
 10
678.136098
 20
291.009109
 11
764.386098
 21
291.009109
  0
LINE
  8
OSA
 10
678.136098
 20
291.009109
 11
591.886098
 21
291.009109
  0
CIRCLE
  8
OBRYS
 10
678.136098
 20
291.009109
 40
12.500000
  0
LINE
  8
OBRYS
 10
675.636098
 20
300.209109
 11
680.636098
 21
300.209109
  0
LINE
  8
OBRYS
 10
680.636098
 20
297.547457
 11
680.636098
 21
300.209109
  0
LINE
  8
OBRYS
 10
675.636098
 20
297.547457
 11
675.636098
 21
300.209109
  0
ARC
  8
OBRYS
 10
678.136098
 20
291.009109
 40
7.000000
 50
110.924832
 51
69.075168
  0
ENDBLK
  8
OBRYS
  0
BLOCK
  8
OBRYS
  2
Vnitrni_metricky_zavit_M8__1
 70
   66
 10
724.098039
 20
336.971049
  0
CIRCLE
  8
OBRYS
 10
724.098039
 20
336.971049
 40
3.323500
  0
ARC
  8
OBRYS
 62
     7
 10
724.098039
 20
336.971049
 40
4.000000
 50
265.000000
 51
185.000000
  0
ENDBLK
  8
OBRYS
  0
BLOCK
  8
OBRYS
  2
Vnitrni_metricky_zavit_M8__2
 70
   66
 10
632.174157
 20
336.971049
  0
CIRCLE
  8
OBRYS
 10
632.174157
 20
336.971049
 40
3.323500
  0
ARC
  8
OBRYS
 62
     7
 10
632.174157
 20
336.971049
 40
4.000000
 50
265.000000
 51
185.000000
  0
ENDBLK
  8
OBRYS
  0
BLOCK
  8
OBRYS
  2
_3
 70
   64
 10
1022.407825
 20
357.009109
  0
ARC
  8
OBRYS
 10
1042.394062
 20
424.009109
 40
3.000000
 50
90.000000
 51
130.000000
  0
LINE
  8
OBRYS
 10
1028.979949
 20
416.669553
 11
1040.465699
 21
426.307242
  0
LINE
  8
OBRYS
 10
1065.407825
 20
427.009109
 11
1042.394062
 21
427.009109
  0
ARC
  8
OBRYS
 10
1035.407825
 20
409.009109
 40
10.000000
 50
130.000000
 51
180.000000
  0
LINE
  8
OSA
 10
1070.407825
 20
357.009109
 11
1012.407825
 21
357.009109
  0
ARC
  8
OBRYS
 10
1022.407825
 20
306.213392
 40
3.000000
 50
0.000000
 51
90.000000
  0
ARC
  8
OBRYS
 10
1022.407825
 20
407.804825
 40
3.000000
 50
270.000000
 51
360.000000
  0
ARC
  8
OBRYS
 10
1035.407825
 20
259.009109
 40
10.000000
 50
180.000000
 51
270.000000
  0
LINE
  8
OBRYS
 10
1065.407825
 20
249.009109
 11
1035.407825
 21
249.009109
  0
LINE
  8
OBRYS
 10
1065.407825
 20
427.009109
 11
1065.407825
 21
249.009109
  0
LINE
  8
OSA
 10
1070.362085
 20
291.009109
 11
1020.407825
 21
291.009109
  0
LINE
  8
OBRYS
 10
1022.407825
 20
396.495424
 11
1022.407825
 21
357.009109
  0
LINE
  8
OBRYS
 10
1022.407825
 20
317.522793
 11
1022.407825
 21
357.009109
  0
LINE
  8
OBRYS
 10
1025.407825
 20
410.329617
 11
1025.407825
 21
357.009109
  0
LINE
  8
OBRYS
 10
1025.407825
 20
357.009109
 11
1025.407825
 21
259.009109
  0
LINE
  8
OBRYS
 10
1065.407825
 20
422.009109
 11
1034.722824
 21
422.009109
  0
LINE
  8
OBRYS
 10
1058.407825
 20
379.384441
 11
1035.343383
 21
379.384441
  0
LINE
  8
OBRYS
 10
1058.407825
 20
334.633776
 11
1035.343383
 21
334.633776
  0
LINE
  8
OBRYS
 10
1060.407825
 20
377.384441
 11
1060.407825
 21
336.633776
  0
LINE
  8
OBRYS
 10
1058.407825
 20
319.555510
 11
1035.343383
 21
319.555510
  0
LINE
  8
OBRYS
 10
1060.407825
 20
317.555510
 11
1060.407825
 21
249.009109
  0
LINE
  8
OBRYS
 10
1060.407825
 20
409.195905
 11
1035.343383
 21
409.195905
  0
LINE
  8
OBRYS
 10
1082.407825
 20
371.009109
 11
1082.407825
 21
214.009109
  0
LINE
  8
OBRYS
 10
1092.407825
 20
371.009109
 11
1092.407825
 21
211.009109
  0
LINE
  8
OBRYS
 10
1092.407825
 20
211.009109
 11
1085.407825
 21
211.009109
  0
ARC
  8
OBRYS
 10
1085.407825
 20
214.009109
 40
3.000000
 50
180.000000
 51
270.000000
  0
ARC
  8
OBRYS
 10
1079.407825
 20
246.009109
 40
3.000000
 50
0.000000
 51
90.000000
  0
LINE
  8
OBRYS
 10
1079.407825
 20
249.009109
 11
1065.407825
 21
249.009109
  0
LINE
  8
OBRYS
 10
1065.407825
 20
427.009109
 11
1065.407825
 21
249.009109
  0
LINE
  8
OBRYS
 10
1073.407825
 20
427.009109
 11
1065.407825
 21
427.009109
  0
ARC
  8
OBRYS
 10
1073.407825
 20
425.009109
 40
2.000000
 50
0.000000
 51
90.000000
  0
LINE
  8
OBRYS
 10
1075.407825
 20
425.009109
 11
1075.407825
 21
384.420651
  0
ARC
  8
OBRYS
 10
1078.407825
 20
384.420651
 40
3.000000
 50
180.000000
 51
210.000000
  0
LINE
  8
OBRYS
 10
1092.407825
 20
371.009109
 11
1084.418932
 21
371.009109
  0
LINE
  8
OBRYS
 10
1075.809749
 20
382.920651
 11
1081.820856
 21
372.509109
  0
ARC
  8
OBRYS
 10
1084.418932
 20
374.009109
 40
3.000000
 50
210.000000
 51
270.000000
  0
LINE
  8
OSA
 10
1098.657825
 20
291.009109
 11
1059.157825
 21
291.009109
  0
LINE
  8
OBRYS
 10
1065.407825
 20
422.009109
 11
1075.407825
 21
422.009109
  0
LINE
  8
OBRYS
 10
1065.407825
 20
409.195905
 11
1072.625609
 21
409.195905
  0
LINE
  8
OBRYS
 10
1065.407825
 20
379.384441
 11
1074.212182
 21
379.384441
  0
LINE
  8
OBRYS
 10
1065.407825
 20
334.633776
 11
1079.911217
 21
334.633776
  0
LINE
  8
OBRYS
 10
1065.407825
 20
319.555510
 11
1079.911217
 21
319.555510
  0
ENDBLK
  8
OBRYS
  0
BLOCK
  8
OBRYS
  2
_4
 70
   64
 10
294.659929
 20
-44.709986
  0
LINE
  8
OSA
 10
218.409929
 20
-44.709986
 11
302.234681
 21
-44.709986
  0
ARC
  8
OBRYS
 10
231.659929
 20
-121.709986
 40
3.000000
 50
270.000000
 51
360.000000
  0
LINE
  8
OBRYS
 10
224.659929
 20
-124.709986
 11
231.659929
 21
-124.709986
  0
LINE
  8
OBRYS
 10
224.659929
 20
35.290014
 11
224.659929
 21
-124.709986
  0
ARC
  8
OBRYS
 10
294.659929
 20
-90.709986
 40
3.000000
 50
90.000000
 51
180.000000
  0
ARC
  8
OBRYS
 10
294.659929
 20
1.290014
 40
3.000000
 50
180.000000
 51
270.000000
  0
LINE
  8
OBRYS
 10
294.659929
 20
-9.709986
 11
294.659929
 21
-44.709986
  0
LINE
  8
OBRYS
 10
294.659929
 20
-79.709986
 11
294.659929
 21
-44.709986
  0
LINE
  8
OBRYS
 10
291.659929
 20
9.289950
 11
291.659929
 21
-44.709986
  0
ARC
  8
OBRYS
 10
281.659929
 20
9.289950
 40
10.000000
 50
0.000000
 51
90.000000
  0
LINE
  8
OBRYS
 10
291.659929
 20
-44.709986
 11
291.659929
 21
-98.709921
  0
ARC
  8
OBRYS
 10
281.659929
 20
-98.709921
 40
10.000000
 50
270.000000
 51
360.000000
  0
LINE
  8
OBRYS
 10
236.659929
 20
19.289950
 11
281.659929
 21
19.289950
  0
ARC
  8
OBRYS
 10
236.659929
 20
21.289950
 40
2.000000
 50
180.000000
 51
270.000000
  0
LINE
  8
OBRYS
 10
236.659929
 20
-108.709921
 11
281.659929
 21
-108.709921
  0
ARC
  8
OBRYS
 10
236.659929
 20
-110.709921
 40
2.000000
 50
90.000000
 51
180.000000
  0
LINE
  8
OBRYS
 10
224.659929
 20
35.290014
 11
231.659929
 21
35.290014
  0
LINE
  8
OBRYS
 10
234.659929
 20
32.290014
 11
234.659929
 21
-121.709986
  0
ARC
  8
OBRYS
 10
231.659929
 20
32.290014
 40
3.000000
 50
0.000000
 51
90.000000
  0
LINE
  8
OBRYS
 10
251.659929
 20
19.289950
 11
251.659929
 21
-108.709921
  0
LINE
  8
OBRYS
 10
243.659929
 20
2.206293
 11
281.724370
 21
2.206293
  0
LINE
  8
OBRYS
 10
243.659929
 20
-36.712109
 11
281.724370
 21
-36.712109
  0
ARC
  8
OBRYS
 10
244.659929
 20
16.289950
 40
3.000000
 50
90.000000
 51
180.000000
  0
LINE
  8
OBRYS
 10
241.659929
 20
16.289950
 11
241.659929
 21
-105.709921
  0
ARC
  8
OBRYS
 10
244.659929
 20
-105.709921
 40
3.000000
 50
180.000000
 51
270.000000
  0
LINE
  8
OBRYS
 10
243.659929
 20
-91.626265
 11
281.724370
 21
-91.626265
  0
LINE
  8
OBRYS
 10
243.659929
 20
-52.707863
 11
281.724370
 21
-52.707863
  0
ENDBLK
  8
OBRYS
  0
BLOCK
  8
OBRYS
  2
_5
 70
   64
 10
294.659929
 20
565.485278
  0
LINE
  8
OSA
 10
218.409929
 20
565.485278
 11
302.234681
 21
565.485278
  0
ARC
  8
OBRYS
 10
231.659929
 20
488.485278
 40
3.000000
 50
270.000000
 51
360.000000
  0
LINE
  8
OBRYS
 10
224.659929
 20
485.485278
 11
231.659929
 21
485.485278
  0
LINE
  8
OBRYS
 10
224.659929
 20
645.485278
 11
224.659929
 21
485.485278
  0
ARC
  8
OBRYS
 10
294.659929
 20
519.485278
 40
3.000000
 50
90.000000
 51
180.000000
  0
ARC
  8
OBRYS
 10
294.659929
 20
611.485278
 40
3.000000
 50
180.000000
 51
270.000000
  0
LINE
  8
OBRYS
 10
294.659929
 20
600.485278
 11
294.659929
 21
565.485278
  0
LINE
  8
OBRYS
 10
294.659929
 20
530.485278
 11
294.659929
 21
565.485278
  0
LINE
  8
OBRYS
 10
291.659929
 20
619.485213
 11
291.659929
 21
565.485278
  0
ARC
  8
OBRYS
 10
281.659929
 20
619.485213
 40
10.000000
 50
0.000000
 51
90.000000
  0
LINE
  8
OBRYS
 10
291.659929
 20
565.485278
 11
291.659929
 21
511.485342
  0
ARC
  8
OBRYS
 10
281.659929
 20
511.485342
 40
10.000000
 50
270.000000
 51
360.000000
  0
LINE
  8
OBRYS
 10
236.659929
 20
629.485213
 11
281.659929
 21
629.485213
  0
ARC
  8
OBRYS
 10
236.659929
 20
631.485213
 40
2.000000
 50
180.000000
 51
270.000000
  0
LINE
  8
OBRYS
 10
236.659929
 20
501.485342
 11
281.659929
 21
501.485342
  0
ARC
  8
OBRYS
 10
236.659929
 20
499.485342
 40
2.000000
 50
90.000000
 51
180.000000
  0
LINE
  8
OBRYS
 10
224.659929
 20
645.485278
 11
231.659929
 21
645.485278
  0
LINE
  8
OBRYS
 10
234.659929
 20
642.485278
 11
234.659929
 21
488.485278
  0
ARC
  8
OBRYS
 10
231.659929
 20
642.485278
 40
3.000000
 50
0.000000
 51
90.000000
  0
LINE
  8
OBRYS
 10
251.659929
 20
629.485213
 11
251.659929
 21
501.485342
  0
LINE
  8
OBRYS
 10
281.659929
 20
619.928165
 11
234.659929
 21
619.928165
  0
LINE
  8
OBRYS
 10
257.659929
 20
618.318681
 11
257.659929
 21
512.585025
  0
LINE
  8
OBRYS
 10
281.659929
 20
511.042390
 11
234.659929
 21
511.042390
  0
ENDBLK
  8
OBRYS
  0
BLOCK
  8
OBRYS
  2
_6
 70
   64
 10
294.659929
 20
357.009109
  0
ARC
  8
OBRYS
 10
274.673692
 20
424.009109
 40
3.000000
 50
50.000000
 51
90.000000
  0
LINE
  8
OBRYS
 10
288.087805
 20
416.669553
 11
276.602055
 21
426.307242
  0
LINE
  8
OBRYS
 10
251.659929
 20
427.009109
 11
274.673692
 21
427.009109
  0
ARC
  8
OBRYS
 10
281.659929
 20
409.009109
 40
10.000000
 50
0.000000
 51
50.000000
  0
LINE
  8
OSA
 10
246.659929
 20
357.009109
 11
304.659929
 21
357.009109
  0
ARC
  8
OBRYS
 10
294.659929
 20
306.213392
 40
3.000000
 50
90.000000
 51
180.000000
  0
ARC
  8
OBRYS
 10
294.659929
 20
407.804825
 40
3.000000
 50
180.000000
 51
270.000000
  0
ARC
  8
OBRYS
 10
281.659929
 20
259.009109
 40
10.000000
 50
270.000000
 51
360.000000
  0
LINE
  8
OBRYS
 10
251.659929
 20
249.009109
 11
281.659929
 21
249.009109
  0
LINE
  8
OBRYS
 10
251.659929
 20
427.009109
 11
251.659929
 21
249.009109
  0
LINE
  8
OSA
 10
246.705669
 20
291.009109
 11
296.659929
 21
291.009109
  0
LINE
  8
OBRYS
 10
294.659929
 20
396.495424
 11
294.659929
 21
357.009109
  0
LINE
  8
OBRYS
 10
294.659929
 20
317.522793
 11
294.659929
 21
357.009109
  0
LINE
  8
OBRYS
 10
291.659929
 20
410.329617
 11
291.659929
 21
357.009109
  0
LINE
  8
OBRYS
 10
291.659929
 20
357.009109
 11
291.659929
 21
259.009109
  0
LINE
  8
OBRYS
 10
251.659929
 20
422.009109
 11
282.344930
 21
422.009109
  0
LINE
  8
OBRYS
 10
258.659929
 20
379.384441
 11
281.724370
 21
379.384441
  0
LINE
  8
OBRYS
 10
258.659929
 20
334.633776
 11
281.724370
 21
334.633776
  0
LINE
  8
OBRYS
 10
256.659929
 20
377.384441
 11
256.659929
 21
336.633776
  0
LINE
  8
OBRYS
 10
258.659929
 20
319.555510
 11
281.724370
 21
319.555510
  0
LINE
  8
OBRYS
 10
256.659929
 20
317.555510
 11
256.659929
 21
249.009109
  0
LINE
  8
OBRYS
 10
256.659929
 20
409.195905
 11
281.724370
 21
409.195905
  0
LINE
  8
OBRYS
 10
234.659929
 20
371.009109
 11
234.659929
 21
214.009109
  0
LINE
  8
OBRYS
 10
224.659929
 20
371.009109
 11
224.659929
 21
211.009109
  0
LINE
  8
OBRYS
 10
224.659929
 20
211.009109
 11
231.659929
 21
211.009109
  0
ARC
  8
OBRYS
 10
231.659929
 20
214.009109
 40
3.000000
 50
270.000000
 51
360.000000
  0
ARC
  8
OBRYS
 10
237.659929
 20
246.009109
 40
3.000000
 50
90.000000
 51
180.000000
  0
LINE
  8
OBRYS
 10
237.659929
 20
249.009109
 11
251.659929
 21
249.009109
  0
LINE
  8
OBRYS
 10
251.659929
 20
427.009109
 11
251.659929
 21
249.009109
  0
LINE
  8
OBRYS
 10
243.659929
 20
427.009109
 11
251.659929
 21
427.009109
  0
ARC
  8
OBRYS
 10
243.659929
 20
425.009109
 40
2.000000
 50
90.000000
 51
180.000000
  0
LINE
  8
OBRYS
 10
241.659929
 20
425.009109
 11
241.659929
 21
384.420651
  0
ARC
  8
OBRYS
 10
238.659929
 20
384.420651
 40
3.000000
 50
330.000000
 51
360.000000
  0
LINE
  8
OBRYS
 10
224.659929
 20
371.009109
 11
232.648822
 21
371.009109
  0
LINE
  8
OBRYS
 10
241.258005
 20
382.920651
 11
235.246898
 21
372.509109
  0
ARC
  8
OBRYS
 10
232.648822
 20
374.009109
 40
3.000000
 50
270.000000
 51
330.000000
  0
LINE
  8
OSA
 10
218.409929
 20
291.009109
 11
257.909929
 21
291.009109
  0
LINE
  8
OBRYS
 10
251.659929
 20
422.009109
 11
241.659929
 21
422.009109
  0
LINE
  8
OBRYS
 10
251.659929
 20
409.195905
 11
244.442145
 21
409.195905
  0
LINE
  8
OBRYS
 10
251.659929
 20
379.384441
 11
242.855572
 21
379.384441
  0
LINE
  8
OBRYS
 10
251.659929
 20
334.633776
 11
237.156537
 21
334.633776
  0
LINE
  8
OBRYS
 10
251.659929
 20
319.555510
 11
237.156537
 21
319.555510
  0
ENDBLK
  8
OBRYS
  0
BLOCK
  8
OBRYS
  2
_7
 70
   64
 10
389.659929
 20
565.485278
  0
LINE
  8
OBRYS
 10
424.661675
 20
513.485278
 11
354.659929
 21
513.485278
  0
LINE
  8
OBRYS
 10
299.659929
 20
481.485278
 11
299.659929
 21
513.485278
  0
LINE
  8
OBRYS
 10
354.658183
 20
513.485278
 11
354.658183
 21
475.485278
  0
LINE
  8
OBRYS
 10
354.658183
 20
475.485278
 11
305.659929
 21
475.485278
  0
LINE
  8
OBRYS
 10
479.659929
 20
481.485278
 11
479.659929
 21
513.485278
  0
LINE
  8
OBRYS
 10
424.661675
 20
513.485278
 11
424.661675
 21
475.485278
  0
LINE
  8
OBRYS
 10
424.661675
 20
475.485278
 11
473.659929
 21
475.485278
  0
LINE
  8
OBRYS
 10
424.659929
 20
520.485278
 11
424.659929
 21
513.485278
  0
LINE
  8
OBRYS
 10
424.659929
 20
513.485278
 11
424.659929
 21
520.485278
  0
LINE
  8
OBRYS
 10
354.659929
 20
513.485278
 11
354.659929
 21
520.485278
  0
LINE
  8
OBRYS
 10
394.200666
 20
504.787612
 11
393.708908
 21
496.187144
  0
LINE
  8
OBRYS
 10
385.610950
 20
496.187144
 11
385.119192
 21
504.787612
  0
LINE
  8
OBRYS
 10
404.659929
 20
512.485278
 11
404.659929
 21
513.485278
  0
LINE
  8
OBRYS
 10
410.659929
 20
513.485278
 11
410.659929
 21
512.485278
  0
LINE
  8
OBRYS
 10
404.659929
 20
512.485278
 11
402.659929
 21
512.485278
  0
LINE
  8
OBRYS
 10
402.659929
 20
512.485278
 11
402.659929
 21
513.485278
  0
LINE
  8
OBRYS
 10
392.659929
 20
512.485278
 11
392.659929
 21
513.485278
  0
LINE
  8
OBRYS
 10
400.659929
 20
513.485278
 11
400.659929
 21
512.485278
  0
LINE
  8
OBRYS
 10
400.659929
 20
512.485278
 11
398.659929
 21
512.485278
  0
LINE
  8
OBRYS
 10
398.659929
 20
512.485278
 11
398.659929
 21
513.485278
  0
LINE
  8
OBRYS
 10
380.659929
 20
512.485278
 11
378.659929
 21
512.485278
  0
LINE
  8
OBRYS
 10
378.659929
 20
512.485278
 11
378.659929
 21
513.485278
  0
LINE
  8
OBRYS
 10
386.659929
 20
512.485278
 11
386.659929
 21
513.485278
  0
LINE
  8
OBRYS
 10
378.659929
 20
513.485278
 11
378.659929
 21
512.485278
  0
LINE
  8
OBRYS
 10
378.659929
 20
512.485278
 11
379.659929
 21
512.485278
  0
LINE
  8
OBRYS
 10
379.659929
 20
512.485278
 11
379.659929
 21
513.485278
  0
LINE
  8
OBRYS
 10
375.659929
 20
512.485278
 11
375.659929
 21
513.485278
  0
LINE
  8
OBRYS
 10
368.659929
 20
513.485278
 11
368.659929
 21
512.485278
  0
LINE
  8
OBRYS
 10
376.659929
 20
512.485278
 11
376.659929
 21
513.485278
  0
LINE
  8
OBRYS
 10
374.659929
 20
512.485278
 11
376.659929
 21
512.485278
  0
LINE
  8
OBRYS
 10
376.659929
 20
512.485278
 11
376.659929
 21
513.485278
  0
ARC
  8
OBRYS
 10
305.659929
 20
481.485278
 40
6.000000
 50
180.000000
 51
270.000000
  0
CIRCLE
  8
OBRYS
 10
319.658183
 20
491.985278
 40
5.500000
  0
ARC
  8
OBRYS
 10
473.659929
 20
481.485278
 40
6.000000
 50
270.000000
 51
360.000000
  0
CIRCLE
  8
OBRYS
 10
459.661675
 20
491.985278
 40
5.500000
  0
LINE
  8
OBRYS
 10
393.620114
 20
496.187144
 11
424.661675
 21
496.187144
  0
LINE
  8
OBRYS
 10
354.658183
 20
499.675927
 11
354.658183
 21
513.485278
  0
LINE
  8
OBRYS
 10
424.661675
 20
499.675927
 11
424.661675
 21
513.485278
  0
LINE
  8
OBRYS
 10
385.065163
 20
506.093019
 11
354.658183
 21
506.093019
  0
LINE
  8
OBRYS
 10
394.254694
 20
506.093019
 11
424.661675
 21
506.093019
  0
POLYLINE
  8
OBRYS
 66
    1
  0
VERTEX
  8
OBRYS
 10
393.708893
 20
496.187134
  0
VERTEX
  8
OBRYS
 10
393.665619
 20
495.666199
  0
VERTEX
  8
OBRYS
 10
393.616394
 20
495.485291
  0
SEQEND
  8
OBRYS
  0
POLYLINE
  8
OBRYS
 66
    1
  0
VERTEX
  8
OBRYS
 10
385.703461
 20
495.485291
  0
VERTEX
  8
OBRYS
 10
385.654236
 20
495.666199
  0
VERTEX
  8
OBRYS
 10
385.610962
 20
496.187134
  0
SEQEND
  8
OBRYS
  0
POLYLINE
  8
OBRYS
 66
    1
  0
VERTEX
  8
OBRYS
 10
394.431335
 20
512.485291
  0
VERTEX
  8
OBRYS
 10
394.351257
 20
508.426270
  0
VERTEX
  8
OBRYS
 10
394.200653
 20
504.787598
  0
SEQEND
  8
OBRYS
  0
POLYLINE
  8
OBRYS
 66
    1
  0
VERTEX
  8
OBRYS
 10
385.119202
 20
504.787598
  0
VERTEX
  8
OBRYS
 10
384.968597
 20
508.426270
  0
VERTEX
  8
OBRYS
 10
384.888550
 20
512.485291
  0
SEQEND
  8
OBRYS
  0
LINE
  8
OBRYS
 10
386.659929
 20
512.870834
 11
392.659929
 21
512.870834
  0
LINE
  8
OBRYS
 10
385.119192
 20
504.787612
 11
394.200666
 21
504.787612
  0
LINE
  8
OBRYS
 10
410.659929
 20
512.485278
 11
404.659929
 21
512.485278
  0
LINE
  8
OBRYS
 10
398.659929
 20
512.485278
 11
392.659929
 21
512.485278
  0
LINE
  8
OBRYS
 10
424.661675
 20
495.485278
 11
397.758905
 21
495.485278
  0
LINE
  8
OBRYS
 10
354.658183
 20
495.485278
 11
386.659929
 21
495.485278
  0
LINE
  8
OBRYS
 10
386.659929
 20
495.485278
 11
397.758905
 21
495.485278
  0
LINE
  8
OBRYS
 10
368.659929
 20
512.485278
 11
374.659929
 21
512.485278
  0
LINE
  8
OBRYS
 10
380.659929
 20
512.485278
 11
386.659929
 21
512.485278
  0
LINE
  8
OBRYS
 10
385.610950
 20
496.187144
 11
393.620114
 21
496.187144
  0
LINE
  8
OBRYS
 10
385.610950
 20
496.187144
 11
354.658183
 21
496.187144
  0
LINE
  8
OBRYS
 10
299.659929
 20
520.485278
 11
299.659929
 21
502.198075
  0
LINE
  8
OBRYS
 10
299.659929
 20
520.485278
 11
479.659929
 21
520.485278
  0
LINE
  8
OBRYS
 10
479.659929
 20
502.198075
 11
479.659929
 21
520.485278
  0
ENDBLK
  8
OBRYS
  0
BLOCK
  8
OBRYS
  2
_8
 70
   64
 10
389.659929
 20
565.485278
  0
LINE
  8
0
 62
     2
 10
354.658183
 20
634.783411
 11
385.610950
 21
634.783411
  0
LINE
  8
0
 62
     2
 10
385.610950
 20
634.783411
 11
393.620114
 21
634.783411
  0
LINE
  8
0
 62
     2
 10
380.659929
 20
618.485278
 11
386.659929
 21
618.485278
  0
LINE
  8
0
 62
     2
 10
368.659929
 20
618.485278
 11
374.659929
 21
618.485278
  0
LINE
  8
0
 62
     2
 10
354.658183
 20
635.485278
 11
362.999096
 21
635.485278
  0
LINE
  8
0
 62
     2
 10
424.661675
 20
635.485278
 11
422.159929
 21
635.485278
  0
LINE
  8
0
 62
     2
 10
422.159929
 20
635.485278
 11
362.999096
 21
635.485278
  0
LINE
  8
0
 62
     2
 10
398.659929
 20
618.485278
 11
392.659929
 21
618.485278
  0
LINE
  8
0
 62
     2
 10
410.659929
 20
618.485278
 11
404.659929
 21
618.485278
  0
LINE
  8
0
 62
     2
 10
385.119192
 20
626.182943
 11
394.200666
 21
626.182943
  0
LINE
  8
0
 62
     2
 10
386.659929
 20
618.099722
 11
392.659929
 21
618.099722
  0
POLYLINE
  8
0
 62
     2
 66
    1
  0
VERTEX
  8
0
 62
     2
 10
385.119202
 20
626.182922
  0
VERTEX
  8
0
 62
     2
 10
384.968597
 20
622.544250
  0
VERTEX
  8
0
 62
     2
 10
384.888550
 20
618.485291
  0
SEQEND
  8
0
  0
POLYLINE
  8
0
 62
     2
 66
    1
  0
VERTEX
  8
0
 62
     2
 10
394.431335
 20
618.485291
  0
VERTEX
  8
0
 62
     2
 10
394.351257
 20
622.544250
  0
VERTEX
  8
0
 62
     2
 10
394.200653
 20
626.182922
  0
SEQEND
  8
0
  0
POLYLINE
  8
0
 62
     2
 66
    1
  0
VERTEX
  8
0
 62
     2
 10
385.703461
 20
635.485291
  0
VERTEX
  8
0
 62
     2
 10
385.654236
 20
635.304382
  0
VERTEX
  8
0
 62
     2
 10
385.610962
 20
634.783386
  0
SEQEND
  8
0
  0
POLYLINE
  8
0
 62
     2
 66
    1
  0
VERTEX
  8
0
 62
     2
 10
393.708893
 20
634.783386
  0
VERTEX
  8
0
 62
     2
 10
393.665619
 20
635.304382
  0
VERTEX
  8
0
 62
     2
 10
393.616394
 20
635.485291
  0
SEQEND
  8
0
  0
LINE
  8
0
 62
     2
 10
394.254694
 20
624.877536
 11
424.661675
 21
624.877536
  0
LINE
  8
0
 62
     2
 10
354.658183
 20
624.877536
 11
385.065163
 21
624.877536
  0
LINE
  8
0
 62
     2
 10
354.658183
 20
617.485278
 11
354.658183
 21
631.294628
  0
LINE
  8
0
 62
     2
 10
393.620114
 20
634.783411
 11
424.661675
 21
634.783411
  0
CIRCLE
  8
0
 62
     2
 10
459.661675
 20
638.985278
 40
5.500000
  0
ARC
  8
0
 62
     2
 10
473.659929
 20
649.485278
 40
6.000000
 50
0.000000
 51
90.000000
  0
CIRCLE
  8
0
 62
     2
 10
319.658183
 20
638.985278
 40
5.500000
  0
ARC
  8
0
 62
     2
 10
305.659929
 20
649.485278
 40
6.000000
 50
90.000000
 51
180.000000
  0
LINE
  8
0
 62
     2
 10
376.659929
 20
618.485278
 11
376.659929
 21
617.485278
  0
LINE
  8
0
 62
     2
 10
374.659929
 20
618.485278
 11
376.659929
 21
618.485278
  0
LINE
  8
0
 62
     2
 10
376.659929
 20
618.485278
 11
376.659929
 21
617.485278
  0
LINE
  8
0
 62
     2
 10
368.659929
 20
617.485278
 11
368.659929
 21
618.485278
  0
LINE
  8
0
 62
     2
 10
375.659929
 20
618.485278
 11
375.659929
 21
617.485278
  0
LINE
  8
0
 62
     2
 10
379.659929
 20
618.485278
 11
379.659929
 21
617.485278
  0
LINE
  8
0
 62
     2
 10
378.659929
 20
618.485278
 11
379.659929
 21
618.485278
  0
LINE
  8
0
 62
     2
 10
378.659929
 20
617.485278
 11
378.659929
 21
618.485278
  0
LINE
  8
0
 62
     2
 10
386.659929
 20
618.485278
 11
386.659929
 21
617.485278
  0
LINE
  8
0
 62
     2
 10
378.659929
 20
618.485278
 11
378.659929
 21
617.485278
  0
LINE
  8
0
 62
     2
 10
380.659929
 20
618.485278
 11
378.659929
 21
618.485278
  0
LINE
  8
0
 62
     2
 10
398.659929
 20
618.485278
 11
398.659929
 21
617.485278
  0
LINE
  8
0
 62
     2
 10
400.659929
 20
618.485278
 11
398.659929
 21
618.485278
  0
LINE
  8
0
 62
     2
 10
400.659929
 20
617.485278
 11
400.659929
 21
618.485278
  0
LINE
  8
0
 62
     2
 10
392.659929
 20
618.485278
 11
392.659929
 21
617.485278
  0
LINE
  8
0
 62
     2
 10
402.659929
 20
618.485278
 11
402.659929
 21
617.485278
  0
LINE
  8
0
 62
     2
 10
404.659929
 20
618.485278
 11
402.659929
 21
618.485278
  0
LINE
  8
0
 62
     2
 10
410.659929
 20
617.485278
 11
410.659929
 21
618.485278
  0
LINE
  8
0
 62
     2
 10
404.659929
 20
618.485278
 11
404.659929
 21
617.485278
  0
LINE
  8
0
 62
     2
 10
385.610950
 20
634.783411
 11
385.119192
 21
626.182943
  0
LINE
  8
0
 62
     2
 10
394.200666
 20
626.182943
 11
393.708908
 21
634.783411
  0
LINE
  8
0
 62
     2
 10
354.659929
 20
617.485278
 11
354.659929
 21
610.485278
  0
LINE
  8
0
 62
     2
 10
299.659929
 20
610.485278
 11
299.659929
 21
617.485278
  0
LINE
  8
0
 62
     2
 10
354.659929
 20
610.485278
 11
354.659929
 21
617.485278
  0
LINE
  8
0
 62
     2
 10
424.659929
 20
617.485278
 11
424.659929
 21
610.485278
  0
LINE
  8
0
 62
     2
 10
479.659929
 20
617.485278
 11
479.659929
 21
610.485278
  0
LINE
  8
0
 62
     2
 10
424.659929
 20
610.485278
 11
424.659929
 21
617.485278
  0
LINE
  8
0
 62
     2
 10
424.661675
 20
655.485278
 11
473.659929
 21
655.485278
  0
LINE
  8
0
 62
     2
 10
424.661675
 20
617.485278
 11
424.661675
 21
655.485278
  0
LINE
  8
0
 62
     2
 10
479.659929
 20
649.485278
 11
479.659929
 21
617.485278
  0
LINE
  8
0
 62
     2
 10
354.658183
 20
655.485278
 11
305.659929
 21
655.485278
  0
LINE
  8
0
 62
     2
 10
354.658183
 20
617.485278
 11
354.658183
 21
655.485278
  0
LINE
  8
0
 62
     2
 10
299.659929
 20
649.485278
 11
299.659929
 21
617.485278
  0
LINE
  8
0
 62
     2
 10
424.661675
 20
617.485278
 11
354.659929
 21
617.485278
  0
ENDBLK
  8
OBRYS
  0
BLOCK
  8
OBRYS
  2
_9
 70
   64
 10
389.659929
 20
-89.709986
  0
LINE
  8
0
 62
     2
 10
310.063354
 20
-100.709986
 11
308.325687
 21
-100.709986
  0
LINE
  8
0
 62
     2
 10
308.325687
 20
-95.709986
 11
311.214480
 21
-95.709986
  0
LINE
  8
0
 62
     2
 10
470.994171
 20
-100.709986
 11
469.256503
 21
-100.709986
  0
LINE
  8
0
 62
     2
 10
468.971009
 20
-95.709986
 11
470.994171
 21
-95.709986
  0
LINE
  8
0
 62
     2
 10
470.994171
 20
-100.709986
 11
469.256503
 21
-100.709986
  0
LINE
  8
0
 62
     2
 10
468.971009
 20
-95.709986
 11
470.994171
 21
-95.709986
  0
LINE
  8
0
 62
     2
 10
424.119287
 20
-100.709986
 11
417.195287
 21
-100.709986
  0
LINE
  8
0
 62
     2
 10
424.657287
 20
-95.709986
 11
423.983165
 21
-95.709986
  0
LINE
  8
0
 62
     2
 10
423.943870
 20
-95.709986
 11
416.734146
 21
-95.709986
  0
LINE
  8
0
 62
     2
 10
427.157287
 20
-100.709986
 11
416.889658
 21
-100.709986
  0
LINE
  8
0
 62
     2
 10
424.019412
 20
-95.709986
 11
427.157287
 21
-95.709986
  0
LINE
  8
0
 62
     2
 10
416.771403
 20
-95.709986
 11
423.943870
 21
-95.709986
  0
LINE
  8
0
 62
     2
 10
362.124571
 20
-100.709986
 11
355.200571
 21
-100.709986
  0
LINE
  8
0
 62
     2
 10
355.300446
 20
-95.709986
 11
354.662571
 21
-95.709986
  0
LINE
  8
0
 62
     2
 10
362.548455
 20
-95.709986
 11
355.336692
 21
-95.709986
  0
LINE
  8
0
 62
     2
 10
362.273777
 20
-100.709986
 11
352.162571
 21
-100.709986
  0
LINE
  8
0
 62
     2
 10
352.162571
 20
-95.709986
 11
355.300446
 21
-95.709986
  0
LINE
  8
0
 62
     2
 10
355.375988
 20
-95.709986
 11
362.548455
 21
-95.709986
  0
POLYLINE
  8
0
 62
     2
 66
    1
  0
VERTEX
  8
0
 62
     2
 10
430.629608
 20
-95.709984
  0
VERTEX
  8
0
 62
     2
 10
430.523682
 20
-96.124199
  0
VERTEX
  8
0
 62
     2
 10
430.275391
 20
-96.557747
  0
VERTEX
  8
0
 62
     2
 10
429.982483
 20
-96.709984
  0
SEQEND
  8
0
  0
LINE
  8
0
 62
     2
 10
414.157287
 20
-96.709986
 11
413.157287
 21
-96.709986
  0
LINE
  8
0
 62
     2
 10
416.771403
 20
-95.709986
 11
423.943870
 21
-95.709986
  0
LINE
  8
0
 62
     2
 10
424.019412
 20
-95.709986
 11
427.586383
 21
-95.709986
  0
LINE
  8
0
 62
     2
 10
427.586383
 20
-96.709986
 11
427.157287
 21
-96.709986
  0
POLYLINE
  8
0
 62
     2
 66
    1
  0
VERTEX
  8
0
 62
     2
 10
349.337372
 20
-96.709984
  0
VERTEX
  8
0
 62
     2
 10
349.044495
 20
-96.557747
  0
VERTEX
  8
0
 62
     2
 10
348.796173
 20
-96.124199
  0
VERTEX
  8
0
 62
     2
 10
348.690277
 20
-95.709984
  0
SEQEND
  8
0
  0
LINE
  8
0
 62
     2
 10
352.162571
 20
-96.709986
 11
351.733474
 21
-96.709986
  0
LINE
  8
0
 62
     2
 10
351.733474
 20
-95.709986
 11
355.300446
 21
-95.709986
  0
LINE
  8
0
 62
     2
 10
355.375988
 20
-95.709986
 11
362.548455
 21
-95.709986
  0
LINE
  8
0
 62
     2
 10
366.162571
 20
-96.709986
 11
365.162571
 21
-96.709986
  0
POLYLINE
  8
0
 62
     2
 66
    1
  0
VERTEX
  8
0
 62
     2
 10
304.608612
 20
-95.709984
  0
VERTEX
  8
0
 62
     2
 10
304.864288
 20
-96.124199
  0
VERTEX
  8
0
 62
     2
 10
305.463745
 20
-96.557747
  0
VERTEX
  8
0
 62
     2
 10
306.170868
 20
-96.709984
  0
SEQEND
  8
0
  0
LINE
  8
0
 62
     2
 10
322.325687
 20
-96.709986
 11
321.325687
 21
-96.709986
  0
POLYLINE
  8
0
 62
     2
 66
    1
  0
VERTEX
  8
0
 62
     2
 10
474.711273
 20
-95.709984
  0
VERTEX
  8
0
 62
     2
 10
474.455566
 20
-96.124199
  0
VERTEX
  8
0
 62
     2
 10
473.856110
 20
-96.557747
  0
VERTEX
  8
0
 62
     2
 10
473.149017
 20
-96.709984
  0
SEQEND
  8
0
  0
LINE
  8
0
 62
     2
 10
457.994171
 20
-96.709986
 11
456.994171
 21
-96.709986
  0
LINE
  8
0
 62
     2
 10
310.825687
 20
-94.709986
 11
310.325687
 21
-94.709986
  0
LINE
  8
0
 62
     2
 10
319.325687
 20
-94.709986
 11
318.825687
 21
-94.709986
  0
LINE
  8
0
 62
     2
 10
309.325687
 20
-95.709986
 11
310.936599
 21
-95.709986
  0
LINE
  8
0
 62
     2
 10
319.325687
 20
-94.709986
 11
318.825687
 21
-94.709986
  0
LINE
  8
0
 62
     2
 10
310.825687
 20
-94.709986
 11
310.325687
 21
-94.709986
  0
LINE
  8
0
 62
     2
 10
309.325687
 20
-95.709986
 11
310.936599
 21
-95.709986
  0
LINE
  8
0
 62
     2
 10
363.162571
 20
-94.709986
 11
362.662571
 21
-94.709986
  0
LINE
  8
0
 62
     2
 10
354.662571
 20
-94.709986
 11
354.162571
 21
-94.709986
  0
LINE
  8
0
 62
     2
 10
353.162571
 20
-95.709986
 11
355.300446
 21
-95.709986
  0
LINE
  8
0
 62
     2
 10
355.375988
 20
-95.709986
 11
362.548455
 21
-95.709986
  0
LINE
  8
0
 62
     2
 10
424.657287
 20
-94.709986
 11
425.157287
 21
-94.709986
  0
LINE
  8
0
 62
     2
 10
416.157287
 20
-94.709986
 11
416.657287
 21
-94.709986
  0
LINE
  8
0
 62
     2
 10
423.712923
 20
-95.709986
 11
416.768200
 21
-95.709986
  0
LINE
  8
0
 62
     2
 10
426.157287
 20
-95.709986
 11
424.546374
 21
-95.709986
  0
LINE
  8
0
 62
     2
 10
459.994171
 20
-94.709986
 11
460.494171
 21
-94.709986
  0
LINE
  8
0
 62
     2
 10
468.494171
 20
-94.709986
 11
468.994171
 21
-94.709986
  0
LINE
  8
0
 62
     2
 10
469.994171
 20
-95.709986
 11
468.383258
 21
-95.709986
  0
LINE
  8
0
 62
     2
 10
459.994171
 20
-94.709986
 11
460.494171
 21
-94.709986
  0
LINE
  8
0
 62
     2
 10
468.494171
 20
-94.709986
 11
468.994171
 21
-94.709986
  0
LINE
  8
0
 62
     2
 10
469.994171
 20
-95.709986
 11
468.383258
 21
-95.709986
  0
LINE
  8
0
 62
     2
 10
342.570703
 20
-114.709986
 11
345.566279
 21
-114.709986
  0
LINE
  8
0
 62
     2
 10
349.606839
 20
-114.709986
 11
386.659929
 21
-114.709986
  0
LINE
  8
0
 62
     2
 10
386.659929
 20
-114.709986
 11
342.570703
 21
-114.709986
  0
LINE
  8
0
 62
     2
 10
436.749155
 20
-114.709986
 11
392.659929
 21
-114.709986
  0
LINE
  8
0
 62
     2
 10
433.753579
 20
-114.709986
 11
436.749155
 21
-114.709986
  0
LINE
  8
0
 62
     2
 10
392.659929
 20
-114.709986
 11
429.713019
 21
-114.709986
  0
LINE
  8
0
 62
     2
 10
335.457608
 20
-114.709986
 11
336.279192
 21
-114.709986
  0
LINE
  8
0
 62
     2
 10
381.560953
 20
-114.709986
 11
377.075800
 21
-114.709986
  0
LINE
  8
0
 62
     2
 10
391.949478
 20
-114.709986
 11
387.370380
 21
-114.709986
  0
LINE
  8
0
 62
     2
 10
402.244057
 20
-114.709986
 11
397.758905
 21
-114.709986
  0
LINE
  8
0
 62
     2
 10
443.862249
 20
-114.709986
 11
443.040666
 21
-114.709986
  0
LINE
  8
0
 62
     2
 10
357.159929
 20
-114.709986
 11
422.159929
 21
-114.709986
  0
LINE
  8
0
 62
     2
 10
308.325687
 20
-96.709986
 11
307.496709
 21
-96.709986
  0
LINE
  8
0
 62
     2
 10
339.497988
 20
-96.709986
 11
336.437095
 21
-96.709986
  0
LINE
  8
0
 62
     2
 10
307.496709
 20
-96.709986
 11
308.325687
 21
-96.856127
  0
LINE
  8
0
 62
     2
 10
336.998954
 20
-114.709986
 11
341.921825
 21
-114.709986
  0
LINE
  8
0
 62
     2
 10
329.127235
 20
-96.709986
 11
328.859929
 21
-96.709986
  0
LINE
  8
0
 62
     2
 10
341.846896
 20
-114.709986
 11
341.921825
 21
-114.709986
  0
LINE
  8
0
 62
     2
 10
437.472962
 20
-114.709986
 11
437.398033
 21
-114.709986
  0
LINE
  8
0
 62
     2
 10
450.192623
 20
-96.709986
 11
450.459929
 21
-96.709986
  0
LINE
  8
0
 62
     2
 10
439.821870
 20
-96.709986
 11
442.882762
 21
-96.709986
  0
LINE
  8
0
 62
     2
 10
470.994171
 20
-96.709986
 11
471.823148
 21
-96.709986
  0
LINE
  8
0
 62
     2
 10
442.320904
 20
-114.709986
 11
437.398033
 21
-114.709986
  0
LINE
  8
0
 62
     2
 10
471.823148
 20
-96.709986
 11
470.994171
 21
-96.856127
  0
LINE
  8
0
 62
     2
 10
394.083886
 20
-96.709986
 11
394.201942
 21
-96.709986
  0
LINE
  8
0
 62
     2
 10
404.335350
 20
-96.709986
 11
414.157287
 21
-96.709986
  0
LINE
  8
0
 62
     2
 10
443.769247
 20
-96.709986
 11
444.596229
 21
-96.709986
  0
POLYLINE
  8
0
 62
     2
 66
    1
  0
VERTEX
  8
0
 62
     2
 10
394.083893
 20
-96.766167
  0
VERTEX
  8
0
 62
     2
 10
394.103577
 20
-96.836082
  0
VERTEX
  8
0
 62
     2
 10
394.184692
 20
-96.890907
  0
VERTEX
  8
0
 62
     2
 10
394.201935
 20
-96.929054
  0
VERTEX
  8
0
 62
     2
 10
394.517639
 20
-97.411842
  0
VERTEX
  8
0
 62
     2
 10
394.770447
 20
-98.209984
  0
VERTEX
  8
0
 62
     2
 10
394.879425
 20
-98.709984
  0
SEQEND
  8
0
  0
LINE
  8
0
 62
     2
 10
416.320761
 20
-114.709986
 11
404.616793
 21
-114.709986
  0
POLYLINE
  8
0
 62
     2
 66
    1
  0
VERTEX
  8
0
 62
     2
 10
444.596222
 20
-96.709984
  0
VERTEX
  8
0
 62
     2
 10
444.407928
 20
-96.766167
  0
VERTEX
  8
0
 62
     2
 10
444.112244
 20
-96.836082
  0
VERTEX
  8
0
 62
     2
 10
443.829376
 20
-96.890907
  0
VERTEX
  8
0
 62
     2
 10
443.769257
 20
-96.929054
  0
VERTEX
  8
0
 62
     2
 10
442.932739
 20
-97.411842
  0
VERTEX
  8
0
 62
     2
 10
442.262817
 20
-98.209984
  0
VERTEX
  8
0
 62
     2
 10
441.974030
 20
-98.709984
  0
SEQEND
  8
0
  0
LINE
  8
0
 62
     2
 10
335.550611
 20
-96.709986
 11
334.723629
 21
-96.709986
  0
LINE
  8
0
 62
     2
 10
374.984507
 20
-96.709986
 11
365.162571
 21
-96.709986
  0
LINE
  8
0
 62
     2
 10
385.235972
 20
-96.709986
 11
385.117916
 21
-96.709986
  0
POLYLINE
  8
0
 62
     2
 66
    1
  0
VERTEX
  8
0
 62
     2
 10
334.723633
 20
-96.709984
  0
VERTEX
  8
0
 62
     2
 10
334.911926
 20
-96.766167
  0
VERTEX
  8
0
 62
     2
 10
335.207642
 20
-96.836082
  0
VERTEX
  8
0
 62
     2
 10
335.490509
 20
-96.890907
  0
VERTEX
  8
0
 62
     2
 10
335.550629
 20
-96.929054
  0
VERTEX
  8
0
 62
     2
 10
336.387115
 20
-97.411842
  0
VERTEX
  8
0
 62
     2
 10
337.057068
 20
-98.209984
  0
VERTEX
  8
0
 62
     2
 10
337.345825
 20
-98.709984
  0
SEQEND
  8
0
  0
LINE
  8
0
 62
     2
 10
362.999096
 20
-114.709986
 11
374.703065
 21
-114.709986
  0
POLYLINE
  8
0
 62
     2
 66
    1
  0
VERTEX
  8
0
 62
     2
 10
384.440460
 20
-98.709984
  0
VERTEX
  8
0
 62
     2
 10
384.549438
 20
-98.209984
  0
VERTEX
  8
0
 62
     2
 10
384.802246
 20
-97.411842
  0
VERTEX
  8
0
 62
     2
 10
385.117920
 20
-96.929054
  0
VERTEX
  8
0
 62
     2
 10
385.135162
 20
-96.890907
  0
VERTEX
  8
0
 62
     2
 10
385.216309
 20
-96.836082
  0
VERTEX
  8
0
 62
     2
 10
385.235992
 20
-96.766167
  0
SEQEND
  8
0
  0
LINE
  8
0
 62
     2
 10
329.829699
 20
-98.209986
 11
337.057052
 21
-98.209986
  0
LINE
  8
0
 62
     2
 10
394.770439
 20
-98.209986
 11
384.549419
 21
-98.209986
  0
LINE
  8
0
 62
     2
 10
449.490158
 20
-98.209986
 11
442.262806
 21
-98.209986
  0
POLYLINE
  8
0
 62
     2
 66
    1
  0
VERTEX
  8
0
 62
     2
 10
329.964355
 20
-98.709984
  0
VERTEX
  8
0
 62
     2
 10
329.829712
 20
-98.209984
  0
VERTEX
  8
0
 62
     2
 10
329.517303
 20
-97.411842
  0
VERTEX
  8
0
 62
     2
 10
329.127228
 20
-96.929054
  0
VERTEX
  8
0
 62
     2
 10
329.091522
 20
-96.890907
  0
VERTEX
  8
0
 62
     2
 10
328.923401
 20
-96.836082
  0
VERTEX
  8
0
 62
     2
 10
328.655518
 20
-96.766167
  0
VERTEX
  8
0
 62
     2
 10
328.399902
 20
-96.709984
  0
SEQEND
  8
0
  0
LINE
  8
0
 62
     2
 10
385.235972
 20
-96.766163
 11
385.188370
 21
-96.709986
  0
LINE
  8
0
 62
     2
 10
394.083886
 20
-96.766163
 11
394.131488
 21
-96.709986
  0
POLYLINE
  8
0
 62
     2
 66
    1
  0
VERTEX
  8
0
 62
     2
 10
449.355499
 20
-98.709984
  0
VERTEX
  8
0
 62
     2
 10
449.490173
 20
-98.209984
  0
VERTEX
  8
0
 62
     2
 10
449.802551
 20
-97.411842
  0
VERTEX
  8
0
 62
     2
 10
450.192627
 20
-96.929054
  0
VERTEX
  8
0
 62
     2
 10
450.228363
 20
-96.890907
  0
VERTEX
  8
0
 62
     2
 10
450.396484
 20
-96.836082
  0
VERTEX
  8
0
 62
     2
 10
450.664337
 20
-96.766167
  0
VERTEX
  8
0
 62
     2
 10
450.919983
 20
-96.709984
  0
SEQEND
  8
0
  0
LINE
  8
0
 62
     2
 10
307.056299
 20
-96.709986
 11
307.496709
 21
-96.709986
  0
LINE
  8
0
 62
     2
 10
328.399889
 20
-96.709986
 11
334.723629
 21
-96.709986
  0
LINE
  8
0
 62
     2
 10
385.188370
 20
-96.709986
 11
394.131488
 21
-96.709986
  0
LINE
  8
0
 62
     2
 10
450.919968
 20
-96.709986
 11
444.596229
 21
-96.709986
  0
LINE
  8
0
 62
     2
 10
472.263559
 20
-96.709986
 11
471.823148
 21
-96.709986
  0
POLYLINE
  8
0
 62
     2
 66
    1
  0
VERTEX
  8
0
 62
     2
 10
311.911102
 20
-96.709984
  0
VERTEX
  8
0
 62
     2
 10
311.204010
 20
-96.557747
  0
VERTEX
  8
0
 62
     2
 10
310.604553
 20
-96.124199
  0
VERTEX
  8
0
 62
     2
 10
310.348846
 20
-95.709984
  0
VERTEX
  8
0
 62
     2
 10
306.815643
 20
-95.709984
  0
VERTEX
  8
0
 62
     2
 10
306.799988
 20
-95.716011
  0
VERTEX
  8
0
 62
     2
 10
306.784332
 20
-95.709984
  0
VERTEX
  8
0
 62
     2
 10
304.608612
 20
-95.709984
  0
SEQEND
  8
0
  0
POLYLINE
  8
0
 62
     2
 66
    1
  0
VERTEX
  8
0
 62
     2
 10
348.690277
 20
-95.709984
  0
VERTEX
  8
0
 62
     2
 10
355.300446
 20
-95.709984
  0
VERTEX
  8
0
 62
     2
 10
355.338226
 20
-95.716011
  0
VERTEX
  8
0
 62
     2
 10
355.376007
 20
-95.709984
  0
VERTEX
  8
0
 62
     2
 10
362.548462
 20
-95.709984
  0
VERTEX
  8
0
 62
     2
 10
362.654388
 20
-96.124199
  0
VERTEX
  8
0
 62
     2
 10
362.902679
 20
-96.557747
  0
VERTEX
  8
0
 62
     2
 10
363.195557
 20
-96.709984
  0
SEQEND
  8
0
  0
POLYLINE
  8
0
 62
     2
 66
    1
  0
VERTEX
  8
0
 62
     2
 10
416.124298
 20
-96.709984
  0
VERTEX
  8
0
 62
     2
 10
416.417175
 20
-96.557747
  0
VERTEX
  8
0
 62
     2
 10
416.665497
 20
-96.124199
  0
VERTEX
  8
0
 62
     2
 10
416.771393
 20
-95.709984
  0
VERTEX
  8
0
 62
     2
 10
423.943878
 20
-95.709984
  0
VERTEX
  8
0
 62
     2
 10
423.981659
 20
-95.716011
  0
VERTEX
  8
0
 62
     2
 10
424.019409
 20
-95.709984
  0
VERTEX
  8
0
 62
     2
 10
430.629608
 20
-95.709984
  0
SEQEND
  8
0
  0
POLYLINE
  8
0
 62
     2
 66
    1
  0
VERTEX
  8
0
 62
     2
 10
467.408752
 20
-96.709984
  0
VERTEX
  8
0
 62
     2
 10
468.115845
 20
-96.557747
  0
VERTEX
  8
0
 62
     2
 10
468.715302
 20
-96.124199
  0
VERTEX
  8
0
 62
     2
 10
468.971008
 20
-95.709984
  0
VERTEX
  8
0
 62
     2
 10
472.504242
 20
-95.709984
  0
VERTEX
  8
0
 62
     2
 10
472.519867
 20
-95.716011
  0
VERTEX
  8
0
 62
     2
 10
472.535522
 20
-95.709984
  0
VERTEX
  8
0
 62
     2
 10
474.711273
 20
-95.709984
  0
SEQEND
  8
0
  0
LINE
  8
0
 62
     2
 10
299.659929
 20
-94.709986
 11
479.659929
 21
-94.709986
  0
POLYLINE
  8
0
 62
     2
 66
    1
  0
VERTEX
  8
0
 62
     2
 10
308.325684
 20
-97.031395
  0
VERTEX
  8
0
 62
     2
 10
308.082367
 20
-96.890907
  0
VERTEX
  8
0
 62
     2
 10
307.056305
 20
-96.709984
  0
SEQEND
  8
0
  0
POLYLINE
  8
0
 62
     2
 66
    1
  0
VERTEX
  8
0
 62
     2
 10
470.994171
 20
-97.031395
  0
VERTEX
  8
0
 62
     2
 10
471.237518
 20
-96.890907
  0
VERTEX
  8
0
 62
     2
 10
472.263550
 20
-96.709984
  0
SEQEND
  8
0
  0
ARC
  8
0
 62
     2
 10
301.659929
 20
-94.709986
 40
2.000000
 50
180.000000
 51
270.000000
  0
ARC
  8
0
 62
     2
 10
477.659929
 20
-94.709986
 40
2.000000
 50
270.000000
 51
360.000000
  0
LINE
  8
0
 62
     2
 10
335.457608
 20
-114.709986
 11
334.885430
 21
-114.709986
  0
LINE
  8
0
 62
     2
 10
336.998954
 20
-114.709986
 11
336.279192
 21
-114.709986
  0
LINE
  8
0
 62
     2
 10
362.999096
 20
-114.709986
 11
341.846896
 21
-114.709986
  0
LINE
  8
0
 62
     2
 10
374.703065
 20
-114.709986
 11
377.075800
 21
-114.709986
  0
LINE
  8
0
 62
     2
 10
381.560953
 20
-114.709986
 11
387.370380
 21
-114.709986
  0
LINE
  8
0
 62
     2
 10
391.949478
 20
-114.709986
 11
397.758905
 21
-114.709986
  0
LINE
  8
0
 62
     2
 10
402.244057
 20
-114.709986
 11
404.616793
 21
-114.709986
  0
LINE
  8
0
 62
     2
 10
416.320761
 20
-114.709986
 11
437.472962
 21
-114.709986
  0
LINE
  8
0
 62
     2
 10
442.320904
 20
-114.709986
 11
443.040666
 21
-114.709986
  0
LINE
  8
0
 62
     2
 10
443.862249
 20
-114.709986
 11
444.434428
 21
-114.709986
  0
LINE
  8
0
 62
     2
 10
306.170861
 20
-96.709986
 11
301.659929
 21
-96.709986
  0
LINE
  8
0
 62
     2
 10
311.911112
 20
-96.709986
 11
349.337373
 21
-96.709986
  0
LINE
  8
0
 62
     2
 10
363.195566
 20
-96.709986
 11
416.124292
 21
-96.709986
  0
LINE
  8
0
 62
     2
 10
429.982485
 20
-96.709986
 11
467.408746
 21
-96.709986
  0
LINE
  8
0
 62
     2
 10
473.148997
 20
-96.709986
 11
477.659929
 21
-96.709986
  0
POLYLINE
  8
0
 62
     2
 66
    1
  0
VERTEX
  8
0
 62
     2
 10
301.330872
 20
-98.204399
  0
VERTEX
  8
0
 62
     2
 10
301.352692
 20
-97.831306
  0
VERTEX
  8
0
 62
     2
 10
301.370575
 20
-97.376701
  0
VERTEX
  8
0
 62
     2
 10
301.383881
 20
-96.858040
  0
VERTEX
  8
0
 62
     2
 10
301.386810
 20
-96.655663
  0
SEQEND
  8
0
  0
POLYLINE
  8
0
 62
     2
 66
    1
  0
VERTEX
  8
0
 62
     2
 10
301.250916
 20
-98.709984
  0
VERTEX
  8
0
 62
     2
 10
301.278992
 20
-98.652336
  0
VERTEX
  8
0
 62
     2
 10
301.305969
 20
-98.481621
  0
VERTEX
  8
0
 62
     2
 10
301.330872
 20
-98.204399
  0
SEQEND
  8
0
  0
LINE
  8
0
 62
     2
 10
479.659929
 20
-96.295257
 11
479.659927
 21
-98.709986
  0
LINE
  8
0
 62
     2
 10
479.659929
 20
-89.709986
 11
479.659929
 21
-96.295257
  0
POLYLINE
  8
0
 62
     2
 66
    1
  0
VERTEX
  8
0
 62
     2
 10
475.086945
 20
-98.709984
  0
VERTEX
  8
0
 62
     2
 10
475.212433
 20
-98.652336
  0
VERTEX
  8
0
 62
     2
 10
475.944733
 20
-98.481621
  0
VERTEX
  8
0
 62
     2
 10
476.222748
 20
-98.204399
  0
VERTEX
  8
0
 62
     2
 10
476.671906
 20
-97.831306
  0
VERTEX
  8
0
 62
     2
 10
476.877502
 20
-97.376701
  0
VERTEX
  8
0
 62
     2
 10
477.157806
 20
-96.858040
  0
VERTEX
  8
0
 62
     2
 10
477.175049
 20
-96.709984
  0
SEQEND
  8
0
  0
POLYLINE
  8
0
 62
     2
 66
    1
  0
VERTEX
  8
0
 62
     2
 10
300.770538
 20
-96.474876
  0
VERTEX
  8
0
 62
     2
 10
300.755615
 20
-96.858040
  0
VERTEX
  8
0
 62
     2
 10
300.628387
 20
-97.831306
  0
VERTEX
  8
0
 62
     2
 10
300.437958
 20
-98.481621
  0
VERTEX
  8
0
 62
     2
 10
300.408905
 20
-98.511162
  0
VERTEX
  8
0
 62
     2
 10
299.763580
 20
-98.646004
  0
SEQEND
  8
0
  0
POLYLINE
  8
0
 62
     2
 66
    1
  0
VERTEX
  8
0
 62
     2
 10
306.817291
 20
-98.709984
  0
VERTEX
  8
0
 62
     2
 10
306.803802
 20
-98.652336
  0
VERTEX
  8
0
 62
     2
 10
306.153198
 20
-98.481621
  0
VERTEX
  8
0
 62
     2
 10
305.967346
 20
-98.204399
  0
VERTEX
  8
0
 62
     2
 10
305.590210
 20
-97.831306
  0
VERTEX
  8
0
 62
     2
 10
305.450684
 20
-97.376701
  0
VERTEX
  8
0
 62
     2
 10
305.214050
 20
-96.858040
  0
VERTEX
  8
0
 62
     2
 10
305.205078
 20
-96.709984
  0
SEQEND
  8
0
  0
LINE
  8
0
 62
     2
 10
390.605920
 20
-114.709986
 11
393.541748
 21
-114.709986
  0
LINE
  8
0
 62
     2
 10
385.778110
 20
-114.709986
 11
388.713938
 21
-114.709986
  0
LINE
  8
0
 62
     2
 10
447.473621
 20
-114.709986
 11
449.549565
 21
-114.709986
  0
LINE
  8
0
 62
     2
 10
444.059845
 20
-114.709986
 11
446.135788
 21
-114.709986
  0
LINE
  8
0
 62
     2
 10
333.184069
 20
-114.709986
 11
335.260013
 21
-114.709986
  0
LINE
  8
0
 62
     2
 10
329.770292
 20
-114.709986
 11
331.846236
 21
-114.709986
  0
POLYLINE
  8
0
 62
     2
 66
    1
  0
VERTEX
  8
0
 62
     2
 10
473.954926
 20
-114.008118
  0
VERTEX
  8
0
 62
     2
 10
473.053650
 20
-114.529060
  0
VERTEX
  8
0
 62
     2
 10
472.028778
 20
-114.709984
  0
SEQEND
  8
0
  0
POLYLINE
  8
0
 62
     2
 66
    1
  0
VERTEX
  8
0
 62
     2
 10
445.105865
 20
-114.709984
  0
VERTEX
  8
0
 62
     2
 10
445.795746
 20
-114.529060
  0
VERTEX
  8
0
 62
     2
 10
446.402435
 20
-114.008118
  0
SEQEND
  8
0
  0
LINE
  8
0
 62
     2
 10
445.105860
 20
-114.709986
 11
450.701138
 21
-114.709986
  0
LINE
  8
0
 62
     2
 10
452.128547
 20
-114.008119
 11
446.402427
 21
-114.008119
  0
LINE
  8
0
 62
     2
 10
455.486315
 20
-110.201806
 11
449.452408
 21
-110.201806
  0
POLYLINE
  8
0
 62
     2
 66
    1
  0
VERTEX
  8
0
 62
     2
 10
450.701141
 20
-114.709984
  0
VERTEX
  8
0
 62
     2
 10
451.460663
 20
-114.529060
  0
VERTEX
  8
0
 62
     2
 10
452.128540
 20
-114.008118
  0
SEQEND
  8
0
  0
LINE
  8
0
 62
     2
 10
385.703469
 20
-114.709986
 11
393.616388
 21
-114.709986
  0
LINE
  8
0
 62
     2
 10
393.708908
 20
-114.008119
 11
385.610950
 21
-114.008119
  0
LINE
  8
0
 62
     2
 10
393.926545
 20
-110.201806
 11
385.393312
 21
-110.201806
  0
POLYLINE
  8
0
 62
     2
 66
    1
  0
VERTEX
  8
0
 62
     2
 10
393.616394
 20
-114.709984
  0
VERTEX
  8
0
 62
     2
 10
393.665619
 20
-114.529060
  0
VERTEX
  8
0
 62
     2
 10
393.708923
 20
-114.008118
  0
SEQEND
  8
0
  0
POLYLINE
  8
0
 62
     2
 66
    1
  0
VERTEX
  8
0
 62
     2
 10
385.610962
 20
-114.008118
  0
VERTEX
  8
0
 62
     2
 10
385.654236
 20
-114.529060
  0
VERTEX
  8
0
 62
     2
 10
385.703461
 20
-114.709984
  0
SEQEND
  8
0
  0
POLYLINE
  8
0
 62
     2
 66
    1
  0
VERTEX
  8
0
 62
     2
 10
332.917450
 20
-114.008118
  0
VERTEX
  8
0
 62
     2
 10
333.524109
 20
-114.529060
  0
VERTEX
  8
0
 62
     2
 10
334.213989
 20
-114.709984
  0
SEQEND
  8
0
  0
LINE
  8
0
 62
     2
 10
328.618720
 20
-114.709986
 11
334.213998
 21
-114.709986
  0
LINE
  8
0
 62
     2
 10
332.917431
 20
-114.008119
 11
327.191310
 21
-114.008119
  0
LINE
  8
0
 62
     2
 10
329.867449
 20
-110.201806
 11
323.833543
 21
-110.201806
  0
POLYLINE
  8
0
 62
     2
 66
    1
  0
VERTEX
  8
0
 62
     2
 10
327.191315
 20
-114.008118
  0
VERTEX
  8
0
 62
     2
 10
327.859222
 20
-114.529060
  0
VERTEX
  8
0
 62
     2
 10
328.618713
 20
-114.709984
  0
SEQEND
  8
0
  0
POLYLINE
  8
0
 62
     2
 66
    1
  0
VERTEX
  8
0
 62
     2
 10
305.364960
 20
-114.008118
  0
VERTEX
  8
0
 62
     2
 10
306.266205
 20
-114.529060
  0
VERTEX
  8
0
 62
     2
 10
307.291077
 20
-114.709984
  0
SEQEND
  8
0
  0
POLYLINE
  8
0
 62
     2
 66
    1
  0
VERTEX
  8
0
 62
     2
 10
474.996765
 20
-98.709984
  0
VERTEX
  8
0
 62
     2
 10
474.996765
 20
-100.709984
  0
VERTEX
  8
0
 62
     2
 10
474.985565
 20
-101.100166
  0
VERTEX
  8
0
 62
     2
 10
474.952362
 20
-101.475349
  0
VERTEX
  8
0
 62
     2
 10
474.898438
 20
-101.821129
  0
VERTEX
  8
0
 62
     2
 10
474.825897
 20
-102.124199
  0
VERTEX
  8
0
 62
     2
 10
474.737488
 20
-102.372917
  0
VERTEX
  8
0
 62
     2
 10
474.636627
 20
-102.557747
  0
VERTEX
  8
0
 62
     2
 10
474.527191
 20
-102.671547
  0
VERTEX
  8
0
 62
     2
 10
474.413391
 20
-102.709984
  0
SEQEND
  8
0
  0
POLYLINE
  8
0
 62
     2
 66
    1
  0
VERTEX
  8
0
 62
     2
 10
426.999756
 20
-101.603539
  0
VERTEX
  8
0
 62
     2
 10
426.892303
 20
-101.821129
  0
VERTEX
  8
0
 62
     2
 10
426.662506
 20
-102.124199
  0
VERTEX
  8
0
 62
     2
 10
426.382507
 20
-102.372917
  0
VERTEX
  8
0
 62
     2
 10
426.063049
 20
-102.557747
  0
VERTEX
  8
0
 62
     2
 10
425.716431
 20
-102.671547
  0
VERTEX
  8
0
 62
     2
 10
425.355957
 20
-102.709984
  0
SEQEND
  8
0
  0
POLYLINE
  8
0
 62
     2
 66
    1
  0
VERTEX
  8
0
 62
     2
 10
430.747864
 20
-98.709984
  0
VERTEX
  8
0
 62
     2
 10
430.747864
 20
-100.709984
  0
VERTEX
  8
0
 62
     2
 10
430.713806
 20
-101.100166
  0
VERTEX
  8
0
 62
     2
 10
430.612946
 20
-101.475349
  0
VERTEX
  8
0
 62
     2
 10
430.449158
 20
-101.821129
  0
VERTEX
  8
0
 62
     2
 10
430.228729
 20
-102.124199
  0
VERTEX
  8
0
 62
     2
 10
429.960144
 20
-102.372917
  0
VERTEX
  8
0
 62
     2
 10
429.653748
 20
-102.557747
  0
VERTEX
  8
0
 62
     2
 10
429.321259
 20
-102.671547
  0
VERTEX
  8
0
 62
     2
 10
428.975494
 20
-102.709984
  0
SEQEND
  8
0
  0
POLYLINE
  8
0
 62
     2
 66
    1
  0
VERTEX
  8
0
 62
     2
 10
417.136597
 20
-101.670967
  0
VERTEX
  8
0
 62
     2
 10
419.212280
 20
-101.709984
  0
VERTEX
  8
0
 62
     2
 10
421.336914
 20
-101.709984
  0
VERTEX
  8
0
 62
     2
 10
426.999756
 20
-101.603539
  0
VERTEX
  8
0
 62
     2
 10
427.037201
 20
-101.589363
  0
VERTEX
  8
0
 62
     2
 10
427.166779
 20
-101.475349
  0
VERTEX
  8
0
 62
     2
 10
427.384125
 20
-101.242073
  0
VERTEX
  8
0
 62
     2
 10
427.467834
 20
-101.100166
  0
VERTEX
  8
0
 62
     2
 10
427.627197
 20
-100.709984
  0
VERTEX
  8
0
 62
     2
 10
427.848145
 20
-99.709984
  0
VERTEX
  8
0
 62
     2
 10
428.018982
 20
-99.177895
  0
VERTEX
  8
0
 62
     2
 10
428.249176
 20
-98.830605
  0
VERTEX
  8
0
 62
     2
 10
428.510956
 20
-98.709984
  0
SEQEND
  8
0
  0
POLYLINE
  8
0
 62
     2
 66
    1
  0
VERTEX
  8
0
 62
     2
 10
352.657349
 20
-102.124199
  0
VERTEX
  8
0
 62
     2
 10
352.427582
 20
-101.821129
  0
VERTEX
  8
0
 62
     2
 10
352.320129
 20
-101.603539
  0
SEQEND
  8
0
  0
ARC
  8
0
 62
     2
 10
353.965677
 20
-100.983558
 40
1.731081
 50
222.126066
 51
269.576584
  0
POLYLINE
  8
0
 62
     2
 66
    1
  0
VERTEX
  8
0
 62
     2
 10
350.808899
 20
-98.709984
  0
VERTEX
  8
0
 62
     2
 10
351.070679
 20
-98.830605
  0
VERTEX
  8
0
 62
     2
 10
351.300873
 20
-99.177895
  0
VERTEX
  8
0
 62
     2
 10
351.471741
 20
-99.709984
  0
VERTEX
  8
0
 62
     2
 10
351.692688
 20
-100.709984
  0
VERTEX
  8
0
 62
     2
 10
351.852020
 20
-101.100166
  0
VERTEX
  8
0
 62
     2
 10
351.935730
 20
-101.242073
  0
VERTEX
  8
0
 62
     2
 10
352.153076
 20
-101.475349
  0
VERTEX
  8
0
 62
     2
 10
352.282654
 20
-101.589363
  0
VERTEX
  8
0
 62
     2
 10
352.320129
 20
-101.603539
  0
VERTEX
  8
0
 62
     2
 10
357.982941
 20
-101.709984
  0
VERTEX
  8
0
 62
     2
 10
360.107574
 20
-101.709984
  0
VERTEX
  8
0
 62
     2
 10
362.183289
 20
-101.670967
  0
SEQEND
  8
0
  0
POLYLINE
  8
0
 62
     2
 66
    1
  0
VERTEX
  8
0
 62
     2
 10
350.344391
 20
-102.709984
  0
VERTEX
  8
0
 62
     2
 10
349.998627
 20
-102.671547
  0
VERTEX
  8
0
 62
     2
 10
349.666138
 20
-102.557747
  0
VERTEX
  8
0
 62
     2
 10
349.359711
 20
-102.372917
  0
VERTEX
  8
0
 62
     2
 10
349.091125
 20
-102.124199
  0
VERTEX
  8
0
 62
     2
 10
348.870697
 20
-101.821129
  0
VERTEX
  8
0
 62
     2
 10
348.706940
 20
-101.475349
  0
VERTEX
  8
0
 62
     2
 10
348.606079
 20
-101.100166
  0
VERTEX
  8
0
 62
     2
 10
348.572021
 20
-100.709984
  0
VERTEX
  8
0
 62
     2
 10
348.572021
 20
-98.709984
  0
SEQEND
  8
0
  0
POLYLINE
  8
0
 62
     2
 66
    1
  0
VERTEX
  8
0
 62
     2
 10
304.323120
 20
-98.709984
  0
VERTEX
  8
0
 62
     2
 10
304.323120
 20
-100.709984
  0
VERTEX
  8
0
 62
     2
 10
304.334320
 20
-101.100166
  0
VERTEX
  8
0
 62
     2
 10
304.367523
 20
-101.475349
  0
VERTEX
  8
0
 62
     2
 10
304.421417
 20
-101.821129
  0
VERTEX
  8
0
 62
     2
 10
304.493988
 20
-102.124199
  0
VERTEX
  8
0
 62
     2
 10
304.582367
 20
-102.372917
  0
VERTEX
  8
0
 62
     2
 10
304.683228
 20
-102.557747
  0
VERTEX
  8
0
 62
     2
 10
304.792664
 20
-102.671547
  0
VERTEX
  8
0
 62
     2
 10
304.906494
 20
-102.709984
  0
SEQEND
  8
0
  0
LINE
  8
0
 62
     2
 10
470.203858
 20
-102.709986
 11
471.494171
 21
-102.709986
  0
LINE
  8
0
 62
     2
 10
473.494171
 20
-100.709986
 11
469.256503
 21
-100.709986
  0
LINE
  8
0
 62
     2
 10
470.994171
 20
-98.709986
 11
473.494171
 21
-98.709986
  0
LINE
  8
0
 62
     2
 10
307.825687
 20
-102.709986
 11
309.115999
 21
-102.709986
  0
LINE
  8
0
 62
     2
 10
310.063354
 20
-100.709986
 11
305.825687
 21
-100.709986
  0
LINE
  8
0
 62
     2
 10
308.325687
 20
-98.709986
 11
305.825687
 21
-98.709986
  0
LINE
  8
0
 62
     2
 10
398.659929
 20
-114.709986
 11
380.659929
 21
-114.709986
  0
LINE
  8
0
 62
     2
 10
324.659929
 20
-114.709986
 11
315.659929
 21
-114.709986
  0
LINE
  8
0
 62
     2
 10
463.659929
 20
-114.709986
 11
454.659929
 21
-114.709986
  0
LINE
  8
0
 62
     2
 10
335.546351
 20
-114.709986
 11
380.659929
 21
-114.709986
  0
LINE
  8
0
 62
     2
 10
398.659929
 20
-114.709986
 11
443.773506
 21
-114.709986
  0
LINE
  8
0
 62
     2
 10
471.505228
 20
-100.709986
 11
469.256503
 21
-100.709986
  0
LINE
  8
0
 62
     2
 10
310.063354
 20
-100.709986
 11
307.814629
 21
-100.709986
  0
LINE
  8
0
 62
     2
 10
473.814629
 20
-98.709986
 11
470.994171
 21
-98.709986
  0
LINE
  8
0
 62
     2
 10
308.325687
 20
-98.709986
 11
305.505228
 21
-98.709986
  0
LINE
  8
0
 62
     2
 10
473.321239
 20
-98.709986
 11
475.086953
 21
-98.709986
  0
LINE
  8
0
 62
     2
 10
470.994171
 20
-98.709986
 11
471.977393
 21
-98.709986
  0
LINE
  8
0
 62
     2
 10
308.325687
 20
-98.709986
 11
307.342465
 21
-98.709986
  0
LINE
  8
0
 62
     2
 10
300.083700
 20
-98.709986
 11
299.659930
 21
-98.709986
  0
LINE
  8
0
 62
     2
 10
299.763574
 20
-98.646007
 11
300.083700
 21
-98.709986
  0
LINE
  8
0
 62
     2
 10
430.629596
 20
-95.709986
 11
429.659929
 21
-95.709986
  0
LINE
  8
0
 62
     2
 10
306.815632
 20
-95.709986
 11
312.333255
 21
-95.709986
  0
LINE
  8
0
 62
     2
 10
305.081938
 20
-95.709986
 11
306.796266
 21
-95.709986
  0
LINE
  8
0
 62
     2
 10
299.659929
 20
-95.709986
 11
299.968947
 21
-95.709986
  0
LINE
  8
0
 62
     2
 10
299.659930
 20
-98.709986
 11
299.659929
 21
-89.709986
  0
POLYLINE
  8
0
 62
     2
 66
    1
  0
VERTEX
  8
0
 62
     2
 10
304.906494
 20
-102.709984
  0
VERTEX
  8
0
 62
     2
 10
306.510773
 20
-102.709984
  0
VERTEX
  8
0
 62
     2
 10
309.115997
 20
-102.709984
  0
VERTEX
  8
0
 62
     2
 10
309.300812
 20
-102.671547
  0
VERTEX
  8
0
 62
     2
 10
309.478546
 20
-102.557747
  0
VERTEX
  8
0
 62
     2
 10
309.642334
 20
-102.372917
  0
VERTEX
  8
0
 62
     2
 10
309.785889
 20
-102.124199
  0
VERTEX
  8
0
 62
     2
 10
309.903687
 20
-101.821129
  0
VERTEX
  8
0
 62
     2
 10
309.991241
 20
-101.475349
  0
VERTEX
  8
0
 62
     2
 10
310.045166
 20
-101.100166
  0
VERTEX
  8
0
 62
     2
 10
310.063354
 20
-100.709984
  0
VERTEX
  8
0
 62
     2
 10
310.063354
 20
-98.709984
  0
SEQEND
  8
0
  0
LINE
  8
0
 62
     2
 10
360.507059
 20
-102.709986
 11
350.344384
 21
-102.709986
  0
ARC
  8
0
 62
     2
 10
360.481009
 20
-100.795445
 40
1.917352
 50
270.197522
 51
316.412113
  0
ARC
  8
0
 62
     2
 10
360.360612
 20
-100.710823
 40
2.067583
 50
316.390131
 51
0.175523
  0
LINE
  8
0
 62
     2
 10
362.430200
 20
-98.709986
 11
362.430200
 21
-100.709986
  0
LINE
  8
0
 62
     2
 10
416.889658
 20
-100.709986
 11
416.889658
 21
-98.709986
  0
ARC
  8
0
 62
     2
 10
418.901674
 20
-100.735034
 40
2.009658
 50
179.824477
 51
223.609869
  0
ARC
  8
0
 62
     2
 10
418.813669
 20
-100.850804
 40
1.861409
 50
223.587887
 51
269.802478
  0
LINE
  8
0
 62
     2
 10
428.975474
 20
-102.709986
 11
418.812799
 21
-102.709986
  0
POLYLINE
  8
0
 62
     2
 66
    1
  0
VERTEX
  8
0
 62
     2
 10
474.413391
 20
-102.709984
  0
VERTEX
  8
0
 62
     2
 10
472.809082
 20
-102.709984
  0
VERTEX
  8
0
 62
     2
 10
470.203857
 20
-102.709984
  0
VERTEX
  8
0
 62
     2
 10
470.019043
 20
-102.671547
  0
VERTEX
  8
0
 62
     2
 10
469.841339
 20
-102.557747
  0
VERTEX
  8
0
 62
     2
 10
469.677551
 20
-102.372917
  0
VERTEX
  8
0
 62
     2
 10
469.533997
 20
-102.124199
  0
VERTEX
  8
0
 62
     2
 10
469.416168
 20
-101.821129
  0
VERTEX
  8
0
 62
     2
 10
469.328613
 20
-101.475349
  0
VERTEX
  8
0
 62
     2
 10
469.274719
 20
-101.100166
  0
VERTEX
  8
0
 62
     2
 10
469.256500
 20
-100.709984
  0
VERTEX
  8
0
 62
     2
 10
469.256500
 20
-98.709984
  0
SEQEND
  8
0
  0
LINE
  8
0
 62
     2
 10
299.659930
 20
-98.709986
 11
304.323103
 21
-98.709986
  0
LINE
  8
0
 62
     2
 10
310.063354
 20
-98.709986
 11
348.572007
 21
-98.709986
  0
LINE
  8
0
 62
     2
 10
362.430200
 20
-98.709986
 11
416.889658
 21
-98.709986
  0
LINE
  8
0
 62
     2
 10
430.747851
 20
-98.709986
 11
469.256503
 21
-98.709986
  0
LINE
  8
0
 62
     2
 10
479.659927
 20
-98.709986
 11
474.996755
 21
-98.709986
  0
LINE
  8
0
 62
     2
 10
329.362409
 20
-107.997189
 11
385.342892
 21
-107.997189
  0
LINE
  8
0
 62
     2
 10
472.106337
 20
-114.008119
 11
450.758617
 21
-114.008119
  0
LINE
  8
0
 62
     2
 10
445.158069
 20
-114.008119
 11
393.620114
 21
-114.008119
  0
LINE
  8
0
 62
     2
 10
385.699744
 20
-114.008119
 11
334.161788
 21
-114.008119
  0
LINE
  8
0
 62
     2
 10
328.561241
 20
-114.008119
 11
307.213521
 21
-114.008119
  0
LINE
  8
0
 62
     2
 10
470.474846
 20
-114.709986
 11
470.474846
 21
-114.659000
  0
LINE
  8
0
 62
     2
 10
470.474846
 20
-114.709986
 11
447.473621
 21
-114.709986
  0
LINE
  8
0
 62
     2
 10
446.135788
 20
-114.709986
 11
390.605920
 21
-114.709986
  0
LINE
  8
0
 62
     2
 10
388.713938
 20
-114.709986
 11
333.184069
 21
-114.709986
  0
LINE
  8
0
 62
     2
 10
331.846236
 20
-114.709986
 11
308.845012
 21
-114.709986
  0
LINE
  8
0
 62
     2
 10
308.845012
 20
-114.709986
 11
308.845012
 21
-114.659000
  0
LINE
  8
0
 62
     2
 10
455.088592
 20
-115.154349
 11
455.453272
 21
-114.709986
  0
ARC
  8
0
 62
     2
 10
459.661675
 20
-118.209986
 40
5.500000
 50
146.250000
 51
33.750000
  0
LINE
  8
0
 62
     2
 10
463.870078
 20
-114.709986
 11
464.234758
 21
-115.154349
  0
ARC
  8
0
 62
     2
 10
473.659929
 20
-128.709986
 40
6.000000
 50
270.000000
 51
360.000000
  0
LINE
  8
0
 62
     2
 10
431.661675
 20
-114.709986
 11
431.661675
 21
-133.621197
  0
LINE
  8
0
 62
     2
 10
324.231266
 20
-115.154349
 11
323.866586
 21
-114.709986
  0
ARC
  8
0
 62
     2
 10
319.658183
 20
-118.209986
 40
5.500000
 50
146.250000
 51
33.750000
  0
LINE
  8
0
 62
     2
 10
315.449780
 20
-114.709986
 11
315.085100
 21
-115.154349
  0
ARC
  8
0
 62
     2
 10
305.659929
 20
-128.709986
 40
6.000000
 50
180.000000
 51
270.000000
  0
LINE
  8
0
 62
     2
 10
347.658183
 20
-114.709986
 11
347.658183
 21
-133.621197
  0
LINE
  8
0
 62
     2
 10
310.063354
 20
-100.709986
 11
308.325687
 21
-100.709986
  0
LINE
  8
0
 62
     2
 10
308.325687
 20
-95.709986
 11
311.214480
 21
-95.709986
  0
LINE
  8
0
 62
     2
 10
308.325687
 20
-98.709986
 11
308.325687
 21
-97.031393
  0
LINE
  8
0
 62
     2
 10
470.994171
 20
-97.031393
 11
470.994171
 21
-98.709986
  0
LINE
  8
0
 62
     2
 10
457.994171
 20
-98.709986
 11
457.994171
 21
-96.709986
  0
LINE
  8
0
 62
     2
 10
470.994171
 20
-95.709986
 11
470.994171
 21
-100.709986
  0
LINE
  8
0
 62
     2
 10
414.157287
 20
-98.709986
 11
414.157287
 21
-96.709986
  0
LINE
  8
0
 62
     2
 10
427.157287
 20
-95.709986
 11
427.157287
 21
-100.709986
  0
LINE
  8
0
 62
     2
 10
352.162571
 20
-100.709986
 11
352.162571
 21
-95.709986
  0
LINE
  8
0
 62
     2
 10
365.162571
 20
-96.709986
 11
365.162571
 21
-98.709986
  0
LINE
  8
0
 62
     2
 10
427.586383
 20
-95.709986
 11
430.629596
 21
-95.709986
  0
LINE
  8
0
 62
     2
 10
427.917383
 20
-96.709986
 11
427.586383
 21
-96.709986
  0
LINE
  8
0
 62
     2
 10
429.982485
 20
-96.709986
 11
427.917383
 21
-96.709986
  0
LINE
  8
0
 62
     2
 10
427.586383
 20
-95.709986
 11
427.586383
 21
-96.709986
  0
LINE
  8
0
 62
     2
 10
351.402475
 20
-96.709986
 11
349.337373
 21
-96.709986
  0
LINE
  8
0
 62
     2
 10
351.733474
 20
-96.709986
 11
351.402475
 21
-96.709986
  0
LINE
  8
0
 62
     2
 10
351.733474
 20
-95.709986
 11
351.733474
 21
-96.709986
  0
LINE
  8
0
 62
     2
 10
348.690262
 20
-95.709986
 11
351.733474
 21
-95.709986
  0
LINE
  8
0
 62
     2
 10
306.784341
 20
-95.709986
 11
304.608597
 21
-95.709986
  0
LINE
  8
0
 62
     2
 10
310.348848
 20
-95.709986
 11
306.815632
 21
-95.709986
  0
LINE
  8
0
 62
     2
 10
306.170861
 20
-96.709986
 11
308.325687
 21
-96.709986
  0
LINE
  8
0
 62
     2
 10
472.535517
 20
-95.709986
 11
474.711261
 21
-95.709986
  0
LINE
  8
0
 62
     2
 10
468.971009
 20
-95.709986
 11
472.504226
 21
-95.709986
  0
LINE
  8
0
 62
     2
 10
473.148997
 20
-96.709986
 11
470.994171
 21
-96.709986
  0
LINE
  8
0
 62
     2
 10
345.566279
 20
-114.709986
 11
349.606839
 21
-114.709986
  0
LINE
  8
0
 62
     2
 10
429.713019
 20
-114.709986
 11
433.753579
 21
-114.709986
  0
LINE
  8
0
 62
     2
 10
321.325687
 20
-96.709986
 11
336.437095
 21
-96.709986
  0
LINE
  8
0
 62
     2
 10
339.497988
 20
-96.709986
 11
329.127235
 21
-96.709986
  0
LINE
  8
0
 62
     2
 10
439.821870
 20
-96.709986
 11
450.192623
 21
-96.709986
  0
LINE
  8
0
 62
     2
 10
457.994171
 20
-96.709986
 11
442.882762
 21
-96.709986
  0
LINE
  8
0
 62
     2
 10
394.201942
 20
-96.709986
 11
394.201942
 21
-96.929057
  0
LINE
  8
0
 62
     2
 10
404.335350
 20
-96.709986
 11
394.201942
 21
-96.709986
  0
LINE
  8
0
 62
     2
 10
404.335350
 20
-98.709986
 11
404.335350
 21
-96.709986
  0
LINE
  8
0
 62
     2
 10
406.233665
 20
-96.709986
 11
406.233665
 21
-98.709986
  0
LINE
  8
0
 62
     2
 10
416.917065
 20
-100.709986
 11
416.917065
 21
-100.999378
  0
LINE
  8
0
 62
     2
 10
443.769247
 20
-96.709986
 11
443.769247
 21
-96.929057
  0
LINE
  8
0
 62
     2
 10
427.157287
 20
-96.709986
 11
443.769247
 21
-96.709986
  0
LINE
  8
0
 62
     2
 10
335.550611
 20
-96.929057
 11
335.550611
 21
-96.709986
  0
LINE
  8
0
 62
     2
 10
352.162571
 20
-96.709986
 11
335.550611
 21
-96.709986
  0
LINE
  8
0
 62
     2
 10
362.402792
 20
-100.999378
 11
362.402792
 21
-100.709986
  0
LINE
  8
0
 62
     2
 10
373.086193
 20
-98.709986
 11
373.086193
 21
-96.709986
  0
LINE
  8
0
 62
     2
 10
374.984507
 20
-98.709986
 11
374.984507
 21
-96.709986
  0
LINE
  8
0
 62
     2
 10
385.117916
 20
-96.709986
 11
374.984507
 21
-96.709986
  0
LINE
  8
0
 62
     2
 10
385.117916
 20
-96.929057
 11
385.117916
 21
-96.709986
  0
LINE
  8
0
 62
     2
 10
299.659929
 20
-94.709986
 11
299.659929
 21
-89.709986
  0
LINE
  8
0
 62
     2
 10
479.659929
 20
-89.709986
 11
479.659929
 21
-94.709986
  0
LINE
  8
0
 62
     2
 10
299.763574
 20
-98.709986
 11
301.250896
 21
-98.709986
  0
LINE
  8
0
 62
     2
 10
479.659929
 20
-95.709986
 11
479.350911
 21
-95.709986
  0
LINE
  8
0
 62
     2
 10
304.608597
 20
-95.709986
 11
305.081938
 21
-95.709986
  0
LINE
  8
0
 62
     2
 10
479.659927
 20
-98.709986
 11
475.086953
 21
-98.709986
  0
LINE
  8
0
 62
     2
 10
301.250896
 20
-98.709986
 11
306.817283
 21
-98.709986
  0
LINE
  8
0
 62
     2
 10
385.703469
 20
-114.709986
 11
385.778110
 21
-114.709986
  0
LINE
  8
0
 62
     2
 10
393.541748
 20
-114.709986
 11
393.616388
 21
-114.709986
  0
LINE
  8
0
 62
     2
 10
449.549565
 20
-114.709986
 11
450.701138
 21
-114.709986
  0
LINE
  8
0
 62
     2
 10
328.618720
 20
-114.709986
 11
329.770292
 21
-114.709986
  0
LINE
  8
0
 62
     2
 10
470.474846
 20
-114.709986
 11
470.474846
 21
-114.659000
  0
LINE
  8
0
 62
     2
 10
472.028776
 20
-114.709986
 11
470.474846
 21
-114.709986
  0
LINE
  8
0
 62
     2
 10
478.485881
 20
-110.201806
 11
473.954918
 21
-114.008119
  0
LINE
  8
0
 62
     2
 10
446.402427
 20
-114.008119
 11
449.452408
 21
-110.201806
  0
LINE
  8
0
 62
     2
 10
444.059845
 20
-114.709986
 11
445.105860
 21
-114.709986
  0
LINE
  8
0
 62
     2
 10
444.059845
 20
-114.659000
 11
444.059845
 21
-114.709986
  0
LINE
  8
0
 62
     2
 10
452.128547
 20
-114.008119
 11
455.486315
 21
-110.201806
  0
LINE
  8
0
 62
     2
 10
393.708908
 20
-114.008119
 11
393.926545
 21
-110.201806
  0
LINE
  8
0
 62
     2
 10
385.393312
 20
-110.201806
 11
385.610950
 21
-114.008119
  0
LINE
  8
0
 62
     2
 10
335.260013
 20
-114.709986
 11
335.260013
 21
-114.659000
  0
LINE
  8
0
 62
     2
 10
334.213998
 20
-114.709986
 11
335.260013
 21
-114.709986
  0
LINE
  8
0
 62
     2
 10
329.867449
 20
-110.201806
 11
332.917431
 21
-114.008119
  0
LINE
  8
0
 62
     2
 10
323.833543
 20
-110.201806
 11
327.191310
 21
-114.008119
  0
LINE
  8
0
 62
     2
 10
308.845012
 20
-114.709986
 11
308.845012
 21
-114.659000
  0
LINE
  8
0
 62
     2
 10
307.291082
 20
-114.709986
 11
308.845012
 21
-114.709986
  0
LINE
  8
0
 62
     2
 10
300.833977
 20
-110.201806
 11
305.364940
 21
-114.008119
  0
LINE
  8
0
 62
     2
 10
470.994171
 20
-98.709986
 11
474.996755
 21
-98.709986
  0
LINE
  8
0
 62
     2
 10
474.413376
 20
-102.709986
 11
470.203858
 21
-102.709986
  0
LINE
  8
0
 62
     2
 10
469.256503
 20
-100.709986
 11
474.996755
 21
-100.709986
  0
LINE
  8
0
 62
     2
 10
425.355940
 20
-102.709986
 11
418.812799
 21
-102.709986
  0
LINE
  8
0
 62
     2
 10
428.510952
 20
-98.709986
 11
430.747851
 21
-98.709986
  0
LINE
  8
0
 62
     2
 10
428.975474
 20
-102.709986
 11
425.355940
 21
-102.709986
  0
LINE
  8
0
 62
     2
 10
427.627183
 20
-100.709986
 11
430.747851
 21
-100.709986
  0
LINE
  8
0
 62
     2
 10
360.507059
 20
-102.709986
 11
353.963917
 21
-102.709986
  0
LINE
  8
0
 62
     2
 10
348.572007
 20
-98.709986
 11
350.808905
 21
-98.709986
  0
LINE
  8
0
 62
     2
 10
351.692675
 20
-100.709986
 11
348.572007
 21
-100.709986
  0
LINE
  8
0
 62
     2
 10
353.963917
 20
-102.709986
 11
350.344384
 21
-102.709986
  0
LINE
  8
0
 62
     2
 10
308.325687
 20
-98.709986
 11
304.323103
 21
-98.709986
  0
LINE
  8
0
 62
     2
 10
304.323103
 20
-100.709986
 11
310.063354
 21
-100.709986
  0
LINE
  8
0
 62
     2
 10
304.906481
 20
-102.709986
 11
309.115999
 21
-102.709986
  0
LINE
  8
0
 62
     2
 10
324.659929
 20
-114.709986
 11
335.546351
 21
-114.709986
  0
LINE
  8
0
 62
     2
 10
454.659929
 20
-114.709986
 11
443.773506
 21
-114.709986
  0
LINE
  8
0
 62
     2
 10
424.661675
 20
-133.621197
 11
424.661675
 21
-114.709986
  0
LINE
  8
0
 62
     2
 10
354.658183
 20
-133.621197
 11
354.658183
 21
-114.709986
  0
LINE
  8
0
 62
     2
 10
299.659929
 20
-107.997189
 11
299.659930
 21
-98.709986
  0
LINE
  8
0
 62
     2
 10
479.659929
 20
-107.997189
 11
479.659927
 21
-98.709986
  0
LINE
  8
0
 62
     2
 10
479.659929
 20
-128.709986
 11
479.659929
 21
-96.709986
  0
LINE
  8
0
 62
     2
 10
424.661675
 20
-134.709986
 11
473.659929
 21
-134.709986
  0
LINE
  8
0
 62
     2
 10
424.661675
 20
-133.621197
 11
424.661675
 21
-134.709986
  0
LINE
  8
0
 62
     2
 10
299.659929
 20
-128.709986
 11
299.659929
 21
-96.709986
  0
LINE
  8
0
 62
     2
 10
354.658183
 20
-134.709986
 11
305.659929
 21
-134.709986
  0
LINE
  8
0
 62
     2
 10
354.658183
 20
-133.621197
 11
354.658183
 21
-134.709986
  0
LINE
  8
0
 62
     2
 10
308.325687
 20
-100.709986
 11
308.325687
 21
-95.709986
  0
LINE
  8
0
 62
     2
 10
321.325687
 20
-96.709986
 11
321.325687
 21
-98.709986
  0
LINE
  8
0
 62
     2
 10
347.658183
 20
-114.709986
 11
347.658183
 21
-134.709986
  0
LINE
  8
0
 62
     2
 10
431.661675
 20
-114.709986
 11
431.661675
 21
-134.709986
  0
POLYLINE
  8
0
 62
     2
 66
    1
  0
VERTEX
  8
0
 62
     2
 10
335.260010
 20
-114.658997
  0
VERTEX
  8
0
 62
     2
 10
334.766296
 20
-114.529060
  0
VERTEX
  8
0
 62
     2
 10
334.161804
 20
-114.008118
  0
VERTEX
  8
0
 62
     2
 10
329.362427
 20
-107.997185
  0
SEQEND
  8
0
  0
POLYLINE
  8
0
 62
     2
 66
    1
  0
VERTEX
  8
0
 62
     2
 10
329.160858
 20
-107.997192
  0
VERTEX
  8
0
 62
     2
 10
329.335907
 20
-109.171532
  0
VERTEX
  8
0
 62
     2
 10
329.867462
 20
-110.201805
  0
SEQEND
  8
0
  0
POLYLINE
  8
0
 62
     2
 66
    1
  0
VERTEX
  8
0
 62
     2
 10
308.845032
 20
-114.658997
  0
VERTEX
  8
0
 62
     2
 10
308.111572
 20
-114.529060
  0
VERTEX
  8
0
 62
     2
 10
307.213531
 20
-114.008118
  0
VERTEX
  8
0
 62
     2
 10
300.083710
 20
-107.997185
  0
SEQEND
  8
0
  0
POLYLINE
  8
0
 62
     2
 66
    1
  0
VERTEX
  8
0
 62
     2
 10
299.784271
 20
-107.997192
  0
VERTEX
  8
0
 62
     2
 10
300.044342
 20
-109.171532
  0
VERTEX
  8
0
 62
     2
 10
300.833984
 20
-110.201805
  0
SEQEND
  8
0
  0
POLYLINE
  8
0
 62
     2
 66
    1
  0
VERTEX
  8
0
 62
     2
 10
385.342865
 20
-107.997192
  0
VERTEX
  8
0
 62
     2
 10
385.355377
 20
-109.171532
  0
VERTEX
  8
0
 62
     2
 10
385.393311
 20
-110.201805
  0
SEQEND
  8
0
  0
POLYLINE
  8
0
 62
     2
 66
    1
  0
VERTEX
  8
0
 62
     2
 10
393.926544
 20
-110.201805
  0
VERTEX
  8
0
 62
     2
 10
393.964478
 20
-109.171532
  0
VERTEX
  8
0
 62
     2
 10
393.976959
 20
-107.997192
  0
SEQEND
  8
0
  0
LINE
  8
0
 62
     2
 10
323.055654
 20
-107.997189
 11
323.248347
 21
-109.171534
  0
LINE
  8
0
 62
     2
 10
323.248347
 20
-109.171534
 11
323.833552
 21
-110.201808
  0
LINE
  8
0
 62
     2
 10
323.055654
 20
-107.997189
 11
299.659929
 21
-107.997189
  0
POLYLINE
  8
0
 62
     2
 66
    1
  0
VERTEX
  8
0
 62
     2
 10
449.957458
 20
-107.997185
  0
VERTEX
  8
0
 62
     2
 10
449.957458
 20
-107.997185
  0
VERTEX
  8
0
 62
     2
 10
445.158081
 20
-114.008118
  0
VERTEX
  8
0
 62
     2
 10
444.553558
 20
-114.529060
  0
VERTEX
  8
0
 62
     2
 10
444.059845
 20
-114.658997
  0
SEQEND
  8
0
  0
POLYLINE
  8
0
 62
     2
 66
    1
  0
VERTEX
  8
0
 62
     2
 10
455.486328
 20
-110.201805
  0
VERTEX
  8
0
 62
     2
 10
456.071503
 20
-109.171532
  0
VERTEX
  8
0
 62
     2
 10
456.264221
 20
-107.997192
  0
SEQEND
  8
0
  0
LINE
  8
0
 62
     2
 10
393.976966
 20
-107.997189
 11
450.158997
 21
-107.997189
  0
LINE
  8
0
 62
     2
 10
449.452418
 20
-110.201808
 11
449.983943
 21
-109.171534
  0
LINE
  8
0
 62
     2
 10
449.983943
 20
-109.171534
 11
450.158997
 21
-107.997189
  0
POLYLINE
  8
0
 62
     2
 66
    1
  0
VERTEX
  8
0
 62
     2
 10
470.474854
 20
-114.658997
  0
VERTEX
  8
0
 62
     2
 10
471.208282
 20
-114.529060
  0
VERTEX
  8
0
 62
     2
 10
472.106354
 20
-114.008118
  0
VERTEX
  8
0
 62
     2
 10
479.236145
 20
-107.997185
  0
SEQEND
  8
0
  0
POLYLINE
  8
0
 62
     2
 66
    1
  0
VERTEX
  8
0
 62
     2
 10
479.535553
 20
-107.997192
  0
VERTEX
  8
0
 62
     2
 10
479.275543
 20
-109.171532
  0
VERTEX
  8
0
 62
     2
 10
478.485901
 20
-110.201805
  0
SEQEND
  8
0
  0
LINE
  8
0
 62
     2
 10
456.264214
 20
-107.997189
 11
479.659929
 21
-107.997189
  0
ENDBLK
  8
OBRYS
  0
BLOCK
  8
OBRYS
  2
_10
 70
   64
 10
56.183760
 20
277.009109
  0
LINE
  8
OBRYS
 10
12.133654
 20
147.711248
 11
32.678646
 21
191.770125
  0
ARC
  8
OBRYS
 10
13.183760
 20
146.009109
 40
2.000000
 50
90.000000
 51
180.000000
  0
LINE
  8
OBRYS
 10
11.183760
 20
135.009109
 11
11.183760
 21
146.009109
  0
LINE
  8
OBRYS
 10
17.183760
 20
148.009109
 11
13.183760
 21
148.009109
  0
POLYLINE
  8
OBRYS
 66
    1
  0
VERTEX
  8
OBRYS
 10
43.183762
 20
360.158264
  0
VERTEX
  8
OBRYS
 10
43.183762
 20
357.553040
  0
VERTEX
  8
OBRYS
 10
43.222191
 20
357.368225
  0
VERTEX
  8
OBRYS
 10
43.336002
 20
357.190491
  0
VERTEX
  8
OBRYS
 10
43.520821
 20
357.026703
  0
VERTEX
  8
OBRYS
 10
43.769547
 20
356.883148
  0
VERTEX
  8
OBRYS
 10
44.072620
 20
356.765350
  0
VERTEX
  8
OBRYS
 10
44.418392
 20
356.677795
  0
VERTEX
  8
OBRYS
 10
44.793579
 20
356.623901
  0
VERTEX
  8
OBRYS
 10
45.183762
 20
356.605682
  0
VERTEX
  8
OBRYS
 10
47.183762
 20
356.605682
  0
SEQEND
  8
OBRYS
  0
POLYLINE
  8
OBRYS
 66
    1
  0
VERTEX
  8
OBRYS
 10
50.183762
 20
356.320190
  0
VERTEX
  8
OBRYS
 10
49.769547
 20
356.064484
  0
VERTEX
  8
OBRYS
 10
49.336002
 20
355.465027
  0
VERTEX
  8
OBRYS
 10
49.183762
 20
354.757935
  0
SEQEND
  8
OBRYS
  0
POLYLINE
  8
OBRYS
 66
    1
  0
VERTEX
  8
OBRYS
 10
50.183762
 20
359.884705
  0
VERTEX
  8
OBRYS
 10
50.177734
 20
359.869049
  0
VERTEX
  8
OBRYS
 10
50.183762
 20
359.853394
  0
SEQEND
  8
OBRYS
  0
LINE
  8
OBRYS
 10
49.183760
 20
327.171049
 11
49.183760
 21
314.506467
  0
LINE
  8
OBRYS
 10
49.183760
 20
327.171049
 11
49.183760
 21
331.118426
  0
LINE
  8
OBRYS
 10
49.183760
 20
354.757925
 11
49.183760
 21
331.118426
  0
LINE
  8
OBRYS
 10
56.183760
 20
198.174867
 11
56.183760
 21
367.009109
  0
POLYLINE
  8
OBRYS
 66
    1
  0
VERTEX
  8
OBRYS
 10
49.183762
 20
360.498169
  0
VERTEX
  8
OBRYS
 10
49.336002
 20
361.205292
  0
VERTEX
  8
OBRYS
 10
49.769547
 20
361.804749
  0
VERTEX
  8
OBRYS
 10
50.183762
 20
362.060455
  0
SEQEND
  8
OBRYS
  0
POLYLINE
  8
OBRYS
 66
    1
  0
VERTEX
  8
OBRYS
 10
49.183762
 20
317.331665
  0
VERTEX
  8
OBRYS
 10
49.336002
 20
317.624573
  0
VERTEX
  8
OBRYS
 10
49.769547
 20
317.872864
  0
VERTEX
  8
OBRYS
 10
50.183762
 20
317.978790
  0
SEQEND
  8
OBRYS
  0
LINE
  8
OBRYS
 10
49.183760
 20
314.506467
 11
49.183760
 21
314.935563
  0
LINE
  8
OBRYS
 10
50.183760
 20
357.343351
 11
50.183760
 21
356.320189
  0
POLYLINE
  8
OBRYS
 66
    1
  0
VERTEX
  8
OBRYS
 10
49.127583
 20
272.585144
  0
VERTEX
  8
OBRYS
 10
49.057659
 20
272.565491
  0
VERTEX
  8
OBRYS
 10
49.002838
 20
272.484344
  0
VERTEX
  8
OBRYS
 10
48.964687
 20
272.467102
  0
VERTEX
  8
OBRYS
 10
48.481892
 20
272.151428
  0
VERTEX
  8
OBRYS
 10
47.683762
 20
271.898590
  0
VERTEX
  8
OBRYS
 10
47.183762
 20
271.789612
  0
SEQEND
  8
OBRYS
  0
POLYLINE
  8
OBRYS
 66
    1
  0
VERTEX
  8
OBRYS
 10
47.183762
 20
329.323212
  0
VERTEX
  8
OBRYS
 10
47.683762
 20
329.612000
  0
VERTEX
  8
OBRYS
 10
48.481892
 20
330.281921
  0
VERTEX
  8
OBRYS
 10
48.964687
 20
331.118439
  0
VERTEX
  8
OBRYS
 10
49.002838
 20
331.178558
  0
VERTEX
  8
OBRYS
 10
49.057659
 20
331.461395
  0
VERTEX
  8
OBRYS
 10
49.127583
 20
331.757111
  0
VERTEX
  8
OBRYS
 10
49.183762
 20
331.945404
  0
SEQEND
  8
OBRYS
  0
POLYLINE
  8
OBRYS
 66
    1
  0
VERTEX
  8
OBRYS
 10
47.183762
 20
282.228607
  0
VERTEX
  8
OBRYS
 10
47.683762
 20
282.119629
  0
VERTEX
  8
OBRYS
 10
48.481892
 20
281.866791
  0
VERTEX
  8
OBRYS
 10
48.964687
 20
281.551117
  0
VERTEX
  8
OBRYS
 10
49.002838
 20
281.533875
  0
VERTEX
  8
OBRYS
 10
49.057659
 20
281.452728
  0
VERTEX
  8
OBRYS
 10
49.127583
 20
281.433075
  0
SEQEND
  8
OBRYS
  0
LINE
  8
OBRYS
 10
49.037619
 20
358.343351
 11
49.183760
 21
359.172328
  0
LINE
  8
OBRYS
 10
47.683760
 20
329.611986
 11
47.683760
 21
336.839338
  0
LINE
  8
OBRYS
 10
47.683760
 20
271.898599
 11
47.683760
 21
282.119618
  0
POLYLINE
  8
OBRYS
 66
    1
  0
VERTEX
  8
OBRYS
 10
49.183762
 20
338.269135
  0
VERTEX
  8
OBRYS
 10
49.127583
 20
338.013519
  0
VERTEX
  8
OBRYS
 10
49.057659
 20
337.745636
  0
VERTEX
  8
OBRYS
 10
49.002838
 20
337.577545
  0
VERTEX
  8
OBRYS
 10
48.964687
 20
337.541809
  0
VERTEX
  8
OBRYS
 10
48.481892
 20
337.151733
  0
VERTEX
  8
OBRYS
 10
47.683762
 20
336.839325
  0
VERTEX
  8
OBRYS
 10
47.183762
 20
336.704681
  0
SEQEND
  8
OBRYS
  0
LINE
  8
OBRYS
 10
49.183760
 20
281.480668
 11
49.127582
 21
281.433065
  0
LINE
  8
OBRYS
 10
49.127582
 20
272.585152
 11
49.183760
 21
272.537550
  0
POLYLINE
  8
OBRYS
 66
    1
  0
VERTEX
  8
OBRYS
 10
50.183762
 20
317.978790
  0
VERTEX
  8
OBRYS
 10
50.183762
 20
311.368591
  0
VERTEX
  8
OBRYS
 10
50.177734
 20
311.330811
  0
VERTEX
  8
OBRYS
 10
50.183762
 20
311.293060
  0
VERTEX
  8
OBRYS
 10
50.183762
 20
304.120575
  0
VERTEX
  8
OBRYS
 10
49.769547
 20
304.014679
  0
VERTEX
  8
OBRYS
 10
49.336002
 20
303.766357
  0
VERTEX
  8
OBRYS
 10
49.183762
 20
303.473480
  0
SEQEND
  8
OBRYS
  0
POLYLINE
  8
OBRYS
 66
    1
  0
VERTEX
  8
OBRYS
 10
49.183762
 20
250.544739
  0
VERTEX
  8
OBRYS
 10
49.336002
 20
250.251846
  0
VERTEX
  8
OBRYS
 10
49.769547
 20
250.003555
  0
VERTEX
  8
OBRYS
 10
50.183762
 20
249.897629
  0
VERTEX
  8
OBRYS
 10
50.183762
 20
247.292923
  0
SEQEND
  8
OBRYS
  0
POLYLINE
  8
OBRYS
 66
    1
  0
VERTEX
  8
OBRYS
 10
49.183762
 20
359.612732
  0
VERTEX
  8
OBRYS
 10
49.002838
 20
358.586670
  0
VERTEX
  8
OBRYS
 10
48.862354
 20
358.343353
  0
SEQEND
  8
OBRYS
  0
ARC
  8
OBRYS
 10
51.183760
 20
365.009109
 40
2.000000
 50
90.000000
 51
180.000000
  0
LINE
  8
OBRYS
 10
51.183760
 20
367.009109
 11
51.183760
 21
247.292919
  0
LINE
  8
OBRYS
 10
49.183760
 20
365.009109
 11
49.183760
 21
360.498177
  0
LINE
  8
OBRYS
 10
49.183760
 20
303.473471
 11
49.183760
 21
250.544746
  0
POLYLINE
  8
OBRYS
 66
    1
  0
VERTEX
  8
OBRYS
 10
44.290207
 20
314.348938
  0
VERTEX
  8
OBRYS
 10
44.072620
 20
314.241486
  0
VERTEX
  8
OBRYS
 10
43.769547
 20
314.011688
  0
VERTEX
  8
OBRYS
 10
43.520821
 20
313.731689
  0
VERTEX
  8
OBRYS
 10
43.336002
 20
313.412231
  0
VERTEX
  8
OBRYS
 10
43.222191
 20
313.065613
  0
VERTEX
  8
OBRYS
 10
43.183762
 20
312.705109
  0
SEQEND
  8
OBRYS
  0
POLYLINE
  8
OBRYS
 66
    1
  0
VERTEX
  8
OBRYS
 10
44.222778
 20
304.485779
  0
VERTEX
  8
OBRYS
 10
44.183762
 20
306.561462
  0
VERTEX
  8
OBRYS
 10
44.183762
 20
308.686096
  0
VERTEX
  8
OBRYS
 10
44.290207
 20
314.348938
  0
VERTEX
  8
OBRYS
 10
44.304375
 20
314.386383
  0
VERTEX
  8
OBRYS
 10
44.418392
 20
314.515961
  0
VERTEX
  8
OBRYS
 10
44.651672
 20
314.733307
  0
VERTEX
  8
OBRYS
 10
44.793579
 20
314.817017
  0
VERTEX
  8
OBRYS
 10
45.183762
 20
314.976349
  0
VERTEX
  8
OBRYS
 10
46.183762
 20
315.197296
  0
VERTEX
  8
OBRYS
 10
46.715847
 20
315.368164
  0
VERTEX
  8
OBRYS
 10
47.063145
 20
315.598358
  0
VERTEX
  8
OBRYS
 10
47.183762
 20
315.860138
  0
SEQEND
  8
OBRYS
  0
POLYLINE
  8
OBRYS
 66
    1
  0
VERTEX
  8
OBRYS
 10
47.183762
 20
318.097046
  0
VERTEX
  8
OBRYS
 10
45.183762
 20
318.097046
  0
VERTEX
  8
OBRYS
 10
44.793579
 20
318.062988
  0
VERTEX
  8
OBRYS
 10
44.418392
 20
317.962128
  0
VERTEX
  8
OBRYS
 10
44.072620
 20
317.798340
  0
VERTEX
  8
OBRYS
 10
43.769547
 20
317.577911
  0
VERTEX
  8
OBRYS
 10
43.520821
 20
317.309326
  0
VERTEX
  8
OBRYS
 10
43.336002
 20
317.002899
  0
VERTEX
  8
OBRYS
 10
43.222191
 20
316.670441
  0
VERTEX
  8
OBRYS
 10
43.183762
 20
316.324646
  0
SEQEND
  8
OBRYS
  0
POLYLINE
  8
OBRYS
 66
    1
  0
VERTEX
  8
OBRYS
 10
47.183762
 20
362.345947
  0
VERTEX
  8
OBRYS
 10
45.183762
 20
362.345947
  0
VERTEX
  8
OBRYS
 10
44.793579
 20
362.334717
  0
VERTEX
  8
OBRYS
 10
44.418392
 20
362.301514
  0
VERTEX
  8
OBRYS
 10
44.072620
 20
362.247620
  0
VERTEX
  8
OBRYS
 10
43.769547
 20
362.175079
  0
VERTEX
  8
OBRYS
 10
43.520821
 20
362.086670
  0
VERTEX
  8
OBRYS
 10
43.336002
 20
361.985809
  0
VERTEX
  8
OBRYS
 10
43.222191
 20
361.876373
  0
VERTEX
  8
OBRYS
 10
43.183762
 20
361.762543
  0
SEQEND
  8
OBRYS
  0
LINE
  8
OBRYS
 10
45.183760
 20
304.238838
 11
47.183760
 21
304.238838
  0
ARC
  8
OBRYS
 10
45.158711
 20
306.250854
 40
2.009658
 50
226.390131
 51
270.175523
  0
ARC
  8
OBRYS
 10
45.042941
 20
306.162849
 40
1.861409
 50
180.197522
 51
226.412113
  0
LINE
  8
OBRYS
 10
43.183760
 20
316.324654
 11
43.183760
 21
306.161979
  0
LINE
  8
OBRYS
 10
47.183760
 20
367.009107
 11
47.183760
 21
362.345934
  0
LINE
  8
OBRYS
 10
47.183760
 20
356.605683
 11
47.183760
 21
318.097031
  0
LINE
  8
OBRYS
 10
47.183760
 20
304.238838
 11
47.183760
 21
277.009109
  0
LINE
  8
OBRYS
 10
49.035709
 20
247.521543
 11
49.183760
 21
247.476581
  0
ARC
  8
OBRYS
 10
50.190225
 20
250.296339
 40
3.005930
 50
179.983558
 51
247.455460
  0
LINE
  8
OBRYS
 10
47.183760
 20
277.009109
 11
47.183760
 21
250.296377
  0
POLYLINE
  8
OBRYS
 66
    1
  0
VERTEX
  8
OBRYS
 10
49.183762
 20
247.476578
  0
VERTEX
  8
OBRYS
 10
49.598488
 20
247.350632
  0
VERTEX
  8
OBRYS
 10
50.183762
 20
247.292923
  0
VERTEX
  8
OBRYS
 10
56.183762
 20
247.292923
  0
SEQEND
  8
OBRYS
  0
LINE
  8
OBRYS
 10
50.183760
 20
358.343351
 11
50.183760
 21
356.320189
  0
LINE
  8
OBRYS
 10
50.183760
 20
304.120582
 11
50.183760
 21
311.332345
  0
LINE
  8
OBRYS
 10
45.183760
 20
304.238838
 11
45.183760
 21
314.506467
  0
LINE
  8
OBRYS
 10
50.183760
 20
247.292919
 11
50.183760
 21
249.934892
  0
LINE
  8
OBRYS
 10
49.183760
 20
358.343351
 11
49.183760
 21
360.498177
  0
LINE
  8
OBRYS
 10
50.183760
 20
359.853406
 11
50.183760
 21
356.320189
  0
LINE
  8
OBRYS
 10
50.183760
 20
362.060441
 11
50.183760
 21
359.884697
  0
LINE
  8
OBRYS
 10
50.183760
 20
314.935563
 11
49.183760
 21
314.935563
  0
LINE
  8
OBRYS
 10
49.183760
 20
272.467095
 11
48.964689
 21
272.467095
  0
LINE
  8
OBRYS
 10
47.183760
 20
262.333687
 11
49.183760
 21
262.333687
  0
LINE
  8
OBRYS
 10
49.183760
 20
260.435372
 11
47.183760
 21
260.435372
  0
LINE
  8
OBRYS
 10
49.183760
 20
331.118426
 11
48.964689
 21
331.118426
  0
LINE
  8
OBRYS
 10
45.183760
 20
304.266245
 11
44.894367
 21
304.266245
  0
LINE
  8
OBRYS
 10
49.183760
 20
293.582845
 11
47.183760
 21
293.582845
  0
LINE
  8
OBRYS
 10
49.183760
 20
291.684530
 11
47.183760
 21
291.684530
  0
LINE
  8
OBRYS
 10
48.964689
 20
281.551122
 11
49.183760
 21
281.551122
  0
LINE
  8
OBRYS
 10
51.183760
 20
367.009109
 11
56.183760
 21
367.009109
  0
LINE
  8
OBRYS
 10
47.183760
 20
315.860132
 11
47.183760
 21
318.097031
  0
LINE
  8
OBRYS
 10
45.183760
 20
318.097031
 11
45.183760
 21
314.976363
  0
LINE
  8
OBRYS
 10
47.183760
 20
358.343351
 11
47.183760
 21
362.345934
  0
LINE
  8
OBRYS
 10
45.183760
 20
362.345934
 11
45.183760
 21
356.605683
  0
LINE
  8
OBRYS
 10
43.183760
 20
361.762556
 11
43.183760
 21
357.553038
  0
LINE
  8
OBRYS
 10
48.183760
 20
351.843351
 11
47.183760
 21
351.843351
  0
LINE
  8
OBRYS
 10
49.183760
 20
345.343351
 11
47.183760
 21
345.343351
  0
LINE
  8
OBRYS
 10
45.183760
 20
358.343351
 11
50.183760
 21
358.343351
  0
LINE
  8
OBRYS
 10
48.183760
 20
308.006467
 11
45.183760
 21
308.006467
  0
LINE
  8
OBRYS
 10
49.183760
 20
301.506467
 11
47.183760
 21
301.506467
  0
LINE
  8
OBRYS
 10
45.183760
 20
314.506467
 11
50.183760
 21
314.506467
  0
LINE
  8
OBRYS
 10
47.183760
 20
252.511751
 11
49.183760
 21
252.511751
  0
ARC
  8
OBRYS
 10
47.183760
 20
150.009109
 40
2.000000
 50
270.000000
 51
360.000000
  0
LINE
  8
OBRYS
 10
47.183760
 20
148.009109
 11
17.183760
 21
148.009109
  0
LINE
  8
OBRYS
 10
49.183760
 20
150.009109
 11
49.183760
 21
235.540597
  0
POLYLINE
  8
OBRYS
 66
    1
  0
VERTEX
  8
OBRYS
 10
35.691940
 20
272.742493
  0
VERTEX
  8
OBRYS
 10
36.722218
 20
272.704559
  0
VERTEX
  8
OBRYS
 10
38.253647
 20
272.688263
  0
SEQEND
  8
OBRYS
  0
LINE
  8
OBRYS
 10
37.896557
 20
337.306629
 11
37.896557
 21
277.009109
  0
LINE
  8
OBRYS
 10
49.183760
 20
235.540597
 11
48.980119
 21
235.603570
  0
LINE
  8
OBRYS
 10
48.980119
 20
235.603570
 11
45.039533
 21
239.482844
  0
LINE
  8
OBRYS
 10
45.039533
 20
239.482844
 11
44.908040
 21
239.729888
  0
LINE
  8
OBRYS
 10
44.908040
 20
239.729888
 11
41.791501
 21
249.238240
  0
LINE
  8
OBRYS
 10
41.791501
 20
249.238240
 11
39.376061
 21
259.106996
  0
LINE
  8
OBRYS
 10
39.376061
 20
259.106996
 11
37.896557
 21
277.009109
  0
LINE
  8
OBRYS
 10
47.183760
 20
277.009109
 11
37.896557
 21
277.009109
  0
POLYLINE
  8
OBRYS
 66
    1
  0
VERTEX
  8
OBRYS
 10
37.896557
 20
281.326141
  0
VERTEX
  8
OBRYS
 10
36.722218
 20
281.313660
  0
VERTEX
  8
OBRYS
 10
35.691940
 20
281.275726
  0
SEQEND
  8
OBRYS
  0
POLYLINE
  8
OBRYS
 66
    1
  0
VERTEX
  8
OBRYS
 10
35.691940
 20
365.835052
  0
VERTEX
  8
OBRYS
 10
36.722218
 20
366.624725
  0
VERTEX
  8
OBRYS
 10
37.896557
 20
367.009094
  0
SEQEND
  8
OBRYS
  0
POLYLINE
  8
OBRYS
 66
    1
  0
VERTEX
  8
OBRYS
 10
37.896557
 20
367.009094
  0
VERTEX
  8
OBRYS
 10
37.896557
 20
367.009094
  0
VERTEX
  8
OBRYS
 10
31.885626
 20
359.455505
  0
VERTEX
  8
OBRYS
 10
31.364681
 20
358.557465
  0
VERTEX
  8
OBRYS
 10
31.234745
 20
357.824036
  0
SEQEND
  8
OBRYS
  0
LINE
  8
OBRYS
 10
37.896557
 20
367.009109
 11
37.896557
 21
337.306629
  0
POLYLINE
  8
OBRYS
 66
    1
  0
VERTEX
  8
OBRYS
 10
35.691940
 20
336.801575
  0
VERTEX
  8
OBRYS
 10
36.722218
 20
337.333130
  0
VERTEX
  8
OBRYS
 10
37.896557
 20
337.508179
  0
SEQEND
  8
OBRYS
  0
POLYLINE
  8
OBRYS
 66
    1
  0
VERTEX
  8
OBRYS
 10
35.691940
 20
342.835480
  0
VERTEX
  8
OBRYS
 10
36.722218
 20
343.420685
  0
VERTEX
  8
OBRYS
 10
37.896557
 20
343.613403
  0
SEQEND
  8
OBRYS
  0
POLYLINE
  8
OBRYS
 66
    1
  0
VERTEX
  8
OBRYS
 10
37.896557
 20
337.306641
  0
VERTEX
  8
OBRYS
 10
37.896557
 20
337.306641
  0
VERTEX
  8
OBRYS
 10
31.885626
 20
332.507263
  0
VERTEX
  8
OBRYS
 10
31.364681
 20
331.902740
  0
VERTEX
  8
OBRYS
 10
31.234745
 20
331.409027
  0
SEQEND
  8
OBRYS
  0
LINE
  8
OBRYS
 10
49.183760
 20
135.009109
 11
11.183760
 21
135.009109
  0
LINE
  8
OBRYS
 10
17.183760
 20
135.009109
 11
49.183760
 21
135.009109
  0
LINE
  8
OBRYS
 10
56.183760
 20
247.292919
 11
56.183760
 21
135.009109
  0
LINE
  8
OBRYS
 10
56.183760
 20
135.009109
 11
49.183760
 21
135.009109
  0
LINE
  8
OBRYS
 10
56.183760
 20
137.009109
 11
56.183760
 21
135.009109
  0
LINE
  8
OBRYS
 10
47.183760
 20
367.009107
 11
37.896557
 21
367.009109
  0
LINE
  8
OBRYS
 10
36.446705
 20
199.850754
 11
12.272549
 21
148.009109
  0
LINE
  8
OBRYS
 10
31.234745
 20
357.824026
 11
31.183760
 21
357.824026
  0
LINE
  8
OBRYS
 10
31.183760
 20
357.824026
 11
31.183760
 21
359.377955
  0
LINE
  8
OBRYS
 10
31.885626
 20
361.304097
 11
35.691939
 21
365.835060
  0
LINE
  8
OBRYS
 10
35.691939
 20
342.835495
 11
31.885626
 21
339.477727
  0
LINE
  8
OBRYS
 10
31.234745
 20
331.409024
 11
31.183760
 21
331.409024
  0
LINE
  8
OBRYS
 10
31.885626
 20
333.751607
 11
35.691939
 21
336.801588
  0
LINE
  8
OBRYS
 10
35.691939
 20
281.275725
 11
31.885626
 21
281.058087
  0
LINE
  8
OBRYS
 10
31.885626
 20
272.960130
 11
35.691939
 21
272.742492
  0
LINE
  8
OBRYS
 10
31.885626
 20
214.540490
 11
40.486094
 21
206.953522
  0
LINE
  8
OBRYS
 10
47.492785
 20
210.898715
 11
48.569316
 21
210.036096
  0
LINE
  8
OBRYS
 10
40.486094
 20
213.375094
 11
31.885626
 21
220.266611
  0
LINE
  8
OBRYS
 10
31.183760
 20
222.609193
 11
31.234745
 21
222.609193
  0
LINE
  8
OBRYS
 10
32.678646
 20
191.770125
 11
31.885626
 21
192.714120
  0
LINE
  8
OBRYS
 10
31.183760
 20
194.640262
 11
31.183760
 21
196.194191
  0
LINE
  8
OBRYS
 10
31.183760
 20
196.194191
 11
31.234745
 21
196.194191
  0
LINE
  8
OBRYS
 10
31.234745
 20
357.824026
 11
31.183760
 21
357.824026
  0
LINE
  8
OBRYS
 10
41.791501
 20
213.601701
 11
41.791501
 21
249.238240
  0
LINE
  8
OBRYS
 10
41.791501
 20
192.663028
 11
41.791501
 21
206.119961
  0
POLYLINE
  8
OBRYS
 66
    1
  0
VERTEX
  8
OBRYS
 10
31.183760
 20
359.377960
  0
VERTEX
  8
OBRYS
 10
31.364681
 20
360.402832
  0
VERTEX
  8
OBRYS
 10
31.885626
 20
361.304108
  0
SEQEND
  8
OBRYS
  0
POLYLINE
  8
OBRYS
 66
    1
  0
VERTEX
  8
OBRYS
 10
31.885626
 20
339.477722
  0
VERTEX
  8
OBRYS
 10
31.364681
 20
338.809814
  0
VERTEX
  8
OBRYS
 10
31.183760
 20
338.050323
  0
SEQEND
  8
OBRYS
  0
LINE
  8
OBRYS
 10
35.691939
 20
336.801588
 11
35.691939
 21
342.835495
  0
POLYLINE
  8
OBRYS
 66
    1
  0
VERTEX
  8
OBRYS
 10
31.183760
 20
332.455048
  0
VERTEX
  8
OBRYS
 10
31.364681
 20
333.144928
  0
VERTEX
  8
OBRYS
 10
31.885626
 20
333.751617
  0
SEQEND
  8
OBRYS
  0
POLYLINE
  8
OBRYS
 66
    1
  0
VERTEX
  8
OBRYS
 10
31.885626
 20
281.058075
  0
VERTEX
  8
OBRYS
 10
31.364681
 20
281.014801
  0
VERTEX
  8
OBRYS
 10
31.183760
 20
280.965576
  0
SEQEND
  8
OBRYS
  0
POLYLINE
  8
OBRYS
 66
    1
  0
VERTEX
  8
OBRYS
 10
31.183760
 20
273.052643
  0
VERTEX
  8
OBRYS
 10
31.364681
 20
273.003418
  0
VERTEX
  8
OBRYS
 10
31.885626
 20
272.960144
  0
SEQEND
  8
OBRYS
  0
LINE
  8
OBRYS
 10
35.691939
 20
272.742492
 11
35.691939
 21
281.275725
  0
POLYLINE
  8
OBRYS
 66
    1
  0
VERTEX
  8
OBRYS
 10
31.183760
 20
215.967896
  0
VERTEX
  8
OBRYS
 10
31.364681
 20
215.208389
  0
VERTEX
  8
OBRYS
 10
31.885626
 20
214.540497
  0
SEQEND
  8
OBRYS
  0
POLYLINE
  8
OBRYS
 66
    1
  0
VERTEX
  8
OBRYS
 10
40.486095
 20
206.953522
  0
VERTEX
  8
OBRYS
 10
44.124767
 20
204.630066
  0
VERTEX
  8
OBRYS
 10
48.569317
 20
203.277573
  0
SEQEND
  8
OBRYS
  0
LINE
  8
OBRYS
 10
48.569316
 20
203.277571
 11
48.569316
 21
210.036096
  0
LINE
  8
OBRYS
 10
40.486094
 20
206.953522
 11
40.486094
 21
213.375094
  0
POLYLINE
  8
OBRYS
 66
    1
  0
VERTEX
  8
OBRYS
 10
31.234745
 20
222.609192
  0
VERTEX
  8
OBRYS
 10
31.364681
 20
222.115479
  0
VERTEX
  8
OBRYS
 10
31.885626
 20
221.510971
  0
VERTEX
  8
OBRYS
 10
41.791500
 20
213.601700
  0
VERTEX
  8
OBRYS
 10
45.039532
 20
211.665146
  0
VERTEX
  8
OBRYS
 10
47.492786
 20
210.898712
  0
SEQEND
  8
OBRYS
  0
POLYLINE
  8
OBRYS
 66
    1
  0
VERTEX
  8
OBRYS
 10
48.569317
 20
210.036102
  0
VERTEX
  8
OBRYS
 10
44.124767
 20
211.264618
  0
VERTEX
  8
OBRYS
 10
40.486095
 20
213.375092
  0
SEQEND
  8
OBRYS
  0
POLYLINE
  8
OBRYS
 66
    1
  0
VERTEX
  8
OBRYS
 10
31.885626
 20
220.266617
  0
VERTEX
  8
OBRYS
 10
31.364681
 20
220.873291
  0
VERTEX
  8
OBRYS
 10
31.183760
 20
221.563171
  0
SEQEND
  8
OBRYS
  0
POLYLINE
  8
OBRYS
 66
    1
  0
VERTEX
  8
OBRYS
 10
31.234745
 20
196.194199
  0
VERTEX
  8
OBRYS
 10
31.364681
 20
195.460754
  0
VERTEX
  8
OBRYS
 10
31.885626
 20
194.562698
  0
VERTEX
  8
OBRYS
 10
33.234676
 20
192.962540
  0
SEQEND
  8
OBRYS
  0
POLYLINE
  8
OBRYS
 66
    1
  0
VERTEX
  8
OBRYS
 10
31.885626
 20
192.714127
  0
VERTEX
  8
OBRYS
 10
31.364681
 20
193.615387
  0
VERTEX
  8
OBRYS
 10
31.183760
 20
194.640259
  0
SEQEND
  8
OBRYS
  0
POLYLINE
  8
OBRYS
 66
    1
  0
VERTEX
  8
OBRYS
 10
49.183762
 20
187.294128
  0
VERTEX
  8
OBRYS
 10
48.980118
 20
187.327789
  0
VERTEX
  8
OBRYS
 10
45.039532
 20
189.401306
  0
VERTEX
  8
OBRYS
 10
41.791500
 20
192.663025
  0
VERTEX
  8
OBRYS
 10
36.446705
 20
199.850754
  0
SEQEND
  8
OBRYS
  0
LINE
  8
OBRYS
 10
31.183760
 20
196.194191
 11
31.183760
 21
212.009109
  0
LINE
  8
OBRYS
 10
31.183760
 20
220.533249
 11
31.183760
 21
244.509109
  0
LINE
  8
OBRYS
 10
31.183760
 20
342.009109
 11
31.183760
 21
357.824026
  0
LINE
  8
OBRYS
 10
31.183760
 20
274.009109
 11
31.183760
 21
250.348276
  0
LINE
  8
OBRYS
 10
31.183760
 20
244.509109
 11
31.183760
 21
250.348276
  0
LINE
  8
OBRYS
 10
31.183760
 20
212.009109
 11
31.183760
 21
220.533249
  0
LINE
  8
OBRYS
 10
31.183760
 20
342.009109
 11
31.183760
 21
333.484968
  0
LINE
  8
OBRYS
 10
31.183760
 20
317.062198
 11
31.183760
 21
333.484968
  0
LINE
  8
OBRYS
 10
31.183760
 20
274.009109
 11
31.183760
 21
285.108085
  0
LINE
  8
OBRYS
 10
31.183760
 20
317.062198
 11
31.183760
 21
285.108085
  0
LINE
  8
OBRYS
 10
31.885626
 20
215.910421
 11
31.885626
 21
220.266611
  0
LINE
  8
OBRYS
 10
31.885626
 20
273.048924
 11
31.885626
 21
281.058087
  0
LINE
  8
OBRYS
 10
31.885626
 20
333.751607
 11
31.885626
 21
338.107796
  0
LINE
  8
OBRYS
 62
     7
  6
DASHDOT
 10
27.683760
 20
150.685302
 11
27.683760
 21
130.209109
  0
LINE
  8
OBRYS
 62
     4
  6
HIDDEN2
 10
22.183760
 20
148.009109
 11
22.183760
 21
135.009109
  0
LINE
  8
OBRYS
 62
     4
  6
HIDDEN2
 10
33.183760
 20
148.009109
 11
33.183760
 21
135.009109
  0
ENDBLK
  8
OBRYS
  0
BLOCK
  8
OBRYS
  2
_11
 70
   64
 10
927.407825
 20
277.009109
  0
LINE
  8
NEVIDITELNA
 10
862.907825
 20
147.009109
 11
863.326874
 21
135.009109
  0
LINE
  8
NEVIDITELNA
 10
851.907825
 20
147.009109
 11
851.488776
 21
135.009109
  0
LINE
  8
NEVIDITELNA
 10
1002.907825
 20
147.009109
 11
1003.326874
 21
135.009109
  0
LINE
  8
NEVIDITELNA
 10
991.907825
 20
147.009109
 11
991.488776
 21
135.009109
  0
ARC
  8
OBRYS
 10
927.407825
 20
277.009109
 40
85.247506
 50
241.870221
 51
245.164319
  0
ARC
  8
OBRYS
 10
927.407825
 20
277.009109
 40
85.247506
 50
294.835681
 51
298.129779
  0
LINE
  8
OBRYS
 10
885.159509
 20
148.009109
 11
890.911194
 21
148.009109
  0
LINE
  8
OBRYS
 10
969.656141
 20
148.009109
 11
963.904456
 21
148.009109
  0
LINE
  8
OBRYS
 10
987.363620
 20
221.295954
 11
1000.172536
 21
208.487038
  0
LINE
  8
OBRYS
 10
983.120980
 20
217.053313
 11
995.929895
 21
204.244397
  0
LINE
  8
OBRYS
 10
930.407825
 20
195.218809
 11
930.407825
 21
177.104267
  0
LINE
  8
OBRYS
 10
924.407825
 20
195.218809
 11
924.407825
 21
177.104267
  0
LINE
  8
OBRYS
 10
867.452029
 20
221.295954
 11
854.643113
 21
208.487038
  0
LINE
  8
OBRYS
 10
871.694670
 20
217.053313
 11
858.885754
 21
204.244397
  0
LINE
  8
OBRYS
 10
987.363620
 20
332.722263
 11
993.133390
 21
338.492033
  0
LINE
  8
OBRYS
 10
1009.198124
 20
274.009109
 11
1017.357811
 21
274.009109
  0
LINE
  8
OBRYS
 10
845.617526
 20
280.009109
 11
837.457839
 21
280.009109
  0
LINE
  8
OBRYS
 10
871.694670
 20
336.964904
 11
865.924900
 21
342.734674
  0
LINE
  8
OBRYS
 10
983.120980
 20
336.964904
 11
988.890750
 21
342.734674
  0
LINE
  8
OBRYS
 10
1009.198124
 20
280.009109
 11
1017.357811
 21
280.009109
  0
LINE
  8
OBRYS
 10
845.617526
 20
274.009109
 11
837.457839
 21
274.009109
  0
LINE
  8
OBRYS
 10
867.452029
 20
332.722263
 11
861.682259
 21
338.492033
  0
LINE
  8
OBRYS
 10
924.407825
 20
358.799408
 11
924.407825
 21
366.959095
  0
LINE
  8
OBRYS
 10
930.407825
 20
358.799408
 11
930.407825
 21
366.959095
  0
LINE
  8
OBRYS
 10
914.407825
 20
160.009109
 11
914.407825
 21
146.009109
  0
ARC
  8
OBRYS
 10
913.407825
 20
153.009109
 40
7.000000
 50
90.000000
 51
270.000000
  0
LINE
  8
OBRYS
 10
913.407825
 20
160.009109
 11
914.407825
 21
160.009109
  0
LINE
  8
OBRYS
 10
913.407825
 20
146.009109
 11
914.407825
 21
146.009109
  0
LINE
  8
OBRYS
 10
917.407825
 20
146.009109
 11
916.407825
 21
146.009109
  0
LINE
  8
OBRYS
 10
917.407825
 20
160.009109
 11
916.407825
 21
160.009109
  0
ARC
  8
OBRYS
 10
917.407825
 20
153.009109
 40
7.000000
 50
270.000000
 51
90.000000
  0
LINE
  8
OBRYS
 10
916.407825
 20
160.009109
 11
916.407825
 21
146.009109
  0
LINE
  8
OBRYS
 10
914.407825
 20
174.009109
 11
914.407825
 21
162.009109
  0
LINE
  8
OBRYS
 10
912.407825
 20
174.009109
 11
914.407825
 21
174.009109
  0
LINE
  8
OBRYS
 10
912.407825
 20
162.009109
 11
914.407825
 21
162.009109
  0
ARC
  8
OBRYS
 10
913.507825
 20
168.009109
 40
6.100000
 50
100.388858
 51
259.611142
  0
ARC
  8
OBRYS
 10
917.307825
 20
168.009109
 40
6.100000
 50
280.388858
 51
79.611142
  0
LINE
  8
OBRYS
 10
918.407825
 20
162.009109
 11
916.407825
 21
162.009109
  0
LINE
  8
OBRYS
 10
918.407825
 20
174.009109
 11
916.407825
 21
174.009109
  0
LINE
  8
OBRYS
 10
916.407825
 20
174.009109
 11
916.407825
 21
162.009109
  0
ARC
  8
OBRYS
 10
936.407825
 20
152.009109
 40
6.000000
 50
180.000000
 51
270.000000
  0
ARC
  8
OBRYS
 10
936.407825
 20
168.009109
 40
6.000000
 50
90.000000
 51
180.000000
  0
ARC
  8
OBRYS
 10
942.407825
 20
168.009109
 40
6.000000
 50
0.000000
 51
90.000000
  0
ARC
  8
OBRYS
 10
942.407825
 20
152.009109
 40
6.000000
 50
270.000000
 51
360.000000
  0
LINE
  8
OBRYS
 10
930.407825
 20
168.009109
 11
930.407825
 21
152.009109
  0
LINE
  8
OBRYS
 10
936.407825
 20
146.009109
 11
938.407825
 21
146.009109
  0
LINE
  8
OBRYS
 10
938.407825
 20
146.009109
 11
938.407825
 21
174.009109
  0
LINE
  8
OBRYS
 10
938.407825
 20
174.009109
 11
936.407825
 21
174.009109
  0
LINE
  8
OBRYS
 10
942.407825
 20
174.009109
 11
940.407825
 21
174.009109
  0
LINE
  8
OBRYS
 10
940.407825
 20
174.009109
 11
940.407825
 21
146.009109
  0
LINE
  8
OBRYS
 10
940.407825
 20
146.009109
 11
942.407825
 21
146.009109
  0
LINE
  8
OBRYS
 10
948.407825
 20
152.009108
 11
948.407825
 21
168.009108
  0
LINE
  8
OBRYS
 10
892.407825
 20
143.009109
 11
927.407825
 21
143.009109
  0
LINE
  8
OBRYS
 10
962.407825
 20
143.009109
 11
927.407825
 21
143.009109
  0
LINE
  8
0
 62
     2
 10
892.407825
 20
137.009109
 11
927.407825
 21
137.009109
  0
LINE
  8
OSA
 10
857.407825
 20
148.009109
 11
857.407825
 21
135.009109
  0
ARC
  8
0
 62
     2
 10
879.407825
 20
154.009109
 40
6.000000
 50
270.000000
 51
360.000000
  0
ARC
  8
0
 62
     2
 10
840.407825
 20
145.009109
 40
3.000000
 50
90.000000
 51
180.000000
  0
LINE
  8
0
 62
     2
 10
840.407825
 20
148.009109
 11
879.407825
 21
148.009109
  0
LINE
  8
0
 62
     2
 10
837.407825
 20
135.009109
 11
892.407825
 21
135.009109
  0
LINE
  8
0
 62
     2
 10
837.407825
 20
277.009109
 11
837.407825
 21
135.009109
  0
LINE
  8
0
 62
     2
 10
1017.407825
 20
277.009109
 11
1017.407825
 21
135.009109
  0
LINE
  8
0
 62
     2
 10
1017.407825
 20
135.009109
 11
962.407825
 21
135.009109
  0
LINE
  8
0
 62
     2
 10
1014.407825
 20
148.009109
 11
975.407825
 21
148.009109
  0
ARC
  8
0
 62
     2
 10
1014.407825
 20
145.009109
 40
3.000000
 50
0.000000
 51
90.000000
  0
ARC
  8
0
 62
     2
 10
975.407825
 20
154.009109
 40
6.000000
 50
180.000000
 51
270.000000
  0
LINE
  8
OSA
 10
997.407825
 20
148.009109
 11
997.407825
 21
135.009109
  0
LINE
  8
0
 62
     2
 10
962.407825
 20
137.009109
 11
927.407825
 21
137.009109
  0
LINE
  8
OSA
 10
927.407825
 20
277.009109
 11
1020.407825
 21
277.009109
  0
LINE
  8
OSA
 10
927.407825
 20
277.009109
 11
927.407825
 21
137.009109
  0
LINE
  8
OSA
 10
927.407825
 20
277.009109
 11
834.407825
 21
277.009109
  0
ARC
  8
OBRYS
 10
927.407825
 20
277.009109
 40
90.000000
 50
0.000000
 51
180.000000
  0
LINE
  8
OSA
 10
927.407825
 20
277.009109
 11
927.407825
 21
370.009109
  0
CIRCLE
  8
OSA
 10
927.407825
 20
277.009109
 40
65.000000
  0
LINE
  8
OBRYS
 10
918.407825
 20
342.009109
 11
918.407825
 21
331.267749
  0
LINE
  8
OBRYS
 10
936.407825
 20
342.009109
 11
936.407825
 21
331.267749
  0
ARC
  8
OBRYS
 10
927.407825
 20
342.009109
 40
9.000000
 50
0.000000
 51
179.999992
  0
ARC
  8
OBRYS
 10
992.407825
 20
277.009109
 40
9.000000
 50
270.000000
 51
89.999992
  0
ARC
  8
OBRYS
 10
927.407825
 20
212.009109
 40
9.000000
 50
180.000000
 51
360.000000
  0
ARC
  8
OBRYS
 10
862.407825
 20
277.009109
 40
9.000000
 50
90.000000
 51
270.000000
  0
LINE
  8
OBRYS
 10
992.407825
 20
268.009109
 11
981.666465
 21
268.009109
  0
LINE
  8
OBRYS
 10
862.407825
 20
286.009109
 11
873.149185
 21
286.009109
  0
LINE
  8
OBRYS
 10
992.407825
 20
286.009109
 11
981.666465
 21
286.009109
  0
LINE
  8
OBRYS
 10
862.407825
 20
268.009109
 11
873.149185
 21
268.009109
  0
CIRCLE
  8
OBRYS
 10
927.407825
 20
277.009109
 40
81.845299
  0
ARC
  8
OBRYS
 10
927.407825
 20
277.009109
 40
55.500000
 50
260.667582
 51
279.332418
  0
ARC
  8
OBRYS
 10
927.407825
 20
277.009109
 40
55.500000
 50
80.667582
 51
99.332418
  0
ARC
  8
OBRYS
 10
927.407825
 20
277.009109
 40
55.000000
 50
279.418027
 51
350.581973
  0
ARC
  8
OBRYS
 10
927.407825
 20
277.009109
 40
55.000000
 50
9.418027
 51
80.581973
  0
ARC
  8
OBRYS
 10
927.407825
 20
277.009109
 40
55.000000
 50
99.418027
 51
170.581973
  0
ARC
  8
OBRYS
 10
927.407825
 20
277.009109
 40
55.000000
 50
189.418027
 51
260.581973
  0
ARC
  8
OBRYS
 10
927.407825
 20
277.009109
 40
55.500000
 50
350.667582
 51
9.332418
  0
ARC
  8
OBRYS
 10
927.407825
 20
277.009109
 40
55.500000
 50
170.667582
 51
189.332418
  0
LINE
  8
OBRYS
 10
918.407825
 20
212.009109
 11
918.407825
 21
222.750469
  0
LINE
  8
OBRYS
 10
936.407825
 20
212.009109
 11
936.407825
 21
222.750469
  0
LINE
  8
0
 62
     2
 10
962.407825
 20
197.551208
 11
962.407825
 21
135.009109
  0
LINE
  8
0
 62
     2
 10
969.407825
 20
199.850754
 11
969.407825
 21
154.009109
  0
ARC
  8
OBRYS
 10
927.407825
 20
277.009109
 40
99.949874
 50
294.847886
 51
334.217460
  0
LINE
  8
0
 62
     2
 10
885.407825
 20
199.850754
 11
885.407825
 21
154.009109
  0
LINE
  8
0
 62
     2
 10
892.407825
 20
197.551208
 11
892.407825
 21
135.009109
  0
ARC
  8
OBRYS
 10
927.407825
 20
277.009109
 40
99.949874
 50
205.782540
 51
245.152114
  0
ARC
  8
OBRYS
 10
927.407825
 20
277.009109
 40
99.949874
 50
249.501948
 51
290.498052
  0
INSERT
  8
OBRYS
  2
Srouby_s_valcovou_hlavou___4
 62
     7
 10
862.407825
 20
277.009109
  0
INSERT
  8
OBRYS
  2
Srouby_s_valcovou_hlavou___5
 62
     7
 10
927.407825
 20
212.009109
  0
INSERT
  8
OBRYS
  2
Srouby_s_valcovou_hlavou___6
 62
     7
 10
992.407825
 20
277.009109
  0
INSERT
  8
OBRYS
  2
Srouby_s_valcovou_hlavou___7
 62
     7
 10
927.407825
 20
342.009109
  0
ARC
  8
OBRYS
 10
876.677585
 20
251.019827
 40
3.000000
 50
335.000000
 51
27.126224
  0
ARC
  8
OBRYS
 10
927.407825
 20
277.009109
 40
54.000000
 50
197.873776
 51
207.126224
  0
ARC
  8
OBRYS
 10
873.158931
 20
259.514609
 40
3.000000
 50
17.873776
 51
70.000000
  0
ARC
  8
OBRYS
 10
873.158931
 20
294.503608
 40
3.000000
 50
290.000000
 51
342.126224
  0
ARC
  8
OBRYS
 10
927.407825
 20
277.009109
 40
54.000000
 50
152.873776
 51
162.126224
  0
ARC
  8
OBRYS
 10
876.677585
 20
302.998390
 40
3.000000
 50
332.873776
 51
25.000000
  0
ARC
  8
OBRYS
 10
901.418543
 20
327.739349
 40
3.000000
 50
245.000000
 51
297.126224
  0
ARC
  8
OBRYS
 10
927.407825
 20
277.009109
 40
54.000000
 50
107.873776
 51
117.126224
  0
ARC
  8
OBRYS
 10
909.913325
 20
331.258003
 40
3.000000
 50
287.873776
 51
340.000000
  0
ARC
  8
OBRYS
 10
944.902324
 20
331.258003
 40
3.000000
 50
200.000000
 51
252.126224
  0
ARC
  8
OBRYS
 10
927.407825
 20
277.009109
 40
54.000000
 50
62.873776
 51
72.126224
  0
ARC
  8
OBRYS
 10
953.397106
 20
327.739349
 40
3.000000
 50
242.873776
 51
295.000000
  0
ARC
  8
OBRYS
 10
978.138065
 20
302.998390
 40
3.000000
 50
155.000000
 51
207.126224
  0
ARC
  8
OBRYS
 10
927.407825
 20
277.009109
 40
54.000000
 50
17.873776
 51
27.126224
  0
ARC
  8
OBRYS
 10
981.656719
 20
294.503608
 40
3.000000
 50
197.873776
 51
250.000000
  0
ARC
  8
OBRYS
 10
981.656719
 20
259.514609
 40
3.000000
 50
110.000000
 51
162.126224
  0
ARC
  8
OBRYS
 10
927.407825
 20
277.009109
 40
54.000000
 50
332.873776
 51
342.126224
  0
ARC
  8
OBRYS
 10
978.138065
 20
251.019827
 40
3.000000
 50
152.873776
 51
205.000000
  0
ARC
  8
OBRYS
 10
953.397106
 20
226.278869
 40
3.000000
 50
65.000000
 51
117.126224
  0
ARC
  8
OBRYS
 10
927.407825
 20
277.009109
 40
54.000000
 50
287.873776
 51
297.126224
  0
ARC
  8
OBRYS
 10
944.902324
 20
222.760215
 40
3.000000
 50
107.873776
 51
160.000000
  0
ARC
  8
OBRYS
 10
909.913325
 20
222.760215
 40
3.000000
 50
20.000000
 51
72.126224
  0
ARC
  8
OBRYS
 10
927.407825
 20
277.009109
 40
54.000000
 50
242.873776
 51
252.126224
  0
ARC
  8
OBRYS
 10
901.418543
 20
226.278869
 40
3.000000
 50
62.873776
 51
115.000000
  0
CIRCLE
  8
OBRYS
 10
927.407825
 20
277.009109
 40
32.500000
  0
LINE
  8
OBRYS
 10
932.407825
 20
297.809109
 11
932.407825
 21
293.779619
  0
LINE
  8
OBRYS
 10
922.407825
 20
297.809109
 11
922.407825
 21
293.779619
  0
ARC
  8
OBRYS
 10
927.407825
 20
277.009109
 40
17.500000
 50
106.601550
 51
73.398450
  0
ARC
  8
OBRYS
 10
927.407825
 20
277.009109
 40
18.654701
 50
105.547012
 51
74.452988
  0
CIRCLE
  8
OBRYS
 10
927.407825
 20
277.009109
 40
25.000000
  0
LINE
  8
OBRYS
 10
922.407825
 20
297.809109
 11
932.407825
 21
297.809109
  0
ENDBLK
  8
OBRYS
  0
BLOCK
  8
OBRYS
  2
Srouby_s_valcovou_hlavou___4
 70
   66
 10
862.407825
 20
277.009109
  0
LINE
  8
OBRYS
 10
858.407825
 20
274.699693
 11
858.407825
 21
279.318524
  0
LINE
  8
OBRYS
 10
858.407825
 20
279.318524
 11
862.407825
 21
281.627940
  0
LINE
  8
OBRYS
 10
862.407825
 20
281.627940
 11
866.407825
 21
279.318524
  0
LINE
  8
OBRYS
 10
866.407825
 20
279.318524
 11
866.407825
 21
274.699693
  0
LINE
  8
OBRYS
 10
866.407825
 20
274.699693
 11
862.407825
 21
272.390278
  0
LINE
  8
OBRYS
 10
862.407825
 20
272.390278
 11
858.407825
 21
274.699693
  0
CIRCLE
  8
OBRYS
 10
862.407825
 20
277.009109
 40
4.618831
  0
CIRCLE
  8
OBRYS
 10
862.407825
 20
277.009109
 40
8.000000
  0
ENDBLK
  8
OBRYS
  0
BLOCK
  8
OBRYS
  2
Srouby_s_valcovou_hlavou___5
 70
   66
 10
927.407825
 20
212.009109
  0
LINE
  8
OBRYS
 10
923.407825
 20
209.699693
 11
923.407825
 21
214.318524
  0
LINE
  8
OBRYS
 10
923.407825
 20
214.318524
 11
927.407825
 21
216.627940
  0
LINE
  8
OBRYS
 10
927.407825
 20
216.627940
 11
931.407825
 21
214.318524
  0
LINE
  8
OBRYS
 10
931.407825
 20
214.318524
 11
931.407825
 21
209.699693
  0
LINE
  8
OBRYS
 10
931.407825
 20
209.699693
 11
927.407825
 21
207.390278
  0
LINE
  8
OBRYS
 10
927.407825
 20
207.390278
 11
923.407825
 21
209.699693
  0
CIRCLE
  8
OBRYS
 10
927.407825
 20
212.009109
 40
4.618831
  0
CIRCLE
  8
OBRYS
 10
927.407825
 20
212.009109
 40
8.000000
  0
ENDBLK
  8
OBRYS
  0
BLOCK
  8
OBRYS
  2
Srouby_s_valcovou_hlavou___6
 70
   66
 10
992.407825
 20
277.009109
  0
LINE
  8
OBRYS
 10
988.407825
 20
274.699693
 11
988.407825
 21
279.318524
  0
LINE
  8
OBRYS
 10
988.407825
 20
279.318524
 11
992.407825
 21
281.627940
  0
LINE
  8
OBRYS
 10
992.407825
 20
281.627940
 11
996.407825
 21
279.318524
  0
LINE
  8
OBRYS
 10
996.407825
 20
279.318524
 11
996.407825
 21
274.699693
  0
LINE
  8
OBRYS
 10
996.407825
 20
274.699693
 11
992.407825
 21
272.390278
  0
LINE
  8
OBRYS
 10
992.407825
 20
272.390278
 11
988.407825
 21
274.699693
  0
CIRCLE
  8
OBRYS
 10
992.407825
 20
277.009109
 40
4.618831
  0
CIRCLE
  8
OBRYS
 10
992.407825
 20
277.009109
 40
8.000000
  0
ENDBLK
  8
OBRYS
  0
BLOCK
  8
OBRYS
  2
Srouby_s_valcovou_hlavou___7
 70
   66
 10
927.407825
 20
342.009109
  0
LINE
  8
OBRYS
 10
923.407825
 20
339.699693
 11
923.407825
 21
344.318524
  0
LINE
  8
OBRYS
 10
923.407825
 20
344.318524
 11
927.407825
 21
346.627940
  0
LINE
  8
OBRYS
 10
927.407825
 20
346.627940
 11
931.407825
 21
344.318524
  0
LINE
  8
OBRYS
 10
931.407825
 20
344.318524
 11
931.407825
 21
339.699693
  0
LINE
  8
OBRYS
 10
931.407825
 20
339.699693
 11
927.407825
 21
337.390278
  0
LINE
  8
OBRYS
 10
927.407825
 20
337.390278
 11
923.407825
 21
339.699693
  0
CIRCLE
  8
OBRYS
 10
927.407825
 20
342.009109
 40
4.618831
  0
CIRCLE
  8
OBRYS
 10
927.407825
 20
342.009109
 40
8.000000
  0
ENDBLK
  8
OBRYS
  0
BLOCK
  8
OBRYS
  2
_12
 70
   64
 10
389.659929
 20
277.009109
  0
LINE
  8
NEVIDITELNA
 10
325.159929
 20
147.009109
 11
325.578978
 21
135.009109
  0
LINE
  8
NEVIDITELNA
 10
314.159929
 20
147.009109
 11
313.740880
 21
135.009109
  0
LINE
  8
NEVIDITELNA
 10
465.159929
 20
147.009109
 11
465.578978
 21
135.009109
  0
LINE
  8
NEVIDITELNA
 10
454.159929
 20
147.009109
 11
453.740880
 21
135.009109
  0
ARC
  8
OBRYS
 10
389.659929
 20
277.009109
 40
85.247506
 50
241.870221
 51
245.164319
  0
ARC
  8
OBRYS
 10
389.659929
 20
277.009109
 40
85.247506
 50
294.835681
 51
298.129779
  0
LINE
  8
OBRYS
 10
347.411613
 20
148.009109
 11
353.163298
 21
148.009109
  0
LINE
  8
OBRYS
 10
431.908245
 20
148.009109
 11
426.156560
 21
148.009109
  0
LINE
  8
OBRYS
 10
449.615724
 20
221.295954
 11
462.424640
 21
208.487038
  0
LINE
  8
OBRYS
 10
445.373084
 20
217.053313
 11
458.182000
 21
204.244397
  0
LINE
  8
OBRYS
 10
392.659929
 20
195.218809
 11
392.659929
 21
177.104267
  0
LINE
  8
OBRYS
 10
386.659929
 20
195.218809
 11
386.659929
 21
177.104267
  0
LINE
  8
OBRYS
 10
329.704133
 20
221.295954
 11
316.895218
 21
208.487038
  0
LINE
  8
OBRYS
 10
333.946774
 20
217.053313
 11
321.137858
 21
204.244397
  0
LINE
  8
OBRYS
 10
449.615724
 20
332.722263
 11
455.385494
 21
338.492033
  0
LINE
  8
OBRYS
 10
471.450228
 20
274.009109
 11
479.609915
 21
274.009109
  0
LINE
  8
OBRYS
 10
307.869630
 20
280.009109
 11
299.709943
 21
280.009109
  0
LINE
  8
OBRYS
 10
333.946774
 20
336.964904
 11
328.177004
 21
342.734674
  0
LINE
  8
OBRYS
 10
445.373084
 20
336.964904
 11
451.142854
 21
342.734674
  0
LINE
  8
OBRYS
 10
471.450228
 20
280.009109
 11
479.609915
 21
280.009109
  0
LINE
  8
OBRYS
 10
307.869630
 20
274.009109
 11
299.709943
 21
274.009109
  0
LINE
  8
OBRYS
 10
329.704133
 20
332.722263
 11
323.934363
 21
338.492033
  0
LINE
  8
OBRYS
 10
386.659929
 20
358.799408
 11
386.659929
 21
366.959095
  0
LINE
  8
OBRYS
 10
392.659929
 20
358.799408
 11
392.659929
 21
366.959095
  0
LINE
  8
OBRYS
 10
376.659929
 20
160.009109
 11
376.659929
 21
146.009109
  0
ARC
  8
OBRYS
 10
375.659929
 20
153.009109
 40
7.000000
 50
90.000000
 51
270.000000
  0
LINE
  8
OBRYS
 10
375.659929
 20
160.009109
 11
376.659929
 21
160.009109
  0
LINE
  8
OBRYS
 10
375.659929
 20
146.009109
 11
376.659929
 21
146.009109
  0
LINE
  8
OBRYS
 10
379.659929
 20
146.009109
 11
378.659929
 21
146.009109
  0
LINE
  8
OBRYS
 10
379.659929
 20
160.009109
 11
378.659929
 21
160.009109
  0
ARC
  8
OBRYS
 10
379.659929
 20
153.009109
 40
7.000000
 50
270.000000
 51
90.000000
  0
LINE
  8
OBRYS
 10
378.659929
 20
160.009109
 11
378.659929
 21
146.009109
  0
LINE
  8
OBRYS
 10
376.659929
 20
174.009109
 11
376.659929
 21
162.009109
  0
LINE
  8
OBRYS
 10
374.659929
 20
174.009109
 11
376.659929
 21
174.009109
  0
LINE
  8
OBRYS
 10
374.659929
 20
162.009109
 11
376.659929
 21
162.009109
  0
ARC
  8
OBRYS
 10
375.759929
 20
168.009109
 40
6.100000
 50
100.388858
 51
259.611142
  0
ARC
  8
OBRYS
 10
379.559929
 20
168.009109
 40
6.100000
 50
280.388858
 51
79.611142
  0
LINE
  8
OBRYS
 10
380.659929
 20
162.009109
 11
378.659929
 21
162.009109
  0
LINE
  8
OBRYS
 10
380.659929
 20
174.009109
 11
378.659929
 21
174.009109
  0
LINE
  8
OBRYS
 10
378.659929
 20
174.009109
 11
378.659929
 21
162.009109
  0
ARC
  8
OBRYS
 10
398.659929
 20
152.009109
 40
6.000000
 50
180.000000
 51
270.000000
  0
ARC
  8
OBRYS
 10
398.659929
 20
168.009109
 40
6.000000
 50
90.000000
 51
180.000000
  0
ARC
  8
OBRYS
 10
404.659929
 20
168.009109
 40
6.000000
 50
0.000000
 51
90.000000
  0
ARC
  8
OBRYS
 10
404.659929
 20
152.009109
 40
6.000000
 50
270.000000
 51
360.000000
  0
LINE
  8
OBRYS
 10
392.659929
 20
168.009109
 11
392.659929
 21
152.009109
  0
LINE
  8
OBRYS
 10
398.659929
 20
146.009109
 11
400.659929
 21
146.009109
  0
LINE
  8
OBRYS
 10
400.659929
 20
146.009109
 11
400.659929
 21
174.009109
  0
LINE
  8
OBRYS
 10
400.659929
 20
174.009109
 11
398.659929
 21
174.009109
  0
LINE
  8
OBRYS
 10
404.659929
 20
174.009109
 11
402.659929
 21
174.009109
  0
LINE
  8
OBRYS
 10
402.659929
 20
174.009109
 11
402.659929
 21
146.009109
  0
LINE
  8
OBRYS
 10
402.659929
 20
146.009109
 11
404.659929
 21
146.009109
  0
LINE
  8
OBRYS
 10
410.659929
 20
152.009108
 11
410.659929
 21
168.009108
  0
LINE
  8
OBRYS
 10
354.659929
 20
143.009109
 11
389.659929
 21
143.009109
  0
LINE
  8
OBRYS
 10
424.659929
 20
143.009109
 11
389.659929
 21
143.009109
  0
LINE
  8
0
 62
     2
 10
354.659929
 20
137.009109
 11
389.659929
 21
137.009109
  0
LINE
  8
OSA
 10
319.659929
 20
148.009109
 11
319.659929
 21
135.009109
  0
ARC
  8
0
 62
     2
 10
341.659929
 20
154.009109
 40
6.000000
 50
270.000000
 51
360.000000
  0
ARC
  8
0
 62
     2
 10
302.659929
 20
145.009109
 40
3.000000
 50
90.000000
 51
180.000000
  0
LINE
  8
0
 62
     2
 10
302.659929
 20
148.009109
 11
341.659929
 21
148.009109
  0
LINE
  8
0
 62
     2
 10
299.659929
 20
135.009109
 11
354.659929
 21
135.009109
  0
LINE
  8
0
 62
     2
 10
299.659929
 20
277.009109
 11
299.659929
 21
135.009109
  0
LINE
  8
0
 62
     2
 10
479.659929
 20
277.009109
 11
479.659929
 21
135.009109
  0
LINE
  8
0
 62
     2
 10
479.659929
 20
135.009109
 11
424.659929
 21
135.009109
  0
LINE
  8
0
 62
     2
 10
476.659929
 20
148.009109
 11
437.659929
 21
148.009109
  0
ARC
  8
0
 62
     2
 10
476.659929
 20
145.009109
 40
3.000000
 50
0.000000
 51
90.000000
  0
ARC
  8
0
 62
     2
 10
437.659929
 20
154.009109
 40
6.000000
 50
180.000000
 51
270.000000
  0
LINE
  8
OSA
 10
459.659929
 20
148.009109
 11
459.659929
 21
135.009109
  0
LINE
  8
0
 62
     2
 10
424.659929
 20
137.009109
 11
389.659929
 21
137.009109
  0
LINE
  8
OSA
 10
389.659929
 20
277.009109
 11
482.659929
 21
277.009109
  0
LINE
  8
OSA
 10
389.659929
 20
277.009109
 11
389.659929
 21
137.009109
  0
LINE
  8
OSA
 10
389.659929
 20
277.009109
 11
296.659929
 21
277.009109
  0
ARC
  8
OBRYS
 10
389.659929
 20
277.009109
 40
90.000000
 50
0.000000
 51
180.000000
  0
LINE
  8
OSA
 10
389.659929
 20
277.009109
 11
389.659929
 21
370.009109
  0
CIRCLE
  8
OSA
 10
389.659929
 20
277.009109
 40
65.000000
  0
LINE
  8
OBRYS
 10
380.659929
 20
342.009109
 11
380.659929
 21
331.267749
  0
LINE
  8
OBRYS
 10
398.659929
 20
342.009109
 11
398.659929
 21
331.267749
  0
ARC
  8
OBRYS
 10
389.659929
 20
342.009109
 40
9.000000
 50
0.000000
 51
179.999992
  0
ARC
  8
OBRYS
 10
454.659929
 20
277.009109
 40
9.000000
 50
270.000000
 51
89.999992
  0
ARC
  8
OBRYS
 10
389.659929
 20
212.009109
 40
9.000000
 50
180.000000
 51
360.000000
  0
ARC
  8
OBRYS
 10
324.659929
 20
277.009109
 40
9.000000
 50
90.000000
 51
270.000000
  0
LINE
  8
OBRYS
 10
454.659929
 20
268.009109
 11
443.918569
 21
268.009109
  0
LINE
  8
OBRYS
 10
324.659929
 20
286.009109
 11
335.401289
 21
286.009109
  0
LINE
  8
OBRYS
 10
454.659929
 20
286.009109
 11
443.918569
 21
286.009109
  0
LINE
  8
OBRYS
 10
324.659929
 20
268.009109
 11
335.401289
 21
268.009109
  0
CIRCLE
  8
OBRYS
 10
389.659929
 20
277.009109
 40
81.845299
  0
ARC
  8
OBRYS
 10
389.659929
 20
277.009109
 40
55.500000
 50
260.667582
 51
279.332418
  0
ARC
  8
OBRYS
 10
389.659929
 20
277.009109
 40
55.500000
 50
80.667582
 51
99.332418
  0
ARC
  8
OBRYS
 10
389.659929
 20
277.009109
 40
55.000000
 50
279.418027
 51
350.581973
  0
ARC
  8
OBRYS
 10
389.659929
 20
277.009109
 40
55.000000
 50
9.418027
 51
80.581973
  0
ARC
  8
OBRYS
 10
389.659929
 20
277.009109
 40
55.000000
 50
99.418027
 51
170.581973
  0
ARC
  8
OBRYS
 10
389.659929
 20
277.009109
 40
55.000000
 50
189.418027
 51
260.581973
  0
ARC
  8
OBRYS
 10
389.659929
 20
277.009109
 40
55.500000
 50
350.667582
 51
9.332418
  0
ARC
  8
OBRYS
 10
389.659929
 20
277.009109
 40
55.500000
 50
170.667582
 51
189.332418
  0
LINE
  8
OBRYS
 10
380.659929
 20
212.009109
 11
380.659929
 21
222.750469
  0
LINE
  8
OBRYS
 10
398.659929
 20
212.009109
 11
398.659929
 21
222.750469
  0
LINE
  8
0
 62
     2
 10
424.659929
 20
197.551208
 11
424.659929
 21
135.009109
  0
LINE
  8
0
 62
     2
 10
431.659929
 20
199.850754
 11
431.659929
 21
154.009109
  0
ARC
  8
OBRYS
 10
389.659929
 20
277.009109
 40
99.949874
 50
294.847886
 51
334.217460
  0
LINE
  8
0
 62
     2
 10
347.659929
 20
199.850754
 11
347.659929
 21
154.009109
  0
LINE
  8
0
 62
     2
 10
354.659929
 20
197.551208
 11
354.659929
 21
135.009109
  0
ARC
  8
OBRYS
 10
389.659929
 20
277.009109
 40
99.949874
 50
205.782540
 51
245.152114
  0
ARC
  8
OBRYS
 10
389.659929
 20
277.009109
 40
99.949874
 50
249.501948
 51
290.498052
  0
INSERT
  8
OBRYS
  2
Srouby_s_valcovou_hlavou___9
 62
     7
 10
324.659929
 20
277.009109
  0
INSERT
  8
OBRYS
  2
Srouby_s_valcovou_hlavou___10
 62
     7
 10
389.659929
 20
212.009109
  0
INSERT
  8
OBRYS
  2
Srouby_s_valcovou_hlavou___11
 62
     7
 10
454.659929
 20
277.009109
  0
INSERT
  8
OBRYS
  2
Srouby_s_valcovou_hlavou___12
 62
     7
 10
389.659929
 20
342.009109
  0
ARC
  8
OBRYS
 10
338.929689
 20
251.019827
 40
3.000000
 50
335.000000
 51
27.126224
  0
ARC
  8
OBRYS
 10
389.659929
 20
277.009109
 40
54.000000
 50
197.873776
 51
207.126224
  0
ARC
  8
OBRYS
 10
335.411035
 20
259.514609
 40
3.000000
 50
17.873776
 51
70.000000
  0
ARC
  8
OBRYS
 10
335.411035
 20
294.503608
 40
3.000000
 50
290.000000
 51
342.126224
  0
ARC
  8
OBRYS
 10
389.659929
 20
277.009109
 40
54.000000
 50
152.873776
 51
162.126224
  0
ARC
  8
OBRYS
 10
338.929689
 20
302.998390
 40
3.000000
 50
332.873776
 51
25.000000
  0
ARC
  8
OBRYS
 10
363.670647
 20
327.739349
 40
3.000000
 50
245.000000
 51
297.126224
  0
ARC
  8
OBRYS
 10
389.659929
 20
277.009109
 40
54.000000
 50
107.873776
 51
117.126224
  0
ARC
  8
OBRYS
 10
372.165430
 20
331.258003
 40
3.000000
 50
287.873776
 51
340.000000
  0
ARC
  8
OBRYS
 10
407.154428
 20
331.258003
 40
3.000000
 50
200.000000
 51
252.126224
  0
ARC
  8
OBRYS
 10
389.659929
 20
277.009109
 40
54.000000
 50
62.873776
 51
72.126224
  0
ARC
  8
OBRYS
 10
415.649211
 20
327.739349
 40
3.000000
 50
242.873776
 51
295.000000
  0
ARC
  8
OBRYS
 10
440.390169
 20
302.998390
 40
3.000000
 50
155.000000
 51
207.126224
  0
ARC
  8
OBRYS
 10
389.659929
 20
277.009109
 40
54.000000
 50
17.873776
 51
27.126224
  0
ARC
  8
OBRYS
 10
443.908823
 20
294.503608
 40
3.000000
 50
197.873776
 51
250.000000
  0
ARC
  8
OBRYS
 10
443.908823
 20
259.514609
 40
3.000000
 50
110.000000
 51
162.126224
  0
ARC
  8
OBRYS
 10
389.659929
 20
277.009109
 40
54.000000
 50
332.873776
 51
342.126224
  0
ARC
  8
OBRYS
 10
440.390169
 20
251.019827
 40
3.000000
 50
152.873776
 51
205.000000
  0
ARC
  8
OBRYS
 10
415.649211
 20
226.278869
 40
3.000000
 50
65.000000
 51
117.126224
  0
ARC
  8
OBRYS
 10
389.659929
 20
277.009109
 40
54.000000
 50
287.873776
 51
297.126224
  0
ARC
  8
OBRYS
 10
407.154428
 20
222.760215
 40
3.000000
 50
107.873776
 51
160.000000
  0
ARC
  8
OBRYS
 10
372.165430
 20
222.760215
 40
3.000000
 50
20.000000
 51
72.126224
  0
ARC
  8
OBRYS
 10
389.659929
 20
277.009109
 40
54.000000
 50
242.873776
 51
252.126224
  0
ARC
  8
OBRYS
 10
363.670647
 20
226.278869
 40
3.000000
 50
62.873776
 51
115.000000
  0
CIRCLE
  8
OBRYS
 10
389.659929
 20
277.009109
 40
32.500000
  0
LINE
  8
OBRYS
 10
394.659929
 20
297.809109
 11
394.659929
 21
293.779619
  0
LINE
  8
OBRYS
 10
384.659929
 20
297.809109
 11
384.659929
 21
293.779619
  0
ARC
  8
OBRYS
 10
389.659929
 20
277.009109
 40
17.500000
 50
106.601550
 51
73.398450
  0
ARC
  8
OBRYS
 10
389.659929
 20
277.009109
 40
18.654701
 50
105.547012
 51
74.452988
  0
CIRCLE
  8
OBRYS
 10
389.659929
 20
277.009109
 40
25.000000
  0
LINE
  8
OBRYS
 10
384.659929
 20
297.809109
 11
394.659929
 21
297.809109
  0
ENDBLK
  8
OBRYS
  0
BLOCK
  8
OBRYS
  2
Srouby_s_valcovou_hlavou___9
 70
   66
 10
324.659929
 20
277.009109
  0
LINE
  8
OBRYS
 10
320.659929
 20
274.699693
 11
320.659929
 21
279.318524
  0
LINE
  8
OBRYS
 10
320.659929
 20
279.318524
 11
324.659929
 21
281.627940
  0
LINE
  8
OBRYS
 10
324.659929
 20
281.627940
 11
328.659929
 21
279.318524
  0
LINE
  8
OBRYS
 10
328.659929
 20
279.318524
 11
328.659929
 21
274.699693
  0
LINE
  8
OBRYS
 10
328.659929
 20
274.699693
 11
324.659929
 21
272.390278
  0
LINE
  8
OBRYS
 10
324.659929
 20
272.390278
 11
320.659929
 21
274.699693
  0
CIRCLE
  8
OBRYS
 10
324.659929
 20
277.009109
 40
4.618831
  0
CIRCLE
  8
OBRYS
 10
324.659929
 20
277.009109
 40
8.000000
  0
ENDBLK
  8
OBRYS
  0
BLOCK
  8
OBRYS
  2
Srouby_s_valcovou_hlavou___10
 70
   66
 10
389.659929
 20
212.009109
  0
LINE
  8
OBRYS
 10
385.659929
 20
209.699693
 11
385.659929
 21
214.318524
  0
LINE
  8
OBRYS
 10
385.659929
 20
214.318524
 11
389.659929
 21
216.627940
  0
LINE
  8
OBRYS
 10
389.659929
 20
216.627940
 11
393.659929
 21
214.318524
  0
LINE
  8
OBRYS
 10
393.659929
 20
214.318524
 11
393.659929
 21
209.699693
  0
LINE
  8
OBRYS
 10
393.659929
 20
209.699693
 11
389.659929
 21
207.390278
  0
LINE
  8
OBRYS
 10
389.659929
 20
207.390278
 11
385.659929
 21
209.699693
  0
CIRCLE
  8
OBRYS
 10
389.659929
 20
212.009109
 40
4.618831
  0
CIRCLE
  8
OBRYS
 10
389.659929
 20
212.009109
 40
8.000000
  0
ENDBLK
  8
OBRYS
  0
BLOCK
  8
OBRYS
  2
Srouby_s_valcovou_hlavou___11
 70
   66
 10
454.659929
 20
277.009109
  0
LINE
  8
OBRYS
 10
450.659929
 20
274.699693
 11
450.659929
 21
279.318524
  0
LINE
  8
OBRYS
 10
450.659929
 20
279.318524
 11
454.659929
 21
281.627940
  0
LINE
  8
OBRYS
 10
454.659929
 20
281.627940
 11
458.659929
 21
279.318524
  0
LINE
  8
OBRYS
 10
458.659929
 20
279.318524
 11
458.659929
 21
274.699693
  0
LINE
  8
OBRYS
 10
458.659929
 20
274.699693
 11
454.659929
 21
272.390278
  0
LINE
  8
OBRYS
 10
454.659929
 20
272.390278
 11
450.659929
 21
274.699693
  0
CIRCLE
  8
OBRYS
 10
454.659929
 20
277.009109
 40
4.618831
  0
CIRCLE
  8
OBRYS
 10
454.659929
 20
277.009109
 40
8.000000
  0
ENDBLK
  8
OBRYS
  0
BLOCK
  8
OBRYS
  2
Srouby_s_valcovou_hlavou___12
 70
   66
 10
389.659929
 20
342.009109
  0
LINE
  8
OBRYS
 10
385.659929
 20
339.699693
 11
385.659929
 21
344.318524
  0
LINE
  8
OBRYS
 10
385.659929
 20
344.318524
 11
389.659929
 21
346.627940
  0
LINE
  8
OBRYS
 10
389.659929
 20
346.627940
 11
393.659929
 21
344.318524
  0
LINE
  8
OBRYS
 10
393.659929
 20
344.318524
 11
393.659929
 21
339.699693
  0
LINE
  8
OBRYS
 10
393.659929
 20
339.699693
 11
389.659929
 21
337.390278
  0
LINE
  8
OBRYS
 10
389.659929
 20
337.390278
 11
385.659929
 21
339.699693
  0
CIRCLE
  8
OBRYS
 10
389.659929
 20
342.009109
 40
4.618831
  0
CIRCLE
  8
OBRYS
 10
389.659929
 20
342.009109
 40
8.000000
  0
ENDBLK
  8
OBRYS
  0
BLOCK
  8
OSA
  2
M10x1_13
 70
   66
 10
474.159929
 20
1074.900472
  0
LINE
  8
OSA
 10
464.831027
 20
565.485278
 11
478.605277
 21
565.485278
  0
LINE
  8
OSA
 62
     2
  6
CONTINUOUS
 10
474.159929
 20
558.485278
 11
474.159929
 21
572.485278
  0
LINE
  8
OSA
 62
     2
  6
CONTINUOUS
 10
474.159929
 20
572.485278
 11
476.159929
 21
572.485278
  0
LINE
  8
OSA
 62
     2
  6
CONTINUOUS
 10
474.159929
 20
558.485278
 11
476.159929
 21
558.485278
  0
ARC
  8
OSA
 62
     2
  6
CONTINUOUS
 10
476.159929
 20
571.485278
 40
1.000000
 50
0.000000
 51
90.000000
  0
LINE
  8
OSA
 62
     2
  6
CONTINUOUS
 10
477.159929
 20
559.485278
 11
477.159929
 21
571.485278
  0
ARC
  8
OSA
 62
     2
  6
CONTINUOUS
 10
476.159929
 20
559.485278
 40
1.000000
 50
270.000000
 51
360.000000
  0
ENDBLK
  8
OSA
  0
BLOCK
  8
OSA
  2
Sroub_M10x16_14
 70
   66
 10
389.659929
 20
565.485278
  0
LINE
  8
OSA
 62
     2
  6
CONTINUOUS
 10
393.659929
 20
563.175862
 11
393.659929
 21
567.794693
  0
LINE
  8
OSA
 62
     2
  6
CONTINUOUS
 10
393.659929
 20
567.794693
 11
389.659929
 21
570.104109
  0
LINE
  8
OSA
 62
     2
  6
CONTINUOUS
 10
389.659929
 20
570.104109
 11
385.659929
 21
567.794693
  0
LINE
  8
OSA
 62
     2
  6
CONTINUOUS
 10
385.659929
 20
567.794693
 11
385.659929
 21
563.175862
  0
LINE
  8
OSA
 62
     2
  6
CONTINUOUS
 10
385.659929
 20
563.175862
 11
389.659929
 21
560.866447
  0
LINE
  8
OSA
 62
     2
  6
CONTINUOUS
 10
389.659929
 20
560.866447
 11
393.659929
 21
563.175862
  0
CIRCLE
  8
OSA
 62
     2
  6
CONTINUOUS
 10
389.659929
 20
565.485278
 40
4.618831
  0
CIRCLE
  8
OSA
 62
     2
  6
CONTINUOUS
 10
389.659929
 20
565.485278
 40
8.000000
  0
ENDBLK
  8
OSA
  0
BLOCK
  8
OSA
  2
Sroub_M10x16_15
 70
   66
 10
101.183760
 20
277.009109
  0
LINE
  8
OSA
 62
     2
  6
CONTINUOUS
 10
103.493175
 20
281.009109
 11
98.874344
 21
281.009109
  0
LINE
  8
OSA
 62
     2
  6
CONTINUOUS
 10
98.874344
 20
281.009109
 11
96.564929
 21
277.009109
  0
LINE
  8
OSA
 62
     2
  6
CONTINUOUS
 10
96.564929
 20
277.009109
 11
98.874344
 21
273.009109
  0
LINE
  8
OSA
 62
     2
  6
CONTINUOUS
 10
98.874344
 20
273.009109
 11
103.493175
 21
273.009109
  0
LINE
  8
OSA
 62
     2
  6
CONTINUOUS
 10
103.493175
 20
273.009109
 11
105.802591
 21
277.009109
  0
LINE
  8
OSA
 62
     2
  6
CONTINUOUS
 10
105.802591
 20
277.009109
 11
103.493175
 21
281.009109
  0
CIRCLE
  8
OSA
 62
     2
  6
CONTINUOUS
 10
101.183760
 20
277.009109
 40
4.618831
  0
CIRCLE
  8
OSA
 62
     2
  6
CONTINUOUS
 10
101.183760
 20
277.009109
 40
8.000000
  0
ENDBLK
  8
OSA
  0
BLOCK
  8
OSA
  2
M10x1_16
 70
   66
 10
168.720903
 20
192.509109
  0
LINE
  8
OSA
 10
678.136098
 20
201.838011
 11
678.136098
 21
188.063761
  0
LINE
  8
OSA
 62
     2
  6
CONTINUOUS
 10
685.136098
 20
192.509109
 11
671.136098
 21
192.509109
  0
LINE
  8
OSA
 62
     2
  6
CONTINUOUS
 10
671.136098
 20
192.509109
 11
671.136098
 21
190.509109
  0
LINE
  8
OSA
 62
     2
  6
CONTINUOUS
 10
685.136098
 20
192.509109
 11
685.136098
 21
190.509109
  0
ARC
  8
OSA
 62
     2
  6
CONTINUOUS
 10
672.136098
 20
190.509109
 40
1.000000
 50
180.000000
 51
270.000000
  0
LINE
  8
OSA
 62
     2
  6
CONTINUOUS
 10
684.136098
 20
189.509109
 11
672.136098
 21
189.509109
  0
ARC
  8
OSA
 62
     2
  6
CONTINUOUS
 10
684.136098
 20
190.509109
 40
1.000000
 50
270.000000
 51
360.000000
  0
ENDBLK
  8
OSA
  0
BLOCK
  8
OSA
  2
M10x1_17
 70
   66
 10
-408.231435
 20
192.509109
  0
LINE
  8
OSA
 10
101.183760
 20
201.838011
 11
101.183760
 21
188.063761
  0
LINE
  8
OSA
 62
     2
  6
CONTINUOUS
 10
108.183760
 20
192.509109
 11
94.183760
 21
192.509109
  0
LINE
  8
OSA
 62
     2
  6
CONTINUOUS
 10
94.183760
 20
192.509109
 11
94.183760
 21
190.509109
  0
LINE
  8
OSA
 62
     2
  6
CONTINUOUS
 10
108.183760
 20
192.509109
 11
108.183760
 21
190.509109
  0
ARC
  8
OSA
 62
     2
  6
CONTINUOUS
 10
95.183760
 20
190.509109
 40
1.000000
 50
180.000000
 51
270.000000
  0
LINE
  8
OSA
 62
     2
  6
CONTINUOUS
 10
107.183760
 20
189.509109
 11
95.183760
 21
189.509109
  0
ARC
  8
OSA
 62
     2
  6
CONTINUOUS
 10
107.183760
 20
190.509109
 40
1.000000
 50
270.000000
 51
360.000000
  0
ENDBLK
  8
OSA
  0
ENDSEC
  0
SECTION
  2
ENTITIES
  0
INSERT
  8
OBRYS
  2
_0
 62
     7
 10
723.136098
 20
277.009109
  0
INSERT
  8
OBRYS
  2
_1
 62
     7
 10
633.136098
 20
277.009109
  0
LINE
  8
OBRYS
 10
723.136098
 20
187.009109
 11
723.136098
 21
224.865326
  0
LINE
  8
OBRYS
 10
714.136098
 20
219.566824
 11
714.136098
 21
189.009109
  0
LINE
  8
OBRYS
 10
642.136098
 20
219.566824
 11
642.136098
 21
189.009109
  0
INSERT
  8
OBRYS
  2
_2
 62
     7
 10
678.136098
 20
357.009109
  0
ARC
  8
OBRYS
 10
101.183760
 20
291.009109
 40
80.000000
 50
151.044976
 51
208.955024
  0
ARC
  8
OBRYS
 10
101.183760
 20
291.009109
 40
80.000000
 50
331.044976
 51
28.955024
  0
ARC
  8
OBRYS
 10
101.183760
 20
357.009109
 40
64.000000
 50
8.989281
 51
19.389830
  0
ARC
  8
OBRYS
 10
101.183760
 20
357.009109
 40
64.000000
 50
160.610170
 51
171.010701
  0
ARC
  8
OBRYS
 10
90.398802
 20
422.173522
 40
3.000000
 50
285.275412
 51
348.652160
  0
ARC
  8
OBRYS
 10
101.183760
 20
420.009109
 40
8.000000
 50
11.347840
 51
168.652160
  0
LINE
  8
OBRYS
 10
91.189179
 20
419.279510
 11
56.339546
 21
409.761803
  0
ARC
  8
OBRYS
 10
111.968717
 20
422.173522
 40
3.000000
 50
191.347840
 51
254.724588
  0
LINE
  8
OBRYS
 10
111.178340
 20
419.279510
 11
146.027973
 21
409.761803
  0
ARC
  8
OBRYS
 10
156.583760
 20
387.009109
 40
8.000000
 50
315.160000
 51
40.607302
  0
ARC
  8
OBRYS
 10
164.383627
 20
379.252687
 40
3.000000
 50
135.160016
 51
199.389830
  0
LINE
  8
0
 62
     2
 10
162.657267
 20
392.216076
 11
149.498078
 21
407.565205
  0
ARC
  8
OBRYS
 10
144.183760
 20
403.009109
 40
7.000000
 50
40.607300
 51
74.724588
  0
ARC
  8
OBRYS
 10
58.183760
 20
403.009109
 40
7.000000
 50
105.275412
 51
139.392700
  0
ARC
  8
OBRYS
 10
45.783760
 20
387.009109
 40
8.000000
 50
139.392698
 51
224.839984
  0
LINE
  8
0
 62
     2
 10
39.710253
 20
392.216076
 11
52.869441
 21
407.565205
  0
ARC
  8
OBRYS
 10
37.983893
 20
379.252687
 40
3.000000
 50
340.610170
 51
44.839984
  0
LINE
  8
OBRYS
 10
95.183760
 20
403.197130
 11
64.183760
 21
385.299272
  0
INSERT
  8
OBRYS
  2
_3
 62
     7
 10
1022.407825
 20
357.009109
  0
INSERT
  8
OBRYS
  2
_4
 62
     7
 10
294.659929
 20
-44.709986
  0
INSERT
  8
OBRYS
  2
_5
 62
     7
 10
294.659929
 20
565.485278
  0
LINE
  8
OBRYS
 62
     7
  6
DASHDOT
 10
491.270788
 20
357.009109
 11
297.659929
 21
357.009109
  0
INSERT
  8
OBRYS
  2
_6
 62
     7
 10
294.659929
 20
357.009109
  0
LINE
  8
0
 62
     2
 10
299.659929
 20
522.485278
 11
294.659929
 21
522.485278
  0
LINE
  8
0
 62
     2
 10
294.659929
 20
522.485278
 11
294.659929
 21
608.485278
  0
LINE
  8
0
 62
     2
 10
294.659929
 20
608.485278
 11
299.659929
 21
608.485278
  0
TEXT
  8
NEVIDITELNA
 62
     2
  6
CONTINUOUS
 10
183.903687
 20
804.993835
 40
15.000000
  1
MRP 80A - FT + 2x adaptér
 50
0.00
 51
0.00
 41
0.80
  0
TEXT
  8
NEVIDITELNA
 62
     2
  6
CONTINUOUS
 10
182.845810
 20
844.166016
 40
15.000000
  1
MRP 80A - A
 50
0.00
 51
0.00
 41
0.80
  0
LINE
  8
OBRYS
 10
633.136098
 20
187.009109
 11
640.136098
 21
187.009109
  0
INSERT
  8
OBRYS
  2
_7
 62
     7
 10
389.659929
 20
565.485278
  0
INSERT
  8
OBRYS
  2
_8
 62
     7
 10
389.659929
 20
565.485278
  0
LINE
  8
OBRYS
 10
479.659929
 20
603.485278
 11
479.659929
 21
610.485278
  0
LINE
  8
OBRYS
 10
299.659929
 20
603.485278
 11
299.659929
 21
610.485278
  0
LINE
  8
0
 62
     2
 10
471.249222
 20
7.290014
 11
473.401971
 21
7.290014
  0
LINE
  8
0
 62
     2
 10
308.070635
 20
7.290014
 11
305.917886
 21
7.290014
  0
POLYLINE
  8
0
 62
     2
 66
    1
  0
VERTEX
  8
0
 62
     2
 10
310.457123
 20
9.290013
  0
VERTEX
  8
0
 62
     2
 10
309.858307
 20
8.290013
  0
VERTEX
  8
0
 62
     2
 10
309.395233
 20
7.757925
  0
VERTEX
  8
0
 62
     2
 10
308.771332
 20
7.410635
  0
VERTEX
  8
0
 62
     2
 10
308.595795
 20
7.380788
  0
VERTEX
  8
0
 62
     2
 10
308.209137
 20
7.314321
  0
VERTEX
  8
0
 62
     2
 10
308.070648
 20
7.290014
  0
VERTEX
  8
0
 62
     2
 10
307.810638
 20
7.290014
  0
VERTEX
  8
0
 62
     2
 10
307.416138
 20
7.290014
  0
VERTEX
  8
0
 62
     2
 10
307.041382
 20
7.290014
  0
VERTEX
  8
0
 62
     2
 10
306.701294
 20
7.290014
  0
VERTEX
  8
0
 62
     2
 10
306.409332
 20
7.290014
  0
VERTEX
  8
0
 62
     2
 10
306.177185
 20
7.290014
  0
VERTEX
  8
0
 62
     2
 10
306.014069
 20
7.290014
  0
VERTEX
  8
0
 62
     2
 10
305.926483
 20
7.290014
  0
VERTEX
  8
0
 62
     2
 10
305.917877
 20
7.290014
  0
SEQEND
  8
0
  0
POLYLINE
  8
0
 62
     2
 66
    1
  0
VERTEX
  8
0
 62
     2
 10
385.235992
 20
7.290014
  0
VERTEX
  8
0
 62
     2
 10
385.223145
 20
7.290014
  0
VERTEX
  8
0
 62
     2
 10
385.216309
 20
7.314321
  0
VERTEX
  8
0
 62
     2
 10
385.117920
 20
7.380788
  0
VERTEX
  8
0
 62
     2
 10
385.054016
 20
7.410635
  0
VERTEX
  8
0
 62
     2
 10
384.826935
 20
7.757925
  0
VERTEX
  8
0
 62
     2
 10
384.658386
 20
8.290013
  0
VERTEX
  8
0
 62
     2
 10
384.440460
 20
9.290013
  0
SEQEND
  8
0
  0
POLYLINE
  8
0
 62
     2
 66
    1
  0
VERTEX
  8
0
 62
     2
 10
337.345825
 20
9.290013
  0
VERTEX
  8
0
 62
     2
 10
336.768280
 20
8.290013
  0
VERTEX
  8
0
 62
     2
 10
336.321655
 20
7.757925
  0
VERTEX
  8
0
 62
     2
 10
335.719940
 20
7.410635
  0
VERTEX
  8
0
 62
     2
 10
335.550629
 20
7.380788
  0
VERTEX
  8
0
 62
     2
 10
335.207642
 20
7.314321
  0
VERTEX
  8
0
 62
     2
 10
335.104889
 20
7.290014
  0
VERTEX
  8
0
 62
     2
 10
334.911926
 20
7.290014
  0
VERTEX
  8
0
 62
     2
 10
334.675293
 20
7.290014
  0
VERTEX
  8
0
 62
     2
 10
334.507141
 20
7.290014
  0
VERTEX
  8
0
 62
     2
 10
334.414154
 20
7.290014
  0
VERTEX
  8
0
 62
     2
 10
334.400024
 20
7.290014
  0
SEQEND
  8
0
  0
POLYLINE
  8
0
 62
     2
 66
    1
  0
VERTEX
  8
0
 62
     2
 10
441.974030
 20
9.290013
  0
VERTEX
  8
0
 62
     2
 10
442.551575
 20
8.290013
  0
VERTEX
  8
0
 62
     2
 10
442.998199
 20
7.757925
  0
VERTEX
  8
0
 62
     2
 10
443.599945
 20
7.410635
  0
VERTEX
  8
0
 62
     2
 10
443.769257
 20
7.380788
  0
VERTEX
  8
0
 62
     2
 10
444.112244
 20
7.314321
  0
VERTEX
  8
0
 62
     2
 10
444.214996
 20
7.290014
  0
VERTEX
  8
0
 62
     2
 10
444.407928
 20
7.290014
  0
VERTEX
  8
0
 62
     2
 10
444.644562
 20
7.290014
  0
VERTEX
  8
0
 62
     2
 10
444.812714
 20
7.290014
  0
VERTEX
  8
0
 62
     2
 10
444.905731
 20
7.290014
  0
VERTEX
  8
0
 62
     2
 10
444.919861
 20
7.290014
  0
SEQEND
  8
0
  0
POLYLINE
  8
0
 62
     2
 66
    1
  0
VERTEX
  8
0
 62
     2
 10
394.879425
 20
9.290013
  0
VERTEX
  8
0
 62
     2
 10
394.661469
 20
8.290013
  0
VERTEX
  8
0
 62
     2
 10
394.492920
 20
7.757925
  0
VERTEX
  8
0
 62
     2
 10
394.265839
 20
7.410635
  0
VERTEX
  8
0
 62
     2
 10
394.201935
 20
7.380788
  0
VERTEX
  8
0
 62
     2
 10
394.103577
 20
7.314321
  0
VERTEX
  8
0
 62
     2
 10
394.096741
 20
7.290014
  0
VERTEX
  8
0
 62
     2
 10
394.083893
 20
7.290014
  0
SEQEND
  8
0
  0
POLYLINE
  8
0
 62
     2
 66
    1
  0
VERTEX
  8
0
 62
     2
 10
468.862732
 20
9.290013
  0
VERTEX
  8
0
 62
     2
 10
469.461548
 20
8.290013
  0
VERTEX
  8
0
 62
     2
 10
469.924622
 20
7.757925
  0
VERTEX
  8
0
 62
     2
 10
470.548523
 20
7.410635
  0
VERTEX
  8
0
 62
     2
 10
470.724091
 20
7.380788
  0
VERTEX
  8
0
 62
     2
 10
471.110748
 20
7.314321
  0
VERTEX
  8
0
 62
     2
 10
471.249237
 20
7.290014
  0
VERTEX
  8
0
 62
     2
 10
471.509247
 20
7.290014
  0
VERTEX
  8
0
 62
     2
 10
471.903717
 20
7.290014
  0
VERTEX
  8
0
 62
     2
 10
472.278473
 20
7.290014
  0
VERTEX
  8
0
 62
     2
 10
472.618591
 20
7.290014
  0
VERTEX
  8
0
 62
     2
 10
472.910522
 20
7.290014
  0
VERTEX
  8
0
 62
     2
 10
473.142670
 20
7.290014
  0
VERTEX
  8
0
 62
     2
 10
473.305786
 20
7.290014
  0
VERTEX
  8
0
 62
     2
 10
473.393402
 20
7.290014
  0
VERTEX
  8
0
 62
     2
 10
473.401978
 20
7.290014
  0
SEQEND
  8
0
  0
LINE
  8
0
 62
     2
 10
469.954157
 20
8.290014
 11
469.461549
 21
8.290014
  0
LINE
  8
0
 62
     2
 10
442.551577
 20
8.290014
 11
449.624815
 21
8.290014
  0
LINE
  8
0
 62
     2
 10
384.658395
 20
8.290014
 11
394.661463
 21
8.290014
  0
LINE
  8
0
 62
     2
 10
336.768281
 20
8.290014
 11
329.695043
 21
8.290014
  0
LINE
  8
0
 62
     2
 10
309.858308
 20
8.290014
 11
309.365700
 21
8.290014
  0
POLYLINE
  8
0
 62
     2
 66
    1
  0
VERTEX
  8
0
 62
     2
 10
450.489563
 20
7.290014
  0
VERTEX
  8
0
 62
     2
 10
450.396484
 20
7.314321
  0
VERTEX
  8
0
 62
     2
 10
450.192627
 20
7.380788
  0
VERTEX
  8
0
 62
     2
 10
450.113678
 20
7.410635
  0
VERTEX
  8
0
 62
     2
 10
449.833069
 20
7.757925
  0
VERTEX
  8
0
 62
     2
 10
449.624817
 20
8.290013
  0
VERTEX
  8
0
 62
     2
 10
449.355499
 20
9.290013
  0
SEQEND
  8
0
  0
POLYLINE
  8
0
 62
     2
 66
    1
  0
VERTEX
  8
0
 62
     2
 10
328.830292
 20
7.290014
  0
VERTEX
  8
0
 62
     2
 10
328.923401
 20
7.314321
  0
VERTEX
  8
0
 62
     2
 10
329.127228
 20
7.380788
  0
VERTEX
  8
0
 62
     2
 10
329.206177
 20
7.410635
  0
VERTEX
  8
0
 62
     2
 10
329.486786
 20
7.757925
  0
VERTEX
  8
0
 62
     2
 10
329.695038
 20
8.290013
  0
VERTEX
  8
0
 62
     2
 10
329.964355
 20
9.290013
  0
SEQEND
  8
0
  0
LINE
  8
0
 62
     2
 10
471.249222
 20
7.290014
 11
471.686208
 21
7.290014
  0
LINE
  8
0
 62
     2
 10
444.214985
 20
7.290014
 11
450.489558
 21
7.290014
  0
LINE
  8
0
 62
     2
 10
394.096722
 20
7.290014
 11
385.223136
 21
7.290014
  0
LINE
  8
0
 62
     2
 10
335.104873
 20
7.290014
 11
328.830300
 21
7.290014
  0
LINE
  8
0
 62
     2
 10
308.070635
 20
7.290014
 11
307.633649
 21
7.290014
  0
LINE
  8
0
 62
     2
 10
301.659929
 20
7.290014
 11
477.659929
 21
7.290014
  0
LINE
  8
0
 62
     2
 10
479.659929
 20
5.290014
 11
299.659929
 21
5.290014
  0
POLYLINE
  8
0
 62
     2
 66
    1
  0
VERTEX
  8
0
 62
     2
 10
471.686218
 20
7.290014
  0
VERTEX
  8
0
 62
     2
 10
471.002167
 20
7.410635
  0
VERTEX
  8
0
 62
     2
 10
470.400635
 20
7.757925
  0
VERTEX
  8
0
 62
     2
 10
469.954163
 20
8.290013
  0
SEQEND
  8
0
  0
POLYLINE
  8
0
 62
     2
 66
    1
  0
VERTEX
  8
0
 62
     2
 10
307.633667
 20
7.290014
  0
VERTEX
  8
0
 62
     2
 10
308.317688
 20
7.410635
  0
VERTEX
  8
0
 62
     2
 10
308.919220
 20
7.757925
  0
VERTEX
  8
0
 62
     2
 10
309.365692
 20
8.290013
  0
SEQEND
  8
0
  0
ARC
  8
0
 62
     2
 10
477.659929
 20
5.290014
 40
2.000000
 50
0.000000
 51
90.000000
  0
ARC
  8
0
 62
     2
 10
301.659929
 20
5.290014
 40
2.000000
 50
90.000000
 51
180.000000
  0
POLYLINE
  8
0
 62
     2
 66
    1
  0
VERTEX
  8
0
 62
     2
 10
301.330872
 20
8.784429
  0
VERTEX
  8
0
 62
     2
 10
301.352692
 20
8.411336
  0
VERTEX
  8
0
 62
     2
 10
301.370575
 20
7.956731
  0
VERTEX
  8
0
 62
     2
 10
301.383881
 20
7.438070
  0
VERTEX
  8
0
 62
     2
 10
301.386810
 20
7.235693
  0
SEQEND
  8
0
  0
POLYLINE
  8
0
 62
     2
 66
    1
  0
VERTEX
  8
0
 62
     2
 10
301.250916
 20
9.290013
  0
VERTEX
  8
0
 62
     2
 10
301.278992
 20
9.232366
  0
VERTEX
  8
0
 62
     2
 10
301.305969
 20
9.061650
  0
VERTEX
  8
0
 62
     2
 10
301.330872
 20
8.784429
  0
SEQEND
  8
0
  0
LINE
  8
0
 62
     2
 10
479.659929
 20
6.875285
 11
479.659927
 21
9.290014
  0
LINE
  8
0
 62
     2
 10
479.659929
 20
0.290014
 11
479.659929
 21
6.875285
  0
POLYLINE
  8
0
 62
     2
 66
    1
  0
VERTEX
  8
0
 62
     2
 10
475.086945
 20
9.290013
  0
VERTEX
  8
0
 62
     2
 10
475.212433
 20
9.232366
  0
VERTEX
  8
0
 62
     2
 10
475.944733
 20
9.061650
  0
VERTEX
  8
0
 62
     2
 10
476.222748
 20
8.784429
  0
VERTEX
  8
0
 62
     2
 10
476.671906
 20
8.411336
  0
VERTEX
  8
0
 62
     2
 10
476.877502
 20
7.956731
  0
VERTEX
  8
0
 62
     2
 10
477.157806
 20
7.438070
  0
VERTEX
  8
0
 62
     2
 10
477.175049
 20
7.290014
  0
SEQEND
  8
0
  0
POLYLINE
  8
0
 62
     2
 66
    1
  0
VERTEX
  8
0
 62
     2
 10
300.770538
 20
7.054906
  0
VERTEX
  8
0
 62
     2
 10
300.755615
 20
7.438070
  0
VERTEX
  8
0
 62
     2
 10
300.628387
 20
8.411336
  0
VERTEX
  8
0
 62
     2
 10
300.437958
 20
9.061650
  0
VERTEX
  8
0
 62
     2
 10
300.408905
 20
9.091191
  0
VERTEX
  8
0
 62
     2
 10
299.763580
 20
9.226033
  0
SEQEND
  8
0
  0
POLYLINE
  8
0
 62
     2
 66
    1
  0
VERTEX
  8
0
 62
     2
 10
306.817291
 20
9.290013
  0
VERTEX
  8
0
 62
     2
 10
306.803802
 20
9.232366
  0
VERTEX
  8
0
 62
     2
 10
306.153198
 20
9.061650
  0
VERTEX
  8
0
 62
     2
 10
305.967346
 20
8.784429
  0
VERTEX
  8
0
 62
     2
 10
305.590210
 20
8.411336
  0
VERTEX
  8
0
 62
     2
 10
305.450684
 20
7.956731
  0
VERTEX
  8
0
 62
     2
 10
305.214050
 20
7.438070
  0
VERTEX
  8
0
 62
     2
 10
305.205078
 20
7.290014
  0
SEQEND
  8
0
  0
LINE
  8
0
 62
     2
 10
469.256503
 20
9.354886
 11
469.596404
 21
9.290014
  0
POLYLINE
  8
0
 62
     2
 66
    1
  0
VERTEX
  8
0
 62
     2
 10
474.996765
 20
9.290013
  0
VERTEX
  8
0
 62
     2
 10
474.996765
 20
11.290013
  0
VERTEX
  8
0
 62
     2
 10
474.985565
 20
11.680196
  0
VERTEX
  8
0
 62
     2
 10
474.952362
 20
12.055379
  0
VERTEX
  8
0
 62
     2
 10
474.898438
 20
12.401158
  0
VERTEX
  8
0
 62
     2
 10
474.825897
 20
12.704228
  0
VERTEX
  8
0
 62
     2
 10
474.737488
 20
12.952947
  0
VERTEX
  8
0
 62
     2
 10
474.636627
 20
13.137776
  0
VERTEX
  8
0
 62
     2
 10
474.527191
 20
13.251592
  0
VERTEX
  8
0
 62
     2
 10
474.413391
 20
13.290013
  0
SEQEND
  8
0
  0
POLYLINE
  8
0
 62
     2
 66
    1
  0
VERTEX
  8
0
 62
     2
 10
426.999756
 20
12.183568
  0
VERTEX
  8
0
 62
     2
 10
426.892303
 20
12.401158
  0
VERTEX
  8
0
 62
     2
 10
426.662506
 20
12.704228
  0
VERTEX
  8
0
 62
     2
 10
426.382507
 20
12.952947
  0
VERTEX
  8
0
 62
     2
 10
426.063049
 20
13.137776
  0
VERTEX
  8
0
 62
     2
 10
425.716431
 20
13.251592
  0
VERTEX
  8
0
 62
     2
 10
425.355957
 20
13.290013
  0
SEQEND
  8
0
  0
POLYLINE
  8
0
 62
     2
 66
    1
  0
VERTEX
  8
0
 62
     2
 10
430.747864
 20
9.290013
  0
VERTEX
  8
0
 62
     2
 10
430.747864
 20
11.290013
  0
VERTEX
  8
0
 62
     2
 10
430.713806
 20
11.680196
  0
VERTEX
  8
0
 62
     2
 10
430.612946
 20
12.055379
  0
VERTEX
  8
0
 62
     2
 10
430.449158
 20
12.401158
  0
VERTEX
  8
0
 62
     2
 10
430.228729
 20
12.704228
  0
VERTEX
  8
0
 62
     2
 10
429.960144
 20
12.952947
  0
VERTEX
  8
0
 62
     2
 10
429.653748
 20
13.137776
  0
VERTEX
  8
0
 62
     2
 10
429.321259
 20
13.251592
  0
VERTEX
  8
0
 62
     2
 10
428.975494
 20
13.290013
  0
SEQEND
  8
0
  0
POLYLINE
  8
0
 62
     2
 66
    1
  0
VERTEX
  8
0
 62
     2
 10
417.136597
 20
12.250997
  0
VERTEX
  8
0
 62
     2
 10
419.212280
 20
12.290013
  0
VERTEX
  8
0
 62
     2
 10
421.336914
 20
12.290013
  0
VERTEX
  8
0
 62
     2
 10
426.999756
 20
12.183568
  0
VERTEX
  8
0
 62
     2
 10
427.037201
 20
12.169393
  0
VERTEX
  8
0
 62
     2
 10
427.166779
 20
12.055379
  0
VERTEX
  8
0
 62
     2
 10
427.384125
 20
11.822103
  0
VERTEX
  8
0
 62
     2
 10
427.467834
 20
11.680196
  0
VERTEX
  8
0
 62
     2
 10
427.627197
 20
11.290013
  0
VERTEX
  8
0
 62
     2
 10
427.848145
 20
10.290013
  0
VERTEX
  8
0
 62
     2
 10
428.018982
 20
9.757924
  0
VERTEX
  8
0
 62
     2
 10
428.249176
 20
9.410634
  0
VERTEX
  8
0
 62
     2
 10
428.510956
 20
9.290013
  0
SEQEND
  8
0
  0
POLYLINE
  8
0
 62
     2
 66
    1
  0
VERTEX
  8
0
 62
     2
 10
352.657349
 20
12.704228
  0
VERTEX
  8
0
 62
     2
 10
352.427582
 20
12.401158
  0
VERTEX
  8
0
 62
     2
 10
352.320129
 20
12.183568
  0
SEQEND
  8
0
  0
ARC
  8
0
 62
     2
 10
353.965677
 20
11.563586
 40
1.731081
 50
90.423416
 51
137.873934
  0
POLYLINE
  8
0
 62
     2
 66
    1
  0
VERTEX
  8
0
 62
     2
 10
350.808899
 20
9.290013
  0
VERTEX
  8
0
 62
     2
 10
351.070679
 20
9.410634
  0
VERTEX
  8
0
 62
     2
 10
351.300873
 20
9.757924
  0
VERTEX
  8
0
 62
     2
 10
351.471741
 20
10.290013
  0
VERTEX
  8
0
 62
     2
 10
351.692688
 20
11.290013
  0
VERTEX
  8
0
 62
     2
 10
351.852020
 20
11.680196
  0
VERTEX
  8
0
 62
     2
 10
351.935730
 20
11.822103
  0
VERTEX
  8
0
 62
     2
 10
352.153076
 20
12.055379
  0
VERTEX
  8
0
 62
     2
 10
352.282654
 20
12.169393
  0
VERTEX
  8
0
 62
     2
 10
352.320129
 20
12.183568
  0
VERTEX
  8
0
 62
     2
 10
357.982941
 20
12.290013
  0
VERTEX
  8
0
 62
     2
 10
360.107574
 20
12.290013
  0
VERTEX
  8
0
 62
     2
 10
362.183289
 20
12.250997
  0
SEQEND
  8
0
  0
POLYLINE
  8
0
 62
     2
 66
    1
  0
VERTEX
  8
0
 62
     2
 10
350.344391
 20
13.290013
  0
VERTEX
  8
0
 62
     2
 10
349.998627
 20
13.251592
  0
VERTEX
  8
0
 62
     2
 10
349.666138
 20
13.137776
  0
VERTEX
  8
0
 62
     2
 10
349.359711
 20
12.952947
  0
VERTEX
  8
0
 62
     2
 10
349.091125
 20
12.704228
  0
VERTEX
  8
0
 62
     2
 10
348.870697
 20
12.401158
  0
VERTEX
  8
0
 62
     2
 10
348.706940
 20
12.055379
  0
VERTEX
  8
0
 62
     2
 10
348.606079
 20
11.680196
  0
VERTEX
  8
0
 62
     2
 10
348.572021
 20
11.290013
  0
VERTEX
  8
0
 62
     2
 10
348.572021
 20
9.290013
  0
SEQEND
  8
0
  0
LINE
  8
0
 62
     2
 10
310.063354
 20
9.354886
 11
309.723454
 21
9.290014
  0
POLYLINE
  8
0
 62
     2
 66
    1
  0
VERTEX
  8
0
 62
     2
 10
304.323120
 20
9.290013
  0
VERTEX
  8
0
 62
     2
 10
304.323120
 20
11.290013
  0
VERTEX
  8
0
 62
     2
 10
304.334320
 20
11.680196
  0
VERTEX
  8
0
 62
     2
 10
304.367523
 20
12.055379
  0
VERTEX
  8
0
 62
     2
 10
304.421417
 20
12.401158
  0
VERTEX
  8
0
 62
     2
 10
304.493988
 20
12.704228
  0
VERTEX
  8
0
 62
     2
 10
304.582367
 20
12.952947
  0
VERTEX
  8
0
 62
     2
 10
304.683228
 20
13.137776
  0
VERTEX
  8
0
 62
     2
 10
304.792664
 20
13.251592
  0
VERTEX
  8
0
 62
     2
 10
304.906494
 20
13.290013
  0
SEQEND
  8
0
  0
LINE
  8
0
 62
     2
 10
470.203858
 20
13.290014
 11
471.494171
 21
13.290014
  0
LINE
  8
0
 62
     2
 10
473.494171
 20
11.290014
 11
469.256503
 21
11.290014
  0
LINE
  8
0
 62
     2
 10
469.376807
 20
9.290014
 11
473.494171
 21
9.290014
  0
LINE
  8
0
 62
     2
 10
307.825687
 20
13.290014
 11
309.115999
 21
13.290014
  0
LINE
  8
0
 62
     2
 10
310.063354
 20
11.290014
 11
305.825687
 21
11.290014
  0
LINE
  8
0
 62
     2
 10
309.943050
 20
9.290014
 11
305.825687
 21
9.290014
  0
LINE
  8
0
 62
     2
 10
471.505228
 20
11.290014
 11
469.256503
 21
11.290014
  0
LINE
  8
0
 62
     2
 10
310.063354
 20
11.290014
 11
307.814629
 21
11.290014
  0
LINE
  8
0
 62
     2
 10
473.814629
 20
9.290014
 11
469.935200
 21
9.290014
  0
LINE
  8
0
 62
     2
 10
309.384657
 20
9.290014
 11
305.505228
 21
9.290014
  0
LINE
  8
0
 62
     2
 10
473.321239
 20
9.290014
 11
475.086953
 21
9.290014
  0
LINE
  8
0
 62
     2
 10
469.376807
 20
9.290014
 11
471.977393
 21
9.290014
  0
LINE
  8
0
 62
     2
 10
309.943050
 20
9.290014
 11
307.342465
 21
9.290014
  0
LINE
  8
0
 62
     2
 10
300.083700
 20
9.290014
 11
299.659930
 21
9.290014
  0
LINE
  8
0
 62
     2
 10
299.763574
 20
9.226036
 11
300.083700
 21
9.290014
  0
LINE
  8
0
 62
     2
 10
299.659929
 20
6.290014
 11
299.968947
 21
6.290014
  0
LINE
  8
0
 62
     2
 10
299.659930
 20
9.290014
 11
299.659929
 21
0.290014
  0
POLYLINE
  8
0
 62
     2
 66
    1
  0
VERTEX
  8
0
 62
     2
 10
304.906494
 20
13.290013
  0
VERTEX
  8
0
 62
     2
 10
306.510773
 20
13.290013
  0
VERTEX
  8
0
 62
     2
 10
309.115997
 20
13.290013
  0
VERTEX
  8
0
 62
     2
 10
309.300812
 20
13.251592
  0
VERTEX
  8
0
 62
     2
 10
309.478546
 20
13.137776
  0
VERTEX
  8
0
 62
     2
 10
309.642334
 20
12.952947
  0
VERTEX
  8
0
 62
     2
 10
309.785889
 20
12.704228
  0
VERTEX
  8
0
 62
     2
 10
309.903687
 20
12.401158
  0
VERTEX
  8
0
 62
     2
 10
309.991241
 20
12.055379
  0
VERTEX
  8
0
 62
     2
 10
310.045166
 20
11.680196
  0
VERTEX
  8
0
 62
     2
 10
310.063354
 20
11.290013
  0
VERTEX
  8
0
 62
     2
 10
310.063354
 20
9.290013
  0
SEQEND
  8
0
  0
LINE
  8
0
 62
     2
 10
360.507059
 20
13.290014
 11
350.344384
 21
13.290014
  0
ARC
  8
0
 62
     2
 10
360.481009
 20
11.375474
 40
1.917352
 50
43.587887
 51
89.802478
  0
ARC
  8
0
 62
     2
 10
360.360612
 20
11.290851
 40
2.067583
 50
359.824477
 51
43.609869
  0
LINE
  8
0
 62
     2
 10
362.430200
 20
9.290014
 11
362.430200
 21
11.290014
  0
LINE
  8
0
 62
     2
 10
416.889658
 20
11.290014
 11
416.889658
 21
9.290014
  0
ARC
  8
0
 62
     2
 10
418.901674
 20
11.315063
 40
2.009658
 50
136.390131
 51
180.175523
  0
ARC
  8
0
 62
     2
 10
418.813669
 20
11.430833
 40
1.861409
 50
90.197522
 51
136.412113
  0
LINE
  8
0
 62
     2
 10
428.975474
 20
13.290014
 11
418.812799
 21
13.290014
  0
POLYLINE
  8
0
 62
     2
 66
    1
  0
VERTEX
  8
0
 62
     2
 10
474.413391
 20
13.290013
  0
VERTEX
  8
0
 62
     2
 10
472.809082
 20
13.290013
  0
VERTEX
  8
0
 62
     2
 10
470.203857
 20
13.290013
  0
VERTEX
  8
0
 62
     2
 10
470.019043
 20
13.251592
  0
VERTEX
  8
0
 62
     2
 10
469.841339
 20
13.137776
  0
VERTEX
  8
0
 62
     2
 10
469.677551
 20
12.952947
  0
VERTEX
  8
0
 62
     2
 10
469.533997
 20
12.704228
  0
VERTEX
  8
0
 62
     2
 10
469.416168
 20
12.401158
  0
VERTEX
  8
0
 62
     2
 10
469.328613
 20
12.055379
  0
VERTEX
  8
0
 62
     2
 10
469.274719
 20
11.680196
  0
VERTEX
  8
0
 62
     2
 10
469.256500
 20
11.290013
  0
VERTEX
  8
0
 62
     2
 10
469.256500
 20
9.290013
  0
SEQEND
  8
0
  0
LINE
  8
0
 62
     2
 10
299.659930
 20
9.290014
 11
304.323103
 21
9.290014
  0
LINE
  8
0
 62
     2
 10
310.063354
 20
9.290014
 11
348.572007
 21
9.290014
  0
LINE
  8
0
 62
     2
 10
416.889658
 20
9.290014
 11
362.430200
 21
9.290014
  0
LINE
  8
0
 62
     2
 10
469.256503
 20
9.290014
 11
430.747851
 21
9.290014
  0
LINE
  8
0
 62
     2
 10
479.659927
 20
9.290014
 11
474.996755
 21
9.290014
  0
LINE
  8
0
 62
     2
 10
308.595785
 20
7.290014
 11
308.595785
 21
7.380785
  0
LINE
  8
0
 62
     2
 10
385.117916
 20
7.380785
 11
385.117916
 21
7.290014
  0
LINE
  8
0
 62
     2
 10
374.984507
 20
9.290014
 11
374.984507
 21
7.290014
  0
LINE
  8
0
 62
     2
 10
373.086193
 20
7.290014
 11
373.086193
 21
9.290014
  0
LINE
  8
0
 62
     2
 10
365.038504
 20
7.290014
 11
365.038504
 21
9.290014
  0
LINE
  8
0
 62
     2
 10
362.402792
 20
11.579406
 11
362.402792
 21
7.290014
  0
LINE
  8
0
 62
     2
 10
335.550611
 20
7.380785
 11
335.550611
 21
7.290014
  0
LINE
  8
0
 62
     2
 10
443.769247
 20
7.290014
 11
443.769247
 21
7.380785
  0
LINE
  8
0
 62
     2
 10
416.917065
 20
7.290014
 11
416.917065
 21
11.579406
  0
LINE
  8
0
 62
     2
 10
414.281354
 20
7.290014
 11
414.281354
 21
9.290014
  0
LINE
  8
0
 62
     2
 10
406.233665
 20
7.290014
 11
406.233665
 21
9.290014
  0
LINE
  8
0
 62
     2
 10
404.335350
 20
7.290014
 11
404.335350
 21
9.290014
  0
LINE
  8
0
 62
     2
 10
394.201942
 20
7.380785
 11
394.201942
 21
7.290014
  0
LINE
  8
0
 62
     2
 10
470.724073
 20
7.290014
 11
470.724073
 21
7.380785
  0
LINE
  8
0
 62
     2
 10
469.349613
 20
9.337115
 11
469.954157
 21
8.290014
  0
LINE
  8
0
 62
     2
 10
309.365700
 20
8.290014
 11
309.970244
 21
9.337115
  0
LINE
  8
0
 62
     2
 10
479.659929
 20
5.290014
 11
479.659929
 21
-1.709986
  0
LINE
  8
0
 62
     2
 10
299.659929
 20
-1.709986
 11
299.659929
 21
5.290014
  0
LINE
  8
0
 62
     2
 10
299.763574
 20
9.290014
 11
301.250896
 21
9.290014
  0
LINE
  8
0
 62
     2
 10
479.659929
 20
6.290014
 11
479.350911
 21
6.290014
  0
LINE
  8
0
 62
     2
 10
479.659927
 20
9.290014
 11
475.086953
 21
9.290014
  0
LINE
  8
0
 62
     2
 10
301.250896
 20
9.290014
 11
306.817283
 21
9.290014
  0
LINE
  8
0
 62
     2
 10
469.596404
 20
9.290014
 11
474.996755
 21
9.290014
  0
LINE
  8
0
 62
     2
 10
474.413376
 20
13.290014
 11
470.203858
 21
13.290014
  0
LINE
  8
0
 62
     2
 10
469.256503
 20
11.290014
 11
474.996755
 21
11.290014
  0
LINE
  8
0
 62
     2
 10
425.355940
 20
13.290014
 11
418.812799
 21
13.290014
  0
LINE
  8
0
 62
     2
 10
428.510952
 20
9.290014
 11
430.747851
 21
9.290014
  0
LINE
  8
0
 62
     2
 10
428.975474
 20
13.290014
 11
425.355940
 21
13.290014
  0
LINE
  8
0
 62
     2
 10
427.627183
 20
11.290014
 11
430.747851
 21
11.290014
  0
LINE
  8
0
 62
     2
 10
360.507059
 20
13.290014
 11
353.963917
 21
13.290014
  0
LINE
  8
0
 62
     2
 10
348.572007
 20
9.290014
 11
350.808905
 21
9.290014
  0
LINE
  8
0
 62
     2
 10
351.692675
 20
11.290014
 11
348.572007
 21
11.290014
  0
LINE
  8
0
 62
     2
 10
353.963917
 20
13.290014
 11
350.344384
 21
13.290014
  0
LINE
  8
0
 62
     2
 10
309.723454
 20
9.290014
 11
304.323103
 21
9.290014
  0
LINE
  8
0
 62
     2
 10
304.323103
 20
11.290014
 11
310.063354
 21
11.290014
  0
LINE
  8
0
 62
     2
 10
304.906481
 20
13.290014
 11
309.115999
 21
13.290014
  0
LINE
  8
0
 62
     2
 10
342.570703
 20
25.290014
 11
345.566279
 21
25.290014
  0
LINE
  8
0
 62
     2
 10
349.606839
 20
25.290014
 11
386.659929
 21
25.290014
  0
LINE
  8
0
 62
     2
 10
386.659929
 20
25.290014
 11
342.570703
 21
25.290014
  0
LINE
  8
0
 62
     2
 10
436.749155
 20
25.290014
 11
392.659929
 21
25.290014
  0
LINE
  8
0
 62
     2
 10
433.753579
 20
25.290014
 11
436.749155
 21
25.290014
  0
LINE
  8
0
 62
     2
 10
392.659929
 20
25.290014
 11
429.713019
 21
25.290014
  0
LINE
  8
0
 62
     2
 10
335.457608
 20
25.290014
 11
336.279192
 21
25.290014
  0
LINE
  8
0
 62
     2
 10
381.560953
 20
25.290014
 11
377.075800
 21
25.290014
  0
LINE
  8
0
 62
     2
 10
391.949478
 20
25.290014
 11
387.370380
 21
25.290014
  0
LINE
  8
0
 62
     2
 10
402.244057
 20
25.290014
 11
397.758905
 21
25.290014
  0
LINE
  8
0
 62
     2
 10
443.862249
 20
25.290014
 11
443.040666
 21
25.290014
  0
LINE
  8
0
 62
     2
 10
357.159929
 20
25.290014
 11
422.159929
 21
25.290014
  0
LINE
  8
0
 62
     2
 10
336.998954
 20
25.290014
 11
341.921825
 21
25.290014
  0
LINE
  8
0
 62
     2
 10
341.846896
 20
25.290014
 11
341.921825
 21
25.290014
  0
LINE
  8
0
 62
     2
 10
437.472962
 20
25.290014
 11
437.398033
 21
25.290014
  0
LINE
  8
0
 62
     2
 10
442.320904
 20
25.290014
 11
437.398033
 21
25.290014
  0
LINE
  8
0
 62
     2
 10
416.320761
 20
25.290014
 11
404.616793
 21
25.290014
  0
LINE
  8
0
 62
     2
 10
362.999096
 20
25.290014
 11
374.703065
 21
25.290014
  0
LINE
  8
0
 62
     2
 10
335.457608
 20
25.290014
 11
334.885430
 21
25.290014
  0
LINE
  8
0
 62
     2
 10
336.998954
 20
25.290014
 11
336.279192
 21
25.290014
  0
LINE
  8
0
 62
     2
 10
362.999096
 20
25.290014
 11
341.846896
 21
25.290014
  0
LINE
  8
0
 62
     2
 10
374.703065
 20
25.290014
 11
377.075800
 21
25.290014
  0
LINE
  8
0
 62
     2
 10
381.560953
 20
25.290014
 11
387.370380
 21
25.290014
  0
LINE
  8
0
 62
     2
 10
391.949478
 20
25.290014
 11
397.758905
 21
25.290014
  0
LINE
  8
0
 62
     2
 10
402.244057
 20
25.290014
 11
404.616793
 21
25.290014
  0
LINE
  8
0
 62
     2
 10
416.320761
 20
25.290014
 11
437.472962
 21
25.290014
  0
LINE
  8
0
 62
     2
 10
442.320904
 20
25.290014
 11
443.040666
 21
25.290014
  0
LINE
  8
0
 62
     2
 10
443.862249
 20
25.290014
 11
444.434428
 21
25.290014
  0
LINE
  8
0
 62
     2
 10
390.605920
 20
25.290014
 11
393.541748
 21
25.290014
  0
LINE
  8
0
 62
     2
 10
385.778110
 20
25.290014
 11
388.713938
 21
25.290014
  0
LINE
  8
0
 62
     2
 10
447.473621
 20
25.290014
 11
449.549565
 21
25.290014
  0
LINE
  8
0
 62
     2
 10
444.059845
 20
25.290014
 11
446.135788
 21
25.290014
  0
LINE
  8
0
 62
     2
 10
333.184069
 20
25.290014
 11
335.260013
 21
25.290014
  0
LINE
  8
0
 62
     2
 10
329.770292
 20
25.290014
 11
331.846236
 21
25.290014
  0
POLYLINE
  8
0
 62
     2
 66
    1
  0
VERTEX
  8
0
 62
     2
 10
473.954926
 20
24.588148
  0
VERTEX
  8
0
 62
     2
 10
473.053650
 20
25.109091
  0
VERTEX
  8
0
 62
     2
 10
472.028778
 20
25.290014
  0
SEQEND
  8
0
  0
POLYLINE
  8
0
 62
     2
 66
    1
  0
VERTEX
  8
0
 62
     2
 10
445.105865
 20
25.290014
  0
VERTEX
  8
0
 62
     2
 10
445.795746
 20
25.109091
  0
VERTEX
  8
0
 62
     2
 10
446.402435
 20
24.588148
  0
SEQEND
  8
0
  0
LINE
  8
0
 62
     2
 10
445.105860
 20
25.290014
 11
450.701138
 21
25.290014
  0
LINE
  8
0
 62
     2
 10
452.128547
 20
24.588148
 11
446.402427
 21
24.588148
  0
LINE
  8
0
 62
     2
 10
455.486315
 20
20.781835
 11
449.452408
 21
20.781835
  0
POLYLINE
  8
0
 62
     2
 66
    1
  0
VERTEX
  8
0
 62
     2
 10
450.701141
 20
25.290014
  0
VERTEX
  8
0
 62
     2
 10
451.460663
 20
25.109091
  0
VERTEX
  8
0
 62
     2
 10
452.128540
 20
24.588148
  0
SEQEND
  8
0
  0
LINE
  8
0
 62
     2
 10
385.703469
 20
25.290014
 11
393.616388
 21
25.290014
  0
LINE
  8
0
 62
     2
 10
393.708908
 20
24.588148
 11
385.610950
 21
24.588148
  0
LINE
  8
0
 62
     2
 10
393.926545
 20
20.781835
 11
385.393312
 21
20.781835
  0
POLYLINE
  8
0
 62
     2
 66
    1
  0
VERTEX
  8
0
 62
     2
 10
393.616394
 20
25.290014
  0
VERTEX
  8
0
 62
     2
 10
393.665619
 20
25.109091
  0
VERTEX
  8
0
 62
     2
 10
393.708923
 20
24.588148
  0
SEQEND
  8
0
  0
POLYLINE
  8
0
 62
     2
 66
    1
  0
VERTEX
  8
0
 62
     2
 10
385.610962
 20
24.588148
  0
VERTEX
  8
0
 62
     2
 10
385.654236
 20
25.109091
  0
VERTEX
  8
0
 62
     2
 10
385.703461
 20
25.290014
  0
SEQEND
  8
0
  0
POLYLINE
  8
0
 62
     2
 66
    1
  0
VERTEX
  8
0
 62
     2
 10
332.917450
 20
24.588148
  0
VERTEX
  8
0
 62
     2
 10
333.524109
 20
25.109091
  0
VERTEX
  8
0
 62
     2
 10
334.213989
 20
25.290014
  0
SEQEND
  8
0
  0
LINE
  8
0
 62
     2
 10
328.618720
 20
25.290014
 11
334.213998
 21
25.290014
  0
LINE
  8
0
 62
     2
 10
332.917431
 20
24.588148
 11
327.191310
 21
24.588148
  0
LINE
  8
0
 62
     2
 10
329.867449
 20
20.781835
 11
323.833543
 21
20.781835
  0
POLYLINE
  8
0
 62
     2
 66
    1
  0
VERTEX
  8
0
 62
     2
 10
327.191315
 20
24.588148
  0
VERTEX
  8
0
 62
     2
 10
327.859222
 20
25.109091
  0
VERTEX
  8
0
 62
     2
 10
328.618713
 20
25.290014
  0
SEQEND
  8
0
  0
POLYLINE
  8
0
 62
     2
 66
    1
  0
VERTEX
  8
0
 62
     2
 10
305.364960
 20
24.588148
  0
VERTEX
  8
0
 62
     2
 10
306.266205
 20
25.109091
  0
VERTEX
  8
0
 62
     2
 10
307.291077
 20
25.290014
  0
SEQEND
  8
0
  0
LINE
  8
0
 62
     2
 10
398.659929
 20
25.290014
 11
380.659929
 21
25.290014
  0
LINE
  8
0
 62
     2
 10
324.659929
 20
25.290014
 11
315.659929
 21
25.290014
  0
LINE
  8
0
 62
     2
 10
463.659929
 20
25.290014
 11
454.659929
 21
25.290014
  0
LINE
  8
0
 62
     2
 10
335.546351
 20
25.290014
 11
380.659929
 21
25.290014
  0
LINE
  8
0
 62
     2
 10
398.659929
 20
25.290014
 11
443.773506
 21
25.290014
  0
LINE
  8
0
 62
     2
 10
329.362409
 20
18.577217
 11
385.342892
 21
18.577217
  0
LINE
  8
0
 62
     2
 10
472.106337
 20
24.588148
 11
450.758617
 21
24.588148
  0
LINE
  8
0
 62
     2
 10
445.158069
 20
24.588148
 11
393.620114
 21
24.588148
  0
LINE
  8
0
 62
     2
 10
385.699744
 20
24.588148
 11
334.161788
 21
24.588148
  0
LINE
  8
0
 62
     2
 10
328.561241
 20
24.588148
 11
307.213521
 21
24.588148
  0
LINE
  8
0
 62
     2
 10
470.474846
 20
25.290014
 11
470.474846
 21
25.239029
  0
LINE
  8
0
 62
     2
 10
470.474846
 20
25.290014
 11
447.473621
 21
25.290014
  0
LINE
  8
0
 62
     2
 10
446.135788
 20
25.290014
 11
390.605920
 21
25.290014
  0
LINE
  8
0
 62
     2
 10
388.713938
 20
25.290014
 11
333.184069
 21
25.290014
  0
LINE
  8
0
 62
     2
 10
331.846236
 20
25.290014
 11
308.845012
 21
25.290014
  0
LINE
  8
0
 62
     2
 10
308.845012
 20
25.290014
 11
308.845012
 21
25.239029
  0
LINE
  8
0
 62
     2
 10
455.088592
 20
25.734378
 11
455.453272
 21
25.290014
  0
ARC
  8
0
 62
     2
 10
459.661675
 20
28.790014
 40
5.500000
 50
326.250000
 51
213.750000
  0
LINE
  8
0
 62
     2
 10
463.870078
 20
25.290014
 11
464.234758
 21
25.734378
  0
ARC
  8
0
 62
     2
 10
473.659929
 20
39.290014
 40
6.000000
 50
0.000000
 51
90.000000
  0
LINE
  8
0
 62
     2
 10
431.661675
 20
25.290014
 11
431.661675
 21
44.201225
  0
LINE
  8
0
 62
     2
 10
324.231266
 20
25.734378
 11
323.866586
 21
25.290014
  0
ARC
  8
0
 62
     2
 10
319.658183
 20
28.790014
 40
5.500000
 50
326.250000
 51
213.750000
  0
LINE
  8
0
 62
     2
 10
315.449780
 20
25.290014
 11
315.085100
 21
25.734378
  0
ARC
  8
0
 62
     2
 10
305.659929
 20
39.290014
 40
6.000000
 50
90.000000
 51
180.000000
  0
LINE
  8
0
 62
     2
 10
347.658183
 20
25.290014
 11
347.658183
 21
44.201225
  0
LINE
  8
0
 62
     2
 10
345.566279
 20
25.290014
 11
349.606839
 21
25.290014
  0
LINE
  8
0
 62
     2
 10
429.713019
 20
25.290014
 11
433.753579
 21
25.290014
  0
LINE
  8
0
 62
     2
 10
385.703469
 20
25.290014
 11
385.778110
 21
25.290014
  0
LINE
  8
0
 62
     2
 10
393.541748
 20
25.290014
 11
393.616388
 21
25.290014
  0
LINE
  8
0
 62
     2
 10
449.549565
 20
25.290014
 11
450.701138
 21
25.290014
  0
LINE
  8
0
 62
     2
 10
328.618720
 20
25.290014
 11
329.770292
 21
25.290014
  0
LINE
  8
0
 62
     2
 10
470.474846
 20
25.290014
 11
470.474846
 21
25.239029
  0
LINE
  8
0
 62
     2
 10
472.028776
 20
25.290014
 11
470.474846
 21
25.290014
  0
LINE
  8
0
 62
     2
 10
478.485881
 20
20.781835
 11
473.954918
 21
24.588148
  0
LINE
  8
0
 62
     2
 10
446.402427
 20
24.588148
 11
449.452408
 21
20.781835
  0
LINE
  8
0
 62
     2
 10
444.059845
 20
25.290014
 11
445.105860
 21
25.290014
  0
LINE
  8
0
 62
     2
 10
444.059845
 20
25.239029
 11
444.059845
 21
25.290014
  0
LINE
  8
0
 62
     2
 10
452.128547
 20
24.588148
 11
455.486315
 21
20.781835
  0
LINE
  8
0
 62
     2
 10
393.708908
 20
24.588148
 11
393.926545
 21
20.781835
  0
LINE
  8
0
 62
     2
 10
385.393312
 20
20.781835
 11
385.610950
 21
24.588148
  0
LINE
  8
0
 62
     2
 10
335.260013
 20
25.290014
 11
335.260013
 21
25.239029
  0
LINE
  8
0
 62
     2
 10
334.213998
 20
25.290014
 11
335.260013
 21
25.290014
  0
LINE
  8
0
 62
     2
 10
329.867449
 20
20.781835
 11
332.917431
 21
24.588148
  0
LINE
  8
0
 62
     2
 10
323.833543
 20
20.781835
 11
327.191310
 21
24.588148
  0
LINE
  8
0
 62
     2
 10
308.845012
 20
25.290014
 11
308.845012
 21
25.239029
  0
LINE
  8
0
 62
     2
 10
307.291082
 20
25.290014
 11
308.845012
 21
25.290014
  0
LINE
  8
0
 62
     2
 10
300.833977
 20
20.781835
 11
305.364940
 21
24.588148
  0
LINE
  8
0
 62
     2
 10
324.659929
 20
25.290014
 11
335.546351
 21
25.290014
  0
LINE
  8
0
 62
     2
 10
454.659929
 20
25.290014
 11
443.773506
 21
25.290014
  0
LINE
  8
0
 62
     2
 10
424.661675
 20
44.201225
 11
424.661675
 21
25.290014
  0
LINE
  8
0
 62
     2
 10
354.658183
 20
44.201225
 11
354.658183
 21
25.290014
  0
LINE
  8
0
 62
     2
 10
299.659929
 20
18.577217
 11
299.659930
 21
9.290014
  0
LINE
  8
0
 62
     2
 10
479.659929
 20
18.577217
 11
479.659927
 21
9.290014
  0
LINE
  8
0
 62
     2
 10
479.659929
 20
39.290014
 11
479.659929
 21
7.290014
  0
LINE
  8
0
 62
     2
 10
424.661675
 20
45.290014
 11
473.659929
 21
45.290014
  0
LINE
  8
0
 62
     2
 10
424.661675
 20
44.201225
 11
424.661675
 21
45.290014
  0
LINE
  8
0
 62
     2
 10
299.659929
 20
39.290014
 11
299.659929
 21
7.290014
  0
LINE
  8
0
 62
     2
 10
354.658183
 20
45.290014
 11
305.659929
 21
45.290014
  0
LINE
  8
0
 62
     2
 10
354.658183
 20
44.201225
 11
354.658183
 21
45.290014
  0
LINE
  8
0
 62
     2
 10
347.658183
 20
25.290014
 11
347.658183
 21
45.290014
  0
LINE
  8
0
 62
     2
 10
431.661675
 20
25.290014
 11
431.661675
 21
45.290014
  0
POLYLINE
  8
0
 62
     2
 66
    1
  0
VERTEX
  8
0
 62
     2
 10
335.260010
 20
25.239027
  0
VERTEX
  8
0
 62
     2
 10
334.766296
 20
25.109091
  0
VERTEX
  8
0
 62
     2
 10
334.161804
 20
24.588148
  0
VERTEX
  8
0
 62
     2
 10
329.362427
 20
18.577215
  0
SEQEND
  8
0
  0
POLYLINE
  8
0
 62
     2
 66
    1
  0
VERTEX
  8
0
 62
     2
 10
329.160858
 20
18.577215
  0
VERTEX
  8
0
 62
     2
 10
329.335907
 20
19.751562
  0
VERTEX
  8
0
 62
     2
 10
329.867462
 20
20.781836
  0
SEQEND
  8
0
  0
POLYLINE
  8
0
 62
     2
 66
    1
  0
VERTEX
  8
0
 62
     2
 10
308.845032
 20
25.239027
  0
VERTEX
  8
0
 62
     2
 10
308.111572
 20
25.109091
  0
VERTEX
  8
0
 62
     2
 10
307.213531
 20
24.588148
  0
VERTEX
  8
0
 62
     2
 10
300.083710
 20
18.577215
  0
SEQEND
  8
0
  0
POLYLINE
  8
0
 62
     2
 66
    1
  0
VERTEX
  8
0
 62
     2
 10
299.784302
 20
18.577215
  0
VERTEX
  8
0
 62
     2
 10
300.044342
 20
19.751562
  0
VERTEX
  8
0
 62
     2
 10
300.833984
 20
20.781836
  0
SEQEND
  8
0
  0
POLYLINE
  8
0
 62
     2
 66
    1
  0
VERTEX
  8
0
 62
     2
 10
385.342896
 20
18.577215
  0
VERTEX
  8
0
 62
     2
 10
385.355377
 20
19.751562
  0
VERTEX
  8
0
 62
     2
 10
385.393311
 20
20.781836
  0
SEQEND
  8
0
  0
POLYLINE
  8
0
 62
     2
 66
    1
  0
VERTEX
  8
0
 62
     2
 10
393.926544
 20
20.781836
  0
VERTEX
  8
0
 62
     2
 10
393.964478
 20
19.751562
  0
VERTEX
  8
0
 62
     2
 10
393.976959
 20
18.577215
  0
SEQEND
  8
0
  0
LINE
  8
0
 62
     2
 10
323.055654
 20
18.577217
 11
323.248347
 21
19.751563
  0
LINE
  8
0
 62
     2
 10
323.248347
 20
19.751563
 11
323.833552
 21
20.781836
  0
LINE
  8
0
 62
     2
 10
323.055654
 20
18.577217
 11
299.659929
 21
18.577217
  0
POLYLINE
  8
0
 62
     2
 66
    1
  0
VERTEX
  8
0
 62
     2
 10
449.957458
 20
18.577215
  0
VERTEX
  8
0
 62
     2
 10
449.957458
 20
18.577215
  0
VERTEX
  8
0
 62
     2
 10
445.158081
 20
24.588148
  0
VERTEX
  8
0
 62
     2
 10
444.553558
 20
25.109091
  0
VERTEX
  8
0
 62
     2
 10
444.059845
 20
25.239027
  0
SEQEND
  8
0
  0
POLYLINE
  8
0
 62
     2
 66
    1
  0
VERTEX
  8
0
 62
     2
 10
455.486328
 20
20.781836
  0
VERTEX
  8
0
 62
     2
 10
456.071503
 20
19.751562
  0
VERTEX
  8
0
 62
     2
 10
456.264221
 20
18.577215
  0
SEQEND
  8
0
  0
LINE
  8
0
 62
     2
 10
393.976966
 20
18.577217
 11
450.158997
 21
18.577217
  0
LINE
  8
0
 62
     2
 10
449.452418
 20
20.781836
 11
449.983943
 21
19.751563
  0
LINE
  8
0
 62
     2
 10
449.983943
 20
19.751563
 11
450.158997
 21
18.577217
  0
POLYLINE
  8
0
 62
     2
 66
    1
  0
VERTEX
  8
0
 62
     2
 10
470.474854
 20
25.239027
  0
VERTEX
  8
0
 62
     2
 10
471.208282
 20
25.109091
  0
VERTEX
  8
0
 62
     2
 10
472.106354
 20
24.588148
  0
VERTEX
  8
0
 62
     2
 10
479.236145
 20
18.577215
  0
SEQEND
  8
0
  0
POLYLINE
  8
0
 62
     2
 66
    1
  0
VERTEX
  8
0
 62
     2
 10
479.535553
 20
18.577215
  0
VERTEX
  8
0
 62
     2
 10
479.275543
 20
19.751562
  0
VERTEX
  8
0
 62
     2
 10
478.485901
 20
20.781836
  0
SEQEND
  8
0
  0
LINE
  8
0
 62
     2
 10
456.264214
 20
18.577217
 11
479.659929
 21
18.577217
  0
LINE
  8
OBRYS
 10
299.659929
 20
-89.709986
 11
299.659929
 21
-87.709986
  0
LINE
  8
OBRYS
 10
479.659929
 20
-89.709986
 11
479.659929
 21
-87.709986
  0
INSERT
  8
OBRYS
  2
_9
 62
     7
 10
389.659929
 20
-89.709986
  0
INSERT
  8
OBRYS
  2
_10
 62
     7
 10
56.183760
 20
277.009109
  0
LINE
  8
OSA
 10
174.683760
 20
150.685302
 11
174.683760
 21
130.209109
  0
LINE
  8
NEVIDITELNA
 10
180.183760
 20
148.009109
 11
180.183760
 21
135.009109
  0
LINE
  8
NEVIDITELNA
 10
169.183760
 20
148.009109
 11
169.183760
 21
135.009109
  0
LINE
  8
0
 62
     2
 10
165.920814
 20
199.850754
 11
190.233865
 21
147.711248
  0
ARC
  8
0
 62
     2
 10
189.183760
 20
146.009109
 40
2.000000
 50
0.000000
 51
90.000000
  0
LINE
  8
0
 62
     2
 10
191.183760
 20
146.009109
 11
191.183760
 21
135.009109
  0
LINE
  8
0
 62
     2
 10
185.183760
 20
148.009109
 11
189.183760
 21
148.009109
  0
LINE
  8
OBRYS
 10
146.183760
 20
187.009109
 11
139.183760
 21
187.009109
  0
POLYLINE
  8
0
 62
     2
 66
    1
  0
VERTEX
  8
0
 62
     2
 10
155.183762
 20
356.211914
  0
VERTEX
  8
0
 62
     2
 10
154.183762
 20
356.810730
  0
VERTEX
  8
0
 62
     2
 10
153.651672
 20
357.273804
  0
VERTEX
  8
0
 62
     2
 10
153.304367
 20
357.897705
  0
VERTEX
  8
0
 62
     2
 10
153.274536
 20
358.073242
  0
VERTEX
  8
0
 62
     2
 10
153.208054
 20
358.459930
  0
VERTEX
  8
0
 62
     2
 10
153.183762
 20
358.598389
  0
SEQEND
  8
0
  0
POLYLINE
  8
0
 62
     2
 66
    1
  0
VERTEX
  8
0
 62
     2
 10
159.183762
 20
360.158264
  0
VERTEX
  8
0
 62
     2
 10
159.183762
 20
357.553040
  0
VERTEX
  8
0
 62
     2
 10
159.145325
 20
357.368225
  0
VERTEX
  8
0
 62
     2
 10
159.031525
 20
357.190491
  0
VERTEX
  8
0
 62
     2
 10
158.846695
 20
357.026703
  0
VERTEX
  8
0
 62
     2
 10
158.597977
 20
356.883148
  0
VERTEX
  8
0
 62
     2
 10
158.294907
 20
356.765350
  0
VERTEX
  8
0
 62
     2
 10
157.949127
 20
356.677795
  0
VERTEX
  8
0
 62
     2
 10
157.573944
 20
356.623901
  0
VERTEX
  8
0
 62
     2
 10
157.183762
 20
356.605682
  0
VERTEX
  8
0
 62
     2
 10
155.183762
 20
356.605682
  0
SEQEND
  8
0
  0
LINE
  8
0
 62
     2
 10
170.481893
 20
333.751607
 11
170.481893
 21
338.107796
  0
LINE
  8
0
 62
     2
 10
170.481893
 20
273.048924
 11
170.481893
 21
281.058087
  0
LINE
  8
0
 62
     2
 10
170.481893
 20
215.910421
 11
170.481893
 21
220.266611
  0
LINE
  8
0
 62
     2
 10
171.183760
 20
317.062198
 11
171.183760
 21
285.108085
  0
LINE
  8
0
 62
     2
 10
171.183760
 20
274.009109
 11
171.183760
 21
285.108085
  0
LINE
  8
0
 62
     2
 10
171.183760
 20
317.062198
 11
171.183760
 21
333.484968
  0
LINE
  8
0
 62
     2
 10
171.183760
 20
342.009109
 11
171.183760
 21
333.484968
  0
LINE
  8
0
 62
     2
 10
171.183760
 20
212.009109
 11
171.183760
 21
220.533249
  0
LINE
  8
0
 62
     2
 10
171.183760
 20
244.509109
 11
171.183760
 21
250.348276
  0
LINE
  8
0
 62
     2
 10
171.183760
 20
274.009109
 11
171.183760
 21
250.348276
  0
LINE
  8
0
 62
     2
 10
171.183760
 20
342.009109
 11
171.183760
 21
357.824026
  0
LINE
  8
0
 62
     2
 10
171.183760
 20
220.533249
 11
171.183760
 21
244.509109
  0
LINE
  8
0
 62
     2
 10
171.183760
 20
196.194191
 11
171.183760
 21
212.009109
  0
POLYLINE
  8
0
 62
     2
 66
    1
  0
VERTEX
  8
0
 62
     2
 10
153.183762
 20
331.564178
  0
VERTEX
  8
0
 62
     2
 10
153.208054
 20
331.461395
  0
VERTEX
  8
0
 62
     2
 10
153.274536
 20
331.118439
  0
VERTEX
  8
0
 62
     2
 10
153.304367
 20
330.949127
  0
VERTEX
  8
0
 62
     2
 10
153.651672
 20
330.347382
  0
VERTEX
  8
0
 62
     2
 10
154.183762
 20
329.900757
  0
VERTEX
  8
0
 62
     2
 10
155.183762
 20
329.323212
  0
SEQEND
  8
0
  0
POLYLINE
  8
0
 62
     2
 66
    1
  0
VERTEX
  8
0
 62
     2
 10
153.183762
 20
187.294128
  0
VERTEX
  8
0
 62
     2
 10
153.387405
 20
187.327789
  0
VERTEX
  8
0
 62
     2
 10
157.327988
 20
189.401306
  0
VERTEX
  8
0
 62
     2
 10
160.576019
 20
192.663025
  0
VERTEX
  8
0
 62
     2
 10
165.920807
 20
199.850754
  0
SEQEND
  8
0
  0
LINE
  8
0
 62
     2
 10
153.183760
 20
365.009109
 11
153.183760
 21
235.540597
  0
POLYLINE
  8
0
 62
     2
 66
    1
  0
VERTEX
  8
0
 62
     2
 10
155.183762
 20
282.228607
  0
VERTEX
  8
0
 62
     2
 10
154.183762
 20
282.010651
  0
VERTEX
  8
0
 62
     2
 10
153.651672
 20
281.842102
  0
VERTEX
  8
0
 62
     2
 10
153.304367
 20
281.615021
  0
VERTEX
  8
0
 62
     2
 10
153.274536
 20
281.551117
  0
VERTEX
  8
0
 62
     2
 10
153.208054
 20
281.452728
  0
VERTEX
  8
0
 62
     2
 10
153.183762
 20
281.445892
  0
SEQEND
  8
0
  0
POLYLINE
  8
0
 62
     2
 66
    1
  0
VERTEX
  8
0
 62
     2
 10
153.183762
 20
272.572327
  0
VERTEX
  8
0
 62
     2
 10
153.208054
 20
272.565491
  0
VERTEX
  8
0
 62
     2
 10
153.274536
 20
272.467102
  0
VERTEX
  8
0
 62
     2
 10
153.304367
 20
272.403198
  0
VERTEX
  8
0
 62
     2
 10
153.651672
 20
272.176117
  0
VERTEX
  8
0
 62
     2
 10
154.183762
 20
272.007568
  0
VERTEX
  8
0
 62
     2
 10
155.183762
 20
271.789612
  0
SEQEND
  8
0
  0
POLYLINE
  8
0
 62
     2
 66
    1
  0
VERTEX
  8
0
 62
     2
 10
170.481888
 20
192.714127
  0
VERTEX
  8
0
 62
     2
 10
171.002838
 20
193.615387
  0
VERTEX
  8
0
 62
     2
 10
171.183762
 20
194.640259
  0
SEQEND
  8
0
  0
POLYLINE
  8
0
 62
     2
 66
    1
  0
VERTEX
  8
0
 62
     2
 10
171.132767
 20
196.194199
  0
VERTEX
  8
0
 62
     2
 10
171.002838
 20
195.460754
  0
VERTEX
  8
0
 62
     2
 10
170.481888
 20
194.562698
  0
VERTEX
  8
0
 62
     2
 10
169.132843
 20
192.962540
  0
SEQEND
  8
0
  0
POLYLINE
  8
0
 62
     2
 66
    1
  0
VERTEX
  8
0
 62
     2
 10
170.481888
 20
220.266617
  0
VERTEX
  8
0
 62
     2
 10
171.002838
 20
220.873291
  0
VERTEX
  8
0
 62
     2
 10
171.183762
 20
221.563171
  0
SEQEND
  8
0
  0
POLYLINE
  8
0
 62
     2
 66
    1
  0
VERTEX
  8
0
 62
     2
 10
153.798203
 20
210.036102
  0
VERTEX
  8
0
 62
     2
 10
158.242752
 20
211.264618
  0
VERTEX
  8
0
 62
     2
 10
161.881424
 20
213.375092
  0
SEQEND
  8
0
  0
POLYLINE
  8
0
 62
     2
 66
    1
  0
VERTEX
  8
0
 62
     2
 10
171.132767
 20
222.609192
  0
VERTEX
  8
0
 62
     2
 10
171.002838
 20
222.115479
  0
VERTEX
  8
0
 62
     2
 10
170.481888
 20
221.510971
  0
VERTEX
  8
0
 62
     2
 10
160.576019
 20
213.601700
  0
VERTEX
  8
0
 62
     2
 10
157.327988
 20
211.665146
  0
VERTEX
  8
0
 62
     2
 10
154.874741
 20
210.898712
  0
SEQEND
  8
0
  0
LINE
  8
0
 62
     2
 10
161.881425
 20
206.953522
 11
161.881425
 21
213.375094
  0
LINE
  8
0
 62
     2
 10
153.798204
 20
203.277571
 11
153.798204
 21
210.036096
  0
POLYLINE
  8
0
 62
     2
 66
    1
  0
VERTEX
  8
0
 62
     2
 10
161.881424
 20
206.953522
  0
VERTEX
  8
0
 62
     2
 10
158.242752
 20
204.630066
  0
VERTEX
  8
0
 62
     2
 10
153.798203
 20
203.277573
  0
SEQEND
  8
0
  0
POLYLINE
  8
0
 62
     2
 66
    1
  0
VERTEX
  8
0
 62
     2
 10
171.183762
 20
215.967896
  0
VERTEX
  8
0
 62
     2
 10
171.002838
 20
215.208389
  0
VERTEX
  8
0
 62
     2
 10
170.481888
 20
214.540497
  0
SEQEND
  8
0
  0
LINE
  8
0
 62
     2
 10
166.675580
 20
272.742492
 11
166.675580
 21
281.275725
  0
POLYLINE
  8
0
 62
     2
 66
    1
  0
VERTEX
  8
0
 62
     2
 10
171.183762
 20
273.052643
  0
VERTEX
  8
0
 62
     2
 10
171.002838
 20
273.003418
  0
VERTEX
  8
0
 62
     2
 10
170.481888
 20
272.960144
  0
SEQEND
  8
0
  0
POLYLINE
  8
0
 62
     2
 66
    1
  0
VERTEX
  8
0
 62
     2
 10
170.481888
 20
281.058075
  0
VERTEX
  8
0
 62
     2
 10
171.002838
 20
281.014801
  0
VERTEX
  8
0
 62
     2
 10
171.183762
 20
280.965576
  0
SEQEND
  8
0
  0
POLYLINE
  8
0
 62
     2
 66
    1
  0
VERTEX
  8
0
 62
     2
 10
171.183762
 20
332.455048
  0
VERTEX
  8
0
 62
     2
 10
171.002838
 20
333.144928
  0
VERTEX
  8
0
 62
     2
 10
170.481888
 20
333.751617
  0
SEQEND
  8
0
  0
LINE
  8
0
 62
     2
 10
166.675580
 20
336.801588
 11
166.675580
 21
342.835495
  0
POLYLINE
  8
0
 62
     2
 66
    1
  0
VERTEX
  8
0
 62
     2
 10
170.481888
 20
339.477722
  0
VERTEX
  8
0
 62
     2
 10
171.002838
 20
338.809814
  0
VERTEX
  8
0
 62
     2
 10
171.183762
 20
338.050323
  0
SEQEND
  8
0
  0
POLYLINE
  8
0
 62
     2
 66
    1
  0
VERTEX
  8
0
 62
     2
 10
171.183762
 20
359.377960
  0
VERTEX
  8
0
 62
     2
 10
171.002838
 20
360.402832
  0
VERTEX
  8
0
 62
     2
 10
170.481888
 20
361.304108
  0
SEQEND
  8
0
  0
POLYLINE
  8
0
 62
     2
 66
    1
  0
VERTEX
  8
0
 62
     2
 10
158.077316
 20
314.348938
  0
VERTEX
  8
0
 62
     2
 10
158.294907
 20
314.241486
  0
VERTEX
  8
0
 62
     2
 10
158.597977
 20
314.011688
  0
VERTEX
  8
0
 62
     2
 10
158.846695
 20
313.731689
  0
VERTEX
  8
0
 62
     2
 10
159.031525
 20
313.412231
  0
VERTEX
  8
0
 62
     2
 10
159.145325
 20
313.065613
  0
VERTEX
  8
0
 62
     2
 10
159.183762
 20
312.705109
  0
SEQEND
  8
0
  0
POLYLINE
  8
0
 62
     2
 66
    1
  0
VERTEX
  8
0
 62
     2
 10
158.144745
 20
304.485779
  0
VERTEX
  8
0
 62
     2
 10
158.183762
 20
306.561462
  0
VERTEX
  8
0
 62
     2
 10
158.183762
 20
308.686096
  0
VERTEX
  8
0
 62
     2
 10
158.077316
 20
314.348938
  0
VERTEX
  8
0
 62
     2
 10
158.063141
 20
314.386383
  0
VERTEX
  8
0
 62
     2
 10
157.949127
 20
314.515961
  0
VERTEX
  8
0
 62
     2
 10
157.715851
 20
314.733307
  0
VERTEX
  8
0
 62
     2
 10
157.573944
 20
314.817017
  0
VERTEX
  8
0
 62
     2
 10
157.183762
 20
314.976349
  0
VERTEX
  8
0
 62
     2
 10
156.183762
 20
315.197296
  0
VERTEX
  8
0
 62
     2
 10
155.651672
 20
315.368164
  0
VERTEX
  8
0
 62
     2
 10
155.304367
 20
315.598358
  0
VERTEX
  8
0
 62
     2
 10
155.183762
 20
315.860138
  0
SEQEND
  8
0
  0
POLYLINE
  8
0
 62
     2
 66
    1
  0
VERTEX
  8
0
 62
     2
 10
155.183762
 20
318.097046
  0
VERTEX
  8
0
 62
     2
 10
157.183762
 20
318.097046
  0
VERTEX
  8
0
 62
     2
 10
157.573944
 20
318.062988
  0
VERTEX
  8
0
 62
     2
 10
157.949127
 20
317.962128
  0
VERTEX
  8
0
 62
     2
 10
158.294907
 20
317.798340
  0
VERTEX
  8
0
 62
     2
 10
158.597977
 20
317.577911
  0
VERTEX
  8
0
 62
     2
 10
158.846695
 20
317.309326
  0
VERTEX
  8
0
 62
     2
 10
159.031525
 20
317.002899
  0
VERTEX
  8
0
 62
     2
 10
159.145325
 20
316.670441
  0
VERTEX
  8
0
 62
     2
 10
159.183762
 20
316.324646
  0
SEQEND
  8
0
  0
LINE
  8
0
 62
     2
 10
155.248631
 20
356.605683
 11
155.183760
 21
356.945583
  0
POLYLINE
  8
0
 62
     2
 66
    1
  0
VERTEX
  8
0
 62
     2
 10
155.183762
 20
362.345947
  0
VERTEX
  8
0
 62
     2
 10
157.183762
 20
362.345947
  0
VERTEX
  8
0
 62
     2
 10
157.573944
 20
362.334717
  0
VERTEX
  8
0
 62
     2
 10
157.949127
 20
362.301514
  0
VERTEX
  8
0
 62
     2
 10
158.294907
 20
362.247620
  0
VERTEX
  8
0
 62
     2
 10
158.597977
 20
362.175079
  0
VERTEX
  8
0
 62
     2
 10
158.846695
 20
362.086670
  0
VERTEX
  8
0
 62
     2
 10
159.031525
 20
361.985809
  0
VERTEX
  8
0
 62
     2
 10
159.145325
 20
361.876373
  0
VERTEX
  8
0
 62
     2
 10
159.183762
 20
361.762543
  0
SEQEND
  8
0
  0
LINE
  8
0
 62
     2
 10
155.183760
 20
356.945583
 11
155.183760
 21
361.163809
  0
LINE
  8
0
 62
     2
 10
157.183760
 20
304.238838
 11
155.183760
 21
304.238838
  0
ARC
  8
0
 62
     2
 10
157.208808
 20
306.250854
 40
2.009658
 50
269.824477
 51
313.609869
  0
ARC
  8
0
 62
     2
 10
157.324578
 20
306.162849
 40
1.861409
 50
313.587887
 51
359.802478
  0
LINE
  8
0
 62
     2
 10
159.183760
 20
316.324654
 11
159.183760
 21
306.161979
  0
LINE
  8
0
 62
     2
 10
155.183760
 20
367.009107
 11
155.183760
 21
362.345934
  0
LINE
  8
0
 62
     2
 10
155.183760
 20
356.605683
 11
155.183760
 21
318.097031
  0
LINE
  8
0
 62
     2
 10
155.183760
 20
304.238838
 11
155.183760
 21
277.009109
  0
LINE
  8
0
 62
     2
 10
153.331810
 20
247.521543
 11
153.183760
 21
247.476581
  0
ARC
  8
0
 62
     2
 10
152.177295
 20
250.296339
 40
3.005930
 50
292.544540
 51
0.016442
  0
LINE
  8
0
 62
     2
 10
155.183760
 20
277.009109
 11
155.183760
 21
250.296377
  0
LINE
  8
0
 62
     2
 10
160.576018
 20
192.663028
 11
160.576018
 21
206.119961
  0
LINE
  8
0
 62
     2
 10
160.576018
 20
213.601701
 11
160.576018
 21
249.238240
  0
LINE
  8
0
 62
     2
 10
171.132774
 20
357.824026
 11
171.183760
 21
357.824026
  0
POLYLINE
  8
0
 62
     2
 66
    1
  0
VERTEX
  8
0
 62
     2
 10
153.183762
 20
247.476578
  0
VERTEX
  8
0
 62
     2
 10
152.769028
 20
247.350632
  0
VERTEX
  8
0
 62
     2
 10
152.183762
 20
247.292923
  0
VERTEX
  8
0
 62
     2
 10
146.183762
 20
247.292923
  0
SEQEND
  8
0
  0
LINE
  8
0
 62
     2
 10
154.183760
 20
272.007574
 11
154.183760
 21
282.010643
  0
LINE
  8
0
 62
     2
 10
154.183760
 20
336.973994
 11
154.183760
 21
329.900757
  0
LINE
  8
0
 62
     2
 10
154.183760
 20
357.303337
 11
154.183760
 21
356.810729
  0
POLYLINE
  8
0
 62
     2
 66
    1
  0
VERTEX
  8
0
 62
     2
 10
155.183762
 20
336.704681
  0
VERTEX
  8
0
 62
     2
 10
154.183762
 20
336.973999
  0
VERTEX
  8
0
 62
     2
 10
153.651672
 20
337.182251
  0
VERTEX
  8
0
 62
     2
 10
153.304367
 20
337.462860
  0
VERTEX
  8
0
 62
     2
 10
153.274536
 20
337.541809
  0
VERTEX
  8
0
 62
     2
 10
153.208054
 20
337.745636
  0
VERTEX
  8
0
 62
     2
 10
153.183762
 20
337.838745
  0
SEQEND
  8
0
  0
LINE
  8
0
 62
     2
 10
151.183760
 20
247.292919
 11
151.183760
 21
367.009109
  0
POLYLINE
  8
0
 62
     2
 66
    1
  0
VERTEX
  8
0
 62
     2
 10
154.183762
 20
357.303345
  0
VERTEX
  8
0
 62
     2
 10
153.651672
 20
357.749817
  0
VERTEX
  8
0
 62
     2
 10
153.304367
 20
358.351349
  0
VERTEX
  8
0
 62
     2
 10
153.183762
 20
359.035400
  0
SEQEND
  8
0
  0
ARC
  8
0
 62
     2
 10
151.183760
 20
365.009109
 40
2.000000
 50
0.000000
 51
90.000000
  0
LINE
  8
0
 62
     2
 10
171.183760
 20
196.194191
 11
171.132774
 21
196.194191
  0
LINE
  8
0
 62
     2
 10
171.183760
 20
194.640262
 11
171.183760
 21
196.194191
  0
LINE
  8
0
 62
     2
 10
169.688874
 20
191.770125
 11
170.481893
 21
192.714120
  0
LINE
  8
0
 62
     2
 10
171.183760
 20
222.609193
 11
171.132774
 21
222.609193
  0
LINE
  8
0
 62
     2
 10
161.881425
 20
213.375094
 11
170.481893
 21
220.266611
  0
LINE
  8
0
 62
     2
 10
154.874734
 20
210.898715
 11
153.798204
 21
210.036096
  0
LINE
  8
0
 62
     2
 10
170.481893
 20
214.540490
 11
161.881425
 21
206.953522
  0
LINE
  8
0
 62
     2
 10
170.481893
 20
272.960130
 11
166.675580
 21
272.742492
  0
LINE
  8
0
 62
     2
 10
166.675580
 20
281.275725
 11
170.481893
 21
281.058087
  0
LINE
  8
0
 62
     2
 10
170.481893
 20
333.751607
 11
166.675580
 21
336.801588
  0
LINE
  8
0
 62
     2
 10
171.132774
 20
331.409024
 11
171.183760
 21
331.409024
  0
LINE
  8
0
 62
     2
 10
166.675580
 20
342.835495
 11
170.481893
 21
339.477727
  0
LINE
  8
0
 62
     2
 10
170.481893
 20
361.304097
 11
166.675580
 21
365.835060
  0
LINE
  8
0
 62
     2
 10
171.183760
 20
357.824026
 11
171.183760
 21
359.377955
  0
LINE
  8
0
 62
     2
 10
171.132774
 20
357.824026
 11
171.183760
 21
357.824026
  0
LINE
  8
0
 62
     2
 10
155.183760
 20
315.860132
 11
155.183760
 21
318.097031
  0
LINE
  8
0
 62
     2
 10
157.183760
 20
318.097031
 11
157.183760
 21
314.976363
  0
LINE
  8
0
 62
     2
 10
155.183760
 20
356.945583
 11
155.183760
 21
362.345934
  0
LINE
  8
0
 62
     2
 10
157.183760
 20
362.345934
 11
157.183760
 21
356.605683
  0
LINE
  8
0
 62
     2
 10
159.183760
 20
361.762556
 11
159.183760
 21
357.553038
  0
LINE
  8
0
 62
     2
 10
190.094970
 20
148.009109
 11
169.688874
 21
191.770125
  0
LINE
  8
0
 62
     2
 10
155.183760
 20
367.009107
 11
164.470963
 21
367.009109
  0
LINE
  8
0
 62
     2
 10
146.183760
 20
137.009109
 11
146.183760
 21
135.009109
  0
LINE
  8
0
 62
     2
 10
146.183760
 20
135.009109
 11
153.183760
 21
135.009109
  0
LINE
  8
0
 62
     2
 10
146.183760
 20
247.292919
 11
146.183760
 21
135.009109
  0
LINE
  8
0
 62
     2
 10
185.183760
 20
135.009109
 11
153.183760
 21
135.009109
  0
LINE
  8
0
 62
     2
 10
153.183760
 20
135.009109
 11
191.183760
 21
135.009109
  0
LINE
  8
0
 62
     2
 10
153.183760
 20
249.751972
 11
155.130202
 21
249.751972
  0
LINE
  8
0
 62
     2
 10
153.183760
 20
252.387684
 11
155.183760
 21
252.387684
  0
LINE
  8
0
 62
     2
 10
153.183760
 20
260.435372
 11
155.183760
 21
260.435372
  0
LINE
  8
0
 62
     2
 10
153.183760
 20
262.333687
 11
155.183760
 21
262.333687
  0
LINE
  8
0
 62
     2
 10
153.183760
 20
272.467095
 11
153.274530
 21
272.467095
  0
LINE
  8
0
 62
     2
 10
153.274530
 20
358.073253
 11
153.183760
 21
358.073253
  0
LINE
  8
0
 62
     2
 10
153.183760
 20
281.551122
 11
153.274530
 21
281.551122
  0
LINE
  8
0
 62
     2
 10
153.183760
 20
291.684530
 11
155.183760
 21
291.684530
  0
LINE
  8
0
 62
     2
 10
153.183760
 20
293.582845
 11
155.183760
 21
293.582845
  0
LINE
  8
0
 62
     2
 10
153.183760
 20
301.630533
 11
155.183760
 21
301.630533
  0
LINE
  8
0
 62
     2
 10
153.183760
 20
304.266245
 11
157.473152
 21
304.266245
  0
LINE
  8
0
 62
     2
 10
153.183760
 20
331.118426
 11
153.274530
 21
331.118426
  0
LINE
  8
0
 62
     2
 10
155.230861
 20
356.698793
 11
154.183760
 21
357.303337
  0
POLYLINE
  8
0
 62
     2
 66
    1
  0
VERTEX
  8
0
 62
     2
 10
164.470963
 20
337.306641
  0
VERTEX
  8
0
 62
     2
 10
164.470963
 20
337.306641
  0
VERTEX
  8
0
 62
     2
 10
170.481888
 20
332.507263
  0
VERTEX
  8
0
 62
     2
 10
171.002838
 20
331.902740
  0
VERTEX
  8
0
 62
     2
 10
171.132767
 20
331.409027
  0
SEQEND
  8
0
  0
POLYLINE
  8
0
 62
     2
 66
    1
  0
VERTEX
  8
0
 62
     2
 10
166.675583
 20
342.835480
  0
VERTEX
  8
0
 62
     2
 10
165.645294
 20
343.420685
  0
VERTEX
  8
0
 62
     2
 10
164.470963
 20
343.613403
  0
SEQEND
  8
0
  0
POLYLINE
  8
0
 62
     2
 66
    1
  0
VERTEX
  8
0
 62
     2
 10
166.675583
 20
336.801575
  0
VERTEX
  8
0
 62
     2
 10
165.645294
 20
337.333130
  0
VERTEX
  8
0
 62
     2
 10
164.470963
 20
337.508179
  0
SEQEND
  8
0
  0
LINE
  8
0
 62
     2
 10
164.470963
 20
367.009109
 11
164.470963
 21
337.306629
  0
POLYLINE
  8
0
 62
     2
 66
    1
  0
VERTEX
  8
0
 62
     2
 10
164.470963
 20
367.009094
  0
VERTEX
  8
0
 62
     2
 10
164.470963
 20
367.009094
  0
VERTEX
  8
0
 62
     2
 10
170.481888
 20
359.455505
  0
VERTEX
  8
0
 62
     2
 10
171.002838
 20
358.557465
  0
VERTEX
  8
0
 62
     2
 10
171.132767
 20
357.824036
  0
SEQEND
  8
0
  0
POLYLINE
  8
0
 62
     2
 66
    1
  0
VERTEX
  8
0
 62
     2
 10
166.675583
 20
365.835052
  0
VERTEX
  8
0
 62
     2
 10
165.645294
 20
366.624725
  0
VERTEX
  8
0
 62
     2
 10
164.470963
 20
367.009094
  0
SEQEND
  8
0
  0
POLYLINE
  8
0
 62
     2
 66
    1
  0
VERTEX
  8
0
 62
     2
 10
164.470963
 20
281.326141
  0
VERTEX
  8
0
 62
     2
 10
165.645294
 20
281.313660
  0
VERTEX
  8
0
 62
     2
 10
166.675583
 20
281.275726
  0
SEQEND
  8
0
  0
LINE
  8
0
 62
     2
 10
155.183760
 20
277.009109
 11
164.470963
 21
277.009109
  0
LINE
  8
0
 62
     2
 10
153.183760
 20
235.540597
 11
153.387400
 21
235.603570
  0
LINE
  8
0
 62
     2
 10
153.387400
 20
235.603570
 11
157.327986
 21
239.482844
  0
LINE
  8
0
 62
     2
 10
157.327986
 20
239.482844
 11
157.459479
 21
239.729888
  0
LINE
  8
0
 62
     2
 10
157.459479
 20
239.729888
 11
160.576018
 21
249.238240
  0
LINE
  8
0
 62
     2
 10
160.576018
 20
249.238240
 11
162.991459
 21
259.106996
  0
LINE
  8
0
 62
     2
 10
162.991459
 20
259.106996
 11
164.470963
 21
277.009109
  0
LINE
  8
0
 62
     2
 10
164.470963
 20
337.306629
 11
164.470963
 21
277.009109
  0
POLYLINE
  8
0
 62
     2
 66
    1
  0
VERTEX
  8
0
 62
     2
 10
166.675583
 20
272.742493
  0
VERTEX
  8
0
 62
     2
 10
165.645294
 20
272.704559
  0
VERTEX
  8
0
 62
     2
 10
164.113876
 20
272.688263
  0
SEQEND
  8
0
  0
LINE
  8
0
 62
     2
 10
153.183760
 20
150.009109
 11
153.183760
 21
235.540597
  0
LINE
  8
0
 62
     2
 10
155.183760
 20
148.009109
 11
185.183760
 21
148.009109
  0
ARC
  8
0
 62
     2
 10
155.183760
 20
150.009109
 40
2.000000
 50
180.000000
 51
270.000000
  0
INSERT
  8
OBRYS
  2
_11
 62
     7
 10
927.407825
 20
277.009109
  0
INSERT
  8
OBRYS
  2
_12
 62
     7
 10
389.659929
 20
277.009109
  0
LINE
  8
OBRYS
 10
716.136098
 20
187.009109
 11
723.136098
 21
187.009109
  0
LINE
  8
OBRYS
 10
56.183760
 20
187.009109
 11
63.183760
 21
187.009109
  0
LINE
  8
0
 62
     2
 10
477.159929
 20
571.485278
 11
484.659929
 21
571.485278
  0
LINE
  8
0
 62
     2
 10
477.159929
 20
559.485278
 11
484.659929
 21
559.485278
  0
LINE
  8
0
 62
     2
 10
294.659929
 20
562.035278
 11
294.659929
 21
568.935278
  0
LINE
  8
0
 62
     2
 10
294.659929
 20
568.935278
 11
294.659929
 21
562.035278
  0
LINE
  8
0
 62
     2
 10
484.659929
 20
529.485278
 11
484.659929
 21
601.485278
  0
LINE
  8
0
 62
     2
 10
484.659929
 20
528.485278
 11
484.659929
 21
522.485278
  0
LINE
  8
0
 62
     2
 10
484.659929
 20
571.485278
 11
484.659929
 21
559.485278
  0
LINE
  8
0
 62
     2
 10
294.659929
 20
559.485278
 11
294.659929
 21
571.485278
  0
LINE
  8
0
 62
     2
 10
484.659929
 20
608.485278
 11
484.659929
 21
602.485278
  0
LINE
  8
0
 62
     2
 10
484.659929
 20
522.485278
 11
479.659929
 21
522.485278
  0
LINE
  8
0
 62
     2
 10
479.350911
 20
528.485278
 11
484.659929
 21
528.485278
  0
LINE
  8
0
 62
     2
 10
294.659929
 20
528.485278
 11
299.968947
 21
528.485278
  0
LINE
  8
0
 62
     2
 10
484.659929
 20
559.485278
 11
484.659929
 21
528.485278
  0
LINE
  8
0
 62
     2
 10
294.659929
 20
559.485278
 11
308.159929
 21
559.485278
  0
LINE
  8
0
 62
     2
 10
294.659929
 20
528.485278
 11
294.659929
 21
559.485278
  0
LINE
  8
0
 62
     2
 10
294.659929
 20
571.485278
 11
308.159929
 21
571.485278
  0
LINE
  8
0
 62
     2
 10
484.659929
 20
602.485278
 11
484.659929
 21
571.485278
  0
LINE
  8
0
 62
     2
 10
479.350911
 20
602.485278
 11
484.659929
 21
602.485278
  0
LINE
  8
0
 62
     2
 10
294.659929
 20
602.485278
 11
299.968947
 21
602.485278
  0
LINE
  8
0
 62
     2
 10
294.659929
 20
571.485278
 11
294.659929
 21
602.485278
  0
LINE
  8
0
 62
     2
 10
479.659929
 20
608.485278
 11
484.659929
 21
608.485278
  0
LINE
  8
OBRYS
 10
294.659929
 20
-1.709986
 11
293.555230
 21
-1.671409
  0
LINE
  8
OBRYS
 10
294.659929
 20
-44.709986
 11
294.659929
 21
-1.709986
  0
LINE
  8
OBRYS
 10
294.659929
 20
-44.709986
 11
294.659929
 21
-87.709986
  0
LINE
  8
OBRYS
 10
294.659929
 20
-87.709986
 11
293.555230
 21
-87.748563
  0
LINE
  8
0
 62
     2
 10
294.659929
 20
-11.779532
 11
294.659929
 21
-4.894305
  0
LINE
  8
0
 62
     2
 10
294.659929
 20
-48.159986
 11
294.659929
 21
-41.259986
  0
LINE
  8
0
 62
     2
 10
294.659929
 20
-11.779532
 11
294.659929
 21
-4.894305
  0
LINE
  8
0
 62
     2
 10
294.659929
 20
-77.640439
 11
294.659929
 21
-84.525666
  0
LINE
  8
0
 62
     2
 10
294.659929
 20
-77.640439
 11
294.659929
 21
-84.525666
  0
LINE
  8
0
 62
     2
 10
294.659929
 20
-41.259986
 11
294.659929
 21
-48.159986
  0
LINE
  8
0
 62
     2
 10
294.659929
 20
-80.709986
 11
294.659929
 21
-8.709986
  0
LINE
  8
0
 62
     2
 10
484.659929
 20
-80.709986
 11
484.659929
 21
-8.709986
  0
LINE
  8
0
 62
     2
 10
450.459929
 20
-7.709986
 11
458.859929
 21
-7.709986
  0
LINE
  8
0
 62
     2
 10
320.459929
 20
-7.709986
 11
328.859929
 21
-7.709986
  0
POLYLINE
  8
0
 62
     2
 66
    1
  0
VERTEX
  8
0
 62
     2
 10
334.659943
 20
-87.709984
  0
VERTEX
  8
0
 62
     2
 10
333.817505
 20
-87.709984
  0
VERTEX
  8
0
 62
     2
 10
331.117065
 20
-87.709984
  0
VERTEX
  8
0
 62
     2
 10
331.076019
 20
-87.709984
  0
VERTEX
  8
0
 62
     2
 10
330.126587
 20
-87.447754
  0
VERTEX
  8
0
 62
     2
 10
329.683441
 20
-86.672531
  0
VERTEX
  8
0
 62
     2
 10
329.765930
 20
-85.418190
  0
VERTEX
  8
0
 62
     2
 10
330.221252
 20
-84.153809
  0
VERTEX
  8
0
 62
     2
 10
330.249725
 20
-83.739555
  0
VERTEX
  8
0
 62
     2
 10
330.886230
 20
-81.709984
  0
VERTEX
  8
0
 62
     2
 10
333.143066
 20
-76.188171
  0
VERTEX
  8
0
 62
     2
 10
334.567657
 20
-68.650764
  0
VERTEX
  8
0
 62
     2
 10
334.288879
 20
-61.307369
  0
VERTEX
  8
0
 62
     2
 10
332.250031
 20
-53.569019
  0
VERTEX
  8
0
 62
     2
 10
330.880951
 20
-50.709988
  0
VERTEX
  8
0
 62
     2
 10
330.086304
 20
-48.418190
  0
VERTEX
  8
0
 62
     2
 10
329.806396
 20
-45.964329
  0
VERTEX
  8
0
 62
     2
 10
329.929962
 20
-44.709988
  0
VERTEX
  8
0
 62
     2
 10
329.806396
 20
-43.455647
  0
VERTEX
  8
0
 62
     2
 10
330.086304
 20
-41.001785
  0
VERTEX
  8
0
 62
     2
 10
330.880951
 20
-38.709988
  0
VERTEX
  8
0
 62
     2
 10
332.250031
 20
-35.850956
  0
VERTEX
  8
0
 62
     2
 10
334.288879
 20
-28.112604
  0
VERTEX
  8
0
 62
     2
 10
334.567657
 20
-20.769205
  0
VERTEX
  8
0
 62
     2
 10
333.143066
 20
-13.231802
  0
VERTEX
  8
0
 62
     2
 10
330.886230
 20
-7.709982
  0
VERTEX
  8
0
 62
     2
 10
330.249725
 20
-5.680418
  0
VERTEX
  8
0
 62
     2
 10
330.221252
 20
-5.266165
  0
VERTEX
  8
0
 62
     2
 10
329.765930
 20
-4.001783
  0
VERTEX
  8
0
 62
     2
 10
329.683441
 20
-2.747442
  0
VERTEX
  8
0
 62
     2
 10
330.126587
 20
-1.972212
  0
VERTEX
  8
0
 62
     2
 10
331.076019
 20
-1.709982
  0
VERTEX
  8
0
 62
     2
 10
331.117065
 20
-1.709982
  0
VERTEX
  8
0
 62
     2
 10
333.817505
 20
-1.709982
  0
VERTEX
  8
0
 62
     2
 10
334.659943
 20
-1.709982
  0
SEQEND
  8
0
  0
LINE
  8
0
 62
     2
 10
444.659929
 20
-1.709986
 11
444.659929
 21
-87.709986
  0
POLYLINE
  8
0
 62
     2
 66
    1
  0
VERTEX
  8
0
 62
     2
 10
444.659943
 20
-87.709984
  0
VERTEX
  8
0
 62
     2
 10
445.502350
 20
-87.709984
  0
VERTEX
  8
0
 62
     2
 10
448.202789
 20
-87.709984
  0
VERTEX
  8
0
 62
     2
 10
448.243835
 20
-87.709984
  0
VERTEX
  8
0
 62
     2
 10
449.193268
 20
-87.447754
  0
VERTEX
  8
0
 62
     2
 10
449.636414
 20
-86.672531
  0
VERTEX
  8
0
 62
     2
 10
449.553925
 20
-85.418190
  0
VERTEX
  8
0
 62
     2
 10
449.098602
 20
-84.153809
  0
VERTEX
  8
0
 62
     2
 10
449.070129
 20
-83.739555
  0
VERTEX
  8
0
 62
     2
 10
448.433624
 20
-81.709984
  0
VERTEX
  8
0
 62
     2
 10
446.176819
 20
-76.188171
  0
VERTEX
  8
0
 62
     2
 10
444.752197
 20
-68.650764
  0
VERTEX
  8
0
 62
     2
 10
445.030975
 20
-61.307369
  0
VERTEX
  8
0
 62
     2
 10
447.069824
 20
-53.569019
  0
VERTEX
  8
0
 62
     2
 10
448.438904
 20
-50.709988
  0
VERTEX
  8
0
 62
     2
 10
449.233551
 20
-48.418190
  0
VERTEX
  8
0
 62
     2
 10
449.513458
 20
-45.964329
  0
VERTEX
  8
0
 62
     2
 10
449.389923
 20
-44.709988
  0
VERTEX
  8
0
 62
     2
 10
449.513458
 20
-43.455647
  0
VERTEX
  8
0
 62
     2
 10
449.233551
 20
-41.001785
  0
VERTEX
  8
0
 62
     2
 10
448.438904
 20
-38.709988
  0
VERTEX
  8
0
 62
     2
 10
447.069824
 20
-35.850956
  0
VERTEX
  8
0
 62
     2
 10
445.030975
 20
-28.112604
  0
VERTEX
  8
0
 62
     2
 10
444.752197
 20
-20.769205
  0
VERTEX
  8
0
 62
     2
 10
446.176819
 20
-13.231802
  0
VERTEX
  8
0
 62
     2
 10
448.433624
 20
-7.709982
  0
VERTEX
  8
0
 62
     2
 10
449.070129
 20
-5.680418
  0
VERTEX
  8
0
 62
     2
 10
449.098602
 20
-5.266165
  0
VERTEX
  8
0
 62
     2
 10
449.553925
 20
-4.001783
  0
VERTEX
  8
0
 62
     2
 10
449.636414
 20
-2.747442
  0
VERTEX
  8
0
 62
     2
 10
449.193268
 20
-1.972212
  0
VERTEX
  8
0
 62
     2
 10
448.243835
 20
-1.709982
  0
VERTEX
  8
0
 62
     2
 10
448.202789
 20
-1.709982
  0
VERTEX
  8
0
 62
     2
 10
445.502350
 20
-1.709982
  0
VERTEX
  8
0
 62
     2
 10
444.659943
 20
-1.709982
  0
SEQEND
  8
0
  0
POLYLINE
  8
0
 62
     2
 66
    1
  0
VERTEX
  8
0
 62
     2
 10
429.993103
 20
-87.709984
  0
VERTEX
  8
0
 62
     2
 10
424.101440
 20
-87.399818
  0
VERTEX
  8
0
 62
     2
 10
407.218048
 20
-86.895393
  0
VERTEX
  8
0
 62
     2
 10
406.017853
 20
-86.883751
  0
VERTEX
  8
0
 62
     2
 10
389.659943
 20
-86.395027
  0
VERTEX
  8
0
 62
     2
 10
373.302002
 20
-86.883751
  0
VERTEX
  8
0
 62
     2
 10
372.101807
 20
-86.895393
  0
VERTEX
  8
0
 62
     2
 10
355.218414
 20
-87.399818
  0
VERTEX
  8
0
 62
     2
 10
349.326752
 20
-87.709984
  0
SEQEND
  8
0
  0
POLYLINE
  8
0
 62
     2
 66
    1
  0
VERTEX
  8
0
 62
     2
 10
349.326752
 20
-1.709982
  0
VERTEX
  8
0
 62
     2
 10
355.218414
 20
-2.020147
  0
VERTEX
  8
0
 62
     2
 10
372.101807
 20
-2.524572
  0
VERTEX
  8
0
 62
     2
 10
373.302002
 20
-2.536215
  0
VERTEX
  8
0
 62
     2
 10
389.659943
 20
-3.024946
  0
VERTEX
  8
0
 62
     2
 10
406.017853
 20
-2.536215
  0
VERTEX
  8
0
 62
     2
 10
407.218048
 20
-2.524572
  0
VERTEX
  8
0
 62
     2
 10
424.101440
 20
-2.020147
  0
VERTEX
  8
0
 62
     2
 10
429.993103
 20
-1.709982
  0
SEQEND
  8
0
  0
LINE
  8
0
 62
     2
 10
334.659929
 20
-1.709986
 11
334.659929
 21
-87.709986
  0
LINE
  8
0
 62
     2
 10
484.659929
 20
-38.709986
 11
484.659929
 21
-50.709986
  0
LINE
  8
0
 62
     2
 10
294.659929
 20
-38.709986
 11
294.659929
 21
-50.709986
  0
LINE
  8
0
 62
     2
 10
484.659929
 20
-1.709986
 11
484.659929
 21
-7.709986
  0
LINE
  8
0
 62
     2
 10
294.659929
 20
-1.709986
 11
294.659929
 21
-7.709986
  0
LINE
  8
0
 62
     2
 10
484.659929
 20
-81.709986
 11
484.659929
 21
-87.709986
  0
LINE
  8
0
 62
     2
 10
294.659929
 20
-81.709986
 11
294.659929
 21
-87.709986
  0
LINE
  8
0
 62
     2
 10
446.042368
 20
-1.709986
 11
454.561307
 21
-1.709986
  0
LINE
  8
0
 62
     2
 10
324.758551
 20
-1.709986
 11
333.277490
 21
-1.709986
  0
LINE
  8
0
 62
     2
 10
454.561307
 20
-87.709986
 11
446.042368
 21
-87.709986
  0
LINE
  8
0
 62
     2
 10
333.277490
 20
-87.709986
 11
324.758551
 21
-87.709986
  0
LINE
  8
0
 62
     2
 10
325.412221
 20
-81.709986
 11
320.459929
 21
-81.709986
  0
LINE
  8
0
 62
     2
 10
458.859929
 20
-81.709986
 11
453.907637
 21
-81.709986
  0
LINE
  8
0
 62
     2
 10
318.825687
 20
-81.709986
 11
330.886224
 21
-81.709986
  0
LINE
  8
0
 62
     2
 10
448.433633
 20
-81.709986
 11
460.494171
 21
-81.709986
  0
LINE
  8
0
 62
     2
 10
444.659929
 20
-8.709986
 11
444.659929
 21
-11.709986
  0
LINE
  8
0
 62
     2
 10
334.659929
 20
-8.709986
 11
334.659929
 21
-11.709986
  0
LINE
  8
0
 62
     2
 10
349.326760
 20
-87.709986
 11
334.659929
 21
-87.709986
  0
LINE
  8
0
 62
     2
 10
444.659929
 20
-87.709986
 11
429.993098
 21
-87.709986
  0
LINE
  8
0
 62
     2
 10
429.993098
 20
-1.709986
 11
444.659929
 21
-1.709986
  0
LINE
  8
0
 62
     2
 10
334.659929
 20
-1.709986
 11
349.326760
 21
-1.709986
  0
LINE
  8
0
 62
     2
 10
484.659929
 20
-50.709986
 11
484.659929
 21
-81.709986
  0
LINE
  8
0
 62
     2
 10
448.438899
 20
-50.709986
 11
484.659929
 21
-50.709986
  0
LINE
  8
0
 62
     2
 10
294.659929
 20
-50.709986
 11
294.659929
 21
-81.709986
  0
LINE
  8
0
 62
     2
 10
330.880959
 20
-50.709986
 11
294.659929
 21
-50.709986
  0
LINE
  8
0
 62
     2
 10
448.438899
 20
-38.709986
 11
484.659929
 21
-38.709986
  0
LINE
  8
0
 62
     2
 10
330.880959
 20
-38.709986
 11
294.659929
 21
-38.709986
  0
LINE
  8
0
 62
     2
 10
484.659929
 20
-7.709986
 11
484.659929
 21
-38.709986
  0
LINE
  8
0
 62
     2
 10
448.433633
 20
-7.709986
 11
484.659929
 21
-7.709986
  0
LINE
  8
0
 62
     2
 10
294.659929
 20
-7.709986
 11
294.659929
 21
-38.709986
  0
LINE
  8
0
 62
     2
 10
330.886224
 20
-7.709986
 11
294.659929
 21
-7.709986
  0
LINE
  8
0
 62
     2
 10
448.243850
 20
-1.709986
 11
484.659929
 21
-1.709986
  0
LINE
  8
0
 62
     2
 10
331.076008
 20
-1.709986
 11
294.659929
 21
-1.709986
  0
LINE
  8
0
 62
     2
 10
484.659929
 20
-87.709986
 11
448.243850
 21
-87.709986
  0
LINE
  8
0
 62
     2
 10
294.659929
 20
-87.709986
 11
331.076008
 21
-87.709986
  0
LINE
  8
0
 62
     2
 10
448.433633
 20
-81.709986
 11
484.659929
 21
-81.709986
  0
LINE
  8
0
 62
     2
 10
330.886224
 20
-81.709986
 11
294.659929
 21
-81.709986
  0
LINE
  8
0
 62
     2
 10
444.659929
 20
-77.709986
 11
444.659929
 21
-80.709986
  0
LINE
  8
0
 62
     2
 10
334.659929
 20
-80.709986
 11
334.659929
 21
-77.709986
  0
LINE
  8
OBRYS
 62
     7
  6
DASHDOT
 10
389.659929
 20
-114.709986
 11
389.659929
 21
25.290014
  0
LINE
  8
OBRYS
 62
     7
  6
DASHDOT
 10
490.786226
 20
-44.709986
 11
297.659929
 21
-44.709986
  0
LINE
  8
OBRYS
 10
299.659929
 20
-89.709986
 11
479.659929
 21
-89.709986
  0
INSERT
  8
OSA
 66
     1
  2
M10x1_13
  6
CONTINUOUS
 10
474.159929
 20
1074.900472
  0
ATTRIB
  8
OSA
 62
     2
  6
CONTINUOUS
 10
0.000000
 20
0.000000
 40
3.749998
  1
DIN 908
  2
norma roz.
 70
     1
  0
SEQEND
  8
OSA
  0
LINE
  8
OBRYS
 10
474.159929
 20
574.485345
 11
474.159929
 21
556.485211
  0
LINE
  8
OBRYS
 10
474.159929
 20
556.485211
 11
473.160065
 21
556.485279
  0
ARC
  8
OBRYS
 10
473.159929
 20
554.485279
 40
2.000000
 50
89.996087
 51
180.000000
  0
LINE
  8
OBRYS
 10
474.159929
 20
574.485345
 11
473.160065
 21
574.485277
  0
ARC
  8
OBRYS
 10
473.159929
 20
576.485277
 40
2.000000
 50
180.000000
 51
270.003913
  0
LINE
  8
OBRYS
 10
299.659929
 20
610.485278
 11
479.659929
 21
610.485278
  0
LINE
  8
OBRYS
 10
477.659929
 20
529.485278
 11
301.659929
 21
529.485278
  0
LINE
  8
OBRYS
 10
477.659929
 20
601.485278
 11
301.659929
 21
601.485278
  0
LINE
  8
0
 62
     2
 10
417.923792
 20
585.094242
 11
419.232021
 21
584.826244
  0
LINE
  8
0
 62
     2
 10
415.967134
 20
586.440700
 11
417.923792
 21
585.094242
  0
LINE
  8
0
 62
     2
 10
415.414525
 20
586.828424
 11
415.967134
 21
586.440700
  0
LINE
  8
0
 62
     2
 10
413.763007
 20
589.423810
 11
415.414525
 21
586.828424
  0
LINE
  8
0
 62
     2
 10
413.183071
 20
592.485278
 11
413.763007
 21
589.423810
  0
LINE
  8
0
 62
     2
 10
413.183071
 20
599.485278
 11
413.183071
 21
592.485278
  0
LINE
  8
0
 62
     2
 10
413.227051
 20
600.250645
 11
413.183071
 21
599.485278
  0
LINE
  8
0
 62
     2
 10
413.266251
 20
600.453720
 11
413.227051
 21
600.250645
  0
LINE
  8
0
 62
     2
 10
413.408720
 20
600.899491
 11
413.266251
 21
600.453720
  0
LINE
  8
0
 62
     2
 10
413.719075
 20
601.333037
 11
413.408720
 21
600.899491
  0
LINE
  8
0
 62
     2
 10
414.005530
 20
601.452162
 11
413.719075
 21
601.333037
  0
LINE
  8
0
 62
     2
 10
414.119299
 20
601.485278
 11
414.005530
 21
601.452162
  0
POLYLINE
  8
0
 62
     2
 66
    1
  0
VERTEX
  8
0
 62
     2
 10
464.740509
 20
584.613342
  0
VERTEX
  8
0
 62
     2
 10
464.647186
 20
584.641296
  0
VERTEX
  8
0
 62
     2
 10
464.494171
 20
584.695251
  0
VERTEX
  8
0
 62
     2
 10
464.159760
 20
584.826233
  0
VERTEX
  8
0
 62
     2
 10
463.515320
 20
585.094238
  0
VERTEX
  8
0
 62
     2
 10
462.551453
 20
586.440674
  0
VERTEX
  8
0
 62
     2
 10
462.279236
 20
586.828430
  0
VERTEX
  8
0
 62
     2
 10
461.465668
 20
589.423828
  0
VERTEX
  8
0
 62
     2
 10
461.179993
 20
592.485291
  0
VERTEX
  8
0
 62
     2
 10
461.179993
 20
599.485291
  0
VERTEX
  8
0
 62
     2
 10
461.313599
 20
600.250671
  0
VERTEX
  8
0
 62
     2
 10
461.432709
 20
600.453735
  0
VERTEX
  8
0
 62
     2
 10
461.721924
 20
600.899475
  0
VERTEX
  8
0
 62
     2
 10
462.351929
 20
601.333008
  0
VERTEX
  8
0
 62
     2
 10
462.933441
 20
601.452148
  0
VERTEX
  8
0
 62
     2
 10
463.111908
 20
601.485291
  0
SEQEND
  8
0
  0
LINE
  8
OBRYS
 10
471.159929
 20
588.126117
 11
471.159929
 21
565.485278
  0
LINE
  8
0
 62
     2
 10
428.657287
 20
592.485278
 11
428.657287
 21
601.485278
  0
LINE
  8
0
 62
     2
 10
472.494171
 20
601.352850
 11
472.494171
 21
592.485278
  0
POLYLINE
  8
0
 62
     2
 66
    1
  0
VERTEX
  8
0
 62
     2
 10
419.232025
 20
584.826233
  0
VERTEX
  8
0
 62
     2
 10
419.910889
 20
584.695251
  0
VERTEX
  8
0
 62
     2
 10
420.221527
 20
584.641296
  0
VERTEX
  8
0
 62
     2
 10
420.410950
 20
584.613342
  0
VERTEX
  8
0
 62
     2
 10
420.547211
 20
584.597534
  0
SEQEND
  8
0
  0
ARC
  8
0
 62
     2
 10
420.814548
 20
587.249132
 40
2.668241
 50
264.805118
 51
277.765379
  0
POLYLINE
  8
0
 62
     2
 66
    1
  0
VERTEX
  8
0
 62
     2
 10
421.251984
 20
584.613342
  0
VERTEX
  8
0
 62
     2
 10
421.426575
 20
584.641296
  0
VERTEX
  8
0
 62
     2
 10
421.712860
 20
584.695251
  0
SEQEND
  8
0
  0
LINE
  8
0
 62
     2
 10
428.657287
 20
592.485278
 11
413.183071
 21
592.485278
  0
POLYLINE
  8
0
 62
     2
 66
    1
  0
VERTEX
  8
0
 62
     2
 10
423.718750
 20
585.094238
  0
VERTEX
  8
0
 62
     2
 10
426.314148
 20
586.828430
  0
VERTEX
  8
0
 62
     2
 10
428.048340
 20
589.423828
  0
VERTEX
  8
0
 62
     2
 10
428.657288
 20
592.485291
  0
SEQEND
  8
0
  0
LINE
  8
0
 62
     2
 10
421.712857
 20
584.695244
 11
423.718754
 21
585.094242
  0
POLYLINE
  8
0
 62
     2
 66
    1
  0
VERTEX
  8
0
 62
     2
 10
465.014160
 20
584.588684
  0
VERTEX
  8
0
 62
     2
 10
464.984558
 20
584.584717
  0
VERTEX
  8
0
 62
     2
 10
464.956116
 20
584.584717
  0
SEQEND
  8
0
  0
ARC
  8
0
 62
     2
 10
464.933008
 20
585.156458
 40
0.574217
 50
253.397780
 51
271.497555
  0
LINE
  8
0
 62
     2
 10
472.494171
 20
592.485278
 11
461.179994
 21
592.485278
  0
POLYLINE
  8
0
 62
     2
 66
    1
  0
VERTEX
  8
0
 62
     2
 10
467.555634
 20
585.094238
  0
VERTEX
  8
0
 62
     2
 10
470.151031
 20
586.828430
  0
VERTEX
  8
0
 62
     2
 10
471.885193
 20
589.423828
  0
VERTEX
  8
0
 62
     2
 10
472.494171
 20
592.485291
  0
SEQEND
  8
0
  0
LINE
  8
0
 62
     2
 10
467.555638
 20
585.094242
 11
465.014154
 21
584.588709
  0
POLYLINE
  8
0
 62
     2
 66
    1
  0
VERTEX
  8
0
 62
     2
 10
471.159943
 20
588.338379
  0
VERTEX
  8
0
 62
     2
 10
471.885193
 20
589.423828
  0
VERTEX
  8
0
 62
     2
 10
472.494171
 20
592.485291
  0
SEQEND
  8
0
  0
LINE
  8
0
 62
     2
 10
421.708179
 20
592.485278
 11
414.330528
 21
592.485278
  0
LINE
  8
OBRYS
 10
471.159929
 20
565.485278
 11
471.159929
 21
531.485278
  0
LINE
  8
OBRYS
 10
479.659929
 20
515.485278
 11
479.659929
 21
527.485278
  0
ARC
  8
OBRYS
 10
473.159929
 20
531.485278
 40
2.000000
 50
180.000000
 51
270.000000
  0
ARC
  8
OBRYS
 10
477.659929
 20
527.485278
 40
2.000000
 50
0.000000
 51
90.000000
  0
ARC
  8
OBRYS
 10
477.659929
 20
603.485278
 40
2.000000
 50
270.000000
 51
360.000000
  0
LINE
  8
OBRYS
 62
     7
  6
DASHDOT
 10
491.270788
 20
565.485278
 11
297.659929
 21
565.485278
  0
LINE
  8
OBRYS
 62
     7
  6
DASHDOT
 10
389.659929
 20
635.485278
 11
389.659929
 21
495.485278
  0
ARC
  8
OBRYS
 10
301.659929
 20
603.485278
 40
2.000000
 50
180.000000
 51
270.000000
  0
ARC
  8
OBRYS
 10
301.659929
 20
527.485278
 40
2.000000
 50
90.000000
 51
180.000000
  0
ARC
  8
OBRYS
 10
306.159929
 20
531.485278
 40
2.000000
 50
270.000000
 51
360.000000
  0
LINE
  8
OBRYS
 10
299.659929
 20
515.485278
 11
299.659929
 21
527.485278
  0
LINE
  8
OBRYS
 10
308.159929
 20
565.485278
 11
308.159929
 21
531.485278
  0
LINE
  8
0
 62
     2
 10
357.611679
 20
592.485278
 11
364.989330
 21
592.485278
  0
POLYLINE
  8
0
 62
     2
 66
    1
  0
VERTEX
  8
0
 62
     2
 10
308.159943
 20
588.338379
  0
VERTEX
  8
0
 62
     2
 10
307.434662
 20
589.423828
  0
VERTEX
  8
0
 62
     2
 10
306.825684
 20
592.485291
  0
SEQEND
  8
0
  0
LINE
  8
0
 62
     2
 10
311.764219
 20
585.094242
 11
314.305704
 21
584.588709
  0
POLYLINE
  8
0
 62
     2
 66
    1
  0
VERTEX
  8
0
 62
     2
 10
311.764221
 20
585.094238
  0
VERTEX
  8
0
 62
     2
 10
309.168823
 20
586.828430
  0
VERTEX
  8
0
 62
     2
 10
307.434662
 20
589.423828
  0
VERTEX
  8
0
 62
     2
 10
306.825684
 20
592.485291
  0
SEQEND
  8
0
  0
LINE
  8
0
 62
     2
 10
306.825687
 20
592.485278
 11
318.139864
 21
592.485278
  0
ARC
  8
0
 62
     2
 10
314.386849
 20
585.156458
 40
0.574217
 50
268.502445
 51
286.602220
  0
POLYLINE
  8
0
 62
     2
 66
    1
  0
VERTEX
  8
0
 62
     2
 10
314.305695
 20
584.588684
  0
VERTEX
  8
0
 62
     2
 10
314.335297
 20
584.584717
  0
VERTEX
  8
0
 62
     2
 10
314.363739
 20
584.584717
  0
SEQEND
  8
0
  0
LINE
  8
0
 62
     2
 10
357.607001
 20
584.695244
 11
355.601103
 21
585.094242
  0
POLYLINE
  8
0
 62
     2
 66
    1
  0
VERTEX
  8
0
 62
     2
 10
355.601105
 20
585.094238
  0
VERTEX
  8
0
 62
     2
 10
353.005707
 20
586.828430
  0
VERTEX
  8
0
 62
     2
 10
351.271545
 20
589.423828
  0
VERTEX
  8
0
 62
     2
 10
350.662567
 20
592.485291
  0
SEQEND
  8
0
  0
LINE
  8
0
 62
     2
 10
350.662571
 20
592.485278
 11
366.136787
 21
592.485278
  0
POLYLINE
  8
0
 62
     2
 66
    1
  0
VERTEX
  8
0
 62
     2
 10
358.067871
 20
584.613342
  0
VERTEX
  8
0
 62
     2
 10
357.893280
 20
584.641296
  0
VERTEX
  8
0
 62
     2
 10
357.606995
 20
584.695251
  0
SEQEND
  8
0
  0
ARC
  8
0
 62
     2
 10
358.505310
 20
587.249132
 40
2.668241
 50
262.234621
 51
275.194882
  0
POLYLINE
  8
0
 62
     2
 66
    1
  0
VERTEX
  8
0
 62
     2
 10
360.087830
 20
584.826233
  0
VERTEX
  8
0
 62
     2
 10
359.408966
 20
584.695251
  0
VERTEX
  8
0
 62
     2
 10
359.098328
 20
584.641296
  0
VERTEX
  8
0
 62
     2
 10
358.908905
 20
584.613342
  0
VERTEX
  8
0
 62
     2
 10
358.772644
 20
584.597534
  0
SEQEND
  8
0
  0
LINE
  8
0
 62
     2
 10
306.825687
 20
601.352850
 11
306.825687
 21
592.485278
  0
LINE
  8
0
 62
     2
 10
350.662571
 20
592.485278
 11
350.662571
 21
601.485278
  0
LINE
  8
OBRYS
 10
308.159929
 20
588.126117
 11
308.159929
 21
565.485278
  0
POLYLINE
  8
0
 62
     2
 66
    1
  0
VERTEX
  8
0
 62
     2
 10
314.579346
 20
584.613342
  0
VERTEX
  8
0
 62
     2
 10
314.672668
 20
584.641296
  0
VERTEX
  8
0
 62
     2
 10
314.825684
 20
584.695251
  0
VERTEX
  8
0
 62
     2
 10
315.160095
 20
584.826233
  0
VERTEX
  8
0
 62
     2
 10
315.804535
 20
585.094238
  0
VERTEX
  8
0
 62
     2
 10
316.768402
 20
586.440674
  0
VERTEX
  8
0
 62
     2
 10
317.040619
 20
586.828430
  0
VERTEX
  8
0
 62
     2
 10
317.854187
 20
589.423828
  0
VERTEX
  8
0
 62
     2
 10
318.139862
 20
592.485291
  0
VERTEX
  8
0
 62
     2
 10
318.139862
 20
599.485291
  0
VERTEX
  8
0
 62
     2
 10
318.006256
 20
600.250671
  0
VERTEX
  8
0
 62
     2
 10
317.887146
 20
600.453735
  0
VERTEX
  8
0
 62
     2
 10
317.597931
 20
600.899475
  0
VERTEX
  8
0
 62
     2
 10
316.967926
 20
601.333008
  0
VERTEX
  8
0
 62
     2
 10
316.386414
 20
601.452148
  0
VERTEX
  8
0
 62
     2
 10
316.207947
 20
601.485291
  0
SEQEND
  8
0
  0
LINE
  8
0
 62
     2
 10
365.200559
 20
601.485278
 11
365.314328
 21
601.452162
  0
LINE
  8
0
 62
     2
 10
365.314328
 20
601.452162
 11
365.600783
 21
601.333037
  0
LINE
  8
0
 62
     2
 10
365.600783
 20
601.333037
 11
365.911138
 21
600.899491
  0
LINE
  8
0
 62
     2
 10
365.911138
 20
600.899491
 11
366.053607
 21
600.453720
  0
LINE
  8
0
 62
     2
 10
366.053607
 20
600.453720
 11
366.092806
 21
600.250645
  0
LINE
  8
0
 62
     2
 10
366.092806
 20
600.250645
 11
366.136787
 21
599.485278
  0
LINE
  8
0
 62
     2
 10
366.136787
 20
599.485278
 11
366.136787
 21
592.485278
  0
LINE
  8
0
 62
     2
 10
366.136787
 20
592.485278
 11
365.556851
 21
589.423810
  0
LINE
  8
0
 62
     2
 10
365.556851
 20
589.423810
 11
363.905333
 21
586.828424
  0
LINE
  8
0
 62
     2
 10
363.905333
 20
586.828424
 11
363.352724
 21
586.440700
  0
LINE
  8
0
 62
     2
 10
363.352724
 20
586.440700
 11
361.396065
 21
585.094242
  0
LINE
  8
0
 62
     2
 10
361.396065
 20
585.094242
 11
360.087837
 21
584.826244
  0
INSERT
  8
OSA
 66
     1
  2
Sroub_M10x16_14
  6
CONTINUOUS
 10
389.659929
 20
565.485278
  0
ATTRIB
  8
OSA
  6
CONTINUOUS
 10
0.000000
 20
0.000000
 40
2.500000
  1
DIN 912
  2
norma roz.
 70
     1
  0
ATTRIB
  8
OSA
  6
CONTINUOUS
 10
0.000000
 20
0.000000
 40
2.500000
  1
1.5
  2
roztec
 70
     1
  0
ATTRIB
  8
OSA
  6
CONTINUOUS
 10
0.000000
 20
0.000000
 40
2.500000
  1
*N
  2
puvod
 70
     1
  0
SEQEND
  8
OSA
  0
CIRCLE
  8
OSA
 62
     2
  6
CONTINUOUS
 10
389.659929
 20
565.485278
 40
9.000000
  0
CIRCLE
  8
OSA
 62
     2
  6
CONTINUOUS
 10
101.183760
 20
277.009109
 40
9.000000
  0
INSERT
  8
OSA
 66
     1
  2
Sroub_M10x16_15
  6
CONTINUOUS
 10
101.183760
 20
277.009109
  0
ATTRIB
  8
OSA
  6
CONTINUOUS
 10
0.000000
 20
0.000000
 40
2.500000
  1
DIN 912
  2
norma roz.
 70
     1
  0
ATTRIB
  8
OSA
  6
CONTINUOUS
 10
0.000000
 20
0.000000
 40
2.500000
  1
1.5
  2
roztec
 70
     1
  0
ATTRIB
  8
OSA
  6
CONTINUOUS
 10
0.000000
 20
0.000000
 40
2.500000
  1
*N
  2
puvod
 70
     1
  0
SEQEND
  8
OSA
  0
INSERT
  8
OSA
 66
     1
  2
M10x1_16
  6
CONTINUOUS
 10
168.720903
 20
192.509109
  0
ATTRIB
  8
OSA
 62
     2
  6
CONTINUOUS
 10
0.000000
 20
0.000000
 40
3.749998
  1
DIN 908
  2
norma roz.
 70
     1
  0
SEQEND
  8
OSA
  0
INSERT
  8
OSA
 66
     1
  2
M10x1_17
  6
CONTINUOUS
 10
-408.231435
 20
192.509109
  0
ATTRIB
  8
OSA
 62
     2
  6
CONTINUOUS
 10
0.000000
 20
0.000000
 40
3.749998
  1
DIN 908
  2
norma roz.
 70
     1
  0
SEQEND
  8
OSA
  0
LINE
  8
OBRYS
 10
1022.407825
 20
328.718944
 11
1001.069843
 21
328.718944
  0
LINE
  8
OBRYS
 10
1022.407825
 20
339.111250
 11
992.548626
 21
339.111250
  0
LINE
  8
OBRYS
 10
1022.407825
 20
403.197130
 11
985.595846
 21
403.197130
  0
LINE
  8
OBRYS
 10
1022.407825
 20
385.299273
 11
985.595846
 21
385.299273
  0
LINE
  8
OBRYS
 10
1022.407825
 20
374.906967
 11
985.595846
 21
374.906967
  0
ARC
  8
OBRYS
 10
996.561870
 20
394.248202
 40
14.154046
 50
140.783507
 51
219.216493
  0
ARC
  8
OBRYS
 10
978.203539
 20
380.103120
 40
9.035829
 50
324.896096
 51
35.103904
  0
ARC
  8
OBRYS
 10
1034.241981
 20
357.009109
 40
51.834157
 50
159.800451
 51
190.491535
  0
ARC
  8
OBRYS
 10
820.573668
 20
357.009109
 40
51.834157
 50
349.508465
 51
20.199549
  0
ARC
  8
OBRYS
 10
876.612110
 20
380.103120
 40
9.035829
 50
144.896096
 51
215.103904
  0
ARC
  8
OBRYS
 10
858.253779
 20
394.248202
 40
14.154046
 50
320.783507
 51
39.216493
  0
LINE
  8
OBRYS
 10
832.407825
 20
374.906967
 11
869.219803
 21
374.906967
  0
LINE
  8
OBRYS
 10
832.407825
 20
385.299273
 11
869.219803
 21
385.299273
  0
LINE
  8
OBRYS
 10
832.407825
 20
403.197130
 11
869.219803
 21
403.197130
  0
LINE
  8
OBRYS
 10
872.407825
 20
400.009109
 11
872.407825
 21
348.248143
  0
LINE
  8
OBRYS
 10
832.407825
 20
339.111250
 11
862.267023
 21
339.111250
  0
LINE
  8
OBRYS
 10
832.407825
 20
328.718944
 11
853.745807
 21
328.718944
  0
LINE
  8
OBRYS
 10
982.407825
 20
400.009109
 11
982.407825
 21
347.001865
  0
LINE
  8
OBRYS
 10
987.203541
 20
404.804825
 11
1022.407825
 21
404.804825
  0
LINE
  8
OBRYS
 10
832.407825
 20
404.804825
 11
867.612108
 21
404.804825
  0
LINE
  8
OBRYS
 10
982.407825
 20
400.009109
 11
987.203541
 21
404.804825
  0
LINE
  8
OBRYS
 10
872.407825
 20
400.009109
 11
982.407825
 21
400.009109
  0
LINE
  8
OBRYS
 10
872.407825
 20
400.009109
 11
867.612108
 21
404.804825
  0
LINE
  8
OBRYS
 10
1011.448792
 20
309.213392
 11
1022.407825
 21
309.213392
  0
LINE
  8
OBRYS
 10
832.407825
 20
309.213392
 11
843.366858
 21
309.213392
  0
LINE
  8
OBRYS
 10
1022.407825
 20
404.804825
 11
1022.407825
 21
309.213392
  0
LINE
  8
OBRYS
 10
832.407825
 20
404.804825
 11
832.407825
 21
309.213392
  0
LINE
  8
OSA
 10
827.407825
 20
357.009109
 11
1027.407825
 21
357.009109
  0
LINE
  8
OSA
 10
927.407825
 20
404.509109
 11
927.407825
 21
182.009109
  0
LINE
  8
OSA
 10
832.407825
 20
277.009109
 11
1022.407825
 21
277.009109
  0
LINE
  8
OSA
 10
484.659929
 20
277.009109
 11
294.659929
 21
277.009109
  0
LINE
  8
OSA
 10
389.659929
 20
404.509109
 11
389.659929
 21
182.009109
  0
LINE
  8
OBRYS
 10
484.659929
 20
404.804825
 11
484.659929
 21
309.213392
  0
LINE
  8
OBRYS
 10
294.659929
 20
404.804825
 11
294.659929
 21
309.213392
  0
LINE
  8
OBRYS
 10
484.659929
 20
309.213392
 11
473.700896
 21
309.213392
  0
LINE
  8
OBRYS
 10
305.618962
 20
309.213392
 11
294.659929
 21
309.213392
  0
LINE
  8
OBRYS
 10
444.659929
 20
400.009109
 11
449.455646
 21
404.804825
  0
LINE
  8
OBRYS
 10
444.659929
 20
400.009109
 11
334.659929
 21
400.009109
  0
LINE
  8
OBRYS
 10
334.659929
 20
400.009109
 11
329.864212
 21
404.804825
  0
LINE
  8
OBRYS
 10
484.659929
 20
404.804825
 11
449.455646
 21
404.804825
  0
LINE
  8
OBRYS
 10
329.864212
 20
404.804825
 11
294.659929
 21
404.804825
  0
LINE
  8
OBRYS
 10
334.659929
 20
400.009109
 11
334.659929
 21
347.001865
  0
LINE
  8
OBRYS
 10
484.659929
 20
328.718944
 11
463.321947
 21
328.718944
  0
LINE
  8
OBRYS
 10
484.659929
 20
339.111250
 11
454.800730
 21
339.111250
  0
LINE
  8
OBRYS
 10
444.659929
 20
400.009109
 11
444.659929
 21
348.248143
  0
LINE
  8
OBRYS
 10
484.659929
 20
403.197130
 11
447.847950
 21
403.197130
  0
LINE
  8
OBRYS
 10
484.659929
 20
385.299273
 11
447.847950
 21
385.299273
  0
LINE
  8
OBRYS
 10
484.659929
 20
374.906967
 11
447.847950
 21
374.906967
  0
ARC
  8
OBRYS
 10
458.813974
 20
394.248202
 40
14.154046
 50
140.783507
 51
219.216493
  0
ARC
  8
OBRYS
 10
440.455643
 20
380.103120
 40
9.035829
 50
324.896096
 51
35.103904
  0
ARC
  8
OBRYS
 10
496.494085
 20
357.009109
 40
51.834157
 50
159.800451
 51
190.491535
  0
ARC
  8
OBRYS
 10
282.825772
 20
357.009109
 40
51.834157
 50
349.508465
 51
20.199549
  0
ARC
  8
OBRYS
 10
338.864214
 20
380.103120
 40
9.035829
 50
144.896096
 51
215.103904
  0
ARC
  8
OBRYS
 10
320.505883
 20
394.248202
 40
14.154046
 50
320.783507
 51
39.216493
  0
LINE
  8
OBRYS
 10
294.659929
 20
374.906967
 11
331.471907
 21
374.906967
  0
LINE
  8
OBRYS
 10
294.659929
 20
385.299273
 11
331.471907
 21
385.299273
  0
LINE
  8
OBRYS
 10
294.659929
 20
403.197130
 11
331.471907
 21
403.197130
  0
LINE
  8
OBRYS
 10
294.659929
 20
339.111250
 11
324.519128
 21
339.111250
  0
LINE
  8
OBRYS
 10
294.659929
 20
328.718944
 11
315.997911
 21
328.718944
  0
LINE
  8
0
 62
     2
 10
65.216876
 20
301.354710
 11
65.183760
 21
301.468479
  0
LINE
  8
0
 62
     2
 10
65.336001
 20
301.068255
 11
65.216876
 21
301.354710
  0
LINE
  8
0
 62
     2
 10
65.769546
 20
300.757900
 11
65.336001
 21
301.068255
  0
LINE
  8
0
 62
     2
 10
66.215318
 20
300.615430
 11
65.769546
 21
300.757900
  0
LINE
  8
0
 62
     2
 10
66.418393
 20
300.576231
 11
66.215318
 21
300.615430
  0
LINE
  8
0
 62
     2
 10
67.183760
 20
300.532251
 11
66.418393
 21
300.576231
  0
LINE
  8
0
 62
     2
 10
74.183760
 20
300.532251
 11
67.183760
 21
300.532251
  0
LINE
  8
0
 62
     2
 10
77.245227
 20
301.112187
 11
74.183760
 21
300.532251
  0
LINE
  8
0
 62
     2
 10
79.840614
 20
302.763704
 11
77.245227
 21
301.112187
  0
LINE
  8
0
 62
     2
 10
80.228337
 20
303.316314
 11
79.840614
 21
302.763704
  0
LINE
  8
0
 62
     2
 10
81.574796
 20
305.272972
 11
80.228337
 21
303.316314
  0
LINE
  8
0
 62
     2
 10
81.842793
 20
306.581200
 11
81.574796
 21
305.272972
  0
LINE
  8
0
 62
     2
 10
81.973794
 20
307.260066
 11
81.842793
 21
306.581200
  0
LINE
  8
0
 62
     2
 10
82.027741
 20
307.570700
 11
81.973794
 21
307.260066
  0
LINE
  8
0
 62
     2
 10
82.055718
 20
307.760131
 11
82.027741
 21
307.570700
  0
LINE
  8
0
 62
     2
 10
82.071531
 20
307.896394
 11
82.055718
 21
307.760131
  0
LINE
  8
0
 62
     2
 10
82.080329
 20
308.006467
 11
82.071531
 21
307.896394
  0
LINE
  8
0
 62
     2
 10
81.574796
 20
248.745245
 11
81.842793
 21
247.437017
  0
LINE
  8
0
 62
     2
 10
80.228337
 20
250.701904
 11
81.574796
 21
248.745245
  0
LINE
  8
0
 62
     2
 10
79.840614
 20
251.254513
 11
80.228337
 21
250.701904
  0
LINE
  8
0
 62
     2
 10
77.245227
 20
252.906031
 11
79.840614
 21
251.254513
  0
LINE
  8
0
 62
     2
 10
74.183760
 20
253.485966
 11
77.245227
 21
252.906031
  0
LINE
  8
0
 62
     2
 10
67.183760
 20
253.485966
 11
74.183760
 21
253.485966
  0
LINE
  8
0
 62
     2
 10
66.418393
 20
253.441986
 11
67.183760
 21
253.485966
  0
LINE
  8
0
 62
     2
 10
66.215318
 20
253.402787
 11
66.418393
 21
253.441986
  0
LINE
  8
0
 62
     2
 10
65.769546
 20
253.260317
 11
66.215318
 21
253.402787
  0
LINE
  8
0
 62
     2
 10
65.336001
 20
252.949963
 11
65.769546
 21
253.260317
  0
LINE
  8
0
 62
     2
 10
65.216876
 20
252.663508
 11
65.336001
 21
252.949963
  0
LINE
  8
0
 62
     2
 10
65.183760
 20
252.549738
 11
65.216876
 21
252.663508
  0
POLYLINE
  8
0
 62
     2
 66
    1
  0
VERTEX
  8
0
 62
     2
 10
82.055717
 20
201.928528
  0
VERTEX
  8
0
 62
     2
 10
82.027748
 20
202.021851
  0
VERTEX
  8
0
 62
     2
 10
81.973793
 20
202.174866
  0
VERTEX
  8
0
 62
     2
 10
81.842796
 20
202.509277
  0
VERTEX
  8
0
 62
     2
 10
81.574791
 20
203.153717
  0
VERTEX
  8
0
 62
     2
 10
80.228340
 20
204.117584
  0
VERTEX
  8
0
 62
     2
 10
79.840614
 20
204.389816
  0
VERTEX
  8
0
 62
     2
 10
77.245232
 20
205.203354
  0
VERTEX
  8
0
 62
     2
 10
74.183754
 20
205.489044
  0
VERTEX
  8
0
 62
     2
 10
67.183754
 20
205.489044
  0
VERTEX
  8
0
 62
     2
 10
66.418388
 20
205.355423
  0
VERTEX
  8
0
 62
     2
 10
66.215324
 20
205.236328
  0
VERTEX
  8
0
 62
     2
 10
65.769554
 20
204.947113
  0
VERTEX
  8
0
 62
     2
 10
65.336006
 20
204.317093
  0
VERTEX
  8
0
 62
     2
 10
65.216881
 20
203.735580
  0
VERTEX
  8
0
 62
     2
 10
65.183754
 20
203.557114
  0
SEQEND
  8
0
  0
LINE
  8
OBRYS
 10
78.542921
 20
195.509109
 11
101.183760
 21
195.509109
  0
LINE
  8
0
 62
     2
 10
65.183760
 20
316.006467
 11
74.183760
 21
316.006467
  0
LINE
  8
0
 62
     2
 10
74.183760
 20
238.011751
 11
65.183760
 21
238.011751
  0
LINE
  8
0
 62
     2
 10
65.316187
 20
194.174867
 11
74.183760
 21
194.174867
  0
ARC
  8
0
 62
     2
 10
73.592211
 20
307.334382
 40
8.554676
 50
4.910716
 51
12.696518
  0
POLYLINE
  8
0
 62
     2
 66
    1
  0
VERTEX
  8
0
 62
     2
 10
82.080330
 20
308.374146
  0
VERTEX
  8
0
 62
     2
 10
82.084312
 20
308.284241
  0
VERTEX
  8
0
 62
     2
 10
82.084312
 20
308.197815
  0
VERTEX
  8
0
 62
     2
 10
82.084312
 20
308.104004
  0
VERTEX
  8
0
 62
     2
 10
82.080330
 20
308.006470
  0
SEQEND
  8
0
  0
LINE
  8
0
 62
     2
 10
74.183760
 20
300.532251
 11
74.183760
 21
316.006467
  0
POLYLINE
  8
0
 62
     2
 66
    1
  0
VERTEX
  8
0
 62
     2
 10
74.183754
 20
316.006470
  0
VERTEX
  8
0
 62
     2
 10
77.245232
 20
315.397491
  0
VERTEX
  8
0
 62
     2
 10
79.840614
 20
313.663330
  0
VERTEX
  8
0
 62
     2
 10
81.574791
 20
311.067932
  0
VERTEX
  8
0
 62
     2
 10
81.973793
 20
309.062042
  0
SEQEND
  8
0
  0
POLYLINE
  8
0
 62
     2
 66
    1
  0
VERTEX
  8
0
 62
     2
 10
81.842796
 20
247.437012
  0
VERTEX
  8
0
 62
     2
 10
81.973793
 20
246.758148
  0
VERTEX
  8
0
 62
     2
 10
82.027748
 20
246.447510
  0
VERTEX
  8
0
 62
     2
 10
82.055717
 20
246.258087
  0
VERTEX
  8
0
 62
     2
 10
82.071526
 20
246.121826
  0
SEQEND
  8
0
  0
ARC
  8
0
 62
     2
 10
79.419906
 20
245.854489
 40
2.668241
 50
352.234621
 51
5.194882
  0
POLYLINE
  8
0
 62
     2
 66
    1
  0
VERTEX
  8
0
 62
     2
 10
82.055717
 20
245.417038
  0
VERTEX
  8
0
 62
     2
 10
82.027748
 20
245.242462
  0
VERTEX
  8
0
 62
     2
 10
81.973793
 20
244.956177
  0
SEQEND
  8
0
  0
LINE
  8
0
 62
     2
 10
74.183760
 20
238.011751
 11
74.183760
 21
253.485966
  0
POLYLINE
  8
0
 62
     2
 66
    1
  0
VERTEX
  8
0
 62
     2
 10
81.574791
 20
242.950287
  0
VERTEX
  8
0
 62
     2
 10
79.840614
 20
240.354889
  0
VERTEX
  8
0
 62
     2
 10
77.245232
 20
238.620712
  0
VERTEX
  8
0
 62
     2
 10
74.183754
 20
238.011749
  0
SEQEND
  8
0
  0
LINE
  8
0
 62
     2
 10
81.973794
 20
244.956180
 11
81.574796
 21
242.950283
  0
POLYLINE
  8
0
 62
     2
 66
    1
  0
VERTEX
  8
0
 62
     2
 10
82.080330
 20
201.654877
  0
VERTEX
  8
0
 62
     2
 10
82.084312
 20
201.684479
  0
VERTEX
  8
0
 62
     2
 10
82.084312
 20
201.712921
  0
SEQEND
  8
0
  0
ARC
  8
0
 62
     2
 10
81.512579
 20
201.736029
 40
0.574217
 50
358.502445
 51
16.602220
  0
LINE
  8
0
 62
     2
 10
74.183760
 20
194.174867
 11
74.183760
 21
205.489044
  0
POLYLINE
  8
0
 62
     2
 66
    1
  0
VERTEX
  8
0
 62
     2
 10
81.574791
 20
199.113403
  0
VERTEX
  8
0
 62
     2
 10
79.840614
 20
196.518005
  0
VERTEX
  8
0
 62
     2
 10
77.245232
 20
194.783829
  0
VERTEX
  8
0
 62
     2
 10
74.183754
 20
194.174866
  0
SEQEND
  8
0
  0
LINE
  8
0
 62
     2
 10
81.574796
 20
199.113399
 11
82.080329
 21
201.654884
  0
POLYLINE
  8
0
 62
     2
 66
    1
  0
VERTEX
  8
0
 62
     2
 10
78.330681
 20
195.509109
  0
VERTEX
  8
0
 62
     2
 10
77.245232
 20
194.783829
  0
VERTEX
  8
0
 62
     2
 10
74.183754
 20
194.174866
  0
SEQEND
  8
0
  0
LINE
  8
0
 62
     2
 10
74.183760
 20
244.960858
 11
74.183760
 21
252.338510
  0
LINE
  8
0
 62
     2
 10
74.183760
 20
301.679708
 11
74.183760
 21
309.057359
  0
LINE
  8
OBRYS
 10
56.183760
 20
367.009109
 11
56.183760
 21
277.009109
  0
LINE
  8
OBRYS
 10
65.183760
 20
328.141595
 11
65.183760
 21
189.009109
  0
LINE
  8
OBRYS
 10
56.183760
 20
187.009109
 11
56.183760
 21
277.009109
  0
LINE
  8
OBRYS
 10
101.183760
 20
195.509109
 11
135.183760
 21
195.509109
  0
LINE
  8
OBRYS
 10
137.183760
 20
328.141595
 11
137.183760
 21
189.009109
  0
LINE
  8
OBRYS
 10
92.183693
 20
192.509109
 11
110.183827
 21
192.509109
  0
LINE
  8
OBRYS
 10
110.183827
 20
192.509109
 11
110.183759
 21
193.508972
  0
ARC
  8
OBRYS
 10
112.183759
 20
193.509109
 40
2.000000
 50
90.000000
 51
180.003913
  0
LINE
  8
OBRYS
 10
92.183693
 20
192.509109
 11
92.183761
 21
193.508972
  0
ARC
  8
OBRYS
 10
90.183761
 20
193.509109
 40
2.000000
 50
359.996087
 51
90.000000
  0
ARC
  8
OBRYS
 10
146.183760
 20
369.009109
 40
2.000000
 50
180.000000
 51
270.000000
  0
LINE
  8
OBRYS
 10
151.183760
 20
367.009109
 11
146.183760
 21
367.009109
  0
ARC
  8
OBRYS
 10
135.183760
 20
193.509109
 40
2.000000
 50
0.000000
 51
90.000000
  0
ARC
  8
OBRYS
 10
139.183760
 20
189.009109
 40
2.000000
 50
180.000000
 51
270.000000
  0
ARC
  8
OBRYS
 10
63.183760
 20
189.009109
 40
2.000000
 50
270.000000
 51
360.000000
  0
ARC
  8
OBRYS
 10
56.183760
 20
369.009109
 40
2.000000
 50
270.000000
 51
360.000000
  0
LINE
  8
OBRYS
 62
     7
  6
DASHDOT
 10
31.183760
 20
277.009109
 11
171.183760
 21
277.009109
  0
LINE
  8
OBRYS
 62
     7
  6
DASHDOT
 10
31.183760
 20
357.009109
 11
171.183760
 21
357.009109
  0
LINE
  8
OBRYS
 62
     7
  6
DASHDOT
 10
101.183760
 20
411.136164
 11
101.183760
 21
185.009109
  0
CIRCLE
  8
OBRYS
 10
101.183760
 20
357.009109
 40
36.000000
  0
ARC
  8
OBRYS
 10
101.183760
 20
392.804825
 40
12.000000
 50
60.000000
 51
120.000000
  0
LINE
  8
OBRYS
 10
138.183760
 20
385.299272
 11
107.183760
 21
403.197130
  0
ARC
  8
OBRYS
 10
132.183760
 20
374.906967
 40
12.000000
 50
0.000000
 51
60.000000
  0
LINE
  8
OBRYS
 10
144.183760
 20
339.111250
 11
144.183760
 21
374.906967
  0
ARC
  8
OBRYS
 10
132.183760
 20
339.111250
 40
12.000000
 50
300.000000
 51
360.000000
  0
LINE
  8
OBRYS
 10
107.183760
 20
310.821087
 11
138.183760
 21
328.718945
  0
ARC
  8
OBRYS
 10
101.183760
 20
321.213392
 40
12.000000
 50
240.000000
 51
300.000000
  0
LINE
  8
OBRYS
 10
64.183760
 20
328.718945
 11
95.183760
 21
310.821087
  0
ARC
  8
OBRYS
 10
70.183760
 20
339.111250
 40
12.000000
 50
180.000000
 51
240.000000
  0
LINE
  8
OBRYS
 10
58.183760
 20
374.906967
 11
58.183760
 21
339.111250
  0
ARC
  8
OBRYS
 10
70.183760
 20
374.906967
 40
12.000000
 50
120.000000
 51
180.000000
  0
LINE
  8
OBRYS
 62
     7
  6
DASHDOT
 10
678.136098
 20
411.136164
 11
678.136098
 21
185.009109
  0
LINE
  8
OBRYS
 62
     7
  6
DASHDOT
 10
748.136098
 20
357.009109
 11
608.136098
 21
357.009109
  0
LINE
  8
OBRYS
 62
     7
  6
DASHDOT
 10
748.136098
 20
277.009109
 11
608.136098
 21
277.009109
  0
ARC
  8
OBRYS
 10
716.136098
 20
189.009109
 40
2.000000
 50
180.000000
 51
270.000000
  0
ARC
  8
OBRYS
 10
640.136098
 20
189.009109
 40
2.000000
 50
270.000000
 51
360.000000
  0
ARC
  8
OBRYS
 10
644.136098
 20
193.509109
 40
2.000000
 50
90.000000
 51
180.000000
  0
ARC
  8
OBRYS
 10
689.136097
 20
193.509109
 40
2.000000
 50
90.000000
 51
180.003913
  0
LINE
  8
OBRYS
 10
687.136165
 20
192.509109
 11
687.136097
 21
193.508972
  0
ARC
  8
OBRYS
 10
667.136099
 20
193.509109
 40
2.000000
 50
359.996087
 51
90.000000
  0
LINE
  8
OBRYS
 10
669.136031
 20
192.509109
 11
669.136099
 21
193.508972
  0
LINE
  8
OBRYS
 10
687.136165
 20
192.509109
 11
669.136031
 21
192.509109
  0
LINE
  8
OBRYS
 10
678.136098
 20
195.509109
 11
644.136098
 21
195.509109
  0
POLYLINE
  8
0
 62
     2
 66
    1
  0
VERTEX
  8
0
 62
     2
 10
700.989197
 20
195.509109
  0
VERTEX
  8
0
 62
     2
 10
702.074646
 20
194.783829
  0
VERTEX
  8
0
 62
     2
 10
705.136108
 20
194.174866
  0
SEQEND
  8
0
  0
LINE
  8
0
 62
     2
 10
697.745062
 20
199.113399
 11
697.239529
 21
201.654884
  0
POLYLINE
  8
0
 62
     2
 66
    1
  0
VERTEX
  8
0
 62
     2
 10
697.745056
 20
199.113403
  0
VERTEX
  8
0
 62
     2
 10
699.479248
 20
196.518005
  0
VERTEX
  8
0
 62
     2
 10
702.074646
 20
194.783829
  0
VERTEX
  8
0
 62
     2
 10
705.136108
 20
194.174866
  0
SEQEND
  8
0
  0
LINE
  8
0
 62
     2
 10
705.136098
 20
194.174867
 11
705.136098
 21
205.489044
  0
ARC
  8
0
 62
     2
 10
697.807278
 20
201.736029
 40
0.574217
 50
163.397780
 51
181.497555
  0
POLYLINE
  8
0
 62
     2
 66
    1
  0
VERTEX
  8
0
 62
     2
 10
697.239502
 20
201.654877
  0
VERTEX
  8
0
 62
     2
 10
697.235535
 20
201.684479
  0
VERTEX
  8
0
 62
     2
 10
697.235535
 20
201.712921
  0
SEQEND
  8
0
  0
LINE
  8
0
 62
     2
 10
714.003671
 20
194.174867
 11
705.136098
 21
194.174867
  0
LINE
  8
OBRYS
 10
700.776937
 20
195.509109
 11
678.136098
 21
195.509109
  0
POLYLINE
  8
0
 62
     2
 66
    1
  0
VERTEX
  8
0
 62
     2
 10
697.264160
 20
201.928528
  0
VERTEX
  8
0
 62
     2
 10
697.292114
 20
202.021851
  0
VERTEX
  8
0
 62
     2
 10
697.346069
 20
202.174866
  0
VERTEX
  8
0
 62
     2
 10
697.477051
 20
202.509277
  0
VERTEX
  8
0
 62
     2
 10
697.745056
 20
203.153717
  0
VERTEX
  8
0
 62
     2
 10
699.091492
 20
204.117584
  0
VERTEX
  8
0
 62
     2
 10
699.479248
 20
204.389816
  0
VERTEX
  8
0
 62
     2
 10
702.074646
 20
205.203354
  0
VERTEX
  8
0
 62
     2
 10
705.136108
 20
205.489044
  0
VERTEX
  8
0
 62
     2
 10
712.136108
 20
205.489044
  0
VERTEX
  8
0
 62
     2
 10
712.901489
 20
205.355423
  0
VERTEX
  8
0
 62
     2
 10
713.104553
 20
205.236328
  0
VERTEX
  8
0
 62
     2
 10
713.550293
 20
204.947113
  0
VERTEX
  8
0
 62
     2
 10
713.983826
 20
204.317093
  0
VERTEX
  8
0
 62
     2
 10
714.102966
 20
203.735580
  0
VERTEX
  8
0
 62
     2
 10
714.136108
 20
203.557114
  0
SEQEND
  8
0
  0
ENDSEC
  0
EOF

