  0
SECTION
  2
HEADER
  9
$ACADVER
  1
AC1009
  9
$INSBASE
 10
0.0
 20
0.0
 30
0.0
  9
$LIMMIN
 10
0.0
 20
0.0
  9
$LIMMAX
 10
430.0000
 20
307.0000
  9
$EXTMIN
 10
99999999999999998000000000000000000000.0000
 20
99999999999999998000000000000000000000.0000
  9
$EXTMAX
 10
99999999999999998000000000000000000000.0000
 20
99999999999999998000000000000000000000.0000
  9
$VIEWCTR
 10
372.4840
 20
368.3630
  9
$VIEWSIZE
 40
1416.5282
  9
$DIMLFAC
 40
0.6667
  9
$MEASUREMENT
 70
     1
  9
$DWGCODEPAGE
 3
ANSI_1250
  9
$CLAYER
  8
OBRYS
  9
$CELTYPE
  6
BYLAYER
  9
$CECOLOR
 62
  256
  9
$ORTHOMODE
 70
     0
  9
$REGENMODE
 70
     1
  9
$FILLMODE
 70
     1
  9
$QTEXTMODE
 70
     0
  9
$MIRRTEXT
 70
     1
  9
$DRAGMODE
 70
     2
  9
$LTSCALE
 40
1.0
  9
$OSMODE
 70
    37
  9
$ATTMODE
 70
     1
  9
$TEXTSIZE
 40
2.5
  9
$TRACEWID
 40
1.0
  9
$TEXTSTYLE
  7
STANDARD
  9
$CLAYER
  8
0
  9
$CELTYPE
  6
BYLAYER
  9
$CECOLOR
 62
   256
  9
$DIMSCALE
 40
1.0
  9
$DIMASZ
 40
2.5
  9
$DIMEXO
 40
0.625
  9
$DIMDLI
 40
3.75
  9
$DIMRND
 40
0.0
  9
$DIMDLE
 40
0.0
  9
$DIMEXE
 40
1.25
  9
$DIMTP
 40
0.0
  9
$DIMTM
 40
0.0
  9
$DIMTXT
 40
2.5
  9
$DIMCEN
 40
2.5
  9
$DIMTSZ
 40
0.0
  9
$DIMTOL
 70
     0
  9
$DIMLIM
 70
     0
  9
$DIMTIH
 70
     0
  9
$DIMTOH
 70
     0
  9
$DIMSE1
 70
     0
  9
$DIMSE2
 70
     0
  9
$DIMTAD
 70
     1
  9
$DIMZIN
 70
     8
  9
$DIMBLK
  1

  9
$DIMASO
 70
     1
  9
$DIMSHO
 70
     1
  9
$DIMPOST
  1

  9
$DIMAPOST
  1

  9
$DIMALT
 70
     0
  9
$DIMALTD
 70
     3
  9
$DIMALTF
 40
0.03937007874016
  9
$DIMTOFL
 70
     1
  9
$DIMTVP
 40
0.0
  9
$DIMTIX
 70
     0
  9
$DIMSOXD
 70
     0
  9
$DIMSAH
 70
     0
  9
$DIMBLK1
  1

  9
$DIMBLK2
  1

  9
$DIMSTYLE
  2
ISO-25
  9
$DIMCLRD
 70
     0
  9
$DIMCLRE
 70
     0
  9
$DIMCLRT
 70
     0
  9
$DIMTFAC
 40
1.0
  9
$DIMGAP
 40
0.625
  9
$LUNITS
 70
     2
  9
$LUPREC
 70
     4
  9
$SKETCHINC
 40
1.0
  9
$FILLETRAD
 40
10.0
  9
$AUNITS
 70
     0
  9
$AUPREC
 70
     0
  9
$MENU
  1
.
  9
$ELEVATION
 40
0.0
  9
$PELEVATION
 40
0.0
  9
$THICKNESS
 40
0.0
  9
$LIMCHECK
 70
     0
  9
$BLIPMODE
 70
     0
  9
$CHAMFERA
 40
10.0
  9
$CHAMFERB
 40
10.0
  9
$SKPOLY
 70
     0
  9
$TDCREATE
 40
2451579.5163292708
  9
$TDUPDATE
 40
2451579.6904035881
  9
$TDINDWG
 40
0.0082924769
  9
$TDUSRTIMER
 40
0.0082825116
  9
$USRTIMER
 70
     1
  9
$ANGBASE
 50
0.0
  9
$ANGDIR
 70
     0
  9
$PDMODE
 70
     0
  9
$PDSIZE
 40
0.0
  9
$PLINEWID
 40
0.0
  9
$COORDS
 70
     1
  9
$SPLFRAME
 70
     0
  9
$SPLINETYPE
 70
     6
  9
$SPLINESEGS
 70
     8
  9
$ATTDIA
 70
     0
  9
$ATTREQ
 70
     1
  9
$SURFTAB1
 70
     6
  9
$SURFTAB2
 70
     6
  9
$SURFTYPE
 70
     6
  9
$SURFU
 70
     6
  9
$SURFV
 70
     6
  9
$UCSNAME
  2

  9
$UCSORG
 10
0.0
 20
0.0
 30
0.0
  9
$UCSXDIR
 10
1.0
 20
0.0
 30
0.0
  9
$UCSYDIR
 10
0.0
 20
1.0
 30
0.0
  9
$PUCSNAME
  2

  9
$PUCSORG
 10
0.0
 20
0.0
 30
0.0
  9
$PUCSXDIR
 10
1.0
 20
0.0
 30
0.0
  9
$PUCSYDIR
 10
0.0
 20
1.0
 30
0.0
  9
$USERI1
 70
     0
  9
$USERI2
 70
     0
  9
$USERI3
 70
     0
  9
$USERI4
 70
     0
  9
$USERI5
 70
     0
  9
$USERR1
 40
0.0
  9
$USERR2
 40
0.0
  9
$USERR3
 40
0.0
  9
$USERR4
 40
0.0
  9
$USERR5
 40
0.0
  9
$WORLDVIEW
 70
     1
  9
$SHADEDGE
 70
     3
  9
$SHADEDIF
 70
    70
  9
$TILEMODE
 70
     1
  9
$MAXACTVP
 70
    64
  9
$PLIMCHECK
 70
     0
  9
$PEXTMIN
 10
1.0000000000000000E+020
 20
1.0000000000000000E+020
 30
1.0000000000000000E+020
  9
$PEXTMAX
 10
-1.0000000000000000E+020
 20
-1.0000000000000000E+020
 30
-1.0000000000000000E+020
  9
$PLIMMIN
 10
0.0
 20
0.0
  9
$PLIMMAX
 10
420.0
 20
297.0
  9
$UNITMODE
 70
     0
  9
$VISRETAIN
 70
     1
  9
$PLINEGEN
 70
     0
  9
$PSLTSCALE
 70
     1
  0
ENDSEC
  0
SECTION
  2
TABLES
  0
TABLE
  2
VPORT
 70
     2
  0
VPORT
  2
*ACTIVE
 70
     0
 10
0.0
 20
0.0
 11
1.0
 21
1.0
 12
372.4840
 22
368.3630
 13
0.0
 23
0.0
 14
10.0
 24
10.0
 15
10.0
 25
10.0
 16
0.0
 26
0.0
 36
1.0
 17
0.0
 27
0.0
 37
0.0
 40
1416.5282
 41
1.6916
 42
50.0
 43
0.0
 44
0.0
 50
0.0
 51
0.0
 71
     0
 72
   100
 73
     1
 74
     3
 75
     0
 76
     0
 77
     0
 78
     0
  0
ENDTAB
  0
TABLE
  2
LTYPE
 70
     7
  0
LTYPE
  2
CONTINUOUS
 70
     0
  3
Solid line
 72
    65
 73
     0
 40
0.0
  0
LTYPE
  2
HIDDEN2
 70
     0
  3
Hidden (.5x) _ _ _ _ _ _ _ _ _ _ _ _ _ _ _ _ _
 72
    65
 73
     2
 40
5.1
 49
3.5
 49
-1.6
  0
LTYPE
  2
DASHDOT
 70
     0
  3
Dash dot __ . __ . __ . __ . __ . __ . __ . __
 72
    65
 73
     4
 40
10.4
 49
6.2
 49
-2.1
 49
0.0
 49
-2.1
  0
LTYPE
  2
DOT
 70
     0
  3
Dot . . . . . . . . . . . . . . . . . . . . . .
 72
    65
 73
     2
 40
2.2
 49
1.1
 49
-1.1
  0
LTYPE
  2
DASHED
 70
     0
  3
Dashed __ __ __ __ __ __ __ __ __ __ __ __ __ _
 72
    65
 73
     2
 40
11.049999999999979
 49
8.699999999999999
 49
-2.3499999999999979
  0
LTYPE
  2
PHANTOM2
 70
     0
  3
Phantom (.5x) ___ _ _ ___ _ _ ___ _ _ ___ _ _
 72
    65
 73
     6
 40
18.3
 49
7.8
 49
-2.1
 49
2.1
 49
-2.1
 49
2.1
 49
-2.1
  0
LTYPE
  2
CENTER
 70
     0
  3
Center ____ _ ____ _ ____ _ ____ _ ____ _ ____
 72
    65
 73
     4
 40
14.1
 49
7.8
 49
-2.1
 49
2.1
 49
-2.1
  0
ENDTAB
  0
TABLE
  2
LAYER
 70
     7
  0
LAYER
  2
0
 70
    64
 62
     7
  6
CONTINUOUS
  0
LAYER
  2
OBRYS
 70
    64
 62
     2
  6
CONTINUOUS
  0
LAYER
  2
OSA
 70
    64
 62
     7
  6
DASHDOT
  0
LAYER
  2
KOTA
 70
    64
 62
     3
  6
CONTINUOUS
  0
LAYER
  2
SRAFY
 70
    64
 62
     7
  6
CONTINUOUS
  0
LAYER
  2
POMOC
 70
    64
 62
     1
  6
DOT
  0
LAYER
  2
NEVIDITELNA
 70
    64
 62
     4
  6
HIDDEN2
  0
ENDTAB
  0
TABLE
  2
STYLE
 70
     1
  0
STYLE
  2
STANDARD
 70
     0
 40
0.0
 41
1.0
 50
0.0
 71
     0
 42
2.5
  3
txt
  4

  0
ENDTAB
  0
TABLE
  2
VIEW
 70
     0
  0
ENDTAB
  0
TABLE
  2
UCS
 70
     0
  0
ENDTAB
  0
TABLE
  2
APPID
 70
     1
  0
APPID
  2
ACAD
 70
     0
  0
ENDTAB
  0
TABLE
  2
DIMSTYLE
 70
     1
  0
DIMSTYLE
  2
ISO-25
 70
     0
  3

  4

  5

  6

  7

 40
1.0
 41
2.5
 42
0.625
 43
3.75
 44
1.25
 45
0.0
 46
0.0
 47
0.0
 48
0.0
140
2.5
141
2.5
142
0.0
143
0.03937007874016
144
1.0
145
0.0
146
1.0
147
0.625
 71
     0
 72
     0
 73
     0
 74
     0
 75
     0
 76
     0
 77
     1
 78
     8
170
     0
171
     3
172
     1
173
     0
174
     0
175
     0
176
     0
177
     0
178
     0
  0
ENDTAB
  0
ENDSEC
  0
SECTION
  2
BLOCKS
  0
BLOCK
  8
0
  2
$MODEL_SPACE
 70
     0
 10
0.0
 20
0.0
 30
0.0
  3
$MODEL_SPACE
  1

  0
ENDBLK
  8
0
  0
BLOCK
 67
     1
  8
0
  2
$PAPER_SPACE
 70
     0
 10
0.0
 20
0.0
 30
0.0
  3
$PAPER_SPACE
  1

  0
ENDBLK
 67
     1
  8
0
  0
BLOCK
  8
OBRYS
  2
_0
 70
   64
 10
723.136098
 20
277.009109
  0
LINE
  8
OBRYS
 10
747.434231
 20
214.540490
 11
741.024405
 21
208.886013
  0
LINE
  8
OBRYS
 10
742.110352
 20
198.824905
 11
742.873169
 21
199.850754
  0
POLYLINE
  8
OBRYS
 66
    1
  0
VERTEX
  8
OBRYS
 10
748.085144
 20
222.609192
  0
VERTEX
  8
OBRYS
 10
747.955200
 20
222.115479
  0
VERTEX
  8
OBRYS
 10
747.434204
 20
221.510971
  0
VERTEX
  8
OBRYS
 10
745.642639
 20
220.080505
  0
SEQEND
  8
OBRYS
  0
LINE
  8
OBRYS
 10
743.867103
 20
217.408287
 11
747.434231
 21
220.266611
  0
LINE
  8
OBRYS
 10
748.136098
 20
220.533249
 11
748.136098
 21
224.279275
  0
LINE
  8
OBRYS
 10
748.136098
 20
317.062198
 11
748.136098
 21
301.738942
  0
LINE
  8
OBRYS
 10
741.423301
 20
337.306629
 11
741.423301
 21
311.945087
  0
LINE
  8
OBRYS
 10
732.136098
 20
356.605683
 11
732.136098
 21
322.034527
  0
LINE
  8
OBRYS
 10
728.136098
 20
367.009109
 11
728.136098
 21
325.459089
  0
LINE
  8
OBRYS
 10
730.136098
 20
327.171049
 11
730.136098
 21
323.803845
  0
LINE
  8
OBRYS
 10
730.136098
 20
150.009109
 11
730.136098
 21
150.752061
  0
LINE
  8
OBRYS
 10
723.136098
 20
144.298961
 11
723.136098
 21
135.009109
  0
LINE
  8
OBRYS
 10
767.186203
 20
147.711248
 11
746.641212
 21
191.770125
  0
ARC
  8
OBRYS
 10
766.136098
 20
146.009109
 40
2.000000
 50
0.000000
 51
90.000000
  0
LINE
  8
OBRYS
 10
768.136098
 20
135.009109
 11
768.136098
 21
146.009109
  0
LINE
  8
OBRYS
 10
762.136098
 20
148.009109
 11
766.136098
 21
148.009109
  0
POLYLINE
  8
OBRYS
 66
    1
  0
VERTEX
  8
OBRYS
 10
736.136108
 20
360.158264
  0
VERTEX
  8
OBRYS
 10
736.136108
 20
357.553040
  0
VERTEX
  8
OBRYS
 10
736.097656
 20
357.368225
  0
VERTEX
  8
OBRYS
 10
735.983887
 20
357.190491
  0
VERTEX
  8
OBRYS
 10
735.799011
 20
357.026703
  0
VERTEX
  8
OBRYS
 10
735.550293
 20
356.883148
  0
VERTEX
  8
OBRYS
 10
735.247253
 20
356.765350
  0
VERTEX
  8
OBRYS
 10
734.901489
 20
356.677795
  0
VERTEX
  8
OBRYS
 10
734.526306
 20
356.623901
  0
VERTEX
  8
OBRYS
 10
734.136108
 20
356.605682
  0
VERTEX
  8
OBRYS
 10
732.136108
 20
356.605682
  0
SEQEND
  8
OBRYS
  0
POLYLINE
  8
OBRYS
 66
    1
  0
VERTEX
  8
OBRYS
 10
729.136108
 20
356.320190
  0
VERTEX
  8
OBRYS
 10
729.550293
 20
356.064484
  0
VERTEX
  8
OBRYS
 10
729.983887
 20
355.465027
  0
VERTEX
  8
OBRYS
 10
730.136108
 20
354.757935
  0
SEQEND
  8
OBRYS
  0
POLYLINE
  8
OBRYS
 66
    1
  0
VERTEX
  8
OBRYS
 10
729.136108
 20
359.884705
  0
VERTEX
  8
OBRYS
 10
729.142151
 20
359.869049
  0
VERTEX
  8
OBRYS
 10
729.136108
 20
359.853394
  0
SEQEND
  8
OBRYS
  0
LINE
  8
OBRYS
 10
730.136098
 20
327.171049
 11
730.136098
 21
331.118426
  0
LINE
  8
OBRYS
 10
730.136098
 20
354.757925
 11
730.136098
 21
331.118426
  0
POLYLINE
  8
OBRYS
 66
    1
  0
VERTEX
  8
OBRYS
 10
730.136108
 20
360.498169
  0
VERTEX
  8
OBRYS
 10
729.983887
 20
361.205292
  0
VERTEX
  8
OBRYS
 10
729.550293
 20
361.804749
  0
VERTEX
  8
OBRYS
 10
729.136108
 20
362.060455
  0
SEQEND
  8
OBRYS
  0
LINE
  8
OBRYS
 10
729.136098
 20
357.343351
 11
729.136098
 21
356.320189
  0
POLYLINE
  8
OBRYS
 66
    1
  0
VERTEX
  8
OBRYS
 10
732.136108
 20
329.323212
  0
VERTEX
  8
OBRYS
 10
731.636108
 20
329.612000
  0
VERTEX
  8
OBRYS
 10
730.837952
 20
330.281921
  0
VERTEX
  8
OBRYS
 10
730.355164
 20
331.118439
  0
VERTEX
  8
OBRYS
 10
730.317017
 20
331.178558
  0
VERTEX
  8
OBRYS
 10
730.262207
 20
331.461395
  0
VERTEX
  8
OBRYS
 10
730.192261
 20
331.757111
  0
VERTEX
  8
OBRYS
 10
730.136108
 20
331.945404
  0
SEQEND
  8
OBRYS
  0
LINE
  8
OBRYS
 10
730.282239
 20
358.343351
 11
730.136098
 21
359.172328
  0
LINE
  8
OBRYS
 10
731.636098
 20
329.611986
 11
731.636098
 21
336.839338
  0
POLYLINE
  8
OBRYS
 66
    1
  0
VERTEX
  8
OBRYS
 10
730.136108
 20
338.269135
  0
VERTEX
  8
OBRYS
 10
730.192261
 20
338.013519
  0
VERTEX
  8
OBRYS
 10
730.262207
 20
337.745636
  0
VERTEX
  8
OBRYS
 10
730.317017
 20
337.577545
  0
VERTEX
  8
OBRYS
 10
730.355164
 20
337.541809
  0
VERTEX
  8
OBRYS
 10
730.837952
 20
337.151733
  0
VERTEX
  8
OBRYS
 10
731.636108
 20
336.839325
  0
VERTEX
  8
OBRYS
 10
732.136108
 20
336.704681
  0
SEQEND
  8
OBRYS
  0
POLYLINE
  8
OBRYS
 66
    1
  0
VERTEX
  8
OBRYS
 10
730.136108
 20
359.612732
  0
VERTEX
  8
OBRYS
 10
730.317017
 20
358.586670
  0
VERTEX
  8
OBRYS
 10
730.457520
 20
358.343353
  0
SEQEND
  8
OBRYS
  0
ARC
  8
OBRYS
 10
728.136098
 20
365.009109
 40
2.000000
 50
0.000000
 51
90.000000
  0
LINE
  8
OBRYS
 10
730.136098
 20
365.009109
 11
730.136098
 21
360.498177
  0
POLYLINE
  8
OBRYS
 66
    1
  0
VERTEX
  8
OBRYS
 10
732.136108
 20
362.345947
  0
VERTEX
  8
OBRYS
 10
734.136108
 20
362.345947
  0
VERTEX
  8
OBRYS
 10
734.526306
 20
362.334717
  0
VERTEX
  8
OBRYS
 10
734.901489
 20
362.301514
  0
VERTEX
  8
OBRYS
 10
735.247253
 20
362.247620
  0
VERTEX
  8
OBRYS
 10
735.550293
 20
362.175079
  0
VERTEX
  8
OBRYS
 10
735.799011
 20
362.086670
  0
VERTEX
  8
OBRYS
 10
735.983887
 20
361.985809
  0
VERTEX
  8
OBRYS
 10
736.097656
 20
361.876373
  0
VERTEX
  8
OBRYS
 10
736.136108
 20
361.762543
  0
SEQEND
  8
OBRYS
  0
LINE
  8
OBRYS
 10
732.136098
 20
367.009107
 11
732.136098
 21
362.345934
  0
LINE
  8
OBRYS
 10
729.136098
 20
358.343351
 11
729.136098
 21
356.320189
  0
LINE
  8
OBRYS
 10
730.136098
 20
358.343351
 11
730.136098
 21
360.498177
  0
LINE
  8
OBRYS
 10
729.136098
 20
359.853406
 11
729.136098
 21
356.320189
  0
LINE
  8
OBRYS
 10
729.136098
 20
362.060441
 11
729.136098
 21
359.884697
  0
LINE
  8
OBRYS
 10
730.136098
 20
331.118426
 11
730.355169
 21
331.118426
  0
LINE
  8
OBRYS
 10
728.136098
 20
367.009109
 11
723.136098
 21
367.009109
  0
LINE
  8
OBRYS
 10
732.136098
 20
358.343351
 11
732.136098
 21
362.345934
  0
LINE
  8
OBRYS
 10
734.136098
 20
362.345934
 11
734.136098
 21
356.605683
  0
LINE
  8
OBRYS
 10
736.136098
 20
361.762556
 11
736.136098
 21
357.553038
  0
LINE
  8
OBRYS
 10
731.136098
 20
351.843351
 11
732.136098
 21
351.843351
  0
LINE
  8
OBRYS
 10
730.136098
 20
345.343351
 11
732.136098
 21
345.343351
  0
LINE
  8
OBRYS
 10
734.136098
 20
358.343351
 11
729.136098
 21
358.343351
  0
ARC
  8
OBRYS
 10
732.136098
 20
150.009109
 40
2.000000
 50
180.000000
 51
270.000000
  0
LINE
  8
OBRYS
 10
732.136098
 20
148.009109
 11
762.136098
 21
148.009109
  0
POLYLINE
  8
OBRYS
 66
    1
  0
VERTEX
  8
OBRYS
 10
743.627930
 20
365.835052
  0
VERTEX
  8
OBRYS
 10
742.597656
 20
366.624725
  0
VERTEX
  8
OBRYS
 10
741.423279
 20
367.009094
  0
SEQEND
  8
OBRYS
  0
POLYLINE
  8
OBRYS
 66
    1
  0
VERTEX
  8
OBRYS
 10
741.423279
 20
367.009094
  0
VERTEX
  8
OBRYS
 10
741.423279
 20
367.009094
  0
VERTEX
  8
OBRYS
 10
747.434204
 20
359.455505
  0
VERTEX
  8
OBRYS
 10
747.955200
 20
358.557465
  0
VERTEX
  8
OBRYS
 10
748.085144
 20
357.824036
  0
SEQEND
  8
OBRYS
  0
LINE
  8
OBRYS
 10
741.423301
 20
367.009109
 11
741.423301
 21
337.306629
  0
POLYLINE
  8
OBRYS
 66
    1
  0
VERTEX
  8
OBRYS
 10
743.627930
 20
336.801575
  0
VERTEX
  8
OBRYS
 10
742.597656
 20
337.333130
  0
VERTEX
  8
OBRYS
 10
741.423279
 20
337.508179
  0
SEQEND
  8
OBRYS
  0
POLYLINE
  8
OBRYS
 66
    1
  0
VERTEX
  8
OBRYS
 10
743.627930
 20
342.835480
  0
VERTEX
  8
OBRYS
 10
742.597656
 20
343.420685
  0
VERTEX
  8
OBRYS
 10
741.423279
 20
343.613403
  0
SEQEND
  8
OBRYS
  0
POLYLINE
  8
OBRYS
 66
    1
  0
VERTEX
  8
OBRYS
 10
741.423279
 20
337.306641
  0
VERTEX
  8
OBRYS
 10
741.423279
 20
337.306641
  0
VERTEX
  8
OBRYS
 10
747.434204
 20
332.507263
  0
VERTEX
  8
OBRYS
 10
747.955200
 20
331.902740
  0
VERTEX
  8
OBRYS
 10
748.085144
 20
331.409027
  0
SEQEND
  8
OBRYS
  0
LINE
  8
OBRYS
 10
730.136098
 20
135.009109
 11
768.136098
 21
135.009109
  0
LINE
  8
OBRYS
 10
762.136098
 20
135.009109
 11
730.136098
 21
135.009109
  0
LINE
  8
OBRYS
 10
723.136098
 20
135.009109
 11
730.136098
 21
135.009109
  0
LINE
  8
OBRYS
 10
723.136098
 20
137.009109
 11
723.136098
 21
135.009109
  0
LINE
  8
OBRYS
 10
732.136098
 20
367.009107
 11
741.423301
 21
367.009109
  0
LINE
  8
OBRYS
 10
742.873153
 20
199.850754
 11
767.047309
 21
148.009109
  0
LINE
  8
OBRYS
 10
748.085112
 20
357.824026
 11
748.136098
 21
357.824026
  0
LINE
  8
OBRYS
 10
748.136098
 20
357.824026
 11
748.136098
 21
359.377955
  0
LINE
  8
OBRYS
 10
747.434231
 20
361.304097
 11
743.627919
 21
365.835060
  0
LINE
  8
OBRYS
 10
743.627919
 20
342.835495
 11
747.434231
 21
339.477727
  0
LINE
  8
OBRYS
 10
748.085112
 20
331.409024
 11
748.136098
 21
331.409024
  0
LINE
  8
OBRYS
 10
747.434231
 20
333.751607
 11
743.627919
 21
336.801588
  0
LINE
  8
OBRYS
 10
748.136098
 20
222.609193
 11
748.085112
 21
222.609193
  0
LINE
  8
OBRYS
 10
746.641212
 20
191.770125
 11
747.434231
 21
192.714120
  0
LINE
  8
OBRYS
 10
748.136098
 20
194.640262
 11
748.136098
 21
196.194191
  0
LINE
  8
OBRYS
 10
748.136098
 20
196.194191
 11
748.085112
 21
196.194191
  0
LINE
  8
OBRYS
 10
748.085112
 20
357.824026
 11
748.136098
 21
357.824026
  0
POLYLINE
  8
OBRYS
 66
    1
  0
VERTEX
  8
OBRYS
 10
748.136108
 20
359.377960
  0
VERTEX
  8
OBRYS
 10
747.955200
 20
360.402832
  0
VERTEX
  8
OBRYS
 10
747.434204
 20
361.304108
  0
SEQEND
  8
OBRYS
  0
POLYLINE
  8
OBRYS
 66
    1
  0
VERTEX
  8
OBRYS
 10
747.434204
 20
339.477722
  0
VERTEX
  8
OBRYS
 10
747.955200
 20
338.809814
  0
VERTEX
  8
OBRYS
 10
748.136108
 20
338.050323
  0
SEQEND
  8
OBRYS
  0
LINE
  8
OBRYS
 10
743.627919
 20
336.801588
 11
743.627919
 21
342.835495
  0
POLYLINE
  8
OBRYS
 66
    1
  0
VERTEX
  8
OBRYS
 10
748.136108
 20
332.455048
  0
VERTEX
  8
OBRYS
 10
747.955200
 20
333.144928
  0
VERTEX
  8
OBRYS
 10
747.434204
 20
333.751617
  0
SEQEND
  8
OBRYS
  0
POLYLINE
  8
OBRYS
 66
    1
  0
VERTEX
  8
OBRYS
 10
748.136108
 20
215.967896
  0
VERTEX
  8
OBRYS
 10
747.955200
 20
215.208389
  0
VERTEX
  8
OBRYS
 10
747.434204
 20
214.540497
  0
SEQEND
  8
OBRYS
  0
POLYLINE
  8
OBRYS
 66
    1
  0
VERTEX
  8
OBRYS
 10
747.434204
 20
220.266617
  0
VERTEX
  8
OBRYS
 10
747.955200
 20
220.873291
  0
VERTEX
  8
OBRYS
 10
748.136108
 20
221.563171
  0
SEQEND
  8
OBRYS
  0
POLYLINE
  8
OBRYS
 66
    1
  0
VERTEX
  8
OBRYS
 10
748.085144
 20
196.194199
  0
VERTEX
  8
OBRYS
 10
747.955200
 20
195.460754
  0
VERTEX
  8
OBRYS
 10
747.434204
 20
194.562698
  0
VERTEX
  8
OBRYS
 10
746.085205
 20
192.962540
  0
SEQEND
  8
OBRYS
  0
POLYLINE
  8
OBRYS
 66
    1
  0
VERTEX
  8
OBRYS
 10
747.434204
 20
192.714127
  0
VERTEX
  8
OBRYS
 10
747.955200
 20
193.615387
  0
VERTEX
  8
OBRYS
 10
748.136108
 20
194.640259
  0
SEQEND
  8
OBRYS
  0
LINE
  8
OBRYS
 10
748.136098
 20
196.194191
 11
748.136098
 21
212.009109
  0
LINE
  8
OBRYS
 10
748.136098
 20
342.009109
 11
748.136098
 21
357.824026
  0
LINE
  8
OBRYS
 10
748.136098
 20
212.009109
 11
748.136098
 21
220.533249
  0
LINE
  8
OBRYS
 10
748.136098
 20
342.009109
 11
748.136098
 21
333.484968
  0
LINE
  8
OBRYS
 10
748.136098
 20
317.062198
 11
748.136098
 21
333.484968
  0
LINE
  8
OBRYS
 10
747.434231
 20
215.910421
 11
747.434231
 21
220.266611
  0
LINE
  8
OBRYS
 10
747.434231
 20
333.751607
 11
747.434231
 21
338.107796
  0
LINE
  8
OBRYS
 62
     7
  6
DASHDOT
 10
751.636098
 20
150.685302
 11
751.636098
 21
130.209109
  0
LINE
  8
OBRYS
 62
     4
  6
HIDDEN2
 10
757.136098
 20
148.009109
 11
757.136098
 21
135.009109
  0
LINE
  8
OBRYS
 62
     4
  6
HIDDEN2
 10
746.136098
 20
148.009109
 11
746.136098
 21
135.009109
  0
ENDBLK
  8
OBRYS
  0
BLOCK
  8
OBRYS
  2
_1
 70
   64
 10
633.136098
 20
277.009109
  0
LINE
  8
OBRYS
 62
     4
  6
HIDDEN2
 10
610.136098
 20
148.009109
 11
610.136098
 21
135.009109
  0
LINE
  8
OBRYS
 62
     4
  6
HIDDEN2
 10
599.136098
 20
148.009109
 11
599.136098
 21
135.009109
  0
LINE
  8
OBRYS
 62
     7
  6
DASHDOT
 10
604.636098
 20
150.685302
 11
604.636098
 21
130.209109
  0
LINE
  8
OBRYS
 10
608.837965
 20
333.751607
 11
608.837965
 21
338.107796
  0
LINE
  8
OBRYS
 10
608.837965
 20
215.910421
 11
608.837965
 21
220.266611
  0
LINE
  8
OBRYS
 10
608.136098
 20
317.062198
 11
608.136098
 21
333.484968
  0
LINE
  8
OBRYS
 10
608.136098
 20
342.009109
 11
608.136098
 21
333.484968
  0
LINE
  8
OBRYS
 10
608.136098
 20
212.009109
 11
608.136098
 21
220.533249
  0
LINE
  8
OBRYS
 10
608.136098
 20
342.009109
 11
608.136098
 21
357.824026
  0
LINE
  8
OBRYS
 10
608.136098
 20
196.194191
 11
608.136098
 21
212.009109
  0
POLYLINE
  8
OBRYS
 66
    1
  0
VERTEX
  8
OBRYS
 10
608.837952
 20
192.714127
  0
VERTEX
  8
OBRYS
 10
608.317017
 20
193.615387
  0
VERTEX
  8
OBRYS
 10
608.136108
 20
194.640259
  0
SEQEND
  8
OBRYS
  0
POLYLINE
  8
OBRYS
 66
    1
  0
VERTEX
  8
OBRYS
 10
608.187073
 20
196.194199
  0
VERTEX
  8
OBRYS
 10
608.317017
 20
195.460754
  0
VERTEX
  8
OBRYS
 10
608.837952
 20
194.562698
  0
VERTEX
  8
OBRYS
 10
610.187012
 20
192.962540
  0
SEQEND
  8
OBRYS
  0
POLYLINE
  8
OBRYS
 66
    1
  0
VERTEX
  8
OBRYS
 10
608.837952
 20
220.266617
  0
VERTEX
  8
OBRYS
 10
608.317017
 20
220.873291
  0
VERTEX
  8
OBRYS
 10
608.136108
 20
221.563171
  0
SEQEND
  8
OBRYS
  0
POLYLINE
  8
OBRYS
 66
    1
  0
VERTEX
  8
OBRYS
 10
608.136108
 20
215.967896
  0
VERTEX
  8
OBRYS
 10
608.317017
 20
215.208389
  0
VERTEX
  8
OBRYS
 10
608.837952
 20
214.540497
  0
SEQEND
  8
OBRYS
  0
POLYLINE
  8
OBRYS
 66
    1
  0
VERTEX
  8
OBRYS
 10
608.136108
 20
332.455048
  0
VERTEX
  8
OBRYS
 10
608.317017
 20
333.144928
  0
VERTEX
  8
OBRYS
 10
608.837952
 20
333.751617
  0
SEQEND
  8
OBRYS
  0
LINE
  8
OBRYS
 10
612.644277
 20
336.801588
 11
612.644277
 21
342.835495
  0
POLYLINE
  8
OBRYS
 66
    1
  0
VERTEX
  8
OBRYS
 10
608.837952
 20
339.477722
  0
VERTEX
  8
OBRYS
 10
608.317017
 20
338.809814
  0
VERTEX
  8
OBRYS
 10
608.136108
 20
338.050323
  0
SEQEND
  8
OBRYS
  0
POLYLINE
  8
OBRYS
 66
    1
  0
VERTEX
  8
OBRYS
 10
608.136108
 20
359.377960
  0
VERTEX
  8
OBRYS
 10
608.317017
 20
360.402832
  0
VERTEX
  8
OBRYS
 10
608.837952
 20
361.304108
  0
SEQEND
  8
OBRYS
  0
LINE
  8
OBRYS
 10
608.187084
 20
357.824026
 11
608.136098
 21
357.824026
  0
LINE
  8
OBRYS
 10
608.136098
 20
196.194191
 11
608.187084
 21
196.194191
  0
LINE
  8
OBRYS
 10
608.136098
 20
194.640262
 11
608.136098
 21
196.194191
  0
LINE
  8
OBRYS
 10
609.630984
 20
191.770125
 11
608.837965
 21
192.714120
  0
LINE
  8
OBRYS
 10
608.136098
 20
222.609193
 11
608.187084
 21
222.609193
  0
LINE
  8
OBRYS
 10
608.837965
 20
333.751607
 11
612.644277
 21
336.801588
  0
LINE
  8
OBRYS
 10
608.187084
 20
331.409024
 11
608.136098
 21
331.409024
  0
LINE
  8
OBRYS
 10
612.644277
 20
342.835495
 11
608.837965
 21
339.477727
  0
LINE
  8
OBRYS
 10
608.837965
 20
361.304097
 11
612.644277
 21
365.835060
  0
LINE
  8
OBRYS
 10
608.136098
 20
357.824026
 11
608.136098
 21
359.377955
  0
LINE
  8
OBRYS
 10
608.187084
 20
357.824026
 11
608.136098
 21
357.824026
  0
LINE
  8
OBRYS
 10
613.399043
 20
199.850754
 11
589.224887
 21
148.009109
  0
LINE
  8
OBRYS
 10
624.136098
 20
367.009107
 11
614.848895
 21
367.009109
  0
LINE
  8
OBRYS
 10
633.136098
 20
137.009109
 11
633.136098
 21
135.009109
  0
LINE
  8
OBRYS
 10
633.136098
 20
135.009109
 11
626.136098
 21
135.009109
  0
LINE
  8
OBRYS
 10
594.136098
 20
135.009109
 11
626.136098
 21
135.009109
  0
LINE
  8
OBRYS
 10
626.136098
 20
135.009109
 11
588.136098
 21
135.009109
  0
POLYLINE
  8
OBRYS
 66
    1
  0
VERTEX
  8
OBRYS
 10
614.848877
 20
337.306641
  0
VERTEX
  8
OBRYS
 10
614.848877
 20
337.306641
  0
VERTEX
  8
OBRYS
 10
608.837952
 20
332.507263
  0
VERTEX
  8
OBRYS
 10
608.317017
 20
331.902740
  0
VERTEX
  8
OBRYS
 10
608.187073
 20
331.409027
  0
SEQEND
  8
OBRYS
  0
POLYLINE
  8
OBRYS
 66
    1
  0
VERTEX
  8
OBRYS
 10
612.644287
 20
342.835480
  0
VERTEX
  8
OBRYS
 10
613.674561
 20
343.420685
  0
VERTEX
  8
OBRYS
 10
614.848877
 20
343.613403
  0
SEQEND
  8
OBRYS
  0
POLYLINE
  8
OBRYS
 66
    1
  0
VERTEX
  8
OBRYS
 10
612.644287
 20
336.801575
  0
VERTEX
  8
OBRYS
 10
613.674561
 20
337.333130
  0
VERTEX
  8
OBRYS
 10
614.848877
 20
337.508179
  0
SEQEND
  8
OBRYS
  0
LINE
  8
OBRYS
 10
614.848895
 20
367.009109
 11
614.848895
 21
337.306629
  0
POLYLINE
  8
OBRYS
 66
    1
  0
VERTEX
  8
OBRYS
 10
614.848877
 20
367.009094
  0
VERTEX
  8
OBRYS
 10
614.848877
 20
367.009094
  0
VERTEX
  8
OBRYS
 10
608.837952
 20
359.455505
  0
VERTEX
  8
OBRYS
 10
608.317017
 20
358.557465
  0
VERTEX
  8
OBRYS
 10
608.187073
 20
357.824036
  0
SEQEND
  8
OBRYS
  0
POLYLINE
  8
OBRYS
 66
    1
  0
VERTEX
  8
OBRYS
 10
612.644287
 20
365.835052
  0
VERTEX
  8
OBRYS
 10
613.674561
 20
366.624725
  0
VERTEX
  8
OBRYS
 10
614.848877
 20
367.009094
  0
SEQEND
  8
OBRYS
  0
LINE
  8
OBRYS
 10
624.136098
 20
148.009109
 11
594.136098
 21
148.009109
  0
ARC
  8
OBRYS
 10
624.136098
 20
150.009109
 40
2.000000
 50
270.000000
 51
360.000000
  0
LINE
  8
OBRYS
 10
622.136098
 20
358.343351
 11
627.136098
 21
358.343351
  0
LINE
  8
OBRYS
 10
626.136098
 20
345.343351
 11
624.136098
 21
345.343351
  0
LINE
  8
OBRYS
 10
625.136098
 20
351.843351
 11
624.136098
 21
351.843351
  0
LINE
  8
OBRYS
 10
620.136098
 20
361.762556
 11
620.136098
 21
357.553038
  0
LINE
  8
OBRYS
 10
622.136098
 20
362.345934
 11
622.136098
 21
356.605683
  0
LINE
  8
OBRYS
 10
624.136098
 20
358.343351
 11
624.136098
 21
362.345934
  0
LINE
  8
OBRYS
 10
628.136098
 20
367.009109
 11
633.136098
 21
367.009109
  0
LINE
  8
OBRYS
 10
626.136098
 20
331.118426
 11
625.917027
 21
331.118426
  0
LINE
  8
OBRYS
 10
627.136098
 20
362.060441
 11
627.136098
 21
359.884697
  0
LINE
  8
OBRYS
 10
627.136098
 20
359.853406
 11
627.136098
 21
356.320189
  0
LINE
  8
OBRYS
 10
626.136098
 20
358.343351
 11
626.136098
 21
360.498177
  0
LINE
  8
OBRYS
 10
627.136098
 20
358.343351
 11
627.136098
 21
356.320189
  0
LINE
  8
OBRYS
 10
624.136098
 20
367.009107
 11
624.136098
 21
362.345934
  0
POLYLINE
  8
OBRYS
 66
    1
  0
VERTEX
  8
OBRYS
 10
624.136108
 20
362.345947
  0
VERTEX
  8
OBRYS
 10
622.136108
 20
362.345947
  0
VERTEX
  8
OBRYS
 10
621.745911
 20
362.334717
  0
VERTEX
  8
OBRYS
 10
621.370728
 20
362.301514
  0
VERTEX
  8
OBRYS
 10
621.024963
 20
362.247620
  0
VERTEX
  8
OBRYS
 10
620.721863
 20
362.175079
  0
VERTEX
  8
OBRYS
 10
620.473145
 20
362.086670
  0
VERTEX
  8
OBRYS
 10
620.288330
 20
361.985809
  0
VERTEX
  8
OBRYS
 10
620.174561
 20
361.876373
  0
VERTEX
  8
OBRYS
 10
620.136108
 20
361.762543
  0
SEQEND
  8
OBRYS
  0
LINE
  8
OBRYS
 10
626.136098
 20
365.009109
 11
626.136098
 21
360.498177
  0
ARC
  8
OBRYS
 10
628.136098
 20
365.009109
 40
2.000000
 50
90.000000
 51
180.000000
  0
POLYLINE
  8
OBRYS
 66
    1
  0
VERTEX
  8
OBRYS
 10
626.136108
 20
359.612732
  0
VERTEX
  8
OBRYS
 10
625.955200
 20
358.586670
  0
VERTEX
  8
OBRYS
 10
625.814697
 20
358.343353
  0
SEQEND
  8
OBRYS
  0
POLYLINE
  8
OBRYS
 66
    1
  0
VERTEX
  8
OBRYS
 10
626.136108
 20
338.269135
  0
VERTEX
  8
OBRYS
 10
626.079895
 20
338.013519
  0
VERTEX
  8
OBRYS
 10
626.010010
 20
337.745636
  0
VERTEX
  8
OBRYS
 10
625.955200
 20
337.577545
  0
VERTEX
  8
OBRYS
 10
625.917053
 20
337.541809
  0
VERTEX
  8
OBRYS
 10
625.434204
 20
337.151733
  0
VERTEX
  8
OBRYS
 10
624.636108
 20
336.839325
  0
VERTEX
  8
OBRYS
 10
624.136108
 20
336.704681
  0
SEQEND
  8
OBRYS
  0
LINE
  8
OBRYS
 10
624.636098
 20
329.611986
 11
624.636098
 21
336.839338
  0
LINE
  8
OBRYS
 10
625.989957
 20
358.343351
 11
626.136098
 21
359.172328
  0
POLYLINE
  8
OBRYS
 66
    1
  0
VERTEX
  8
OBRYS
 10
624.136108
 20
329.323212
  0
VERTEX
  8
OBRYS
 10
624.636108
 20
329.612000
  0
VERTEX
  8
OBRYS
 10
625.434204
 20
330.281921
  0
VERTEX
  8
OBRYS
 10
625.917053
 20
331.118439
  0
VERTEX
  8
OBRYS
 10
625.955200
 20
331.178558
  0
VERTEX
  8
OBRYS
 10
626.010010
 20
331.461395
  0
VERTEX
  8
OBRYS
 10
626.079895
 20
331.757111
  0
VERTEX
  8
OBRYS
 10
626.136108
 20
331.945404
  0
SEQEND
  8
OBRYS
  0
LINE
  8
OBRYS
 10
627.136098
 20
357.343351
 11
627.136098
 21
356.320189
  0
POLYLINE
  8
OBRYS
 66
    1
  0
VERTEX
  8
OBRYS
 10
626.136108
 20
360.498169
  0
VERTEX
  8
OBRYS
 10
626.288330
 20
361.205292
  0
VERTEX
  8
OBRYS
 10
626.721863
 20
361.804749
  0
VERTEX
  8
OBRYS
 10
627.136108
 20
362.060455
  0
SEQEND
  8
OBRYS
  0
LINE
  8
OBRYS
 10
626.136098
 20
354.757925
 11
626.136098
 21
331.118426
  0
LINE
  8
OBRYS
 10
626.136098
 20
327.171049
 11
626.136098
 21
331.118426
  0
POLYLINE
  8
OBRYS
 66
    1
  0
VERTEX
  8
OBRYS
 10
627.136108
 20
359.884705
  0
VERTEX
  8
OBRYS
 10
627.130066
 20
359.869049
  0
VERTEX
  8
OBRYS
 10
627.136108
 20
359.853394
  0
SEQEND
  8
OBRYS
  0
POLYLINE
  8
OBRYS
 66
    1
  0
VERTEX
  8
OBRYS
 10
627.136108
 20
356.320190
  0
VERTEX
  8
OBRYS
 10
626.721863
 20
356.064484
  0
VERTEX
  8
OBRYS
 10
626.288330
 20
355.465027
  0
VERTEX
  8
OBRYS
 10
626.136108
 20
354.757935
  0
SEQEND
  8
OBRYS
  0
POLYLINE
  8
OBRYS
 66
    1
  0
VERTEX
  8
OBRYS
 10
620.136108
 20
360.158264
  0
VERTEX
  8
OBRYS
 10
620.136108
 20
357.553040
  0
VERTEX
  8
OBRYS
 10
620.174561
 20
357.368225
  0
VERTEX
  8
OBRYS
 10
620.288330
 20
357.190491
  0
VERTEX
  8
OBRYS
 10
620.473145
 20
357.026703
  0
VERTEX
  8
OBRYS
 10
620.721863
 20
356.883148
  0
VERTEX
  8
OBRYS
 10
621.024963
 20
356.765350
  0
VERTEX
  8
OBRYS
 10
621.370728
 20
356.677795
  0
VERTEX
  8
OBRYS
 10
621.745911
 20
356.623901
  0
VERTEX
  8
OBRYS
 10
622.136108
 20
356.605682
  0
VERTEX
  8
OBRYS
 10
624.136108
 20
356.605682
  0
SEQEND
  8
OBRYS
  0
LINE
  8
OBRYS
 10
594.136098
 20
148.009109
 11
590.136098
 21
148.009109
  0
LINE
  8
OBRYS
 10
588.136098
 20
135.009109
 11
588.136098
 21
146.009109
  0
ARC
  8
OBRYS
 10
590.136098
 20
146.009109
 40
2.000000
 50
90.000000
 51
180.000000
  0
LINE
  8
OBRYS
 10
589.085993
 20
147.711248
 11
609.630984
 21
191.770125
  0
LINE
  8
OBRYS
 10
633.136098
 20
144.298961
 11
633.136098
 21
135.009109
  0
LINE
  8
OBRYS
 10
626.136098
 20
150.009109
 11
626.136098
 21
150.752061
  0
LINE
  8
OBRYS
 10
626.136098
 20
327.171049
 11
626.136098
 21
323.803845
  0
LINE
  8
OBRYS
 10
633.136098
 20
329.152891
 11
633.136098
 21
367.009109
  0
LINE
  8
OBRYS
 10
628.136098
 20
367.009109
 11
628.136098
 21
325.459089
  0
LINE
  8
OBRYS
 10
624.136098
 20
356.605683
 11
624.136098
 21
322.034527
  0
LINE
  8
OBRYS
 10
614.848895
 20
337.306629
 11
614.848895
 21
311.945087
  0
LINE
  8
OBRYS
 10
608.136098
 20
317.062198
 11
608.136098
 21
301.738942
  0
LINE
  8
OBRYS
 10
608.136098
 20
220.533249
 11
608.136098
 21
224.279275
  0
LINE
  8
OBRYS
 10
612.405093
 20
217.408287
 11
608.837965
 21
220.266611
  0
POLYLINE
  8
OBRYS
 66
    1
  0
VERTEX
  8
OBRYS
 10
608.187073
 20
222.609192
  0
VERTEX
  8
OBRYS
 10
608.317017
 20
222.115479
  0
VERTEX
  8
OBRYS
 10
608.837952
 20
221.510971
  0
VERTEX
  8
OBRYS
 10
610.629517
 20
220.080505
  0
SEQEND
  8
OBRYS
  0
LINE
  8
OBRYS
 10
614.161865
 20
198.824905
 11
613.399048
 21
199.850754
  0
LINE
  8
OBRYS
 10
608.837965
 20
214.540490
 11
615.247791
 21
208.886013
  0
ENDBLK
  8
OBRYS
  0
BLOCK
  8
OBRYS
  2
_2
 70
   64
 10
678.136098
 20
197.009109
  0
ARC
  8
OBRYS
 10
678.136098
 20
263.009109
 40
92.000000
 50
225.920846
 51
314.079154
  0
ARC
  8
OBRYS
 10
678.136098
 20
263.009109
 40
52.000000
 50
224.999997
 51
315.000047
  0
ARC
  8
OBRYS
 10
678.136098
 20
263.009109
 40
32.000000
 50
224.999996
 51
315.000004
  0
ARC
  8
OBRYS
 10
707.834583
 20
233.310624
 40
10.000000
 50
315.000000
 51
135.000000
  0
ARC
  8
OBRYS
 10
648.437613
 20
233.310624
 40
10.000000
 50
45.000000
 51
225.000000
  0
CIRCLE
  8
OBRYS
 10
622.736098
 20
167.009109
 40
5.500000
  0
CIRCLE
  8
OBRYS
 10
678.136098
 20
134.009109
 40
5.500000
  0
CIRCLE
  8
OBRYS
 10
733.536098
 20
167.009109
 40
5.500000
  0
CIRCLE
  8
OBRYS
 10
678.136098
 20
297.009109
 40
5.500000
  0
CIRCLE
  8
OBRYS
 10
733.536098
 20
227.009109
 40
5.500000
  0
CIRCLE
  8
OBRYS
 10
622.736098
 20
227.009109
 40
5.500000
  0
ARC
  8
OBRYS
 10
678.136098
 20
263.009109
 40
74.000000
 50
153.573390
 51
197.140998
  0
ARC
  8
OBRYS
 10
678.136098
 20
263.009109
 40
61.000000
 50
153.573390
 51
197.140998
  0
ARC
  8
OBRYS
 10
613.634288
 20
243.115227
 40
6.500000
 50
197.141009
 51
17.141009
  0
ARC
  8
OBRYS
 10
742.637908
 20
243.115227
 40
6.500000
 50
162.858991
 51
342.858991
  0
ARC
  8
OBRYS
 10
678.136098
 20
263.009109
 40
61.000000
 50
342.858989
 51
26.426677
  0
ARC
  8
OBRYS
 10
678.136098
 20
263.009109
 40
74.000000
 50
342.858989
 51
26.426680
  0
ARC
  8
OBRYS
 10
678.136098
 20
263.009109
 40
61.000000
 50
243.573333
 51
296.426645
  0
ARC
  8
OBRYS
 10
678.136098
 20
263.009109
 40
74.000000
 50
243.573335
 51
296.426619
  0
ARC
  8
OBRYS
 10
678.136098
 20
263.009109
 40
61.000000
 50
63.573355
 51
116.426659
  0
ARC
  8
OBRYS
 10
678.136098
 20
263.009109
 40
74.000000
 50
63.573377
 51
116.426631
  0
ARC
  8
OBRYS
 10
648.095110
 20
202.562529
 40
6.500000
 50
63.573499
 51
243.573499
  0
ARC
  8
OBRYS
 10
708.177086
 20
202.562529
 40
6.500000
 50
296.426501
 51
116.426501
  0
ARC
  8
OBRYS
 10
708.177086
 20
323.455689
 40
6.500000
 50
243.573499
 51
63.573499
  0
ARC
  8
OBRYS
 10
738.582678
 20
293.050097
 40
6.500000
 50
26.427008
 51
206.427008
  0
ARC
  8
OBRYS
 10
617.689518
 20
293.050097
 40
6.500000
 50
333.572992
 51
153.572992
  0
ARC
  8
OBRYS
 10
648.095110
 20
323.455689
 40
6.500000
 50
116.426501
 51
296.426501
  0
CIRCLE
  8
OBRYS
 10
678.136098
 20
263.009109
 40
55.000000
  0
CIRCLE
  8
OBRYS
 10
678.136098
 20
263.009109
 40
80.000000
  0
ARC
  8
OBRYS
 10
678.136098
 20
197.009109
 40
64.000000
 50
165.942370
 51
199.389830
  0
ARC
  8
OBRYS
 10
678.136098
 20
197.009109
 40
64.000000
 50
340.610170
 51
14.057630
  0
INSERT
  8
OBRYS
  2
Vnitrni_metricky_zavit_M8__1
 62
     7
 10
632.174157
 20
217.047168
  0
INSERT
  8
OBRYS
  2
Vnitrni_metricky_zavit_M8__2
 62
     7
 10
724.098039
 20
217.047168
  0
LINE
  8
OSA
 10
716.496641
 20
224.648566
 11
731.699437
 21
209.445770
  0
LINE
  8
OSA
 10
639.775555
 20
224.648566
 11
624.572759
 21
209.445770
  0
CIRCLE
  8
OBRYS
 10
632.174157
 20
308.971049
 40
4.500000
  0
LINE
  8
OSA
 10
639.775555
 20
301.369652
 11
624.572759
 21
316.572447
  0
LINE
  8
OSA
 10
716.496641
 20
301.369652
 11
731.699437
 21
316.572447
  0
CIRCLE
  8
OBRYS
 10
724.098039
 20
308.971049
 40
4.500000
  0
CIRCLE
  8
OSA
 10
678.136098
 20
263.009109
 40
65.000000
  0
CIRCLE
  8
OBRYS
 10
703.136098
 20
286.009109
 40
3.000000
  0
LINE
  8
OSA
 10
703.136098
 20
286.009109
 11
695.136098
 21
286.009109
  0
LINE
  8
OSA
 10
703.136098
 20
286.009109
 11
703.136098
 21
278.009109
  0
LINE
  8
OSA
 10
703.136098
 20
286.009109
 11
703.136098
 21
294.009109
  0
LINE
  8
OSA
 10
703.136098
 20
286.009109
 11
713.278665
 21
286.009109
  0
CIRCLE
  8
OBRYS
 10
678.136098
 20
297.009109
 40
3.200000
  0
LINE
  8
OSA
 10
678.136098
 20
297.009109
 11
670.136098
 21
297.009109
  0
LINE
  8
OSA
 10
678.136098
 20
297.009109
 11
686.136098
 21
297.009109
  0
CIRCLE
  8
OBRYS
 10
622.736098
 20
167.009109
 40
3.200000
  0
CIRCLE
  8
OBRYS
 10
622.736098
 20
227.009109
 40
3.200000
  0
CIRCLE
  8
OBRYS
 10
733.536098
 20
227.009109
 40
3.200000
  0
CIRCLE
  8
OBRYS
 10
733.536098
 20
167.009109
 40
3.200000
  0
CIRCLE
  8
OBRYS
 10
635.136098
 20
151.009109
 40
3.000000
  0
LINE
  8
OSA
 10
635.136098
 20
151.009109
 11
623.136098
 21
151.009109
  0
LINE
  8
OSA
 10
635.136098
 20
151.009109
 11
647.136098
 21
151.009109
  0
LINE
  8
OSA
 10
635.136098
 20
151.009109
 11
635.136098
 21
139.009109
  0
LINE
  8
OSA
 10
635.136098
 20
151.009109
 11
635.136098
 21
163.009109
  0
LINE
  8
OSA
 10
741.536098
 20
167.009109
 11
725.536098
 21
167.009109
  0
LINE
  8
OSA
 10
741.536098
 20
227.009109
 11
725.536098
 21
227.009109
  0
LINE
  8
OSA
 10
733.536098
 20
159.601073
 11
733.536098
 21
235.901319
  0
LINE
  8
OSA
 10
622.736098
 20
159.601073
 11
622.736098
 21
235.901319
  0
LINE
  8
OSA
 10
614.736098
 20
227.009109
 11
630.736098
 21
227.009109
  0
LINE
  8
OSA
 10
614.736098
 20
167.009109
 11
630.736098
 21
167.009109
  0
ARC
  8
OBRYS
 10
667.351140
 20
131.844695
 40
3.000000
 50
11.347840
 51
74.724588
  0
ARC
  8
OBRYS
 10
678.136098
 20
134.009109
 40
8.000000
 50
191.347840
 51
348.652160
  0
LINE
  8
OBRYS
 10
668.141518
 20
134.738707
 11
633.291884
 21
144.256415
  0
ARC
  8
OBRYS
 10
688.921056
 20
131.844695
 40
3.000000
 50
105.275412
 51
168.652160
  0
LINE
  8
OBRYS
 10
688.130679
 20
134.738707
 11
722.980312
 21
144.256415
  0
ARC
  8
OBRYS
 10
733.536098
 20
167.009109
 40
8.000000
 50
319.392698
 51
44.840000
  0
ARC
  8
OBRYS
 10
741.335965
 20
174.765530
 40
3.000000
 50
160.610170
 51
224.839984
  0
LINE
  8
0
 62
     2
 10
739.609605
 20
161.802141
 11
726.450417
 21
146.453012
  0
ARC
  8
OBRYS
 10
721.136098
 20
151.009109
 40
7.000000
 50
285.275412
 51
319.392700
  0
ARC
  8
OBRYS
 10
635.136098
 20
151.009109
 40
7.000000
 50
220.607300
 51
254.724588
  0
ARC
  8
OBRYS
 10
622.736098
 20
167.009109
 40
8.000000
 50
135.160016
 51
220.607302
  0
LINE
  8
0
 62
     2
 10
616.662591
 20
161.802141
 11
629.821779
 21
146.453012
  0
ARC
  8
OBRYS
 10
614.936231
 20
174.765530
 40
3.000000
 50
315.160016
 51
19.389830
  0
LINE
  8
OSA
 10
668.686098
 20
134.009109
 11
687.586098
 21
134.009109
  0
CIRCLE
  8
OBRYS
 10
678.136098
 20
134.009109
 40
3.200000
  0
LINE
  8
OSA
 10
678.136098
 20
263.009109
 11
678.136098
 21
123.711168
  0
LINE
  8
OSA
 10
748.386098
 20
197.009109
 11
607.886098
 21
197.009109
  0
CIRCLE
  8
OBRYS
 10
678.136098
 20
263.009109
 40
23.500000
  0
LINE
  8
OSA
 10
678.136098
 20
263.009109
 11
678.136098
 21
349.259109
  0
LINE
  8
OSA
 10
678.136098
 20
263.009109
 11
591.886098
 21
263.009109
  0
LINE
  8
OSA
 10
678.136098
 20
263.009109
 11
764.386098
 21
263.009109
  0
CIRCLE
  8
OBRYS
 10
678.136098
 20
263.009109
 40
12.500000
  0
LINE
  8
OBRYS
 10
680.636098
 20
253.809109
 11
675.636098
 21
253.809109
  0
LINE
  8
OBRYS
 10
675.636098
 20
256.470760
 11
675.636098
 21
253.809109
  0
LINE
  8
OBRYS
 10
680.636098
 20
256.470760
 11
680.636098
 21
253.809109
  0
ARC
  8
OBRYS
 10
678.136098
 20
263.009109
 40
7.000000
 50
290.924832
 51
249.075168
  0
ENDBLK
  8
OBRYS
  0
BLOCK
  8
OBRYS
  2
Vnitrni_metricky_zavit_M8__1
 70
   66
 10
632.174157
 20
217.047168
  0
CIRCLE
  8
OBRYS
 10
632.174157
 20
217.047168
 40
3.323500
  0
ARC
  8
OBRYS
 62
     7
 10
632.174157
 20
217.047168
 40
4.000000
 50
85.000000
 51
5.000000
  0
ENDBLK
  8
OBRYS
  0
BLOCK
  8
OBRYS
  2
Vnitrni_metricky_zavit_M8__2
 70
   66
 10
724.098039
 20
217.047168
  0
CIRCLE
  8
OBRYS
 10
724.098039
 20
217.047168
 40
3.323500
  0
ARC
  8
OBRYS
 62
     7
 10
724.098039
 20
217.047168
 40
4.000000
 50
85.000000
 51
5.000000
  0
ENDBLK
  8
OBRYS
  0
BLOCK
  8
OBRYS
  2
_3
 70
   64
 10
294.659929
 20
576.093386
  0
LINE
  8
OSA
 10
218.409929
 20
576.093386
 11
302.234681
 21
576.093386
  0
ARC
  8
OBRYS
 10
231.659929
 20
499.093386
 40
3.000000
 50
270.000000
 51
360.000000
  0
LINE
  8
OBRYS
 10
224.659929
 20
496.093386
 11
231.659929
 21
496.093386
  0
LINE
  8
OBRYS
 10
224.659929
 20
656.093386
 11
224.659929
 21
496.093386
  0
ARC
  8
OBRYS
 10
294.659929
 20
530.093386
 40
3.000000
 50
90.000000
 51
180.000000
  0
ARC
  8
OBRYS
 10
294.659929
 20
622.093386
 40
3.000000
 50
180.000000
 51
270.000000
  0
LINE
  8
OBRYS
 10
294.659929
 20
611.093386
 11
294.659929
 21
576.093386
  0
LINE
  8
OBRYS
 10
294.659929
 20
541.093386
 11
294.659929
 21
576.093386
  0
LINE
  8
OBRYS
 10
291.659929
 20
630.093322
 11
291.659929
 21
576.093386
  0
ARC
  8
OBRYS
 10
281.659929
 20
630.093322
 40
10.000000
 50
0.000000
 51
90.000000
  0
LINE
  8
OBRYS
 10
291.659929
 20
576.093386
 11
291.659929
 21
522.093451
  0
ARC
  8
OBRYS
 10
281.659929
 20
522.093451
 40
10.000000
 50
270.000000
 51
360.000000
  0
LINE
  8
OBRYS
 10
236.659929
 20
640.093322
 11
281.659929
 21
640.093322
  0
ARC
  8
OBRYS
 10
236.659929
 20
642.093322
 40
2.000000
 50
180.000000
 51
270.000000
  0
LINE
  8
OBRYS
 10
236.659929
 20
512.093451
 11
281.659929
 21
512.093451
  0
ARC
  8
OBRYS
 10
236.659929
 20
510.093451
 40
2.000000
 50
90.000000
 51
180.000000
  0
LINE
  8
OBRYS
 10
224.659929
 20
656.093386
 11
231.659929
 21
656.093386
  0
LINE
  8
OBRYS
 10
234.659929
 20
653.093386
 11
234.659929
 21
499.093386
  0
ARC
  8
OBRYS
 10
231.659929
 20
653.093386
 40
3.000000
 50
0.000000
 51
90.000000
  0
LINE
  8
OBRYS
 10
251.659929
 20
640.093322
 11
251.659929
 21
512.093451
  0
LINE
  8
OBRYS
 10
243.659929
 20
623.009666
 11
281.724370
 21
623.009666
  0
LINE
  8
OBRYS
 10
243.659929
 20
584.091263
 11
281.724370
 21
584.091263
  0
ARC
  8
OBRYS
 10
244.659929
 20
637.093322
 40
3.000000
 50
90.000000
 51
180.000000
  0
LINE
  8
OBRYS
 10
241.659929
 20
637.093322
 11
241.659929
 21
515.093451
  0
ARC
  8
OBRYS
 10
244.659929
 20
515.093451
 40
3.000000
 50
180.000000
 51
270.000000
  0
LINE
  8
OBRYS
 10
243.659929
 20
529.177107
 11
281.724370
 21
529.177107
  0
LINE
  8
OBRYS
 10
243.659929
 20
568.095509
 11
281.724370
 21
568.095509
  0
ENDBLK
  8
OBRYS
  0
BLOCK
  8
OBRYS
  2
_4
 70
   64
 10
294.659929
 20
-75.888207
  0
LINE
  8
OSA
 10
218.409929
 20
-75.888207
 11
302.234681
 21
-75.888207
  0
ARC
  8
OBRYS
 10
231.659929
 20
-152.888207
 40
3.000000
 50
270.000000
 51
360.000000
  0
LINE
  8
OBRYS
 10
224.659929
 20
-155.888207
 11
231.659929
 21
-155.888207
  0
LINE
  8
OBRYS
 10
224.659929
 20
4.111793
 11
224.659929
 21
-155.888207
  0
ARC
  8
OBRYS
 10
294.659929
 20
-121.888207
 40
3.000000
 50
90.000000
 51
180.000000
  0
ARC
  8
OBRYS
 10
294.659929
 20
-29.888207
 40
3.000000
 50
180.000000
 51
270.000000
  0
LINE
  8
OBRYS
 10
294.659929
 20
-40.888207
 11
294.659929
 21
-75.888207
  0
LINE
  8
OBRYS
 10
294.659929
 20
-110.888207
 11
294.659929
 21
-75.888207
  0
LINE
  8
OBRYS
 10
291.659929
 20
-21.888272
 11
291.659929
 21
-75.888207
  0
ARC
  8
OBRYS
 10
281.659929
 20
-21.888272
 40
10.000000
 50
0.000000
 51
90.000000
  0
LINE
  8
OBRYS
 10
291.659929
 20
-75.888207
 11
291.659929
 21
-129.888143
  0
ARC
  8
OBRYS
 10
281.659929
 20
-129.888143
 40
10.000000
 50
270.000000
 51
360.000000
  0
LINE
  8
OBRYS
 10
236.659929
 20
-11.888272
 11
281.659929
 21
-11.888272
  0
ARC
  8
OBRYS
 10
236.659929
 20
-9.888272
 40
2.000000
 50
180.000000
 51
270.000000
  0
LINE
  8
OBRYS
 10
236.659929
 20
-139.888143
 11
281.659929
 21
-139.888143
  0
ARC
  8
OBRYS
 10
236.659929
 20
-141.888143
 40
2.000000
 50
90.000000
 51
180.000000
  0
LINE
  8
OBRYS
 10
224.659929
 20
4.111793
 11
231.659929
 21
4.111793
  0
LINE
  8
OBRYS
 10
234.659929
 20
1.111793
 11
234.659929
 21
-152.888207
  0
ARC
  8
OBRYS
 10
231.659929
 20
1.111793
 40
3.000000
 50
0.000000
 51
90.000000
  0
LINE
  8
OBRYS
 10
251.659929
 20
-11.888272
 11
251.659929
 21
-139.888143
  0
LINE
  8
OBRYS
 10
281.659929
 20
-21.445320
 11
234.659929
 21
-21.445320
  0
LINE
  8
OBRYS
 10
257.659929
 20
-23.054804
 11
257.659929
 21
-128.788461
  0
LINE
  8
OBRYS
 10
281.659929
 20
-130.331095
 11
234.659929
 21
-130.331095
  0
ENDBLK
  8
OBRYS
  0
BLOCK
  8
OBRYS
  2
_5
 70
   64
 10
294.659929
 20
197.009109
  0
ARC
  8
OBRYS
 10
274.673692
 20
130.009109
 40
3.000000
 50
270.000000
 51
310.000000
  0
LINE
  8
OBRYS
 10
288.087805
 20
137.348664
 11
276.602055
 21
127.710975
  0
LINE
  8
OBRYS
 10
251.659929
 20
127.009109
 11
274.673692
 21
127.009109
  0
ARC
  8
OBRYS
 10
281.659929
 20
145.009109
 40
10.000000
 50
310.000000
 51
360.000000
  0
LINE
  8
OSA
 10
246.659929
 20
197.009109
 11
304.659929
 21
197.009109
  0
ARC
  8
OBRYS
 10
294.659929
 20
247.804825
 40
3.000000
 50
180.000000
 51
270.000000
  0
ARC
  8
OBRYS
 10
294.659929
 20
146.213392
 40
3.000000
 50
90.000000
 51
180.000000
  0
ARC
  8
OBRYS
 10
281.659929
 20
295.009109
 40
10.000000
 50
0.000000
 51
90.000000
  0
LINE
  8
OBRYS
 10
251.659929
 20
305.009109
 11
281.659929
 21
305.009109
  0
LINE
  8
OBRYS
 10
251.659929
 20
127.009109
 11
251.659929
 21
305.009109
  0
LINE
  8
OSA
 10
246.705669
 20
263.009109
 11
296.659929
 21
263.009109
  0
LINE
  8
OBRYS
 10
294.659929
 20
157.522793
 11
294.659929
 21
197.009109
  0
LINE
  8
OBRYS
 10
294.659929
 20
236.495424
 11
294.659929
 21
197.009109
  0
LINE
  8
OBRYS
 10
291.659929
 20
143.688601
 11
291.659929
 21
197.009109
  0
LINE
  8
OBRYS
 10
291.659929
 20
197.009109
 11
291.659929
 21
295.009109
  0
LINE
  8
OBRYS
 10
251.659929
 20
132.009109
 11
282.344930
 21
132.009109
  0
LINE
  8
OBRYS
 10
258.659929
 20
174.633776
 11
281.724370
 21
174.633776
  0
LINE
  8
OBRYS
 10
258.659929
 20
219.384441
 11
281.724370
 21
219.384441
  0
LINE
  8
OBRYS
 10
256.659929
 20
176.633776
 11
256.659929
 21
217.384441
  0
LINE
  8
OBRYS
 10
258.659929
 20
234.462708
 11
281.724370
 21
234.462708
  0
LINE
  8
OBRYS
 10
256.659929
 20
236.462708
 11
256.659929
 21
305.009109
  0
LINE
  8
OBRYS
 10
256.659929
 20
144.822312
 11
281.724370
 21
144.822312
  0
LINE
  8
OBRYS
 10
234.659929
 20
183.009109
 11
234.659929
 21
340.009109
  0
LINE
  8
OBRYS
 10
224.659929
 20
183.009109
 11
224.659929
 21
343.009109
  0
LINE
  8
OBRYS
 10
224.659929
 20
343.009109
 11
231.659929
 21
343.009109
  0
ARC
  8
OBRYS
 10
231.659929
 20
340.009109
 40
3.000000
 50
0.000000
 51
90.000000
  0
ARC
  8
OBRYS
 10
237.659929
 20
308.009109
 40
3.000000
 50
180.000000
 51
270.000000
  0
LINE
  8
OBRYS
 10
237.659929
 20
305.009109
 11
251.659929
 21
305.009109
  0
LINE
  8
OBRYS
 10
251.659929
 20
127.009109
 11
251.659929
 21
305.009109
  0
LINE
  8
OBRYS
 10
243.659929
 20
127.009109
 11
251.659929
 21
127.009109
  0
ARC
  8
OBRYS
 10
243.659929
 20
129.009109
 40
2.000000
 50
180.000000
 51
270.000000
  0
LINE
  8
OBRYS
 10
241.659929
 20
129.009109
 11
241.659929
 21
169.597566
  0
ARC
  8
OBRYS
 10
238.659929
 20
169.597566
 40
3.000000
 50
0.000000
 51
30.000000
  0
LINE
  8
OBRYS
 10
224.659929
 20
183.009109
 11
232.648822
 21
183.009109
  0
LINE
  8
OBRYS
 10
241.258005
 20
171.097566
 11
235.246898
 21
181.509109
  0
ARC
  8
OBRYS
 10
232.648822
 20
180.009109
 40
3.000000
 50
30.000000
 51
90.000000
  0
LINE
  8
OSA
 10
218.409929
 20
263.009109
 11
257.909929
 21
263.009109
  0
LINE
  8
OBRYS
 10
251.659929
 20
132.009109
 11
241.659929
 21
132.009109
  0
LINE
  8
OBRYS
 10
251.659929
 20
144.822312
 11
244.442145
 21
144.822312
  0
LINE
  8
OBRYS
 10
251.659929
 20
174.633776
 11
242.855572
 21
174.633776
  0
LINE
  8
OBRYS
 10
251.659929
 20
219.384441
 11
237.156537
 21
219.384441
  0
LINE
  8
OBRYS
 10
251.659929
 20
234.462708
 11
237.156537
 21
234.462708
  0
ENDBLK
  8
OBRYS
  0
BLOCK
  8
OBRYS
  2
_6
 70
   64
 10
1073.688691
 20
197.009109
  0
ARC
  8
OBRYS
 10
1093.674928
 20
130.009109
 40
3.000000
 50
230.000000
 51
270.000000
  0
LINE
  8
OBRYS
 10
1080.260815
 20
137.348664
 11
1091.746565
 21
127.710975
  0
LINE
  8
OBRYS
 10
1116.688691
 20
127.009109
 11
1093.674928
 21
127.009109
  0
ARC
  8
OBRYS
 10
1086.688691
 20
145.009109
 40
10.000000
 50
180.000000
 51
230.000000
  0
LINE
  8
OSA
 10
1121.688691
 20
197.009109
 11
1063.688691
 21
197.009109
  0
ARC
  8
OBRYS
 10
1073.688691
 20
247.804825
 40
3.000000
 50
270.000000
 51
360.000000
  0
ARC
  8
OBRYS
 10
1073.688691
 20
146.213392
 40
3.000000
 50
0.000000
 51
90.000000
  0
ARC
  8
OBRYS
 10
1086.688691
 20
295.009109
 40
10.000000
 50
90.000000
 51
180.000000
  0
LINE
  8
OBRYS
 10
1116.688691
 20
305.009109
 11
1086.688691
 21
305.009109
  0
LINE
  8
OBRYS
 10
1116.688691
 20
127.009109
 11
1116.688691
 21
305.009109
  0
LINE
  8
OSA
 10
1121.642951
 20
263.009109
 11
1071.688691
 21
263.009109
  0
LINE
  8
OBRYS
 10
1073.688691
 20
157.522793
 11
1073.688691
 21
197.009109
  0
LINE
  8
OBRYS
 10
1073.688691
 20
236.495424
 11
1073.688691
 21
197.009109
  0
LINE
  8
OBRYS
 10
1076.688691
 20
143.688601
 11
1076.688691
 21
197.009109
  0
LINE
  8
OBRYS
 10
1076.688691
 20
197.009109
 11
1076.688691
 21
295.009109
  0
LINE
  8
OBRYS
 10
1116.688691
 20
132.009109
 11
1086.003690
 21
132.009109
  0
LINE
  8
OBRYS
 10
1109.688691
 20
174.633776
 11
1086.624249
 21
174.633776
  0
LINE
  8
OBRYS
 10
1109.688691
 20
219.384441
 11
1086.624249
 21
219.384441
  0
LINE
  8
OBRYS
 10
1111.688691
 20
176.633776
 11
1111.688691
 21
217.384441
  0
LINE
  8
OBRYS
 10
1109.688691
 20
234.462708
 11
1086.624249
 21
234.462708
  0
LINE
  8
OBRYS
 10
1111.688691
 20
236.462708
 11
1111.688691
 21
305.009109
  0
LINE
  8
OBRYS
 10
1111.688691
 20
144.822312
 11
1086.624249
 21
144.822312
  0
LINE
  8
OBRYS
 10
1133.688691
 20
183.009109
 11
1133.688691
 21
340.009109
  0
LINE
  8
OBRYS
 10
1143.688691
 20
183.009109
 11
1143.688691
 21
343.009109
  0
LINE
  8
OBRYS
 10
1143.688691
 20
343.009109
 11
1136.688691
 21
343.009109
  0
ARC
  8
OBRYS
 10
1136.688691
 20
340.009109
 40
3.000000
 50
90.000000
 51
180.000000
  0
ARC
  8
OBRYS
 10
1130.688691
 20
308.009109
 40
3.000000
 50
270.000000
 51
360.000000
  0
LINE
  8
OBRYS
 10
1130.688691
 20
305.009109
 11
1116.688691
 21
305.009109
  0
LINE
  8
OBRYS
 10
1116.688691
 20
127.009109
 11
1116.688691
 21
305.009109
  0
LINE
  8
OBRYS
 10
1124.688691
 20
127.009109
 11
1116.688691
 21
127.009109
  0
ARC
  8
OBRYS
 10
1124.688691
 20
129.009109
 40
2.000000
 50
270.000000
 51
360.000000
  0
LINE
  8
OBRYS
 10
1126.688691
 20
129.009109
 11
1126.688691
 21
169.597566
  0
ARC
  8
OBRYS
 10
1129.688691
 20
169.597566
 40
3.000000
 50
150.000000
 51
180.000000
  0
LINE
  8
OBRYS
 10
1143.688691
 20
183.009109
 11
1135.699798
 21
183.009109
  0
LINE
  8
OBRYS
 10
1127.090615
 20
171.097566
 11
1133.101722
 21
181.509109
  0
ARC
  8
OBRYS
 10
1135.699798
 20
180.009109
 40
3.000000
 50
90.000000
 51
150.000000
  0
LINE
  8
OSA
 10
1149.938691
 20
263.009109
 11
1110.438691
 21
263.009109
  0
LINE
  8
OBRYS
 10
1116.688691
 20
132.009109
 11
1126.688691
 21
132.009109
  0
LINE
  8
OBRYS
 10
1116.688691
 20
144.822312
 11
1123.906475
 21
144.822312
  0
LINE
  8
OBRYS
 10
1116.688691
 20
174.633776
 11
1125.493048
 21
174.633776
  0
LINE
  8
OBRYS
 10
1116.688691
 20
219.384441
 11
1131.192083
 21
219.384441
  0
LINE
  8
OBRYS
 10
1116.688691
 20
234.462708
 11
1131.192083
 21
234.462708
  0
ENDBLK
  8
OBRYS
  0
BLOCK
  8
OBRYS
  2
_7
 70
   64
 10
389.659929
 20
576.093386
  0
LINE
  8
0
 62
     2
 10
424.661675
 20
506.795253
 11
393.708908
 21
506.795253
  0
LINE
  8
0
 62
     2
 10
393.708908
 20
506.795253
 11
385.699744
 21
506.795253
  0
LINE
  8
0
 62
     2
 10
398.659929
 20
523.093386
 11
392.659929
 21
523.093386
  0
LINE
  8
0
 62
     2
 10
410.659929
 20
523.093386
 11
404.659929
 21
523.093386
  0
LINE
  8
0
 62
     2
 10
424.661675
 20
506.093386
 11
416.320761
 21
506.093386
  0
LINE
  8
0
 62
     2
 10
354.658183
 20
506.093386
 11
357.159929
 21
506.093386
  0
LINE
  8
0
 62
     2
 10
357.159929
 20
506.093386
 11
416.320761
 21
506.093386
  0
LINE
  8
0
 62
     2
 10
380.659929
 20
523.093386
 11
386.659929
 21
523.093386
  0
LINE
  8
0
 62
     2
 10
368.659929
 20
523.093386
 11
374.659929
 21
523.093386
  0
LINE
  8
0
 62
     2
 10
394.200666
 20
515.395721
 11
385.119192
 21
515.395721
  0
LINE
  8
0
 62
     2
 10
392.659929
 20
523.478942
 11
386.659929
 21
523.478942
  0
POLYLINE
  8
0
 62
     2
 66
    1
  0
VERTEX
  8
0
 62
     2
 10
394.200653
 20
515.395752
  0
VERTEX
  8
0
 62
     2
 10
394.351257
 20
519.034424
  0
VERTEX
  8
0
 62
     2
 10
394.431305
 20
523.093384
  0
SEQEND
  8
0
  0
POLYLINE
  8
0
 62
     2
 66
    1
  0
VERTEX
  8
0
 62
     2
 10
384.888519
 20
523.093384
  0
VERTEX
  8
0
 62
     2
 10
384.968597
 20
519.034424
  0
VERTEX
  8
0
 62
     2
 10
385.119202
 20
515.395752
  0
SEQEND
  8
0
  0
POLYLINE
  8
0
 62
     2
 66
    1
  0
VERTEX
  8
0
 62
     2
 10
393.616394
 20
506.093384
  0
VERTEX
  8
0
 62
     2
 10
393.665619
 20
506.274292
  0
VERTEX
  8
0
 62
     2
 10
393.708893
 20
506.795288
  0
SEQEND
  8
0
  0
POLYLINE
  8
0
 62
     2
 66
    1
  0
VERTEX
  8
0
 62
     2
 10
385.610962
 20
506.795288
  0
VERTEX
  8
0
 62
     2
 10
385.654236
 20
506.274292
  0
VERTEX
  8
0
 62
     2
 10
385.703461
 20
506.093384
  0
SEQEND
  8
0
  0
LINE
  8
0
 62
     2
 10
385.065163
 20
516.701128
 11
354.658183
 21
516.701128
  0
LINE
  8
0
 62
     2
 10
424.661675
 20
516.701128
 11
394.254694
 21
516.701128
  0
LINE
  8
0
 62
     2
 10
424.661675
 20
524.093386
 11
424.661675
 21
510.284036
  0
LINE
  8
0
 62
     2
 10
385.699744
 20
506.795253
 11
354.658183
 21
506.795253
  0
CIRCLE
  8
0
 62
     2
 10
319.658183
 20
502.593386
 40
5.500000
  0
ARC
  8
0
 62
     2
 10
305.659929
 20
492.093386
 40
6.000000
 50
180.000000
 51
270.000000
  0
CIRCLE
  8
0
 62
     2
 10
459.661675
 20
502.593386
 40
5.500000
  0
ARC
  8
0
 62
     2
 10
473.659929
 20
492.093386
 40
6.000000
 50
270.000000
 51
360.000000
  0
LINE
  8
0
 62
     2
 10
402.659929
 20
523.093386
 11
402.659929
 21
524.093386
  0
LINE
  8
0
 62
     2
 10
404.659929
 20
523.093386
 11
402.659929
 21
523.093386
  0
LINE
  8
0
 62
     2
 10
402.659929
 20
523.093386
 11
402.659929
 21
524.093386
  0
LINE
  8
0
 62
     2
 10
410.659929
 20
524.093386
 11
410.659929
 21
523.093386
  0
LINE
  8
0
 62
     2
 10
403.659929
 20
523.093386
 11
403.659929
 21
524.093386
  0
LINE
  8
0
 62
     2
 10
399.659929
 20
523.093386
 11
399.659929
 21
524.093386
  0
LINE
  8
0
 62
     2
 10
400.659929
 20
523.093386
 11
399.659929
 21
523.093386
  0
LINE
  8
0
 62
     2
 10
400.659929
 20
524.093386
 11
400.659929
 21
523.093386
  0
LINE
  8
0
 62
     2
 10
392.659929
 20
523.093386
 11
392.659929
 21
524.093386
  0
LINE
  8
0
 62
     2
 10
400.659929
 20
523.093386
 11
400.659929
 21
524.093386
  0
LINE
  8
0
 62
     2
 10
398.659929
 20
523.093386
 11
400.659929
 21
523.093386
  0
LINE
  8
0
 62
     2
 10
380.659929
 20
523.093386
 11
380.659929
 21
524.093386
  0
LINE
  8
0
 62
     2
 10
378.659929
 20
523.093386
 11
380.659929
 21
523.093386
  0
LINE
  8
0
 62
     2
 10
378.659929
 20
524.093386
 11
378.659929
 21
523.093386
  0
LINE
  8
0
 62
     2
 10
386.659929
 20
523.093386
 11
386.659929
 21
524.093386
  0
LINE
  8
0
 62
     2
 10
376.659929
 20
523.093386
 11
376.659929
 21
524.093386
  0
LINE
  8
0
 62
     2
 10
374.659929
 20
523.093386
 11
376.659929
 21
523.093386
  0
LINE
  8
0
 62
     2
 10
368.659929
 20
524.093386
 11
368.659929
 21
523.093386
  0
LINE
  8
0
 62
     2
 10
374.659929
 20
523.093386
 11
374.659929
 21
524.093386
  0
LINE
  8
0
 62
     2
 10
393.708908
 20
506.795253
 11
394.200666
 21
515.395721
  0
LINE
  8
0
 62
     2
 10
385.119192
 20
515.395721
 11
385.610950
 21
506.795253
  0
LINE
  8
0
 62
     2
 10
424.659929
 20
524.093386
 11
424.659929
 21
531.093386
  0
LINE
  8
0
 62
     2
 10
479.659929
 20
531.093386
 11
479.659929
 21
524.093386
  0
LINE
  8
0
 62
     2
 10
424.659929
 20
531.093386
 11
424.659929
 21
524.093386
  0
LINE
  8
0
 62
     2
 10
354.659929
 20
524.093386
 11
354.659929
 21
531.093386
  0
LINE
  8
0
 62
     2
 10
299.659929
 20
524.093386
 11
299.659929
 21
531.093386
  0
LINE
  8
0
 62
     2
 10
354.659929
 20
531.093386
 11
354.659929
 21
524.093386
  0
LINE
  8
0
 62
     2
 10
354.658183
 20
486.093386
 11
305.659929
 21
486.093386
  0
LINE
  8
0
 62
     2
 10
354.658183
 20
524.093386
 11
354.658183
 21
486.093386
  0
LINE
  8
0
 62
     2
 10
299.659929
 20
492.093386
 11
299.659929
 21
524.093386
  0
LINE
  8
0
 62
     2
 10
424.661675
 20
486.093386
 11
473.659929
 21
486.093386
  0
LINE
  8
0
 62
     2
 10
424.661675
 20
524.093386
 11
424.661675
 21
486.093386
  0
LINE
  8
0
 62
     2
 10
479.659929
 20
492.093386
 11
479.659929
 21
524.093386
  0
LINE
  8
0
 62
     2
 10
354.658183
 20
524.093386
 11
424.659929
 21
524.093386
  0
ENDBLK
  8
OBRYS
  0
BLOCK
  8
OBRYS
  2
_8
 70
   64
 10
389.659929
 20
576.093386
  0
LINE
  8
OBRYS
 10
354.658183
 20
628.093386
 11
424.659929
 21
628.093386
  0
LINE
  8
OBRYS
 10
479.659929
 20
660.093386
 11
479.659929
 21
628.093386
  0
LINE
  8
OBRYS
 10
424.661675
 20
628.093386
 11
424.661675
 21
666.093386
  0
LINE
  8
OBRYS
 10
424.661675
 20
666.093386
 11
473.659929
 21
666.093386
  0
LINE
  8
OBRYS
 10
299.659929
 20
660.093386
 11
299.659929
 21
628.093386
  0
LINE
  8
OBRYS
 10
354.658183
 20
628.093386
 11
354.658183
 21
666.093386
  0
LINE
  8
OBRYS
 10
354.658183
 20
666.093386
 11
305.659929
 21
666.093386
  0
LINE
  8
OBRYS
 10
354.659929
 20
621.093386
 11
354.659929
 21
628.093386
  0
LINE
  8
OBRYS
 10
354.659929
 20
628.093386
 11
354.659929
 21
621.093386
  0
LINE
  8
OBRYS
 10
424.659929
 20
628.093386
 11
424.659929
 21
621.093386
  0
LINE
  8
OBRYS
 10
385.119192
 20
636.791052
 11
385.610950
 21
645.391520
  0
LINE
  8
OBRYS
 10
393.708908
 20
645.391520
 11
394.200666
 21
636.791052
  0
LINE
  8
OBRYS
 10
374.659929
 20
629.093386
 11
374.659929
 21
628.093386
  0
LINE
  8
OBRYS
 10
368.659929
 20
628.093386
 11
368.659929
 21
629.093386
  0
LINE
  8
OBRYS
 10
374.659929
 20
629.093386
 11
376.659929
 21
629.093386
  0
LINE
  8
OBRYS
 10
376.659929
 20
629.093386
 11
376.659929
 21
628.093386
  0
LINE
  8
OBRYS
 10
386.659929
 20
629.093386
 11
386.659929
 21
628.093386
  0
LINE
  8
OBRYS
 10
378.659929
 20
628.093386
 11
378.659929
 21
629.093386
  0
LINE
  8
OBRYS
 10
378.659929
 20
629.093386
 11
380.659929
 21
629.093386
  0
LINE
  8
OBRYS
 10
380.659929
 20
629.093386
 11
380.659929
 21
628.093386
  0
LINE
  8
OBRYS
 10
398.659929
 20
629.093386
 11
400.659929
 21
629.093386
  0
LINE
  8
OBRYS
 10
400.659929
 20
629.093386
 11
400.659929
 21
628.093386
  0
LINE
  8
OBRYS
 10
392.659929
 20
629.093386
 11
392.659929
 21
628.093386
  0
LINE
  8
OBRYS
 10
400.659929
 20
628.093386
 11
400.659929
 21
629.093386
  0
LINE
  8
OBRYS
 10
400.659929
 20
629.093386
 11
399.659929
 21
629.093386
  0
LINE
  8
OBRYS
 10
399.659929
 20
629.093386
 11
399.659929
 21
628.093386
  0
LINE
  8
OBRYS
 10
403.659929
 20
629.093386
 11
403.659929
 21
628.093386
  0
LINE
  8
OBRYS
 10
410.659929
 20
628.093386
 11
410.659929
 21
629.093386
  0
LINE
  8
OBRYS
 10
402.659929
 20
629.093386
 11
402.659929
 21
628.093386
  0
LINE
  8
OBRYS
 10
404.659929
 20
629.093386
 11
402.659929
 21
629.093386
  0
LINE
  8
OBRYS
 10
402.659929
 20
629.093386
 11
402.659929
 21
628.093386
  0
ARC
  8
OBRYS
 10
473.659929
 20
660.093386
 40
6.000000
 50
0.000000
 51
90.000000
  0
CIRCLE
  8
OBRYS
 10
459.661675
 20
649.593386
 40
5.500000
  0
ARC
  8
OBRYS
 10
305.659929
 20
660.093386
 40
6.000000
 50
90.000000
 51
180.000000
  0
CIRCLE
  8
OBRYS
 10
319.658183
 20
649.593386
 40
5.500000
  0
LINE
  8
OBRYS
 10
385.699744
 20
645.391520
 11
354.658183
 21
645.391520
  0
LINE
  8
OBRYS
 10
424.661675
 20
641.902737
 11
424.661675
 21
628.093386
  0
LINE
  8
OBRYS
 10
354.658183
 20
641.902737
 11
354.658183
 21
628.093386
  0
LINE
  8
OBRYS
 10
394.254694
 20
635.485645
 11
424.661675
 21
635.485645
  0
LINE
  8
OBRYS
 10
385.065163
 20
635.485645
 11
354.658183
 21
635.485645
  0
POLYLINE
  8
OBRYS
 66
    1
  0
VERTEX
  8
OBRYS
 10
385.610962
 20
645.391541
  0
VERTEX
  8
OBRYS
 10
385.654236
 20
645.912476
  0
VERTEX
  8
OBRYS
 10
385.703461
 20
646.093384
  0
SEQEND
  8
OBRYS
  0
POLYLINE
  8
OBRYS
 66
    1
  0
VERTEX
  8
OBRYS
 10
393.616394
 20
646.093384
  0
VERTEX
  8
OBRYS
 10
393.665619
 20
645.912476
  0
VERTEX
  8
OBRYS
 10
393.708893
 20
645.391541
  0
SEQEND
  8
OBRYS
  0
POLYLINE
  8
OBRYS
 66
    1
  0
VERTEX
  8
OBRYS
 10
384.888519
 20
629.093384
  0
VERTEX
  8
OBRYS
 10
384.968597
 20
633.152405
  0
VERTEX
  8
OBRYS
 10
385.119202
 20
636.791077
  0
SEQEND
  8
OBRYS
  0
POLYLINE
  8
OBRYS
 66
    1
  0
VERTEX
  8
OBRYS
 10
394.200653
 20
636.791077
  0
VERTEX
  8
OBRYS
 10
394.351257
 20
633.152405
  0
VERTEX
  8
OBRYS
 10
394.431305
 20
629.093384
  0
SEQEND
  8
OBRYS
  0
LINE
  8
OBRYS
 10
392.659929
 20
628.707830
 11
386.659929
 21
628.707830
  0
LINE
  8
OBRYS
 10
394.200666
 20
636.791052
 11
385.119192
 21
636.791052
  0
LINE
  8
OBRYS
 10
368.659929
 20
629.093386
 11
374.659929
 21
629.093386
  0
LINE
  8
OBRYS
 10
380.659929
 20
629.093386
 11
386.659929
 21
629.093386
  0
LINE
  8
OBRYS
 10
354.658183
 20
646.093386
 11
381.560953
 21
646.093386
  0
LINE
  8
OBRYS
 10
424.661675
 20
646.093386
 11
392.659929
 21
646.093386
  0
LINE
  8
OBRYS
 10
392.659929
 20
646.093386
 11
381.560953
 21
646.093386
  0
LINE
  8
OBRYS
 10
410.659929
 20
629.093386
 11
404.659929
 21
629.093386
  0
LINE
  8
OBRYS
 10
398.659929
 20
629.093386
 11
392.659929
 21
629.093386
  0
LINE
  8
OBRYS
 10
393.708908
 20
645.391520
 11
385.699744
 21
645.391520
  0
LINE
  8
OBRYS
 10
393.708908
 20
645.391520
 11
424.661675
 21
645.391520
  0
LINE
  8
OBRYS
 10
479.659929
 20
621.093386
 11
479.659929
 21
639.380589
  0
LINE
  8
OBRYS
 10
479.659929
 20
621.093386
 11
299.659929
 21
621.093386
  0
LINE
  8
OBRYS
 10
299.659929
 20
639.380589
 11
299.659929
 21
621.093386
  0
ENDBLK
  8
OBRYS
  0
BLOCK
  8
OBRYS
  2
_9
 70
   64
 10
389.659929
 20
-120.888207
  0
LINE
  8
0
 62
     2
 10
310.063354
 20
-131.888207
 11
308.325687
 21
-131.888207
  0
LINE
  8
0
 62
     2
 10
308.325687
 20
-126.888207
 11
311.214480
 21
-126.888207
  0
LINE
  8
0
 62
     2
 10
470.994171
 20
-131.888207
 11
469.256503
 21
-131.888207
  0
LINE
  8
0
 62
     2
 10
468.971009
 20
-126.888207
 11
470.994171
 21
-126.888207
  0
LINE
  8
0
 62
     2
 10
470.994171
 20
-131.888207
 11
469.256503
 21
-131.888207
  0
LINE
  8
0
 62
     2
 10
468.971009
 20
-126.888207
 11
470.994171
 21
-126.888207
  0
LINE
  8
0
 62
     2
 10
424.119287
 20
-131.888207
 11
417.195287
 21
-131.888207
  0
LINE
  8
0
 62
     2
 10
424.657287
 20
-126.888207
 11
423.983165
 21
-126.888207
  0
LINE
  8
0
 62
     2
 10
423.943870
 20
-126.888207
 11
416.734146
 21
-126.888207
  0
LINE
  8
0
 62
     2
 10
427.157287
 20
-131.888207
 11
416.889658
 21
-131.888207
  0
LINE
  8
0
 62
     2
 10
424.019412
 20
-126.888207
 11
427.157287
 21
-126.888207
  0
LINE
  8
0
 62
     2
 10
416.771403
 20
-126.888207
 11
423.943870
 21
-126.888207
  0
LINE
  8
0
 62
     2
 10
362.124571
 20
-131.888207
 11
355.200571
 21
-131.888207
  0
LINE
  8
0
 62
     2
 10
355.300446
 20
-126.888207
 11
354.662571
 21
-126.888207
  0
LINE
  8
0
 62
     2
 10
362.548455
 20
-126.888207
 11
355.336692
 21
-126.888207
  0
LINE
  8
0
 62
     2
 10
362.273777
 20
-131.888207
 11
352.162571
 21
-131.888207
  0
LINE
  8
0
 62
     2
 10
352.162571
 20
-126.888207
 11
355.300446
 21
-126.888207
  0
LINE
  8
0
 62
     2
 10
355.375988
 20
-126.888207
 11
362.548455
 21
-126.888207
  0
POLYLINE
  8
0
 62
     2
 66
    1
  0
VERTEX
  8
0
 62
     2
 10
430.629608
 20
-126.888206
  0
VERTEX
  8
0
 62
     2
 10
430.523682
 20
-127.302422
  0
VERTEX
  8
0
 62
     2
 10
430.275391
 20
-127.735970
  0
VERTEX
  8
0
 62
     2
 10
429.982483
 20
-127.888206
  0
SEQEND
  8
0
  0
LINE
  8
0
 62
     2
 10
414.157287
 20
-127.888207
 11
413.157287
 21
-127.888207
  0
LINE
  8
0
 62
     2
 10
416.771403
 20
-126.888207
 11
423.943870
 21
-126.888207
  0
LINE
  8
0
 62
     2
 10
424.019412
 20
-126.888207
 11
427.586383
 21
-126.888207
  0
LINE
  8
0
 62
     2
 10
427.586383
 20
-127.888207
 11
427.157287
 21
-127.888207
  0
POLYLINE
  8
0
 62
     2
 66
    1
  0
VERTEX
  8
0
 62
     2
 10
349.337372
 20
-127.888206
  0
VERTEX
  8
0
 62
     2
 10
349.044495
 20
-127.735970
  0
VERTEX
  8
0
 62
     2
 10
348.796173
 20
-127.302422
  0
VERTEX
  8
0
 62
     2
 10
348.690277
 20
-126.888206
  0
SEQEND
  8
0
  0
LINE
  8
0
 62
     2
 10
352.162571
 20
-127.888207
 11
351.733474
 21
-127.888207
  0
LINE
  8
0
 62
     2
 10
351.733474
 20
-126.888207
 11
355.300446
 21
-126.888207
  0
LINE
  8
0
 62
     2
 10
355.375988
 20
-126.888207
 11
362.548455
 21
-126.888207
  0
LINE
  8
0
 62
     2
 10
366.162571
 20
-127.888207
 11
365.162571
 21
-127.888207
  0
POLYLINE
  8
0
 62
     2
 66
    1
  0
VERTEX
  8
0
 62
     2
 10
304.608612
 20
-126.888206
  0
VERTEX
  8
0
 62
     2
 10
304.864288
 20
-127.302422
  0
VERTEX
  8
0
 62
     2
 10
305.463745
 20
-127.735970
  0
VERTEX
  8
0
 62
     2
 10
306.170868
 20
-127.888206
  0
SEQEND
  8
0
  0
LINE
  8
0
 62
     2
 10
322.325687
 20
-127.888207
 11
321.325687
 21
-127.888207
  0
POLYLINE
  8
0
 62
     2
 66
    1
  0
VERTEX
  8
0
 62
     2
 10
474.711273
 20
-126.888206
  0
VERTEX
  8
0
 62
     2
 10
474.455566
 20
-127.302422
  0
VERTEX
  8
0
 62
     2
 10
473.856110
 20
-127.735970
  0
VERTEX
  8
0
 62
     2
 10
473.149017
 20
-127.888206
  0
SEQEND
  8
0
  0
LINE
  8
0
 62
     2
 10
457.994171
 20
-127.888207
 11
456.994171
 21
-127.888207
  0
LINE
  8
0
 62
     2
 10
310.825687
 20
-125.888207
 11
310.325687
 21
-125.888207
  0
LINE
  8
0
 62
     2
 10
319.325687
 20
-125.888207
 11
318.825687
 21
-125.888207
  0
LINE
  8
0
 62
     2
 10
309.325687
 20
-126.888207
 11
310.936599
 21
-126.888207
  0
LINE
  8
0
 62
     2
 10
319.325687
 20
-125.888207
 11
318.825687
 21
-125.888207
  0
LINE
  8
0
 62
     2
 10
310.825687
 20
-125.888207
 11
310.325687
 21
-125.888207
  0
LINE
  8
0
 62
     2
 10
309.325687
 20
-126.888207
 11
310.936599
 21
-126.888207
  0
LINE
  8
0
 62
     2
 10
363.162571
 20
-125.888207
 11
362.662571
 21
-125.888207
  0
LINE
  8
0
 62
     2
 10
354.662571
 20
-125.888207
 11
354.162571
 21
-125.888207
  0
LINE
  8
0
 62
     2
 10
353.162571
 20
-126.888207
 11
355.300446
 21
-126.888207
  0
LINE
  8
0
 62
     2
 10
355.375988
 20
-126.888207
 11
362.548455
 21
-126.888207
  0
LINE
  8
0
 62
     2
 10
424.657287
 20
-125.888207
 11
425.157287
 21
-125.888207
  0
LINE
  8
0
 62
     2
 10
416.157287
 20
-125.888207
 11
416.657287
 21
-125.888207
  0
LINE
  8
0
 62
     2
 10
423.712923
 20
-126.888207
 11
416.768200
 21
-126.888207
  0
LINE
  8
0
 62
     2
 10
426.157287
 20
-126.888207
 11
424.546374
 21
-126.888207
  0
LINE
  8
0
 62
     2
 10
459.994171
 20
-125.888207
 11
460.494171
 21
-125.888207
  0
LINE
  8
0
 62
     2
 10
468.494171
 20
-125.888207
 11
468.994171
 21
-125.888207
  0
LINE
  8
0
 62
     2
 10
469.994171
 20
-126.888207
 11
468.383258
 21
-126.888207
  0
LINE
  8
0
 62
     2
 10
459.994171
 20
-125.888207
 11
460.494171
 21
-125.888207
  0
LINE
  8
0
 62
     2
 10
468.494171
 20
-125.888207
 11
468.994171
 21
-125.888207
  0
LINE
  8
0
 62
     2
 10
469.994171
 20
-126.888207
 11
468.383258
 21
-126.888207
  0
LINE
  8
0
 62
     2
 10
342.570703
 20
-145.888207
 11
345.566279
 21
-145.888207
  0
LINE
  8
0
 62
     2
 10
349.606839
 20
-145.888207
 11
386.659929
 21
-145.888207
  0
LINE
  8
0
 62
     2
 10
386.659929
 20
-145.888207
 11
342.570703
 21
-145.888207
  0
LINE
  8
0
 62
     2
 10
436.749155
 20
-145.888207
 11
392.659929
 21
-145.888207
  0
LINE
  8
0
 62
     2
 10
433.753579
 20
-145.888207
 11
436.749155
 21
-145.888207
  0
LINE
  8
0
 62
     2
 10
392.659929
 20
-145.888207
 11
429.713019
 21
-145.888207
  0
LINE
  8
0
 62
     2
 10
335.457608
 20
-145.888207
 11
336.279192
 21
-145.888207
  0
LINE
  8
0
 62
     2
 10
381.560953
 20
-145.888207
 11
377.075800
 21
-145.888207
  0
LINE
  8
0
 62
     2
 10
391.949478
 20
-145.888207
 11
387.370380
 21
-145.888207
  0
LINE
  8
0
 62
     2
 10
402.244057
 20
-145.888207
 11
397.758905
 21
-145.888207
  0
LINE
  8
0
 62
     2
 10
443.862249
 20
-145.888207
 11
443.040666
 21
-145.888207
  0
LINE
  8
0
 62
     2
 10
357.159929
 20
-145.888207
 11
422.159929
 21
-145.888207
  0
LINE
  8
0
 62
     2
 10
308.325687
 20
-127.888207
 11
307.496709
 21
-127.888207
  0
LINE
  8
0
 62
     2
 10
339.497988
 20
-127.888207
 11
336.437095
 21
-127.888207
  0
LINE
  8
0
 62
     2
 10
307.496709
 20
-127.888207
 11
308.325687
 21
-128.034348
  0
LINE
  8
0
 62
     2
 10
336.998954
 20
-145.888207
 11
341.921825
 21
-145.888207
  0
LINE
  8
0
 62
     2
 10
329.127235
 20
-127.888207
 11
328.859929
 21
-127.888207
  0
LINE
  8
0
 62
     2
 10
341.846896
 20
-145.888207
 11
341.921825
 21
-145.888207
  0
LINE
  8
0
 62
     2
 10
437.472962
 20
-145.888207
 11
437.398033
 21
-145.888207
  0
LINE
  8
0
 62
     2
 10
450.192623
 20
-127.888207
 11
450.459929
 21
-127.888207
  0
LINE
  8
0
 62
     2
 10
439.821870
 20
-127.888207
 11
442.882762
 21
-127.888207
  0
LINE
  8
0
 62
     2
 10
470.994171
 20
-127.888207
 11
471.823148
 21
-127.888207
  0
LINE
  8
0
 62
     2
 10
442.320904
 20
-145.888207
 11
437.398033
 21
-145.888207
  0
LINE
  8
0
 62
     2
 10
471.823148
 20
-127.888207
 11
470.994171
 21
-128.034348
  0
LINE
  8
0
 62
     2
 10
394.083886
 20
-127.888207
 11
394.201942
 21
-127.888207
  0
LINE
  8
0
 62
     2
 10
404.335350
 20
-127.888207
 11
414.157287
 21
-127.888207
  0
LINE
  8
0
 62
     2
 10
443.769247
 20
-127.888207
 11
444.596229
 21
-127.888207
  0
POLYLINE
  8
0
 62
     2
 66
    1
  0
VERTEX
  8
0
 62
     2
 10
394.083893
 20
-127.944389
  0
VERTEX
  8
0
 62
     2
 10
394.103577
 20
-128.014297
  0
VERTEX
  8
0
 62
     2
 10
394.184692
 20
-128.069122
  0
VERTEX
  8
0
 62
     2
 10
394.201935
 20
-128.107269
  0
VERTEX
  8
0
 62
     2
 10
394.517639
 20
-128.590057
  0
VERTEX
  8
0
 62
     2
 10
394.770447
 20
-129.388199
  0
VERTEX
  8
0
 62
     2
 10
394.879425
 20
-129.888199
  0
SEQEND
  8
0
  0
LINE
  8
0
 62
     2
 10
416.320761
 20
-145.888207
 11
404.616793
 21
-145.888207
  0
POLYLINE
  8
0
 62
     2
 66
    1
  0
VERTEX
  8
0
 62
     2
 10
444.596222
 20
-127.888206
  0
VERTEX
  8
0
 62
     2
 10
444.407928
 20
-127.944389
  0
VERTEX
  8
0
 62
     2
 10
444.112244
 20
-128.014297
  0
VERTEX
  8
0
 62
     2
 10
443.829376
 20
-128.069122
  0
VERTEX
  8
0
 62
     2
 10
443.769257
 20
-128.107269
  0
VERTEX
  8
0
 62
     2
 10
442.932739
 20
-128.590057
  0
VERTEX
  8
0
 62
     2
 10
442.262817
 20
-129.388199
  0
VERTEX
  8
0
 62
     2
 10
441.974030
 20
-129.888199
  0
SEQEND
  8
0
  0
LINE
  8
0
 62
     2
 10
335.550611
 20
-127.888207
 11
334.723629
 21
-127.888207
  0
LINE
  8
0
 62
     2
 10
374.984507
 20
-127.888207
 11
365.162571
 21
-127.888207
  0
LINE
  8
0
 62
     2
 10
385.235972
 20
-127.888207
 11
385.117916
 21
-127.888207
  0
POLYLINE
  8
0
 62
     2
 66
    1
  0
VERTEX
  8
0
 62
     2
 10
334.723633
 20
-127.888206
  0
VERTEX
  8
0
 62
     2
 10
334.911926
 20
-127.944389
  0
VERTEX
  8
0
 62
     2
 10
335.207642
 20
-128.014297
  0
VERTEX
  8
0
 62
     2
 10
335.490509
 20
-128.069122
  0
VERTEX
  8
0
 62
     2
 10
335.550629
 20
-128.107269
  0
VERTEX
  8
0
 62
     2
 10
336.387115
 20
-128.590057
  0
VERTEX
  8
0
 62
     2
 10
337.057068
 20
-129.388199
  0
VERTEX
  8
0
 62
     2
 10
337.345825
 20
-129.888199
  0
SEQEND
  8
0
  0
LINE
  8
0
 62
     2
 10
362.999096
 20
-145.888207
 11
374.703065
 21
-145.888207
  0
POLYLINE
  8
0
 62
     2
 66
    1
  0
VERTEX
  8
0
 62
     2
 10
384.440460
 20
-129.888199
  0
VERTEX
  8
0
 62
     2
 10
384.549438
 20
-129.388199
  0
VERTEX
  8
0
 62
     2
 10
384.802246
 20
-128.590057
  0
VERTEX
  8
0
 62
     2
 10
385.117920
 20
-128.107269
  0
VERTEX
  8
0
 62
     2
 10
385.135162
 20
-128.069122
  0
VERTEX
  8
0
 62
     2
 10
385.216309
 20
-128.014297
  0
VERTEX
  8
0
 62
     2
 10
385.235992
 20
-127.944389
  0
SEQEND
  8
0
  0
LINE
  8
0
 62
     2
 10
329.829699
 20
-129.388207
 11
337.057052
 21
-129.388207
  0
LINE
  8
0
 62
     2
 10
394.770439
 20
-129.388207
 11
384.549419
 21
-129.388207
  0
LINE
  8
0
 62
     2
 10
449.490158
 20
-129.388207
 11
442.262806
 21
-129.388207
  0
POLYLINE
  8
0
 62
     2
 66
    1
  0
VERTEX
  8
0
 62
     2
 10
329.964355
 20
-129.888199
  0
VERTEX
  8
0
 62
     2
 10
329.829712
 20
-129.388199
  0
VERTEX
  8
0
 62
     2
 10
329.517303
 20
-128.590057
  0
VERTEX
  8
0
 62
     2
 10
329.127228
 20
-128.107269
  0
VERTEX
  8
0
 62
     2
 10
329.091522
 20
-128.069122
  0
VERTEX
  8
0
 62
     2
 10
328.923401
 20
-128.014297
  0
VERTEX
  8
0
 62
     2
 10
328.655518
 20
-127.944389
  0
VERTEX
  8
0
 62
     2
 10
328.399902
 20
-127.888206
  0
SEQEND
  8
0
  0
LINE
  8
0
 62
     2
 10
385.235972
 20
-127.944385
 11
385.188370
 21
-127.888207
  0
LINE
  8
0
 62
     2
 10
394.083886
 20
-127.944385
 11
394.131488
 21
-127.888207
  0
POLYLINE
  8
0
 62
     2
 66
    1
  0
VERTEX
  8
0
 62
     2
 10
449.355499
 20
-129.888199
  0
VERTEX
  8
0
 62
     2
 10
449.490173
 20
-129.388199
  0
VERTEX
  8
0
 62
     2
 10
449.802551
 20
-128.590057
  0
VERTEX
  8
0
 62
     2
 10
450.192627
 20
-128.107269
  0
VERTEX
  8
0
 62
     2
 10
450.228363
 20
-128.069122
  0
VERTEX
  8
0
 62
     2
 10
450.396484
 20
-128.014297
  0
VERTEX
  8
0
 62
     2
 10
450.664337
 20
-127.944389
  0
VERTEX
  8
0
 62
     2
 10
450.919983
 20
-127.888206
  0
SEQEND
  8
0
  0
LINE
  8
0
 62
     2
 10
307.056299
 20
-127.888207
 11
307.496709
 21
-127.888207
  0
LINE
  8
0
 62
     2
 10
328.399889
 20
-127.888207
 11
334.723629
 21
-127.888207
  0
LINE
  8
0
 62
     2
 10
385.188370
 20
-127.888207
 11
394.131488
 21
-127.888207
  0
LINE
  8
0
 62
     2
 10
450.919968
 20
-127.888207
 11
444.596229
 21
-127.888207
  0
LINE
  8
0
 62
     2
 10
472.263559
 20
-127.888207
 11
471.823148
 21
-127.888207
  0
POLYLINE
  8
0
 62
     2
 66
    1
  0
VERTEX
  8
0
 62
     2
 10
311.911102
 20
-127.888206
  0
VERTEX
  8
0
 62
     2
 10
311.204010
 20
-127.735970
  0
VERTEX
  8
0
 62
     2
 10
310.604553
 20
-127.302422
  0
VERTEX
  8
0
 62
     2
 10
310.348846
 20
-126.888206
  0
VERTEX
  8
0
 62
     2
 10
306.815643
 20
-126.888206
  0
VERTEX
  8
0
 62
     2
 10
306.799988
 20
-126.894234
  0
VERTEX
  8
0
 62
     2
 10
306.784332
 20
-126.888206
  0
VERTEX
  8
0
 62
     2
 10
304.608612
 20
-126.888206
  0
SEQEND
  8
0
  0
POLYLINE
  8
0
 62
     2
 66
    1
  0
VERTEX
  8
0
 62
     2
 10
348.690277
 20
-126.888206
  0
VERTEX
  8
0
 62
     2
 10
355.300446
 20
-126.888206
  0
VERTEX
  8
0
 62
     2
 10
355.338226
 20
-126.894234
  0
VERTEX
  8
0
 62
     2
 10
355.376007
 20
-126.888206
  0
VERTEX
  8
0
 62
     2
 10
362.548462
 20
-126.888206
  0
VERTEX
  8
0
 62
     2
 10
362.654388
 20
-127.302422
  0
VERTEX
  8
0
 62
     2
 10
362.902679
 20
-127.735970
  0
VERTEX
  8
0
 62
     2
 10
363.195557
 20
-127.888206
  0
SEQEND
  8
0
  0
POLYLINE
  8
0
 62
     2
 66
    1
  0
VERTEX
  8
0
 62
     2
 10
416.124298
 20
-127.888206
  0
VERTEX
  8
0
 62
     2
 10
416.417175
 20
-127.735970
  0
VERTEX
  8
0
 62
     2
 10
416.665497
 20
-127.302422
  0
VERTEX
  8
0
 62
     2
 10
416.771393
 20
-126.888206
  0
VERTEX
  8
0
 62
     2
 10
423.943878
 20
-126.888206
  0
VERTEX
  8
0
 62
     2
 10
423.981659
 20
-126.894234
  0
VERTEX
  8
0
 62
     2
 10
424.019409
 20
-126.888206
  0
VERTEX
  8
0
 62
     2
 10
430.629608
 20
-126.888206
  0
SEQEND
  8
0
  0
POLYLINE
  8
0
 62
     2
 66
    1
  0
VERTEX
  8
0
 62
     2
 10
467.408752
 20
-127.888206
  0
VERTEX
  8
0
 62
     2
 10
468.115845
 20
-127.735970
  0
VERTEX
  8
0
 62
     2
 10
468.715302
 20
-127.302422
  0
VERTEX
  8
0
 62
     2
 10
468.971008
 20
-126.888206
  0
VERTEX
  8
0
 62
     2
 10
472.504242
 20
-126.888206
  0
VERTEX
  8
0
 62
     2
 10
472.519867
 20
-126.894234
  0
VERTEX
  8
0
 62
     2
 10
472.535522
 20
-126.888206
  0
VERTEX
  8
0
 62
     2
 10
474.711273
 20
-126.888206
  0
SEQEND
  8
0
  0
LINE
  8
0
 62
     2
 10
299.659929
 20
-125.888207
 11
479.659929
 21
-125.888207
  0
POLYLINE
  8
0
 62
     2
 66
    1
  0
VERTEX
  8
0
 62
     2
 10
308.325684
 20
-128.209610
  0
VERTEX
  8
0
 62
     2
 10
308.082367
 20
-128.069122
  0
VERTEX
  8
0
 62
     2
 10
307.056305
 20
-127.888206
  0
SEQEND
  8
0
  0
POLYLINE
  8
0
 62
     2
 66
    1
  0
VERTEX
  8
0
 62
     2
 10
470.994171
 20
-128.209610
  0
VERTEX
  8
0
 62
     2
 10
471.237518
 20
-128.069122
  0
VERTEX
  8
0
 62
     2
 10
472.263550
 20
-127.888206
  0
SEQEND
  8
0
  0
ARC
  8
0
 62
     2
 10
301.659929
 20
-125.888207
 40
2.000000
 50
180.000000
 51
270.000000
  0
ARC
  8
0
 62
     2
 10
477.659929
 20
-125.888207
 40
2.000000
 50
270.000000
 51
360.000000
  0
LINE
  8
0
 62
     2
 10
335.457608
 20
-145.888207
 11
334.885430
 21
-145.888207
  0
LINE
  8
0
 62
     2
 10
336.998954
 20
-145.888207
 11
336.279192
 21
-145.888207
  0
LINE
  8
0
 62
     2
 10
362.999096
 20
-145.888207
 11
341.846896
 21
-145.888207
  0
LINE
  8
0
 62
     2
 10
374.703065
 20
-145.888207
 11
377.075800
 21
-145.888207
  0
LINE
  8
0
 62
     2
 10
381.560953
 20
-145.888207
 11
387.370380
 21
-145.888207
  0
LINE
  8
0
 62
     2
 10
391.949478
 20
-145.888207
 11
397.758905
 21
-145.888207
  0
LINE
  8
0
 62
     2
 10
402.244057
 20
-145.888207
 11
404.616793
 21
-145.888207
  0
LINE
  8
0
 62
     2
 10
416.320761
 20
-145.888207
 11
437.472962
 21
-145.888207
  0
LINE
  8
0
 62
     2
 10
442.320904
 20
-145.888207
 11
443.040666
 21
-145.888207
  0
LINE
  8
0
 62
     2
 10
443.862249
 20
-145.888207
 11
444.434428
 21
-145.888207
  0
LINE
  8
0
 62
     2
 10
306.170861
 20
-127.888207
 11
301.659929
 21
-127.888207
  0
LINE
  8
0
 62
     2
 10
311.911112
 20
-127.888207
 11
349.337373
 21
-127.888207
  0
LINE
  8
0
 62
     2
 10
363.195566
 20
-127.888207
 11
416.124292
 21
-127.888207
  0
LINE
  8
0
 62
     2
 10
429.982485
 20
-127.888207
 11
467.408746
 21
-127.888207
  0
LINE
  8
0
 62
     2
 10
473.148997
 20
-127.888207
 11
477.659929
 21
-127.888207
  0
POLYLINE
  8
0
 62
     2
 66
    1
  0
VERTEX
  8
0
 62
     2
 10
301.330872
 20
-129.382614
  0
VERTEX
  8
0
 62
     2
 10
301.352692
 20
-129.009521
  0
VERTEX
  8
0
 62
     2
 10
301.370575
 20
-128.554916
  0
VERTEX
  8
0
 62
     2
 10
301.383881
 20
-128.036255
  0
VERTEX
  8
0
 62
     2
 10
301.386810
 20
-127.833885
  0
SEQEND
  8
0
  0
POLYLINE
  8
0
 62
     2
 66
    1
  0
VERTEX
  8
0
 62
     2
 10
301.250916
 20
-129.888199
  0
VERTEX
  8
0
 62
     2
 10
301.278992
 20
-129.830551
  0
VERTEX
  8
0
 62
     2
 10
301.305969
 20
-129.659836
  0
VERTEX
  8
0
 62
     2
 10
301.330872
 20
-129.382614
  0
SEQEND
  8
0
  0
LINE
  8
0
 62
     2
 10
479.659929
 20
-127.473478
 11
479.659927
 21
-129.888207
  0
LINE
  8
0
 62
     2
 10
479.659929
 20
-120.888207
 11
479.659929
 21
-127.473478
  0
POLYLINE
  8
0
 62
     2
 66
    1
  0
VERTEX
  8
0
 62
     2
 10
475.086945
 20
-129.888199
  0
VERTEX
  8
0
 62
     2
 10
475.212433
 20
-129.830551
  0
VERTEX
  8
0
 62
     2
 10
475.944733
 20
-129.659836
  0
VERTEX
  8
0
 62
     2
 10
476.222748
 20
-129.382614
  0
VERTEX
  8
0
 62
     2
 10
476.671906
 20
-129.009521
  0
VERTEX
  8
0
 62
     2
 10
476.877502
 20
-128.554916
  0
VERTEX
  8
0
 62
     2
 10
477.157806
 20
-128.036255
  0
VERTEX
  8
0
 62
     2
 10
477.175049
 20
-127.888206
  0
SEQEND
  8
0
  0
POLYLINE
  8
0
 62
     2
 66
    1
  0
VERTEX
  8
0
 62
     2
 10
300.770538
 20
-127.653099
  0
VERTEX
  8
0
 62
     2
 10
300.755615
 20
-128.036255
  0
VERTEX
  8
0
 62
     2
 10
300.628387
 20
-129.009521
  0
VERTEX
  8
0
 62
     2
 10
300.437958
 20
-129.659836
  0
VERTEX
  8
0
 62
     2
 10
300.408905
 20
-129.689377
  0
VERTEX
  8
0
 62
     2
 10
299.763580
 20
-129.824219
  0
SEQEND
  8
0
  0
POLYLINE
  8
0
 62
     2
 66
    1
  0
VERTEX
  8
0
 62
     2
 10
306.817291
 20
-129.888199
  0
VERTEX
  8
0
 62
     2
 10
306.803802
 20
-129.830551
  0
VERTEX
  8
0
 62
     2
 10
306.153198
 20
-129.659836
  0
VERTEX
  8
0
 62
     2
 10
305.967346
 20
-129.382614
  0
VERTEX
  8
0
 62
     2
 10
305.590210
 20
-129.009521
  0
VERTEX
  8
0
 62
     2
 10
305.450684
 20
-128.554916
  0
VERTEX
  8
0
 62
     2
 10
305.214050
 20
-128.036255
  0
VERTEX
  8
0
 62
     2
 10
305.205078
 20
-127.888206
  0
SEQEND
  8
0
  0
LINE
  8
0
 62
     2
 10
390.605920
 20
-145.888207
 11
393.541748
 21
-145.888207
  0
LINE
  8
0
 62
     2
 10
385.778110
 20
-145.888207
 11
388.713938
 21
-145.888207
  0
LINE
  8
0
 62
     2
 10
447.473621
 20
-145.888207
 11
449.549565
 21
-145.888207
  0
LINE
  8
0
 62
     2
 10
444.059845
 20
-145.888207
 11
446.135788
 21
-145.888207
  0
LINE
  8
0
 62
     2
 10
333.184069
 20
-145.888207
 11
335.260013
 21
-145.888207
  0
LINE
  8
0
 62
     2
 10
329.770292
 20
-145.888207
 11
331.846236
 21
-145.888207
  0
POLYLINE
  8
0
 62
     2
 66
    1
  0
VERTEX
  8
0
 62
     2
 10
473.954926
 20
-145.186340
  0
VERTEX
  8
0
 62
     2
 10
473.053650
 20
-145.707275
  0
VERTEX
  8
0
 62
     2
 10
472.028778
 20
-145.888199
  0
SEQEND
  8
0
  0
POLYLINE
  8
0
 62
     2
 66
    1
  0
VERTEX
  8
0
 62
     2
 10
445.105865
 20
-145.888199
  0
VERTEX
  8
0
 62
     2
 10
445.795746
 20
-145.707275
  0
VERTEX
  8
0
 62
     2
 10
446.402435
 20
-145.186340
  0
SEQEND
  8
0
  0
LINE
  8
0
 62
     2
 10
445.105860
 20
-145.888207
 11
450.701138
 21
-145.888207
  0
LINE
  8
0
 62
     2
 10
452.128547
 20
-145.186341
 11
446.402427
 21
-145.186341
  0
LINE
  8
0
 62
     2
 10
455.486315
 20
-141.380028
 11
449.452408
 21
-141.380028
  0
POLYLINE
  8
0
 62
     2
 66
    1
  0
VERTEX
  8
0
 62
     2
 10
450.701141
 20
-145.888199
  0
VERTEX
  8
0
 62
     2
 10
451.460663
 20
-145.707275
  0
VERTEX
  8
0
 62
     2
 10
452.128540
 20
-145.186340
  0
SEQEND
  8
0
  0
LINE
  8
0
 62
     2
 10
385.703469
 20
-145.888207
 11
393.616388
 21
-145.888207
  0
LINE
  8
0
 62
     2
 10
393.708908
 20
-145.186341
 11
385.610950
 21
-145.186341
  0
LINE
  8
0
 62
     2
 10
393.926545
 20
-141.380028
 11
385.393312
 21
-141.380028
  0
POLYLINE
  8
0
 62
     2
 66
    1
  0
VERTEX
  8
0
 62
     2
 10
393.616394
 20
-145.888199
  0
VERTEX
  8
0
 62
     2
 10
393.665619
 20
-145.707275
  0
VERTEX
  8
0
 62
     2
 10
393.708923
 20
-145.186340
  0
SEQEND
  8
0
  0
POLYLINE
  8
0
 62
     2
 66
    1
  0
VERTEX
  8
0
 62
     2
 10
385.610962
 20
-145.186340
  0
VERTEX
  8
0
 62
     2
 10
385.654236
 20
-145.707275
  0
VERTEX
  8
0
 62
     2
 10
385.703461
 20
-145.888199
  0
SEQEND
  8
0
  0
POLYLINE
  8
0
 62
     2
 66
    1
  0
VERTEX
  8
0
 62
     2
 10
332.917450
 20
-145.186340
  0
VERTEX
  8
0
 62
     2
 10
333.524109
 20
-145.707275
  0
VERTEX
  8
0
 62
     2
 10
334.213989
 20
-145.888199
  0
SEQEND
  8
0
  0
LINE
  8
0
 62
     2
 10
328.618720
 20
-145.888207
 11
334.213998
 21
-145.888207
  0
LINE
  8
0
 62
     2
 10
332.917431
 20
-145.186341
 11
327.191310
 21
-145.186341
  0
LINE
  8
0
 62
     2
 10
329.867449
 20
-141.380028
 11
323.833543
 21
-141.380028
  0
POLYLINE
  8
0
 62
     2
 66
    1
  0
VERTEX
  8
0
 62
     2
 10
327.191315
 20
-145.186340
  0
VERTEX
  8
0
 62
     2
 10
327.859222
 20
-145.707275
  0
VERTEX
  8
0
 62
     2
 10
328.618713
 20
-145.888199
  0
SEQEND
  8
0
  0
POLYLINE
  8
0
 62
     2
 66
    1
  0
VERTEX
  8
0
 62
     2
 10
305.364960
 20
-145.186340
  0
VERTEX
  8
0
 62
     2
 10
306.266205
 20
-145.707275
  0
VERTEX
  8
0
 62
     2
 10
307.291077
 20
-145.888199
  0
SEQEND
  8
0
  0
POLYLINE
  8
0
 62
     2
 66
    1
  0
VERTEX
  8
0
 62
     2
 10
474.996765
 20
-129.888199
  0
VERTEX
  8
0
 62
     2
 10
474.996765
 20
-131.888199
  0
VERTEX
  8
0
 62
     2
 10
474.985565
 20
-132.278381
  0
VERTEX
  8
0
 62
     2
 10
474.952362
 20
-132.653564
  0
VERTEX
  8
0
 62
     2
 10
474.898438
 20
-132.999344
  0
VERTEX
  8
0
 62
     2
 10
474.825897
 20
-133.302414
  0
VERTEX
  8
0
 62
     2
 10
474.737488
 20
-133.551132
  0
VERTEX
  8
0
 62
     2
 10
474.636627
 20
-133.735962
  0
VERTEX
  8
0
 62
     2
 10
474.527191
 20
-133.849762
  0
VERTEX
  8
0
 62
     2
 10
474.413391
 20
-133.888199
  0
SEQEND
  8
0
  0
POLYLINE
  8
0
 62
     2
 66
    1
  0
VERTEX
  8
0
 62
     2
 10
426.999756
 20
-132.781754
  0
VERTEX
  8
0
 62
     2
 10
426.892303
 20
-132.999344
  0
VERTEX
  8
0
 62
     2
 10
426.662506
 20
-133.302414
  0
VERTEX
  8
0
 62
     2
 10
426.382507
 20
-133.551132
  0
VERTEX
  8
0
 62
     2
 10
426.063049
 20
-133.735962
  0
VERTEX
  8
0
 62
     2
 10
425.716431
 20
-133.849762
  0
VERTEX
  8
0
 62
     2
 10
425.355957
 20
-133.888199
  0
SEQEND
  8
0
  0
POLYLINE
  8
0
 62
     2
 66
    1
  0
VERTEX
  8
0
 62
     2
 10
430.747864
 20
-129.888199
  0
VERTEX
  8
0
 62
     2
 10
430.747864
 20
-131.888199
  0
VERTEX
  8
0
 62
     2
 10
430.713806
 20
-132.278381
  0
VERTEX
  8
0
 62
     2
 10
430.612946
 20
-132.653564
  0
VERTEX
  8
0
 62
     2
 10
430.449158
 20
-132.999344
  0
VERTEX
  8
0
 62
     2
 10
430.228729
 20
-133.302414
  0
VERTEX
  8
0
 62
     2
 10
429.960144
 20
-133.551132
  0
VERTEX
  8
0
 62
     2
 10
429.653748
 20
-133.735962
  0
VERTEX
  8
0
 62
     2
 10
429.321259
 20
-133.849762
  0
VERTEX
  8
0
 62
     2
 10
428.975494
 20
-133.888199
  0
SEQEND
  8
0
  0
POLYLINE
  8
0
 62
     2
 66
    1
  0
VERTEX
  8
0
 62
     2
 10
417.136597
 20
-132.849182
  0
VERTEX
  8
0
 62
     2
 10
419.212280
 20
-132.888199
  0
VERTEX
  8
0
 62
     2
 10
421.336914
 20
-132.888199
  0
VERTEX
  8
0
 62
     2
 10
426.999756
 20
-132.781754
  0
VERTEX
  8
0
 62
     2
 10
427.037201
 20
-132.767578
  0
VERTEX
  8
0
 62
     2
 10
427.166779
 20
-132.653564
  0
VERTEX
  8
0
 62
     2
 10
427.384125
 20
-132.420288
  0
VERTEX
  8
0
 62
     2
 10
427.467834
 20
-132.278381
  0
VERTEX
  8
0
 62
     2
 10
427.627197
 20
-131.888199
  0
VERTEX
  8
0
 62
     2
 10
427.848145
 20
-130.888199
  0
VERTEX
  8
0
 62
     2
 10
428.018982
 20
-130.356110
  0
VERTEX
  8
0
 62
     2
 10
428.249176
 20
-130.008820
  0
VERTEX
  8
0
 62
     2
 10
428.510956
 20
-129.888199
  0
SEQEND
  8
0
  0
POLYLINE
  8
0
 62
     2
 66
    1
  0
VERTEX
  8
0
 62
     2
 10
352.657349
 20
-133.302414
  0
VERTEX
  8
0
 62
     2
 10
352.427582
 20
-132.999344
  0
VERTEX
  8
0
 62
     2
 10
352.320129
 20
-132.781754
  0
SEQEND
  8
0
  0
ARC
  8
0
 62
     2
 10
353.965677
 20
-132.161779
 40
1.731081
 50
222.126066
 51
269.576584
  0
POLYLINE
  8
0
 62
     2
 66
    1
  0
VERTEX
  8
0
 62
     2
 10
350.808899
 20
-129.888199
  0
VERTEX
  8
0
 62
     2
 10
351.070679
 20
-130.008820
  0
VERTEX
  8
0
 62
     2
 10
351.300873
 20
-130.356110
  0
VERTEX
  8
0
 62
     2
 10
351.471741
 20
-130.888199
  0
VERTEX
  8
0
 62
     2
 10
351.692688
 20
-131.888199
  0
VERTEX
  8
0
 62
     2
 10
351.852020
 20
-132.278381
  0
VERTEX
  8
0
 62
     2
 10
351.935730
 20
-132.420288
  0
VERTEX
  8
0
 62
     2
 10
352.153076
 20
-132.653564
  0
VERTEX
  8
0
 62
     2
 10
352.282654
 20
-132.767578
  0
VERTEX
  8
0
 62
     2
 10
352.320129
 20
-132.781754
  0
VERTEX
  8
0
 62
     2
 10
357.982941
 20
-132.888199
  0
VERTEX
  8
0
 62
     2
 10
360.107574
 20
-132.888199
  0
VERTEX
  8
0
 62
     2
 10
362.183289
 20
-132.849182
  0
SEQEND
  8
0
  0
POLYLINE
  8
0
 62
     2
 66
    1
  0
VERTEX
  8
0
 62
     2
 10
350.344391
 20
-133.888199
  0
VERTEX
  8
0
 62
     2
 10
349.998627
 20
-133.849762
  0
VERTEX
  8
0
 62
     2
 10
349.666138
 20
-133.735962
  0
VERTEX
  8
0
 62
     2
 10
349.359711
 20
-133.551132
  0
VERTEX
  8
0
 62
     2
 10
349.091125
 20
-133.302414
  0
VERTEX
  8
0
 62
     2
 10
348.870697
 20
-132.999344
  0
VERTEX
  8
0
 62
     2
 10
348.706940
 20
-132.653564
  0
VERTEX
  8
0
 62
     2
 10
348.606079
 20
-132.278381
  0
VERTEX
  8
0
 62
     2
 10
348.572021
 20
-131.888199
  0
VERTEX
  8
0
 62
     2
 10
348.572021
 20
-129.888199
  0
SEQEND
  8
0
  0
POLYLINE
  8
0
 62
     2
 66
    1
  0
VERTEX
  8
0
 62
     2
 10
304.323120
 20
-129.888199
  0
VERTEX
  8
0
 62
     2
 10
304.323120
 20
-131.888199
  0
VERTEX
  8
0
 62
     2
 10
304.334320
 20
-132.278381
  0
VERTEX
  8
0
 62
     2
 10
304.367523
 20
-132.653564
  0
VERTEX
  8
0
 62
     2
 10
304.421417
 20
-132.999344
  0
VERTEX
  8
0
 62
     2
 10
304.493988
 20
-133.302414
  0
VERTEX
  8
0
 62
     2
 10
304.582367
 20
-133.551132
  0
VERTEX
  8
0
 62
     2
 10
304.683228
 20
-133.735962
  0
VERTEX
  8
0
 62
     2
 10
304.792664
 20
-133.849762
  0
VERTEX
  8
0
 62
     2
 10
304.906494
 20
-133.888199
  0
SEQEND
  8
0
  0
LINE
  8
0
 62
     2
 10
470.203858
 20
-133.888207
 11
471.494171
 21
-133.888207
  0
LINE
  8
0
 62
     2
 10
473.494171
 20
-131.888207
 11
469.256503
 21
-131.888207
  0
LINE
  8
0
 62
     2
 10
470.994171
 20
-129.888207
 11
473.494171
 21
-129.888207
  0
LINE
  8
0
 62
     2
 10
307.825687
 20
-133.888207
 11
309.115999
 21
-133.888207
  0
LINE
  8
0
 62
     2
 10
310.063354
 20
-131.888207
 11
305.825687
 21
-131.888207
  0
LINE
  8
0
 62
     2
 10
308.325687
 20
-129.888207
 11
305.825687
 21
-129.888207
  0
LINE
  8
0
 62
     2
 10
398.659929
 20
-145.888207
 11
380.659929
 21
-145.888207
  0
LINE
  8
0
 62
     2
 10
324.659929
 20
-145.888207
 11
315.659929
 21
-145.888207
  0
LINE
  8
0
 62
     2
 10
463.659929
 20
-145.888207
 11
454.659929
 21
-145.888207
  0
LINE
  8
0
 62
     2
 10
335.546351
 20
-145.888207
 11
380.659929
 21
-145.888207
  0
LINE
  8
0
 62
     2
 10
398.659929
 20
-145.888207
 11
443.773506
 21
-145.888207
  0
LINE
  8
0
 62
     2
 10
471.505228
 20
-131.888207
 11
469.256503
 21
-131.888207
  0
LINE
  8
0
 62
     2
 10
310.063354
 20
-131.888207
 11
307.814629
 21
-131.888207
  0
LINE
  8
0
 62
     2
 10
473.814629
 20
-129.888207
 11
470.994171
 21
-129.888207
  0
LINE
  8
0
 62
     2
 10
308.325687
 20
-129.888207
 11
305.505228
 21
-129.888207
  0
LINE
  8
0
 62
     2
 10
473.321239
 20
-129.888207
 11
475.086953
 21
-129.888207
  0
LINE
  8
0
 62
     2
 10
470.994171
 20
-129.888207
 11
471.977393
 21
-129.888207
  0
LINE
  8
0
 62
     2
 10
308.325687
 20
-129.888207
 11
307.342465
 21
-129.888207
  0
LINE
  8
0
 62
     2
 10
300.083700
 20
-129.888207
 11
299.659930
 21
-129.888207
  0
LINE
  8
0
 62
     2
 10
299.763574
 20
-129.824229
 11
300.083700
 21
-129.888207
  0
LINE
  8
0
 62
     2
 10
430.629596
 20
-126.888207
 11
429.659929
 21
-126.888207
  0
LINE
  8
0
 62
     2
 10
306.815632
 20
-126.888207
 11
312.333255
 21
-126.888207
  0
LINE
  8
0
 62
     2
 10
305.081938
 20
-126.888207
 11
306.796266
 21
-126.888207
  0
LINE
  8
0
 62
     2
 10
299.659929
 20
-126.888207
 11
299.968947
 21
-126.888207
  0
LINE
  8
0
 62
     2
 10
299.659930
 20
-129.888207
 11
299.659929
 21
-120.888207
  0
POLYLINE
  8
0
 62
     2
 66
    1
  0
VERTEX
  8
0
 62
     2
 10
304.906494
 20
-133.888199
  0
VERTEX
  8
0
 62
     2
 10
306.510773
 20
-133.888199
  0
VERTEX
  8
0
 62
     2
 10
309.115997
 20
-133.888199
  0
VERTEX
  8
0
 62
     2
 10
309.300812
 20
-133.849762
  0
VERTEX
  8
0
 62
     2
 10
309.478546
 20
-133.735962
  0
VERTEX
  8
0
 62
     2
 10
309.642334
 20
-133.551132
  0
VERTEX
  8
0
 62
     2
 10
309.785889
 20
-133.302414
  0
VERTEX
  8
0
 62
     2
 10
309.903687
 20
-132.999344
  0
VERTEX
  8
0
 62
     2
 10
309.991241
 20
-132.653564
  0
VERTEX
  8
0
 62
     2
 10
310.045166
 20
-132.278381
  0
VERTEX
  8
0
 62
     2
 10
310.063354
 20
-131.888199
  0
VERTEX
  8
0
 62
     2
 10
310.063354
 20
-129.888199
  0
SEQEND
  8
0
  0
LINE
  8
0
 62
     2
 10
360.507059
 20
-133.888207
 11
350.344384
 21
-133.888207
  0
ARC
  8
0
 62
     2
 10
360.481009
 20
-131.973667
 40
1.917352
 50
270.197522
 51
316.412113
  0
ARC
  8
0
 62
     2
 10
360.360612
 20
-131.889044
 40
2.067583
 50
316.390131
 51
0.175523
  0
LINE
  8
0
 62
     2
 10
362.430200
 20
-129.888207
 11
362.430200
 21
-131.888207
  0
LINE
  8
0
 62
     2
 10
416.889658
 20
-131.888207
 11
416.889658
 21
-129.888207
  0
ARC
  8
0
 62
     2
 10
418.901674
 20
-131.913256
 40
2.009658
 50
179.824477
 51
223.609869
  0
ARC
  8
0
 62
     2
 10
418.813669
 20
-132.029026
 40
1.861409
 50
223.587887
 51
269.802478
  0
LINE
  8
0
 62
     2
 10
428.975474
 20
-133.888207
 11
418.812799
 21
-133.888207
  0
POLYLINE
  8
0
 62
     2
 66
    1
  0
VERTEX
  8
0
 62
     2
 10
474.413391
 20
-133.888199
  0
VERTEX
  8
0
 62
     2
 10
472.809082
 20
-133.888199
  0
VERTEX
  8
0
 62
     2
 10
470.203857
 20
-133.888199
  0
VERTEX
  8
0
 62
     2
 10
470.019043
 20
-133.849762
  0
VERTEX
  8
0
 62
     2
 10
469.841339
 20
-133.735962
  0
VERTEX
  8
0
 62
     2
 10
469.677551
 20
-133.551132
  0
VERTEX
  8
0
 62
     2
 10
469.533997
 20
-133.302414
  0
VERTEX
  8
0
 62
     2
 10
469.416168
 20
-132.999344
  0
VERTEX
  8
0
 62
     2
 10
469.328613
 20
-132.653564
  0
VERTEX
  8
0
 62
     2
 10
469.274719
 20
-132.278381
  0
VERTEX
  8
0
 62
     2
 10
469.256500
 20
-131.888199
  0
VERTEX
  8
0
 62
     2
 10
469.256500
 20
-129.888199
  0
SEQEND
  8
0
  0
LINE
  8
0
 62
     2
 10
299.659930
 20
-129.888207
 11
304.323103
 21
-129.888207
  0
LINE
  8
0
 62
     2
 10
310.063354
 20
-129.888207
 11
348.572007
 21
-129.888207
  0
LINE
  8
0
 62
     2
 10
362.430200
 20
-129.888207
 11
416.889658
 21
-129.888207
  0
LINE
  8
0
 62
     2
 10
430.747851
 20
-129.888207
 11
469.256503
 21
-129.888207
  0
LINE
  8
0
 62
     2
 10
479.659927
 20
-129.888207
 11
474.996755
 21
-129.888207
  0
LINE
  8
0
 62
     2
 10
329.362409
 20
-139.175410
 11
385.342892
 21
-139.175410
  0
LINE
  8
0
 62
     2
 10
472.106337
 20
-145.186341
 11
450.758617
 21
-145.186341
  0
LINE
  8
0
 62
     2
 10
445.158069
 20
-145.186341
 11
393.620114
 21
-145.186341
  0
LINE
  8
0
 62
     2
 10
385.699744
 20
-145.186341
 11
334.161788
 21
-145.186341
  0
LINE
  8
0
 62
     2
 10
328.561241
 20
-145.186341
 11
307.213521
 21
-145.186341
  0
LINE
  8
0
 62
     2
 10
470.474846
 20
-145.888207
 11
470.474846
 21
-145.837222
  0
LINE
  8
0
 62
     2
 10
470.474846
 20
-145.888207
 11
447.473621
 21
-145.888207
  0
LINE
  8
0
 62
     2
 10
446.135788
 20
-145.888207
 11
390.605920
 21
-145.888207
  0
LINE
  8
0
 62
     2
 10
388.713938
 20
-145.888207
 11
333.184069
 21
-145.888207
  0
LINE
  8
0
 62
     2
 10
331.846236
 20
-145.888207
 11
308.845012
 21
-145.888207
  0
LINE
  8
0
 62
     2
 10
308.845012
 20
-145.888207
 11
308.845012
 21
-145.837222
  0
LINE
  8
0
 62
     2
 10
455.088592
 20
-146.332571
 11
455.453272
 21
-145.888207
  0
ARC
  8
0
 62
     2
 10
459.661675
 20
-149.388207
 40
5.500000
 50
146.250000
 51
33.750000
  0
LINE
  8
0
 62
     2
 10
463.870078
 20
-145.888207
 11
464.234758
 21
-146.332571
  0
ARC
  8
0
 62
     2
 10
473.659929
 20
-159.888207
 40
6.000000
 50
270.000000
 51
360.000000
  0
LINE
  8
0
 62
     2
 10
431.661675
 20
-145.888207
 11
431.661675
 21
-164.799418
  0
LINE
  8
0
 62
     2
 10
324.231266
 20
-146.332571
 11
323.866586
 21
-145.888207
  0
ARC
  8
0
 62
     2
 10
319.658183
 20
-149.388207
 40
5.500000
 50
146.250000
 51
33.750000
  0
LINE
  8
0
 62
     2
 10
315.449780
 20
-145.888207
 11
315.085100
 21
-146.332571
  0
ARC
  8
0
 62
     2
 10
305.659929
 20
-159.888207
 40
6.000000
 50
180.000000
 51
270.000000
  0
LINE
  8
0
 62
     2
 10
347.658183
 20
-145.888207
 11
347.658183
 21
-164.799418
  0
LINE
  8
0
 62
     2
 10
310.063354
 20
-131.888207
 11
308.325687
 21
-131.888207
  0
LINE
  8
0
 62
     2
 10
308.325687
 20
-126.888207
 11
311.214480
 21
-126.888207
  0
LINE
  8
0
 62
     2
 10
308.325687
 20
-129.888207
 11
308.325687
 21
-128.209615
  0
LINE
  8
0
 62
     2
 10
470.994171
 20
-128.209615
 11
470.994171
 21
-129.888207
  0
LINE
  8
0
 62
     2
 10
457.994171
 20
-129.888207
 11
457.994171
 21
-127.888207
  0
LINE
  8
0
 62
     2
 10
470.994171
 20
-126.888207
 11
470.994171
 21
-131.888207
  0
LINE
  8
0
 62
     2
 10
414.157287
 20
-129.888207
 11
414.157287
 21
-127.888207
  0
LINE
  8
0
 62
     2
 10
427.157287
 20
-126.888207
 11
427.157287
 21
-131.888207
  0
LINE
  8
0
 62
     2
 10
352.162571
 20
-131.888207
 11
352.162571
 21
-126.888207
  0
LINE
  8
0
 62
     2
 10
365.162571
 20
-127.888207
 11
365.162571
 21
-129.888207
  0
LINE
  8
0
 62
     2
 10
427.586383
 20
-126.888207
 11
430.629596
 21
-126.888207
  0
LINE
  8
0
 62
     2
 10
427.917383
 20
-127.888207
 11
427.586383
 21
-127.888207
  0
LINE
  8
0
 62
     2
 10
429.982485
 20
-127.888207
 11
427.917383
 21
-127.888207
  0
LINE
  8
0
 62
     2
 10
427.586383
 20
-126.888207
 11
427.586383
 21
-127.888207
  0
LINE
  8
0
 62
     2
 10
351.402475
 20
-127.888207
 11
349.337373
 21
-127.888207
  0
LINE
  8
0
 62
     2
 10
351.733474
 20
-127.888207
 11
351.402475
 21
-127.888207
  0
LINE
  8
0
 62
     2
 10
351.733474
 20
-126.888207
 11
351.733474
 21
-127.888207
  0
LINE
  8
0
 62
     2
 10
348.690262
 20
-126.888207
 11
351.733474
 21
-126.888207
  0
LINE
  8
0
 62
     2
 10
306.784341
 20
-126.888207
 11
304.608597
 21
-126.888207
  0
LINE
  8
0
 62
     2
 10
310.348848
 20
-126.888207
 11
306.815632
 21
-126.888207
  0
LINE
  8
0
 62
     2
 10
306.170861
 20
-127.888207
 11
308.325687
 21
-127.888207
  0
LINE
  8
0
 62
     2
 10
472.535517
 20
-126.888207
 11
474.711261
 21
-126.888207
  0
LINE
  8
0
 62
     2
 10
468.971009
 20
-126.888207
 11
472.504226
 21
-126.888207
  0
LINE
  8
0
 62
     2
 10
473.148997
 20
-127.888207
 11
470.994171
 21
-127.888207
  0
LINE
  8
0
 62
     2
 10
345.566279
 20
-145.888207
 11
349.606839
 21
-145.888207
  0
LINE
  8
0
 62
     2
 10
429.713019
 20
-145.888207
 11
433.753579
 21
-145.888207
  0
LINE
  8
0
 62
     2
 10
321.325687
 20
-127.888207
 11
336.437095
 21
-127.888207
  0
LINE
  8
0
 62
     2
 10
339.497988
 20
-127.888207
 11
329.127235
 21
-127.888207
  0
LINE
  8
0
 62
     2
 10
439.821870
 20
-127.888207
 11
450.192623
 21
-127.888207
  0
LINE
  8
0
 62
     2
 10
457.994171
 20
-127.888207
 11
442.882762
 21
-127.888207
  0
LINE
  8
0
 62
     2
 10
394.201942
 20
-127.888207
 11
394.201942
 21
-128.107279
  0
LINE
  8
0
 62
     2
 10
404.335350
 20
-127.888207
 11
394.201942
 21
-127.888207
  0
LINE
  8
0
 62
     2
 10
404.335350
 20
-129.888207
 11
404.335350
 21
-127.888207
  0
LINE
  8
0
 62
     2
 10
406.233665
 20
-127.888207
 11
406.233665
 21
-129.888207
  0
LINE
  8
0
 62
     2
 10
416.917065
 20
-131.888207
 11
416.917065
 21
-132.177600
  0
LINE
  8
0
 62
     2
 10
443.769247
 20
-127.888207
 11
443.769247
 21
-128.107279
  0
LINE
  8
0
 62
     2
 10
427.157287
 20
-127.888207
 11
443.769247
 21
-127.888207
  0
LINE
  8
0
 62
     2
 10
335.550611
 20
-128.107279
 11
335.550611
 21
-127.888207
  0
LINE
  8
0
 62
     2
 10
352.162571
 20
-127.888207
 11
335.550611
 21
-127.888207
  0
LINE
  8
0
 62
     2
 10
362.402792
 20
-132.177600
 11
362.402792
 21
-131.888207
  0
LINE
  8
0
 62
     2
 10
373.086193
 20
-129.888207
 11
373.086193
 21
-127.888207
  0
LINE
  8
0
 62
     2
 10
374.984507
 20
-129.888207
 11
374.984507
 21
-127.888207
  0
LINE
  8
0
 62
     2
 10
385.117916
 20
-127.888207
 11
374.984507
 21
-127.888207
  0
LINE
  8
0
 62
     2
 10
385.117916
 20
-128.107279
 11
385.117916
 21
-127.888207
  0
LINE
  8
0
 62
     2
 10
299.659929
 20
-125.888207
 11
299.659929
 21
-120.888207
  0
LINE
  8
0
 62
     2
 10
479.659929
 20
-120.888207
 11
479.659929
 21
-125.888207
  0
LINE
  8
0
 62
     2
 10
299.763574
 20
-129.888207
 11
301.250896
 21
-129.888207
  0
LINE
  8
0
 62
     2
 10
479.659929
 20
-126.888207
 11
479.350911
 21
-126.888207
  0
LINE
  8
0
 62
     2
 10
304.608597
 20
-126.888207
 11
305.081938
 21
-126.888207
  0
LINE
  8
0
 62
     2
 10
479.659927
 20
-129.888207
 11
475.086953
 21
-129.888207
  0
LINE
  8
0
 62
     2
 10
301.250896
 20
-129.888207
 11
306.817283
 21
-129.888207
  0
LINE
  8
0
 62
     2
 10
385.703469
 20
-145.888207
 11
385.778110
 21
-145.888207
  0
LINE
  8
0
 62
     2
 10
393.541748
 20
-145.888207
 11
393.616388
 21
-145.888207
  0
LINE
  8
0
 62
     2
 10
449.549565
 20
-145.888207
 11
450.701138
 21
-145.888207
  0
LINE
  8
0
 62
     2
 10
328.618720
 20
-145.888207
 11
329.770292
 21
-145.888207
  0
LINE
  8
0
 62
     2
 10
470.474846
 20
-145.888207
 11
470.474846
 21
-145.837222
  0
LINE
  8
0
 62
     2
 10
472.028776
 20
-145.888207
 11
470.474846
 21
-145.888207
  0
LINE
  8
0
 62
     2
 10
478.485881
 20
-141.380028
 11
473.954918
 21
-145.186341
  0
LINE
  8
0
 62
     2
 10
446.402427
 20
-145.186341
 11
449.452408
 21
-141.380028
  0
LINE
  8
0
 62
     2
 10
444.059845
 20
-145.888207
 11
445.105860
 21
-145.888207
  0
LINE
  8
0
 62
     2
 10
444.059845
 20
-145.837222
 11
444.059845
 21
-145.888207
  0
LINE
  8
0
 62
     2
 10
452.128547
 20
-145.186341
 11
455.486315
 21
-141.380028
  0
LINE
  8
0
 62
     2
 10
393.708908
 20
-145.186341
 11
393.926545
 21
-141.380028
  0
LINE
  8
0
 62
     2
 10
385.393312
 20
-141.380028
 11
385.610950
 21
-145.186341
  0
LINE
  8
0
 62
     2
 10
335.260013
 20
-145.888207
 11
335.260013
 21
-145.837222
  0
LINE
  8
0
 62
     2
 10
334.213998
 20
-145.888207
 11
335.260013
 21
-145.888207
  0
LINE
  8
0
 62
     2
 10
329.867449
 20
-141.380028
 11
332.917431
 21
-145.186341
  0
LINE
  8
0
 62
     2
 10
323.833543
 20
-141.380028
 11
327.191310
 21
-145.186341
  0
LINE
  8
0
 62
     2
 10
308.845012
 20
-145.888207
 11
308.845012
 21
-145.837222
  0
LINE
  8
0
 62
     2
 10
307.291082
 20
-145.888207
 11
308.845012
 21
-145.888207
  0
LINE
  8
0
 62
     2
 10
300.833977
 20
-141.380028
 11
305.364940
 21
-145.186341
  0
LINE
  8
0
 62
     2
 10
470.994171
 20
-129.888207
 11
474.996755
 21
-129.888207
  0
LINE
  8
0
 62
     2
 10
474.413376
 20
-133.888207
 11
470.203858
 21
-133.888207
  0
LINE
  8
0
 62
     2
 10
469.256503
 20
-131.888207
 11
474.996755
 21
-131.888207
  0
LINE
  8
0
 62
     2
 10
425.355940
 20
-133.888207
 11
418.812799
 21
-133.888207
  0
LINE
  8
0
 62
     2
 10
428.510952
 20
-129.888207
 11
430.747851
 21
-129.888207
  0
LINE
  8
0
 62
     2
 10
428.975474
 20
-133.888207
 11
425.355940
 21
-133.888207
  0
LINE
  8
0
 62
     2
 10
427.627183
 20
-131.888207
 11
430.747851
 21
-131.888207
  0
LINE
  8
0
 62
     2
 10
360.507059
 20
-133.888207
 11
353.963917
 21
-133.888207
  0
LINE
  8
0
 62
     2
 10
348.572007
 20
-129.888207
 11
350.808905
 21
-129.888207
  0
LINE
  8
0
 62
     2
 10
351.692675
 20
-131.888207
 11
348.572007
 21
-131.888207
  0
LINE
  8
0
 62
     2
 10
353.963917
 20
-133.888207
 11
350.344384
 21
-133.888207
  0
LINE
  8
0
 62
     2
 10
308.325687
 20
-129.888207
 11
304.323103
 21
-129.888207
  0
LINE
  8
0
 62
     2
 10
304.323103
 20
-131.888207
 11
310.063354
 21
-131.888207
  0
LINE
  8
0
 62
     2
 10
304.906481
 20
-133.888207
 11
309.115999
 21
-133.888207
  0
LINE
  8
0
 62
     2
 10
324.659929
 20
-145.888207
 11
335.546351
 21
-145.888207
  0
LINE
  8
0
 62
     2
 10
454.659929
 20
-145.888207
 11
443.773506
 21
-145.888207
  0
LINE
  8
0
 62
     2
 10
424.661675
 20
-164.799418
 11
424.661675
 21
-145.888207
  0
LINE
  8
0
 62
     2
 10
354.658183
 20
-164.799418
 11
354.658183
 21
-145.888207
  0
LINE
  8
0
 62
     2
 10
299.659929
 20
-139.175410
 11
299.659930
 21
-129.888207
  0
LINE
  8
0
 62
     2
 10
479.659929
 20
-139.175410
 11
479.659927
 21
-129.888207
  0
LINE
  8
0
 62
     2
 10
479.659929
 20
-159.888207
 11
479.659929
 21
-127.888207
  0
LINE
  8
0
 62
     2
 10
424.661675
 20
-165.888207
 11
473.659929
 21
-165.888207
  0
LINE
  8
0
 62
     2
 10
424.661675
 20
-164.799418
 11
424.661675
 21
-165.888207
  0
LINE
  8
0
 62
     2
 10
299.659929
 20
-159.888207
 11
299.659929
 21
-127.888207
  0
LINE
  8
0
 62
     2
 10
354.658183
 20
-165.888207
 11
305.659929
 21
-165.888207
  0
LINE
  8
0
 62
     2
 10
354.658183
 20
-164.799418
 11
354.658183
 21
-165.888207
  0
LINE
  8
0
 62
     2
 10
308.325687
 20
-131.888207
 11
308.325687
 21
-126.888207
  0
LINE
  8
0
 62
     2
 10
321.325687
 20
-127.888207
 11
321.325687
 21
-129.888207
  0
LINE
  8
0
 62
     2
 10
347.658183
 20
-145.888207
 11
347.658183
 21
-165.888207
  0
LINE
  8
0
 62
     2
 10
431.661675
 20
-145.888207
 11
431.661675
 21
-165.888207
  0
POLYLINE
  8
0
 62
     2
 66
    1
  0
VERTEX
  8
0
 62
     2
 10
335.260010
 20
-145.837219
  0
VERTEX
  8
0
 62
     2
 10
334.766296
 20
-145.707275
  0
VERTEX
  8
0
 62
     2
 10
334.161804
 20
-145.186340
  0
VERTEX
  8
0
 62
     2
 10
329.362427
 20
-139.175400
  0
SEQEND
  8
0
  0
POLYLINE
  8
0
 62
     2
 66
    1
  0
VERTEX
  8
0
 62
     2
 10
329.160858
 20
-139.175415
  0
VERTEX
  8
0
 62
     2
 10
329.335907
 20
-140.349747
  0
VERTEX
  8
0
 62
     2
 10
329.867462
 20
-141.380020
  0
SEQEND
  8
0
  0
POLYLINE
  8
0
 62
     2
 66
    1
  0
VERTEX
  8
0
 62
     2
 10
308.845032
 20
-145.837219
  0
VERTEX
  8
0
 62
     2
 10
308.111572
 20
-145.707275
  0
VERTEX
  8
0
 62
     2
 10
307.213531
 20
-145.186340
  0
VERTEX
  8
0
 62
     2
 10
300.083710
 20
-139.175400
  0
SEQEND
  8
0
  0
POLYLINE
  8
0
 62
     2
 66
    1
  0
VERTEX
  8
0
 62
     2
 10
299.784271
 20
-139.175415
  0
VERTEX
  8
0
 62
     2
 10
300.044342
 20
-140.349747
  0
VERTEX
  8
0
 62
     2
 10
300.833984
 20
-141.380020
  0
SEQEND
  8
0
  0
POLYLINE
  8
0
 62
     2
 66
    1
  0
VERTEX
  8
0
 62
     2
 10
385.342865
 20
-139.175415
  0
VERTEX
  8
0
 62
     2
 10
385.355377
 20
-140.349747
  0
VERTEX
  8
0
 62
     2
 10
385.393311
 20
-141.380020
  0
SEQEND
  8
0
  0
POLYLINE
  8
0
 62
     2
 66
    1
  0
VERTEX
  8
0
 62
     2
 10
393.926544
 20
-141.380020
  0
VERTEX
  8
0
 62
     2
 10
393.964478
 20
-140.349747
  0
VERTEX
  8
0
 62
     2
 10
393.976959
 20
-139.175415
  0
SEQEND
  8
0
  0
LINE
  8
0
 62
     2
 10
323.055654
 20
-139.175410
 11
323.248347
 21
-140.349756
  0
LINE
  8
0
 62
     2
 10
323.248347
 20
-140.349756
 11
323.833552
 21
-141.380029
  0
LINE
  8
0
 62
     2
 10
323.055654
 20
-139.175410
 11
299.659929
 21
-139.175410
  0
POLYLINE
  8
0
 62
     2
 66
    1
  0
VERTEX
  8
0
 62
     2
 10
449.957458
 20
-139.175400
  0
VERTEX
  8
0
 62
     2
 10
449.957458
 20
-139.175400
  0
VERTEX
  8
0
 62
     2
 10
445.158081
 20
-145.186340
  0
VERTEX
  8
0
 62
     2
 10
444.553558
 20
-145.707275
  0
VERTEX
  8
0
 62
     2
 10
444.059845
 20
-145.837219
  0
SEQEND
  8
0
  0
POLYLINE
  8
0
 62
     2
 66
    1
  0
VERTEX
  8
0
 62
     2
 10
455.486328
 20
-141.380020
  0
VERTEX
  8
0
 62
     2
 10
456.071503
 20
-140.349747
  0
VERTEX
  8
0
 62
     2
 10
456.264221
 20
-139.175415
  0
SEQEND
  8
0
  0
LINE
  8
0
 62
     2
 10
393.976966
 20
-139.175410
 11
450.158997
 21
-139.175410
  0
LINE
  8
0
 62
     2
 10
449.452418
 20
-141.380029
 11
449.983943
 21
-140.349756
  0
LINE
  8
0
 62
     2
 10
449.983943
 20
-140.349756
 11
450.158997
 21
-139.175410
  0
POLYLINE
  8
0
 62
     2
 66
    1
  0
VERTEX
  8
0
 62
     2
 10
470.474854
 20
-145.837219
  0
VERTEX
  8
0
 62
     2
 10
471.208282
 20
-145.707275
  0
VERTEX
  8
0
 62
     2
 10
472.106354
 20
-145.186340
  0
VERTEX
  8
0
 62
     2
 10
479.236145
 20
-139.175400
  0
SEQEND
  8
0
  0
POLYLINE
  8
0
 62
     2
 66
    1
  0
VERTEX
  8
0
 62
     2
 10
479.535553
 20
-139.175415
  0
VERTEX
  8
0
 62
     2
 10
479.275543
 20
-140.349747
  0
VERTEX
  8
0
 62
     2
 10
478.485901
 20
-141.380020
  0
SEQEND
  8
0
  0
LINE
  8
0
 62
     2
 10
456.264214
 20
-139.175410
 11
479.659929
 21
-139.175410
  0
ENDBLK
  8
OBRYS
  0
BLOCK
  8
OSA
  2
M10x1_10
 70
   66
 10
1187.551293
 20
361.509109
  0
LINE
  8
OSA
 10
678.136098
 20
352.180207
 11
678.136098
 21
365.954457
  0
LINE
  8
OSA
 62
     2
  6
CONTINUOUS
 10
671.136098
 20
361.509109
 11
685.136098
 21
361.509109
  0
LINE
  8
OSA
 62
     2
  6
CONTINUOUS
 10
685.136098
 20
361.509109
 11
685.136098
 21
363.509109
  0
LINE
  8
OSA
 62
     2
  6
CONTINUOUS
 10
671.136098
 20
361.509109
 11
671.136098
 21
363.509109
  0
ARC
  8
OSA
 62
     2
  6
CONTINUOUS
 10
684.136098
 20
363.509109
 40
1.000000
 50
0.000000
 51
90.000000
  0
LINE
  8
OSA
 62
     2
  6
CONTINUOUS
 10
672.136098
 20
364.509109
 11
684.136098
 21
364.509109
  0
ARC
  8
OSA
 62
     2
  6
CONTINUOUS
 10
672.136098
 20
363.509109
 40
1.000000
 50
90.000000
 51
180.000000
  0
ENDBLK
  8
OSA
  0
BLOCK
  8
OBRYS
  2
_11
 70
   64
 10
101.183760
 20
277.009109
  0
ARC
  8
OBRYS
 10
47.183760
 20
150.009109
 40
2.000000
 50
270.000000
 51
360.000000
  0
LINE
  8
OBRYS
 10
47.183760
 20
148.009109
 11
17.183760
 21
148.009109
  0
LINE
  8
OBRYS
 10
49.183760
 20
150.009109
 11
49.183760
 21
235.540597
  0
POLYLINE
  8
OBRYS
 66
    1
  0
VERTEX
  8
OBRYS
 10
35.691936
 20
272.742493
  0
VERTEX
  8
OBRYS
 10
36.722225
 20
272.704559
  0
VERTEX
  8
OBRYS
 10
38.253643
 20
272.688263
  0
SEQEND
  8
OBRYS
  0
LINE
  8
OBRYS
 10
37.896557
 20
337.306629
 11
37.896557
 21
277.009109
  0
LINE
  8
OBRYS
 10
49.183760
 20
235.540597
 11
48.980119
 21
235.603570
  0
LINE
  8
OBRYS
 10
48.980119
 20
235.603570
 11
45.039533
 21
239.482844
  0
LINE
  8
OBRYS
 10
45.039533
 20
239.482844
 11
44.908040
 21
239.729888
  0
LINE
  8
OBRYS
 10
44.908040
 20
239.729888
 11
41.791501
 21
249.238240
  0
LINE
  8
OBRYS
 10
41.791501
 20
249.238240
 11
39.376061
 21
259.106996
  0
LINE
  8
OBRYS
 10
39.376061
 20
259.106996
 11
37.896557
 21
277.009109
  0
LINE
  8
OBRYS
 10
47.183760
 20
277.009109
 11
37.896557
 21
277.009109
  0
POLYLINE
  8
OBRYS
 66
    1
  0
VERTEX
  8
OBRYS
 10
37.896557
 20
281.326141
  0
VERTEX
  8
OBRYS
 10
36.722225
 20
281.313660
  0
VERTEX
  8
OBRYS
 10
35.691936
 20
281.275726
  0
SEQEND
  8
OBRYS
  0
POLYLINE
  8
OBRYS
 66
    1
  0
VERTEX
  8
OBRYS
 10
35.691936
 20
365.835052
  0
VERTEX
  8
OBRYS
 10
36.722225
 20
366.624725
  0
VERTEX
  8
OBRYS
 10
37.896557
 20
367.009094
  0
SEQEND
  8
OBRYS
  0
POLYLINE
  8
OBRYS
 66
    1
  0
VERTEX
  8
OBRYS
 10
37.896557
 20
367.009094
  0
VERTEX
  8
OBRYS
 10
37.896557
 20
367.009094
  0
VERTEX
  8
OBRYS
 10
31.885632
 20
359.455505
  0
VERTEX
  8
OBRYS
 10
31.364681
 20
358.557465
  0
VERTEX
  8
OBRYS
 10
31.234753
 20
357.824036
  0
SEQEND
  8
OBRYS
  0
LINE
  8
OBRYS
 10
37.896557
 20
367.009109
 11
37.896557
 21
337.306629
  0
POLYLINE
  8
OBRYS
 66
    1
  0
VERTEX
  8
OBRYS
 10
35.691936
 20
336.801575
  0
VERTEX
  8
OBRYS
 10
36.722225
 20
337.333130
  0
VERTEX
  8
OBRYS
 10
37.896557
 20
337.508179
  0
SEQEND
  8
OBRYS
  0
POLYLINE
  8
OBRYS
 66
    1
  0
VERTEX
  8
OBRYS
 10
35.691936
 20
342.835480
  0
VERTEX
  8
OBRYS
 10
36.722225
 20
343.420685
  0
VERTEX
  8
OBRYS
 10
37.896557
 20
343.613403
  0
SEQEND
  8
OBRYS
  0
POLYLINE
  8
OBRYS
 66
    1
  0
VERTEX
  8
OBRYS
 10
37.896557
 20
337.306641
  0
VERTEX
  8
OBRYS
 10
37.896557
 20
337.306641
  0
VERTEX
  8
OBRYS
 10
31.885632
 20
332.507263
  0
VERTEX
  8
OBRYS
 10
31.364681
 20
331.902740
  0
VERTEX
  8
OBRYS
 10
31.234753
 20
331.409027
  0
SEQEND
  8
OBRYS
  0
LINE
  8
OBRYS
 10
47.136659
 20
356.698793
 11
48.183760
 21
357.303337
  0
LINE
  8
OBRYS
 10
49.183760
 20
331.118426
 11
49.092989
 21
331.118426
  0
LINE
  8
OBRYS
 10
49.183760
 20
304.266245
 11
44.894367
 21
304.266245
  0
LINE
  8
OBRYS
 10
49.183760
 20
301.630533
 11
47.183760
 21
301.630533
  0
LINE
  8
OBRYS
 10
49.183760
 20
293.582845
 11
47.183760
 21
293.582845
  0
LINE
  8
OBRYS
 10
49.183760
 20
291.684530
 11
47.183760
 21
291.684530
  0
LINE
  8
OBRYS
 10
49.183760
 20
281.551122
 11
49.092989
 21
281.551122
  0
LINE
  8
OBRYS
 10
49.092989
 20
358.073253
 11
49.183760
 21
358.073253
  0
LINE
  8
OBRYS
 10
49.183760
 20
272.467095
 11
49.092989
 21
272.467095
  0
LINE
  8
OBRYS
 10
49.183760
 20
262.333687
 11
47.183760
 21
262.333687
  0
LINE
  8
OBRYS
 10
49.183760
 20
260.435372
 11
47.183760
 21
260.435372
  0
LINE
  8
OBRYS
 10
49.183760
 20
252.387684
 11
47.183760
 21
252.387684
  0
LINE
  8
OBRYS
 10
49.183760
 20
249.751972
 11
47.237317
 21
249.751972
  0
LINE
  8
OBRYS
 10
49.183760
 20
135.009109
 11
11.183760
 21
135.009109
  0
LINE
  8
OBRYS
 10
17.183760
 20
135.009109
 11
49.183760
 21
135.009109
  0
LINE
  8
OBRYS
 10
56.183760
 20
247.292919
 11
56.183760
 21
135.009109
  0
LINE
  8
OBRYS
 10
56.183760
 20
135.009109
 11
49.183760
 21
135.009109
  0
LINE
  8
OBRYS
 10
56.183760
 20
137.009109
 11
56.183760
 21
135.009109
  0
LINE
  8
OBRYS
 10
47.183760
 20
367.009107
 11
37.896557
 21
367.009109
  0
LINE
  8
OBRYS
 10
43.183760
 20
361.762556
 11
43.183760
 21
357.553038
  0
LINE
  8
OBRYS
 10
45.183760
 20
362.345934
 11
45.183760
 21
356.605683
  0
LINE
  8
OBRYS
 10
47.183760
 20
356.945583
 11
47.183760
 21
362.345934
  0
LINE
  8
OBRYS
 10
45.183760
 20
318.097031
 11
45.183760
 21
314.976363
  0
LINE
  8
OBRYS
 10
47.183760
 20
315.860132
 11
47.183760
 21
318.097031
  0
LINE
  8
OBRYS
 10
31.234745
 20
357.824026
 11
31.183760
 21
357.824026
  0
LINE
  8
OBRYS
 10
31.183760
 20
357.824026
 11
31.183760
 21
359.377955
  0
LINE
  8
OBRYS
 10
31.885626
 20
361.304097
 11
35.691939
 21
365.835060
  0
LINE
  8
OBRYS
 10
35.691939
 20
342.835495
 11
31.885626
 21
339.477727
  0
LINE
  8
OBRYS
 10
31.234745
 20
331.409024
 11
31.183760
 21
331.409024
  0
LINE
  8
OBRYS
 10
31.885626
 20
333.751607
 11
35.691939
 21
336.801588
  0
LINE
  8
OBRYS
 10
35.691939
 20
281.275725
 11
31.885626
 21
281.058087
  0
LINE
  8
OBRYS
 10
31.885626
 20
272.960130
 11
35.691939
 21
272.742492
  0
LINE
  8
OBRYS
 10
31.885626
 20
214.540490
 11
40.486094
 21
206.953522
  0
LINE
  8
OBRYS
 10
47.492785
 20
210.898715
 11
48.569316
 21
210.036096
  0
LINE
  8
OBRYS
 10
40.486094
 20
213.375094
 11
31.885626
 21
220.266611
  0
LINE
  8
OBRYS
 10
31.183760
 20
222.609193
 11
31.234745
 21
222.609193
  0
LINE
  8
OBRYS
 10
32.678646
 20
191.770125
 11
31.885626
 21
192.714120
  0
LINE
  8
OBRYS
 10
31.183760
 20
194.640262
 11
31.183760
 21
196.194191
  0
LINE
  8
OBRYS
 10
31.183760
 20
196.194191
 11
31.234745
 21
196.194191
  0
ARC
  8
OBRYS
 10
51.183760
 20
365.009109
 40
2.000000
 50
90.000000
 51
180.000000
  0
POLYLINE
  8
OBRYS
 66
    1
  0
VERTEX
  8
OBRYS
 10
48.183758
 20
357.303345
  0
VERTEX
  8
OBRYS
 10
48.715847
 20
357.749817
  0
VERTEX
  8
OBRYS
 10
49.063152
 20
358.351349
  0
VERTEX
  8
OBRYS
 10
49.183758
 20
359.035400
  0
SEQEND
  8
OBRYS
  0
LINE
  8
OBRYS
 10
51.183760
 20
247.292919
 11
51.183760
 21
367.009109
  0
POLYLINE
  8
OBRYS
 66
    1
  0
VERTEX
  8
OBRYS
 10
47.183758
 20
336.704681
  0
VERTEX
  8
OBRYS
 10
48.183758
 20
336.973999
  0
VERTEX
  8
OBRYS
 10
48.715847
 20
337.182251
  0
VERTEX
  8
OBRYS
 10
49.063152
 20
337.462860
  0
VERTEX
  8
OBRYS
 10
49.092983
 20
337.541809
  0
VERTEX
  8
OBRYS
 10
49.159466
 20
337.745636
  0
VERTEX
  8
OBRYS
 10
49.183758
 20
337.838745
  0
SEQEND
  8
OBRYS
  0
LINE
  8
OBRYS
 10
48.183760
 20
357.303337
 11
48.183760
 21
356.810729
  0
LINE
  8
OBRYS
 10
48.183760
 20
336.973994
 11
48.183760
 21
329.900757
  0
LINE
  8
OBRYS
 10
48.183760
 20
272.007574
 11
48.183760
 21
282.010643
  0
POLYLINE
  8
OBRYS
 66
    1
  0
VERTEX
  8
OBRYS
 10
49.183758
 20
247.476578
  0
VERTEX
  8
OBRYS
 10
49.598492
 20
247.350632
  0
VERTEX
  8
OBRYS
 10
50.183758
 20
247.292923
  0
VERTEX
  8
OBRYS
 10
56.183758
 20
247.292923
  0
SEQEND
  8
OBRYS
  0
LINE
  8
OBRYS
 10
31.234745
 20
357.824026
 11
31.183760
 21
357.824026
  0
LINE
  8
OBRYS
 10
41.791501
 20
213.601701
 11
41.791501
 21
249.238240
  0
LINE
  8
OBRYS
 10
41.791501
 20
192.663028
 11
41.791501
 21
206.119961
  0
LINE
  8
OBRYS
 10
47.183760
 20
277.009109
 11
47.183760
 21
250.296377
  0
ARC
  8
OBRYS
 10
50.190225
 20
250.296339
 40
3.005930
 50
179.983558
 51
247.455460
  0
LINE
  8
OBRYS
 10
49.035709
 20
247.521543
 11
49.183760
 21
247.476581
  0
LINE
  8
OBRYS
 10
47.183760
 20
304.238838
 11
47.183760
 21
277.009109
  0
LINE
  8
OBRYS
 10
47.183760
 20
356.605683
 11
47.183760
 21
318.097031
  0
LINE
  8
OBRYS
 10
47.183760
 20
367.009107
 11
47.183760
 21
362.345934
  0
LINE
  8
OBRYS
 10
43.183760
 20
316.324654
 11
43.183760
 21
306.161979
  0
ARC
  8
OBRYS
 10
45.042941
 20
306.162849
 40
1.861409
 50
180.197522
 51
226.412113
  0
ARC
  8
OBRYS
 10
45.158711
 20
306.250854
 40
2.009658
 50
226.390131
 51
270.175523
  0
LINE
  8
OBRYS
 10
45.183760
 20
304.238838
 11
47.183760
 21
304.238838
  0
LINE
  8
OBRYS
 10
47.183760
 20
356.945583
 11
47.183760
 21
361.163809
  0
POLYLINE
  8
OBRYS
 66
    1
  0
VERTEX
  8
OBRYS
 10
47.183758
 20
362.345947
  0
VERTEX
  8
OBRYS
 10
45.183758
 20
362.345947
  0
VERTEX
  8
OBRYS
 10
44.793575
 20
362.334717
  0
VERTEX
  8
OBRYS
 10
44.418392
 20
362.301514
  0
VERTEX
  8
OBRYS
 10
44.072613
 20
362.247620
  0
VERTEX
  8
OBRYS
 10
43.769543
 20
362.175079
  0
VERTEX
  8
OBRYS
 10
43.520824
 20
362.086670
  0
VERTEX
  8
OBRYS
 10
43.335995
 20
361.985809
  0
VERTEX
  8
OBRYS
 10
43.222195
 20
361.876373
  0
VERTEX
  8
OBRYS
 10
43.183758
 20
361.762543
  0
SEQEND
  8
OBRYS
  0
LINE
  8
OBRYS
 10
47.118888
 20
356.605683
 11
47.183760
 21
356.945583
  0
POLYLINE
  8
OBRYS
 66
    1
  0
VERTEX
  8
OBRYS
 10
47.183758
 20
318.097046
  0
VERTEX
  8
OBRYS
 10
45.183758
 20
318.097046
  0
VERTEX
  8
OBRYS
 10
44.793575
 20
318.062988
  0
VERTEX
  8
OBRYS
 10
44.418392
 20
317.962128
  0
VERTEX
  8
OBRYS
 10
44.072613
 20
317.798340
  0
VERTEX
  8
OBRYS
 10
43.769543
 20
317.577911
  0
VERTEX
  8
OBRYS
 10
43.520824
 20
317.309326
  0
VERTEX
  8
OBRYS
 10
43.335995
 20
317.002899
  0
VERTEX
  8
OBRYS
 10
43.222195
 20
316.670441
  0
VERTEX
  8
OBRYS
 10
43.183758
 20
316.324646
  0
SEQEND
  8
OBRYS
  0
POLYLINE
  8
OBRYS
 66
    1
  0
VERTEX
  8
OBRYS
 10
44.222775
 20
304.485779
  0
VERTEX
  8
OBRYS
 10
44.183758
 20
306.561462
  0
VERTEX
  8
OBRYS
 10
44.183758
 20
308.686096
  0
VERTEX
  8
OBRYS
 10
44.290203
 20
314.348938
  0
VERTEX
  8
OBRYS
 10
44.304379
 20
314.386383
  0
VERTEX
  8
OBRYS
 10
44.418392
 20
314.515961
  0
VERTEX
  8
OBRYS
 10
44.651669
 20
314.733307
  0
VERTEX
  8
OBRYS
 10
44.793575
 20
314.817017
  0
VERTEX
  8
OBRYS
 10
45.183758
 20
314.976349
  0
VERTEX
  8
OBRYS
 10
46.183758
 20
315.197296
  0
VERTEX
  8
OBRYS
 10
46.715847
 20
315.368164
  0
VERTEX
  8
OBRYS
 10
47.063152
 20
315.598358
  0
VERTEX
  8
OBRYS
 10
47.183758
 20
315.860138
  0
SEQEND
  8
OBRYS
  0
POLYLINE
  8
OBRYS
 66
    1
  0
VERTEX
  8
OBRYS
 10
44.290203
 20
314.348938
  0
VERTEX
  8
OBRYS
 10
44.072613
 20
314.241486
  0
VERTEX
  8
OBRYS
 10
43.769543
 20
314.011688
  0
VERTEX
  8
OBRYS
 10
43.520824
 20
313.731689
  0
VERTEX
  8
OBRYS
 10
43.335995
 20
313.412231
  0
VERTEX
  8
OBRYS
 10
43.222195
 20
313.065613
  0
VERTEX
  8
OBRYS
 10
43.183758
 20
312.705109
  0
SEQEND
  8
OBRYS
  0
POLYLINE
  8
OBRYS
 66
    1
  0
VERTEX
  8
OBRYS
 10
31.183758
 20
359.377960
  0
VERTEX
  8
OBRYS
 10
31.364681
 20
360.402832
  0
VERTEX
  8
OBRYS
 10
31.885632
 20
361.304108
  0
SEQEND
  8
OBRYS
  0
POLYLINE
  8
OBRYS
 66
    1
  0
VERTEX
  8
OBRYS
 10
31.885632
 20
339.477722
  0
VERTEX
  8
OBRYS
 10
31.364681
 20
338.809814
  0
VERTEX
  8
OBRYS
 10
31.183758
 20
338.050323
  0
SEQEND
  8
OBRYS
  0
LINE
  8
OBRYS
 10
35.691939
 20
336.801588
 11
35.691939
 21
342.835495
  0
POLYLINE
  8
OBRYS
 66
    1
  0
VERTEX
  8
OBRYS
 10
31.183758
 20
332.455048
  0
VERTEX
  8
OBRYS
 10
31.364681
 20
333.144928
  0
VERTEX
  8
OBRYS
 10
31.885632
 20
333.751617
  0
SEQEND
  8
OBRYS
  0
POLYLINE
  8
OBRYS
 66
    1
  0
VERTEX
  8
OBRYS
 10
31.885632
 20
281.058075
  0
VERTEX
  8
OBRYS
 10
31.364681
 20
281.014801
  0
VERTEX
  8
OBRYS
 10
31.183758
 20
280.965576
  0
SEQEND
  8
OBRYS
  0
POLYLINE
  8
OBRYS
 66
    1
  0
VERTEX
  8
OBRYS
 10
31.183758
 20
273.052643
  0
VERTEX
  8
OBRYS
 10
31.364681
 20
273.003418
  0
VERTEX
  8
OBRYS
 10
31.885632
 20
272.960144
  0
SEQEND
  8
OBRYS
  0
LINE
  8
OBRYS
 10
35.691939
 20
272.742492
 11
35.691939
 21
281.275725
  0
POLYLINE
  8
OBRYS
 66
    1
  0
VERTEX
  8
OBRYS
 10
31.183758
 20
215.967896
  0
VERTEX
  8
OBRYS
 10
31.364681
 20
215.208389
  0
VERTEX
  8
OBRYS
 10
31.885632
 20
214.540497
  0
SEQEND
  8
OBRYS
  0
POLYLINE
  8
OBRYS
 66
    1
  0
VERTEX
  8
OBRYS
 10
40.486095
 20
206.953522
  0
VERTEX
  8
OBRYS
 10
44.124767
 20
204.630066
  0
VERTEX
  8
OBRYS
 10
48.569317
 20
203.277573
  0
SEQEND
  8
OBRYS
  0
LINE
  8
OBRYS
 10
48.569316
 20
203.277571
 11
48.569316
 21
210.036096
  0
LINE
  8
OBRYS
 10
40.486094
 20
206.953522
 11
40.486094
 21
213.375094
  0
POLYLINE
  8
OBRYS
 66
    1
  0
VERTEX
  8
OBRYS
 10
31.234753
 20
222.609192
  0
VERTEX
  8
OBRYS
 10
31.364681
 20
222.115479
  0
VERTEX
  8
OBRYS
 10
31.885632
 20
221.510971
  0
VERTEX
  8
OBRYS
 10
41.791500
 20
213.601700
  0
VERTEX
  8
OBRYS
 10
45.039532
 20
211.665146
  0
VERTEX
  8
OBRYS
 10
47.492779
 20
210.898712
  0
SEQEND
  8
OBRYS
  0
POLYLINE
  8
OBRYS
 66
    1
  0
VERTEX
  8
OBRYS
 10
48.569317
 20
210.036102
  0
VERTEX
  8
OBRYS
 10
44.124767
 20
211.264618
  0
VERTEX
  8
OBRYS
 10
40.486095
 20
213.375092
  0
SEQEND
  8
OBRYS
  0
POLYLINE
  8
OBRYS
 66
    1
  0
VERTEX
  8
OBRYS
 10
31.885632
 20
220.266617
  0
VERTEX
  8
OBRYS
 10
31.364681
 20
220.873291
  0
VERTEX
  8
OBRYS
 10
31.183758
 20
221.563171
  0
SEQEND
  8
OBRYS
  0
POLYLINE
  8
OBRYS
 66
    1
  0
VERTEX
  8
OBRYS
 10
31.234753
 20
196.194199
  0
VERTEX
  8
OBRYS
 10
31.364681
 20
195.460754
  0
VERTEX
  8
OBRYS
 10
31.885632
 20
194.562698
  0
VERTEX
  8
OBRYS
 10
33.234676
 20
192.962540
  0
SEQEND
  8
OBRYS
  0
POLYLINE
  8
OBRYS
 66
    1
  0
VERTEX
  8
OBRYS
 10
31.885632
 20
192.714127
  0
VERTEX
  8
OBRYS
 10
31.364681
 20
193.615387
  0
VERTEX
  8
OBRYS
 10
31.183758
 20
194.640259
  0
SEQEND
  8
OBRYS
  0
POLYLINE
  8
OBRYS
 66
    1
  0
VERTEX
  8
OBRYS
 10
49.183758
 20
272.572327
  0
VERTEX
  8
OBRYS
 10
49.159466
 20
272.565491
  0
VERTEX
  8
OBRYS
 10
49.092983
 20
272.467102
  0
VERTEX
  8
OBRYS
 10
49.063152
 20
272.403198
  0
VERTEX
  8
OBRYS
 10
48.715847
 20
272.176117
  0
VERTEX
  8
OBRYS
 10
48.183758
 20
272.007568
  0
VERTEX
  8
OBRYS
 10
47.183758
 20
271.789612
  0
SEQEND
  8
OBRYS
  0
POLYLINE
  8
OBRYS
 66
    1
  0
VERTEX
  8
OBRYS
 10
47.183758
 20
282.228607
  0
VERTEX
  8
OBRYS
 10
48.183758
 20
282.010651
  0
VERTEX
  8
OBRYS
 10
48.715847
 20
281.842102
  0
VERTEX
  8
OBRYS
 10
49.063152
 20
281.615021
  0
VERTEX
  8
OBRYS
 10
49.092983
 20
281.551117
  0
VERTEX
  8
OBRYS
 10
49.159466
 20
281.452728
  0
VERTEX
  8
OBRYS
 10
49.183758
 20
281.445892
  0
SEQEND
  8
OBRYS
  0
LINE
  8
OBRYS
 10
49.183760
 20
365.009109
 11
49.183760
 21
235.540597
  0
POLYLINE
  8
OBRYS
 66
    1
  0
VERTEX
  8
OBRYS
 10
49.183758
 20
187.294128
  0
VERTEX
  8
OBRYS
 10
48.980114
 20
187.327789
  0
VERTEX
  8
OBRYS
 10
45.039532
 20
189.401306
  0
VERTEX
  8
OBRYS
 10
41.791500
 20
192.663025
  0
VERTEX
  8
OBRYS
 10
36.446712
 20
199.850754
  0
SEQEND
  8
OBRYS
  0
POLYLINE
  8
OBRYS
 66
    1
  0
VERTEX
  8
OBRYS
 10
49.183758
 20
331.564178
  0
VERTEX
  8
OBRYS
 10
49.159466
 20
331.461395
  0
VERTEX
  8
OBRYS
 10
49.092983
 20
331.118439
  0
VERTEX
  8
OBRYS
 10
49.063152
 20
330.949127
  0
VERTEX
  8
OBRYS
 10
48.715847
 20
330.347382
  0
VERTEX
  8
OBRYS
 10
48.183758
 20
329.900757
  0
VERTEX
  8
OBRYS
 10
47.183758
 20
329.323212
  0
SEQEND
  8
OBRYS
  0
LINE
  8
OBRYS
 10
31.183760
 20
196.194191
 11
31.183760
 21
212.009109
  0
LINE
  8
OBRYS
 10
31.183760
 20
220.533249
 11
31.183760
 21
244.509109
  0
LINE
  8
OBRYS
 10
31.183760
 20
342.009109
 11
31.183760
 21
357.824026
  0
LINE
  8
OBRYS
 10
31.183760
 20
274.009109
 11
31.183760
 21
250.348276
  0
LINE
  8
OBRYS
 10
31.183760
 20
244.509109
 11
31.183760
 21
250.348276
  0
LINE
  8
OBRYS
 10
31.183760
 20
212.009109
 11
31.183760
 21
220.533249
  0
LINE
  8
OBRYS
 10
31.183760
 20
342.009109
 11
31.183760
 21
333.484968
  0
LINE
  8
OBRYS
 10
31.183760
 20
317.062198
 11
31.183760
 21
333.484968
  0
LINE
  8
OBRYS
 10
31.183760
 20
274.009109
 11
31.183760
 21
285.108085
  0
LINE
  8
OBRYS
 10
31.183760
 20
317.062198
 11
31.183760
 21
285.108085
  0
LINE
  8
OBRYS
 10
31.885626
 20
215.910421
 11
31.885626
 21
220.266611
  0
LINE
  8
OBRYS
 10
31.885626
 20
273.048924
 11
31.885626
 21
281.058087
  0
LINE
  8
OBRYS
 10
31.885626
 20
333.751607
 11
31.885626
 21
338.107796
  0
POLYLINE
  8
OBRYS
 66
    1
  0
VERTEX
  8
OBRYS
 10
43.183758
 20
360.158264
  0
VERTEX
  8
OBRYS
 10
43.183758
 20
357.553040
  0
VERTEX
  8
OBRYS
 10
43.222195
 20
357.368225
  0
VERTEX
  8
OBRYS
 10
43.335995
 20
357.190491
  0
VERTEX
  8
OBRYS
 10
43.520824
 20
357.026703
  0
VERTEX
  8
OBRYS
 10
43.769543
 20
356.883148
  0
VERTEX
  8
OBRYS
 10
44.072613
 20
356.765350
  0
VERTEX
  8
OBRYS
 10
44.418392
 20
356.677795
  0
VERTEX
  8
OBRYS
 10
44.793575
 20
356.623901
  0
VERTEX
  8
OBRYS
 10
45.183758
 20
356.605682
  0
VERTEX
  8
OBRYS
 10
47.183758
 20
356.605682
  0
SEQEND
  8
OBRYS
  0
POLYLINE
  8
OBRYS
 66
    1
  0
VERTEX
  8
OBRYS
 10
47.183758
 20
356.211914
  0
VERTEX
  8
OBRYS
 10
48.183758
 20
356.810730
  0
VERTEX
  8
OBRYS
 10
48.715847
 20
357.273804
  0
VERTEX
  8
OBRYS
 10
49.063152
 20
357.897705
  0
VERTEX
  8
OBRYS
 10
49.092983
 20
358.073242
  0
VERTEX
  8
OBRYS
 10
49.159466
 20
358.459930
  0
VERTEX
  8
OBRYS
 10
49.183758
 20
358.598389
  0
SEQEND
  8
OBRYS
  0
LINE
  8
OBRYS
 10
17.183760
 20
148.009109
 11
13.183760
 21
148.009109
  0
LINE
  8
OBRYS
 10
11.183760
 20
146.009109
 11
11.183760
 21
135.009109
  0
ARC
  8
OBRYS
 10
13.183760
 20
146.009109
 40
2.000000
 50
90.000000
 51
180.000000
  0
LINE
  8
OBRYS
 10
36.446705
 20
199.850754
 11
12.133654
 21
147.711248
  0
LINE
  8
OBRYS
 62
     4
  6
HIDDEN2
 10
33.183760
 20
148.009109
 11
33.183760
 21
135.009109
  0
LINE
  8
OBRYS
 62
     4
  6
HIDDEN2
 10
22.183760
 20
148.009109
 11
22.183760
 21
135.009109
  0
LINE
  8
OBRYS
 62
     7
  6
DASHDOT
 10
27.683760
 20
150.685302
 11
27.683760
 21
130.209109
  0
LINE
  8
OBRYS
 10
51.183760
 20
367.009109
 11
63.183760
 21
367.009109
  0
ENDBLK
  8
OBRYS
  0
BLOCK
  8
OBRYS
  2
_12
 70
   64
 10
146.183760
 20
277.009109
  0
LINE
  8
OBRYS
 10
190.233865
 20
147.711248
 11
169.688874
 21
191.770125
  0
ARC
  8
OBRYS
 10
189.183760
 20
146.009109
 40
2.000000
 50
0.000000
 51
90.000000
  0
LINE
  8
OBRYS
 10
191.183760
 20
135.009109
 11
191.183760
 21
146.009109
  0
LINE
  8
OBRYS
 10
185.183760
 20
148.009109
 11
189.183760
 21
148.009109
  0
POLYLINE
  8
OBRYS
 66
    1
  0
VERTEX
  8
OBRYS
 10
159.183762
 20
360.158264
  0
VERTEX
  8
OBRYS
 10
159.183762
 20
357.553040
  0
VERTEX
  8
OBRYS
 10
159.145325
 20
357.368225
  0
VERTEX
  8
OBRYS
 10
159.031525
 20
357.190491
  0
VERTEX
  8
OBRYS
 10
158.846695
 20
357.026703
  0
VERTEX
  8
OBRYS
 10
158.597977
 20
356.883148
  0
VERTEX
  8
OBRYS
 10
158.294907
 20
356.765350
  0
VERTEX
  8
OBRYS
 10
157.949127
 20
356.677795
  0
VERTEX
  8
OBRYS
 10
157.573944
 20
356.623901
  0
VERTEX
  8
OBRYS
 10
157.183762
 20
356.605682
  0
VERTEX
  8
OBRYS
 10
155.183762
 20
356.605682
  0
SEQEND
  8
OBRYS
  0
POLYLINE
  8
OBRYS
 66
    1
  0
VERTEX
  8
OBRYS
 10
152.183762
 20
356.320190
  0
VERTEX
  8
OBRYS
 10
152.597977
 20
356.064484
  0
VERTEX
  8
OBRYS
 10
153.031525
 20
355.465027
  0
VERTEX
  8
OBRYS
 10
153.183762
 20
354.757935
  0
SEQEND
  8
OBRYS
  0
POLYLINE
  8
OBRYS
 66
    1
  0
VERTEX
  8
OBRYS
 10
152.183762
 20
359.884705
  0
VERTEX
  8
OBRYS
 10
152.189789
 20
359.869049
  0
VERTEX
  8
OBRYS
 10
152.183762
 20
359.853394
  0
SEQEND
  8
OBRYS
  0
LINE
  8
OBRYS
 10
153.183760
 20
327.171049
 11
153.183760
 21
314.506467
  0
LINE
  8
OBRYS
 10
153.183760
 20
327.171049
 11
153.183760
 21
331.118426
  0
LINE
  8
OBRYS
 10
153.183760
 20
354.757925
 11
153.183760
 21
331.118426
  0
LINE
  8
OBRYS
 10
146.183760
 20
198.174867
 11
146.183760
 21
367.009109
  0
POLYLINE
  8
OBRYS
 66
    1
  0
VERTEX
  8
OBRYS
 10
153.183762
 20
360.498169
  0
VERTEX
  8
OBRYS
 10
153.031525
 20
361.205292
  0
VERTEX
  8
OBRYS
 10
152.597977
 20
361.804749
  0
VERTEX
  8
OBRYS
 10
152.183762
 20
362.060455
  0
SEQEND
  8
OBRYS
  0
POLYLINE
  8
OBRYS
 66
    1
  0
VERTEX
  8
OBRYS
 10
153.183762
 20
317.331665
  0
VERTEX
  8
OBRYS
 10
153.031525
 20
317.624573
  0
VERTEX
  8
OBRYS
 10
152.597977
 20
317.872864
  0
VERTEX
  8
OBRYS
 10
152.183762
 20
317.978790
  0
SEQEND
  8
OBRYS
  0
LINE
  8
OBRYS
 10
153.183760
 20
314.506467
 11
153.183760
 21
314.935563
  0
LINE
  8
OBRYS
 10
152.183760
 20
357.343351
 11
152.183760
 21
356.320189
  0
POLYLINE
  8
OBRYS
 66
    1
  0
VERTEX
  8
OBRYS
 10
153.239944
 20
272.585144
  0
VERTEX
  8
OBRYS
 10
153.309860
 20
272.565491
  0
VERTEX
  8
OBRYS
 10
153.364685
 20
272.484344
  0
VERTEX
  8
OBRYS
 10
153.402832
 20
272.467102
  0
VERTEX
  8
OBRYS
 10
153.885635
 20
272.151428
  0
VERTEX
  8
OBRYS
 10
154.683762
 20
271.898590
  0
VERTEX
  8
OBRYS
 10
155.183762
 20
271.789612
  0
SEQEND
  8
OBRYS
  0
POLYLINE
  8
OBRYS
 66
    1
  0
VERTEX
  8
OBRYS
 10
155.183762
 20
329.323212
  0
VERTEX
  8
OBRYS
 10
154.683762
 20
329.612000
  0
VERTEX
  8
OBRYS
 10
153.885635
 20
330.281921
  0
VERTEX
  8
OBRYS
 10
153.402832
 20
331.118439
  0
VERTEX
  8
OBRYS
 10
153.364685
 20
331.178558
  0
VERTEX
  8
OBRYS
 10
153.309860
 20
331.461395
  0
VERTEX
  8
OBRYS
 10
153.239944
 20
331.757111
  0
VERTEX
  8
OBRYS
 10
153.183762
 20
331.945404
  0
SEQEND
  8
OBRYS
  0
POLYLINE
  8
OBRYS
 66
    1
  0
VERTEX
  8
OBRYS
 10
155.183762
 20
282.228607
  0
VERTEX
  8
OBRYS
 10
154.683762
 20
282.119629
  0
VERTEX
  8
OBRYS
 10
153.885635
 20
281.866791
  0
VERTEX
  8
OBRYS
 10
153.402832
 20
281.551117
  0
VERTEX
  8
OBRYS
 10
153.364685
 20
281.533875
  0
VERTEX
  8
OBRYS
 10
153.309860
 20
281.452728
  0
VERTEX
  8
OBRYS
 10
153.239944
 20
281.433075
  0
SEQEND
  8
OBRYS
  0
LINE
  8
OBRYS
 10
153.329901
 20
358.343351
 11
153.183760
 21
359.172328
  0
LINE
  8
OBRYS
 10
154.683760
 20
329.611986
 11
154.683760
 21
336.839338
  0
LINE
  8
OBRYS
 10
154.683760
 20
271.898599
 11
154.683760
 21
282.119618
  0
POLYLINE
  8
OBRYS
 66
    1
  0
VERTEX
  8
OBRYS
 10
153.183762
 20
338.269135
  0
VERTEX
  8
OBRYS
 10
153.239944
 20
338.013519
  0
VERTEX
  8
OBRYS
 10
153.309860
 20
337.745636
  0
VERTEX
  8
OBRYS
 10
153.364685
 20
337.577545
  0
VERTEX
  8
OBRYS
 10
153.402832
 20
337.541809
  0
VERTEX
  8
OBRYS
 10
153.885635
 20
337.151733
  0
VERTEX
  8
OBRYS
 10
154.683762
 20
336.839325
  0
VERTEX
  8
OBRYS
 10
155.183762
 20
336.704681
  0
SEQEND
  8
OBRYS
  0
LINE
  8
OBRYS
 10
153.183760
 20
281.480668
 11
153.239937
 21
281.433065
  0
LINE
  8
OBRYS
 10
153.239937
 20
272.585152
 11
153.183760
 21
272.537550
  0
POLYLINE
  8
OBRYS
 66
    1
  0
VERTEX
  8
OBRYS
 10
152.183762
 20
317.978790
  0
VERTEX
  8
OBRYS
 10
152.183762
 20
311.368591
  0
VERTEX
  8
OBRYS
 10
152.189789
 20
311.330811
  0
VERTEX
  8
OBRYS
 10
152.183762
 20
311.293060
  0
VERTEX
  8
OBRYS
 10
152.183762
 20
304.120575
  0
VERTEX
  8
OBRYS
 10
152.597977
 20
304.014679
  0
VERTEX
  8
OBRYS
 10
153.031525
 20
303.766357
  0
VERTEX
  8
OBRYS
 10
153.183762
 20
303.473480
  0
SEQEND
  8
OBRYS
  0
POLYLINE
  8
OBRYS
 66
    1
  0
VERTEX
  8
OBRYS
 10
153.183762
 20
250.544739
  0
VERTEX
  8
OBRYS
 10
153.031525
 20
250.251846
  0
VERTEX
  8
OBRYS
 10
152.597977
 20
250.003555
  0
VERTEX
  8
OBRYS
 10
152.183762
 20
249.897629
  0
VERTEX
  8
OBRYS
 10
152.183762
 20
247.292923
  0
SEQEND
  8
OBRYS
  0
POLYLINE
  8
OBRYS
 66
    1
  0
VERTEX
  8
OBRYS
 10
153.183762
 20
359.612732
  0
VERTEX
  8
OBRYS
 10
153.364685
 20
358.586670
  0
VERTEX
  8
OBRYS
 10
153.505173
 20
358.343353
  0
SEQEND
  8
OBRYS
  0
ARC
  8
OBRYS
 10
151.183760
 20
365.009109
 40
2.000000
 50
0.000000
 51
90.000000
  0
LINE
  8
OBRYS
 10
151.183760
 20
367.009109
 11
151.183760
 21
247.292919
  0
LINE
  8
OBRYS
 10
153.183760
 20
365.009109
 11
153.183760
 21
360.498177
  0
LINE
  8
OBRYS
 10
153.183760
 20
303.473471
 11
153.183760
 21
250.544746
  0
POLYLINE
  8
OBRYS
 66
    1
  0
VERTEX
  8
OBRYS
 10
158.077316
 20
314.348938
  0
VERTEX
  8
OBRYS
 10
158.294907
 20
314.241486
  0
VERTEX
  8
OBRYS
 10
158.597977
 20
314.011688
  0
VERTEX
  8
OBRYS
 10
158.846695
 20
313.731689
  0
VERTEX
  8
OBRYS
 10
159.031525
 20
313.412231
  0
VERTEX
  8
OBRYS
 10
159.145325
 20
313.065613
  0
VERTEX
  8
OBRYS
 10
159.183762
 20
312.705109
  0
SEQEND
  8
OBRYS
  0
POLYLINE
  8
OBRYS
 66
    1
  0
VERTEX
  8
OBRYS
 10
158.144745
 20
304.485779
  0
VERTEX
  8
OBRYS
 10
158.183762
 20
306.561462
  0
VERTEX
  8
OBRYS
 10
158.183762
 20
308.686096
  0
VERTEX
  8
OBRYS
 10
158.077316
 20
314.348938
  0
VERTEX
  8
OBRYS
 10
158.063141
 20
314.386383
  0
VERTEX
  8
OBRYS
 10
157.949127
 20
314.515961
  0
VERTEX
  8
OBRYS
 10
157.715851
 20
314.733307
  0
VERTEX
  8
OBRYS
 10
157.573944
 20
314.817017
  0
VERTEX
  8
OBRYS
 10
157.183762
 20
314.976349
  0
VERTEX
  8
OBRYS
 10
156.183762
 20
315.197296
  0
VERTEX
  8
OBRYS
 10
155.651672
 20
315.368164
  0
VERTEX
  8
OBRYS
 10
155.304382
 20
315.598358
  0
VERTEX
  8
OBRYS
 10
155.183762
 20
315.860138
  0
SEQEND
  8
OBRYS
  0
POLYLINE
  8
OBRYS
 66
    1
  0
VERTEX
  8
OBRYS
 10
155.183762
 20
318.097046
  0
VERTEX
  8
OBRYS
 10
157.183762
 20
318.097046
  0
VERTEX
  8
OBRYS
 10
157.573944
 20
318.062988
  0
VERTEX
  8
OBRYS
 10
157.949127
 20
317.962128
  0
VERTEX
  8
OBRYS
 10
158.294907
 20
317.798340
  0
VERTEX
  8
OBRYS
 10
158.597977
 20
317.577911
  0
VERTEX
  8
OBRYS
 10
158.846695
 20
317.309326
  0
VERTEX
  8
OBRYS
 10
159.031525
 20
317.002899
  0
VERTEX
  8
OBRYS
 10
159.145325
 20
316.670441
  0
VERTEX
  8
OBRYS
 10
159.183762
 20
316.324646
  0
SEQEND
  8
OBRYS
  0
POLYLINE
  8
OBRYS
 66
    1
  0
VERTEX
  8
OBRYS
 10
155.183762
 20
362.345947
  0
VERTEX
  8
OBRYS
 10
157.183762
 20
362.345947
  0
VERTEX
  8
OBRYS
 10
157.573944
 20
362.334717
  0
VERTEX
  8
OBRYS
 10
157.949127
 20
362.301514
  0
VERTEX
  8
OBRYS
 10
158.294907
 20
362.247620
  0
VERTEX
  8
OBRYS
 10
158.597977
 20
362.175079
  0
VERTEX
  8
OBRYS
 10
158.846695
 20
362.086670
  0
VERTEX
  8
OBRYS
 10
159.031525
 20
361.985809
  0
VERTEX
  8
OBRYS
 10
159.145325
 20
361.876373
  0
VERTEX
  8
OBRYS
 10
159.183762
 20
361.762543
  0
SEQEND
  8
OBRYS
  0
LINE
  8
OBRYS
 10
157.183760
 20
304.238838
 11
155.183760
 21
304.238838
  0
ARC
  8
OBRYS
 10
157.208808
 20
306.250854
 40
2.009658
 50
269.824477
 51
313.609869
  0
ARC
  8
OBRYS
 10
157.324578
 20
306.162849
 40
1.861409
 50
313.587887
 51
359.802478
  0
LINE
  8
OBRYS
 10
159.183760
 20
316.324654
 11
159.183760
 21
306.161979
  0
LINE
  8
OBRYS
 10
155.183760
 20
367.009107
 11
155.183760
 21
362.345934
  0
LINE
  8
OBRYS
 10
155.183760
 20
356.605683
 11
155.183760
 21
318.097031
  0
LINE
  8
OBRYS
 10
155.183760
 20
304.238838
 11
155.183760
 21
277.009109
  0
LINE
  8
OBRYS
 10
153.331810
 20
247.521543
 11
153.183760
 21
247.476581
  0
ARC
  8
OBRYS
 10
152.177295
 20
250.296339
 40
3.005930
 50
292.544540
 51
0.016442
  0
LINE
  8
OBRYS
 10
155.183760
 20
277.009109
 11
155.183760
 21
250.296377
  0
POLYLINE
  8
OBRYS
 66
    1
  0
VERTEX
  8
OBRYS
 10
153.183762
 20
247.476578
  0
VERTEX
  8
OBRYS
 10
152.769028
 20
247.350632
  0
VERTEX
  8
OBRYS
 10
152.183762
 20
247.292923
  0
VERTEX
  8
OBRYS
 10
146.183762
 20
247.292923
  0
SEQEND
  8
OBRYS
  0
LINE
  8
OBRYS
 10
152.183760
 20
358.343351
 11
152.183760
 21
356.320189
  0
LINE
  8
OBRYS
 10
152.183760
 20
304.120582
 11
152.183760
 21
311.332345
  0
LINE
  8
OBRYS
 10
157.183760
 20
304.238838
 11
157.183760
 21
314.506467
  0
LINE
  8
OBRYS
 10
152.183760
 20
247.292919
 11
152.183760
 21
249.934892
  0
LINE
  8
OBRYS
 10
153.183760
 20
358.343351
 11
153.183760
 21
360.498177
  0
LINE
  8
OBRYS
 10
152.183760
 20
359.853406
 11
152.183760
 21
356.320189
  0
LINE
  8
OBRYS
 10
152.183760
 20
362.060441
 11
152.183760
 21
359.884697
  0
LINE
  8
OBRYS
 10
152.183760
 20
314.935563
 11
153.183760
 21
314.935563
  0
LINE
  8
OBRYS
 10
153.183760
 20
272.467095
 11
153.402831
 21
272.467095
  0
LINE
  8
OBRYS
 10
155.183760
 20
262.333687
 11
153.183760
 21
262.333687
  0
LINE
  8
OBRYS
 10
153.183760
 20
260.435372
 11
155.183760
 21
260.435372
  0
LINE
  8
OBRYS
 10
153.183760
 20
331.118426
 11
153.402831
 21
331.118426
  0
LINE
  8
OBRYS
 10
157.183760
 20
304.266245
 11
157.473152
 21
304.266245
  0
LINE
  8
OBRYS
 10
153.183760
 20
293.582845
 11
155.183760
 21
293.582845
  0
LINE
  8
OBRYS
 10
153.183760
 20
291.684530
 11
155.183760
 21
291.684530
  0
LINE
  8
OBRYS
 10
153.402831
 20
281.551122
 11
153.183760
 21
281.551122
  0
LINE
  8
OBRYS
 10
151.183760
 20
367.009109
 11
146.183760
 21
367.009109
  0
LINE
  8
OBRYS
 10
155.183760
 20
315.860132
 11
155.183760
 21
318.097031
  0
LINE
  8
OBRYS
 10
157.183760
 20
318.097031
 11
157.183760
 21
314.976363
  0
LINE
  8
OBRYS
 10
155.183760
 20
358.343351
 11
155.183760
 21
362.345934
  0
LINE
  8
OBRYS
 10
157.183760
 20
362.345934
 11
157.183760
 21
356.605683
  0
LINE
  8
OBRYS
 10
159.183760
 20
361.762556
 11
159.183760
 21
357.553038
  0
LINE
  8
OBRYS
 10
154.183760
 20
351.843351
 11
155.183760
 21
351.843351
  0
LINE
  8
OBRYS
 10
153.183760
 20
345.343351
 11
155.183760
 21
345.343351
  0
LINE
  8
OBRYS
 10
157.183760
 20
358.343351
 11
152.183760
 21
358.343351
  0
LINE
  8
OBRYS
 10
154.183760
 20
308.006467
 11
157.183760
 21
308.006467
  0
LINE
  8
OBRYS
 10
153.183760
 20
301.506467
 11
155.183760
 21
301.506467
  0
LINE
  8
OBRYS
 10
157.183760
 20
314.506467
 11
152.183760
 21
314.506467
  0
LINE
  8
OBRYS
 10
155.183760
 20
252.511751
 11
153.183760
 21
252.511751
  0
ARC
  8
OBRYS
 10
155.183760
 20
150.009109
 40
2.000000
 50
180.000000
 51
270.000000
  0
LINE
  8
OBRYS
 10
155.183760
 20
148.009109
 11
185.183760
 21
148.009109
  0
LINE
  8
OBRYS
 10
153.183760
 20
150.009109
 11
153.183760
 21
235.540597
  0
POLYLINE
  8
OBRYS
 66
    1
  0
VERTEX
  8
OBRYS
 10
166.675583
 20
272.742493
  0
VERTEX
  8
OBRYS
 10
165.645309
 20
272.704559
  0
VERTEX
  8
OBRYS
 10
164.113876
 20
272.688263
  0
SEQEND
  8
OBRYS
  0
LINE
  8
OBRYS
 10
164.470963
 20
337.306629
 11
164.470963
 21
277.009109
  0
LINE
  8
OBRYS
 10
153.183760
 20
235.540597
 11
153.387400
 21
235.603570
  0
LINE
  8
OBRYS
 10
153.387400
 20
235.603570
 11
157.327986
 21
239.482844
  0
LINE
  8
OBRYS
 10
157.327986
 20
239.482844
 11
157.459479
 21
239.729888
  0
LINE
  8
OBRYS
 10
157.459479
 20
239.729888
 11
160.576018
 21
249.238240
  0
LINE
  8
OBRYS
 10
160.576018
 20
249.238240
 11
162.991459
 21
259.106996
  0
LINE
  8
OBRYS
 10
162.991459
 20
259.106996
 11
164.470963
 21
277.009109
  0
LINE
  8
OBRYS
 10
155.183760
 20
277.009109
 11
164.470963
 21
277.009109
  0
POLYLINE
  8
OBRYS
 66
    1
  0
VERTEX
  8
OBRYS
 10
164.470963
 20
281.326141
  0
VERTEX
  8
OBRYS
 10
165.645309
 20
281.313660
  0
VERTEX
  8
OBRYS
 10
166.675583
 20
281.275726
  0
SEQEND
  8
OBRYS
  0
POLYLINE
  8
OBRYS
 66
    1
  0
VERTEX
  8
OBRYS
 10
166.675583
 20
365.835052
  0
VERTEX
  8
OBRYS
 10
165.645309
 20
366.624725
  0
VERTEX
  8
OBRYS
 10
164.470963
 20
367.009094
  0
SEQEND
  8
OBRYS
  0
POLYLINE
  8
OBRYS
 66
    1
  0
VERTEX
  8
OBRYS
 10
164.470963
 20
367.009094
  0
VERTEX
  8
OBRYS
 10
164.470963
 20
367.009094
  0
VERTEX
  8
OBRYS
 10
170.481888
 20
359.455505
  0
VERTEX
  8
OBRYS
 10
171.002838
 20
358.557465
  0
VERTEX
  8
OBRYS
 10
171.132782
 20
357.824036
  0
SEQEND
  8
OBRYS
  0
LINE
  8
OBRYS
 10
164.470963
 20
367.009109
 11
164.470963
 21
337.306629
  0
POLYLINE
  8
OBRYS
 66
    1
  0
VERTEX
  8
OBRYS
 10
166.675583
 20
336.801575
  0
VERTEX
  8
OBRYS
 10
165.645309
 20
337.333130
  0
VERTEX
  8
OBRYS
 10
164.470963
 20
337.508179
  0
SEQEND
  8
OBRYS
  0
POLYLINE
  8
OBRYS
 66
    1
  0
VERTEX
  8
OBRYS
 10
166.675583
 20
342.835480
  0
VERTEX
  8
OBRYS
 10
165.645309
 20
343.420685
  0
VERTEX
  8
OBRYS
 10
164.470963
 20
343.613403
  0
SEQEND
  8
OBRYS
  0
POLYLINE
  8
OBRYS
 66
    1
  0
VERTEX
  8
OBRYS
 10
164.470963
 20
337.306641
  0
VERTEX
  8
OBRYS
 10
164.470963
 20
337.306641
  0
VERTEX
  8
OBRYS
 10
170.481888
 20
332.507263
  0
VERTEX
  8
OBRYS
 10
171.002838
 20
331.902740
  0
VERTEX
  8
OBRYS
 10
171.132782
 20
331.409027
  0
SEQEND
  8
OBRYS
  0
LINE
  8
OBRYS
 10
153.183760
 20
135.009109
 11
191.183760
 21
135.009109
  0
LINE
  8
OBRYS
 10
185.183760
 20
135.009109
 11
153.183760
 21
135.009109
  0
LINE
  8
OBRYS
 10
146.183760
 20
247.292919
 11
146.183760
 21
135.009109
  0
LINE
  8
OBRYS
 10
146.183760
 20
135.009109
 11
153.183760
 21
135.009109
  0
LINE
  8
OBRYS
 10
146.183760
 20
137.009109
 11
146.183760
 21
135.009109
  0
LINE
  8
OBRYS
 10
155.183760
 20
367.009107
 11
164.470963
 21
367.009109
  0
LINE
  8
OBRYS
 10
165.920814
 20
199.850754
 11
190.094970
 21
148.009109
  0
LINE
  8
OBRYS
 10
171.132774
 20
357.824026
 11
171.183760
 21
357.824026
  0
LINE
  8
OBRYS
 10
171.183760
 20
357.824026
 11
171.183760
 21
359.377955
  0
LINE
  8
OBRYS
 10
170.481893
 20
361.304097
 11
166.675580
 21
365.835060
  0
LINE
  8
OBRYS
 10
166.675580
 20
342.835495
 11
170.481893
 21
339.477727
  0
LINE
  8
OBRYS
 10
171.132774
 20
331.409024
 11
171.183760
 21
331.409024
  0
LINE
  8
OBRYS
 10
170.481893
 20
333.751607
 11
166.675580
 21
336.801588
  0
LINE
  8
OBRYS
 10
166.675580
 20
281.275725
 11
170.481893
 21
281.058087
  0
LINE
  8
OBRYS
 10
170.481893
 20
272.960130
 11
166.675580
 21
272.742492
  0
LINE
  8
OBRYS
 10
170.481893
 20
214.540490
 11
161.881425
 21
206.953522
  0
LINE
  8
OBRYS
 10
154.874734
 20
210.898715
 11
153.798204
 21
210.036096
  0
LINE
  8
OBRYS
 10
161.881425
 20
213.375094
 11
170.481893
 21
220.266611
  0
LINE
  8
OBRYS
 10
171.183760
 20
222.609193
 11
171.132774
 21
222.609193
  0
LINE
  8
OBRYS
 10
169.688874
 20
191.770125
 11
170.481893
 21
192.714120
  0
LINE
  8
OBRYS
 10
171.183760
 20
194.640262
 11
171.183760
 21
196.194191
  0
LINE
  8
OBRYS
 10
171.183760
 20
196.194191
 11
171.132774
 21
196.194191
  0
LINE
  8
OBRYS
 10
171.132774
 20
357.824026
 11
171.183760
 21
357.824026
  0
LINE
  8
OBRYS
 10
160.576018
 20
213.601701
 11
160.576018
 21
249.238240
  0
LINE
  8
OBRYS
 10
160.576018
 20
192.663028
 11
160.576018
 21
206.119961
  0
POLYLINE
  8
OBRYS
 66
    1
  0
VERTEX
  8
OBRYS
 10
171.183762
 20
359.377960
  0
VERTEX
  8
OBRYS
 10
171.002838
 20
360.402832
  0
VERTEX
  8
OBRYS
 10
170.481888
 20
361.304108
  0
SEQEND
  8
OBRYS
  0
POLYLINE
  8
OBRYS
 66
    1
  0
VERTEX
  8
OBRYS
 10
170.481888
 20
339.477722
  0
VERTEX
  8
OBRYS
 10
171.002838
 20
338.809814
  0
VERTEX
  8
OBRYS
 10
171.183762
 20
338.050323
  0
SEQEND
  8
OBRYS
  0
LINE
  8
OBRYS
 10
166.675580
 20
336.801588
 11
166.675580
 21
342.835495
  0
POLYLINE
  8
OBRYS
 66
    1
  0
VERTEX
  8
OBRYS
 10
171.183762
 20
332.455048
  0
VERTEX
  8
OBRYS
 10
171.002838
 20
333.144928
  0
VERTEX
  8
OBRYS
 10
170.481888
 20
333.751617
  0
SEQEND
  8
OBRYS
  0
POLYLINE
  8
OBRYS
 66
    1
  0
VERTEX
  8
OBRYS
 10
170.481888
 20
281.058075
  0
VERTEX
  8
OBRYS
 10
171.002838
 20
281.014801
  0
VERTEX
  8
OBRYS
 10
171.183762
 20
280.965576
  0
SEQEND
  8
OBRYS
  0
POLYLINE
  8
OBRYS
 66
    1
  0
VERTEX
  8
OBRYS
 10
171.183762
 20
273.052643
  0
VERTEX
  8
OBRYS
 10
171.002838
 20
273.003418
  0
VERTEX
  8
OBRYS
 10
170.481888
 20
272.960144
  0
SEQEND
  8
OBRYS
  0
LINE
  8
OBRYS
 10
166.675580
 20
272.742492
 11
166.675580
 21
281.275725
  0
POLYLINE
  8
OBRYS
 66
    1
  0
VERTEX
  8
OBRYS
 10
171.183762
 20
215.967896
  0
VERTEX
  8
OBRYS
 10
171.002838
 20
215.208389
  0
VERTEX
  8
OBRYS
 10
170.481888
 20
214.540497
  0
SEQEND
  8
OBRYS
  0
POLYLINE
  8
OBRYS
 66
    1
  0
VERTEX
  8
OBRYS
 10
161.881424
 20
206.953522
  0
VERTEX
  8
OBRYS
 10
158.242752
 20
204.630066
  0
VERTEX
  8
OBRYS
 10
153.798203
 20
203.277573
  0
SEQEND
  8
OBRYS
  0
LINE
  8
OBRYS
 10
153.798204
 20
203.277571
 11
153.798204
 21
210.036096
  0
LINE
  8
OBRYS
 10
161.881425
 20
206.953522
 11
161.881425
 21
213.375094
  0
POLYLINE
  8
OBRYS
 66
    1
  0
VERTEX
  8
OBRYS
 10
171.132782
 20
222.609192
  0
VERTEX
  8
OBRYS
 10
171.002838
 20
222.115479
  0
VERTEX
  8
OBRYS
 10
170.481888
 20
221.510971
  0
VERTEX
  8
OBRYS
 10
160.576019
 20
213.601700
  0
VERTEX
  8
OBRYS
 10
157.327988
 20
211.665146
  0
VERTEX
  8
OBRYS
 10
154.874741
 20
210.898712
  0
SEQEND
  8
OBRYS
  0
POLYLINE
  8
OBRYS
 66
    1
  0
VERTEX
  8
OBRYS
 10
153.798203
 20
210.036102
  0
VERTEX
  8
OBRYS
 10
158.242752
 20
211.264618
  0
VERTEX
  8
OBRYS
 10
161.881424
 20
213.375092
  0
SEQEND
  8
OBRYS
  0
POLYLINE
  8
OBRYS
 66
    1
  0
VERTEX
  8
OBRYS
 10
170.481888
 20
220.266617
  0
VERTEX
  8
OBRYS
 10
171.002838
 20
220.873291
  0
VERTEX
  8
OBRYS
 10
171.183762
 20
221.563171
  0
SEQEND
  8
OBRYS
  0
POLYLINE
  8
OBRYS
 66
    1
  0
VERTEX
  8
OBRYS
 10
171.132782
 20
196.194199
  0
VERTEX
  8
OBRYS
 10
171.002838
 20
195.460754
  0
VERTEX
  8
OBRYS
 10
170.481888
 20
194.562698
  0
VERTEX
  8
OBRYS
 10
169.132843
 20
192.962540
  0
SEQEND
  8
OBRYS
  0
POLYLINE
  8
OBRYS
 66
    1
  0
VERTEX
  8
OBRYS
 10
170.481888
 20
192.714127
  0
VERTEX
  8
OBRYS
 10
171.002838
 20
193.615387
  0
VERTEX
  8
OBRYS
 10
171.183762
 20
194.640259
  0
SEQEND
  8
OBRYS
  0
POLYLINE
  8
OBRYS
 66
    1
  0
VERTEX
  8
OBRYS
 10
153.183762
 20
187.294128
  0
VERTEX
  8
OBRYS
 10
153.387405
 20
187.327789
  0
VERTEX
  8
OBRYS
 10
157.327988
 20
189.401306
  0
VERTEX
  8
OBRYS
 10
160.576019
 20
192.663025
  0
VERTEX
  8
OBRYS
 10
165.920822
 20
199.850754
  0
SEQEND
  8
OBRYS
  0
LINE
  8
OBRYS
 10
171.183760
 20
196.194191
 11
171.183760
 21
212.009109
  0
LINE
  8
OBRYS
 10
171.183760
 20
220.533249
 11
171.183760
 21
244.509109
  0
LINE
  8
OBRYS
 10
171.183760
 20
342.009109
 11
171.183760
 21
357.824026
  0
LINE
  8
OBRYS
 10
171.183760
 20
274.009109
 11
171.183760
 21
250.348276
  0
LINE
  8
OBRYS
 10
171.183760
 20
244.509109
 11
171.183760
 21
250.348276
  0
LINE
  8
OBRYS
 10
171.183760
 20
212.009109
 11
171.183760
 21
220.533249
  0
LINE
  8
OBRYS
 10
171.183760
 20
342.009109
 11
171.183760
 21
333.484968
  0
LINE
  8
OBRYS
 10
171.183760
 20
317.062198
 11
171.183760
 21
333.484968
  0
LINE
  8
OBRYS
 10
171.183760
 20
274.009109
 11
171.183760
 21
285.108085
  0
LINE
  8
OBRYS
 10
171.183760
 20
317.062198
 11
171.183760
 21
285.108085
  0
LINE
  8
OBRYS
 10
170.481893
 20
215.910421
 11
170.481893
 21
220.266611
  0
LINE
  8
OBRYS
 10
170.481893
 20
273.048924
 11
170.481893
 21
281.058087
  0
LINE
  8
OBRYS
 10
170.481893
 20
333.751607
 11
170.481893
 21
338.107796
  0
LINE
  8
OBRYS
 62
     7
  6
DASHDOT
 10
174.683760
 20
150.685302
 11
174.683760
 21
130.209109
  0
LINE
  8
OBRYS
 62
     4
  6
HIDDEN2
 10
180.183760
 20
148.009109
 11
180.183760
 21
135.009109
  0
LINE
  8
OBRYS
 62
     4
  6
HIDDEN2
 10
169.183760
 20
148.009109
 11
169.183760
 21
135.009109
  0
ENDBLK
  8
OBRYS
  0
BLOCK
  8
OSA
  2
M10x1_13
 70
   66
 10
610.598954
 20
361.509109
  0
LINE
  8
OSA
 10
101.183760
 20
352.180207
 11
101.183760
 21
365.954457
  0
LINE
  8
OSA
 62
     2
  6
CONTINUOUS
 10
94.183760
 20
361.509109
 11
108.183760
 21
361.509109
  0
LINE
  8
OSA
 62
     2
  6
CONTINUOUS
 10
108.183760
 20
361.509109
 11
108.183760
 21
363.509109
  0
LINE
  8
OSA
 62
     2
  6
CONTINUOUS
 10
94.183760
 20
361.509109
 11
94.183760
 21
363.509109
  0
ARC
  8
OSA
 62
     2
  6
CONTINUOUS
 10
107.183760
 20
363.509109
 40
1.000000
 50
0.000000
 51
90.000000
  0
LINE
  8
OSA
 62
     2
  6
CONTINUOUS
 10
95.183760
 20
364.509109
 11
107.183760
 21
364.509109
  0
ARC
  8
OSA
 62
     2
  6
CONTINUOUS
 10
95.183760
 20
363.509109
 40
1.000000
 50
90.000000
 51
180.000000
  0
ENDBLK
  8
OSA
  0
BLOCK
  8
OSA
  2
Sroub_M10x16_14
 70
   66
 10
101.183760
 20
277.009109
  0
LINE
  8
OSA
 62
     2
  6
CONTINUOUS
 10
98.874344
 20
273.009109
 11
103.493175
 21
273.009109
  0
LINE
  8
OSA
 62
     2
  6
CONTINUOUS
 10
103.493175
 20
273.009109
 11
105.802591
 21
277.009109
  0
LINE
  8
OSA
 62
     2
  6
CONTINUOUS
 10
105.802591
 20
277.009109
 11
103.493175
 21
281.009109
  0
LINE
  8
OSA
 62
     2
  6
CONTINUOUS
 10
103.493175
 20
281.009109
 11
98.874344
 21
281.009109
  0
LINE
  8
OSA
 62
     2
  6
CONTINUOUS
 10
98.874344
 20
281.009109
 11
96.564929
 21
277.009109
  0
LINE
  8
OSA
 62
     2
  6
CONTINUOUS
 10
96.564929
 20
277.009109
 11
98.874344
 21
273.009109
  0
CIRCLE
  8
OSA
 62
     2
  6
CONTINUOUS
 10
101.183760
 20
277.009109
 40
4.618831
  0
CIRCLE
  8
OSA
 62
     2
  6
CONTINUOUS
 10
101.183760
 20
277.009109
 40
8.000000
  0
ENDBLK
  8
OSA
  0
BLOCK
  8
OBRYS
  2
_15
 70
   64
 10
389.659929
 20
277.009109
  0
LINE
  8
NEVIDITELNA
 10
325.159929
 20
147.009109
 11
325.578978
 21
135.009109
  0
LINE
  8
NEVIDITELNA
 10
314.159929
 20
147.009109
 11
313.740880
 21
135.009109
  0
LINE
  8
NEVIDITELNA
 10
465.159929
 20
147.009109
 11
465.578978
 21
135.009109
  0
LINE
  8
NEVIDITELNA
 10
454.159929
 20
147.009109
 11
453.740880
 21
135.009109
  0
ARC
  8
OBRYS
 10
389.659929
 20
277.009109
 40
85.247506
 50
241.870221
 51
245.164319
  0
ARC
  8
OBRYS
 10
389.659929
 20
277.009109
 40
85.247506
 50
294.835681
 51
298.129779
  0
LINE
  8
OBRYS
 10
347.411613
 20
148.009109
 11
353.163298
 21
148.009109
  0
LINE
  8
OBRYS
 10
431.908245
 20
148.009109
 11
426.156560
 21
148.009109
  0
LINE
  8
OBRYS
 10
449.615724
 20
221.295954
 11
462.424640
 21
208.487038
  0
LINE
  8
OBRYS
 10
445.373084
 20
217.053313
 11
458.182000
 21
204.244397
  0
LINE
  8
OBRYS
 10
392.659929
 20
195.218809
 11
392.659929
 21
177.104267
  0
LINE
  8
OBRYS
 10
386.659929
 20
195.218809
 11
386.659929
 21
177.104267
  0
LINE
  8
OBRYS
 10
329.704133
 20
221.295954
 11
316.895218
 21
208.487038
  0
LINE
  8
OBRYS
 10
333.946774
 20
217.053313
 11
321.137858
 21
204.244397
  0
LINE
  8
OBRYS
 10
449.615724
 20
332.722263
 11
455.385494
 21
338.492033
  0
LINE
  8
OBRYS
 10
471.450228
 20
274.009109
 11
479.609915
 21
274.009109
  0
LINE
  8
OBRYS
 10
307.869630
 20
280.009109
 11
299.709943
 21
280.009109
  0
LINE
  8
OBRYS
 10
333.946774
 20
336.964904
 11
328.177004
 21
342.734674
  0
LINE
  8
OBRYS
 10
445.373084
 20
336.964904
 11
451.142854
 21
342.734674
  0
LINE
  8
OBRYS
 10
471.450228
 20
280.009109
 11
479.609915
 21
280.009109
  0
LINE
  8
OBRYS
 10
307.869630
 20
274.009109
 11
299.709943
 21
274.009109
  0
LINE
  8
OBRYS
 10
329.704133
 20
332.722263
 11
323.934363
 21
338.492033
  0
LINE
  8
OBRYS
 10
386.659929
 20
358.799408
 11
386.659929
 21
366.959095
  0
LINE
  8
OBRYS
 10
392.659929
 20
358.799408
 11
392.659929
 21
366.959095
  0
LINE
  8
OBRYS
 10
376.659929
 20
160.009109
 11
376.659929
 21
146.009109
  0
ARC
  8
OBRYS
 10
375.659929
 20
153.009109
 40
7.000000
 50
90.000000
 51
270.000000
  0
LINE
  8
OBRYS
 10
375.659929
 20
160.009109
 11
376.659929
 21
160.009109
  0
LINE
  8
OBRYS
 10
375.659929
 20
146.009109
 11
376.659929
 21
146.009109
  0
LINE
  8
OBRYS
 10
379.659929
 20
146.009109
 11
378.659929
 21
146.009109
  0
LINE
  8
OBRYS
 10
379.659929
 20
160.009109
 11
378.659929
 21
160.009109
  0
ARC
  8
OBRYS
 10
379.659929
 20
153.009109
 40
7.000000
 50
270.000000
 51
90.000000
  0
LINE
  8
OBRYS
 10
378.659929
 20
160.009109
 11
378.659929
 21
146.009109
  0
LINE
  8
OBRYS
 10
376.659929
 20
174.009109
 11
376.659929
 21
162.009109
  0
LINE
  8
OBRYS
 10
374.659929
 20
174.009109
 11
376.659929
 21
174.009109
  0
LINE
  8
OBRYS
 10
374.659929
 20
162.009109
 11
376.659929
 21
162.009109
  0
ARC
  8
OBRYS
 10
375.759929
 20
168.009109
 40
6.100000
 50
100.388858
 51
259.611142
  0
ARC
  8
OBRYS
 10
379.559929
 20
168.009109
 40
6.100000
 50
280.388858
 51
79.611142
  0
LINE
  8
OBRYS
 10
380.659929
 20
162.009109
 11
378.659929
 21
162.009109
  0
LINE
  8
OBRYS
 10
380.659929
 20
174.009109
 11
378.659929
 21
174.009109
  0
LINE
  8
OBRYS
 10
378.659929
 20
174.009109
 11
378.659929
 21
162.009109
  0
ARC
  8
OBRYS
 10
398.659929
 20
152.009109
 40
6.000000
 50
180.000000
 51
270.000000
  0
ARC
  8
OBRYS
 10
398.659929
 20
168.009109
 40
6.000000
 50
90.000000
 51
180.000000
  0
ARC
  8
OBRYS
 10
404.659929
 20
168.009109
 40
6.000000
 50
0.000000
 51
90.000000
  0
ARC
  8
OBRYS
 10
404.659929
 20
152.009109
 40
6.000000
 50
270.000000
 51
360.000000
  0
LINE
  8
OBRYS
 10
392.659929
 20
168.009109
 11
392.659929
 21
152.009109
  0
LINE
  8
OBRYS
 10
398.659929
 20
146.009109
 11
400.659929
 21
146.009109
  0
LINE
  8
OBRYS
 10
400.659929
 20
146.009109
 11
400.659929
 21
174.009109
  0
LINE
  8
OBRYS
 10
400.659929
 20
174.009109
 11
398.659929
 21
174.009109
  0
LINE
  8
OBRYS
 10
404.659929
 20
174.009109
 11
402.659929
 21
174.009109
  0
LINE
  8
OBRYS
 10
402.659929
 20
174.009109
 11
402.659929
 21
146.009109
  0
LINE
  8
OBRYS
 10
402.659929
 20
146.009109
 11
404.659929
 21
146.009109
  0
LINE
  8
OBRYS
 10
410.659929
 20
152.009108
 11
410.659929
 21
168.009108
  0
LINE
  8
OBRYS
 10
354.659929
 20
143.009109
 11
389.659929
 21
143.009109
  0
LINE
  8
OBRYS
 10
424.659929
 20
143.009109
 11
389.659929
 21
143.009109
  0
LINE
  8
0
 62
     2
 10
354.659929
 20
137.009109
 11
389.659929
 21
137.009109
  0
LINE
  8
OSA
 10
319.659929
 20
148.009109
 11
319.659929
 21
135.009109
  0
ARC
  8
0
 62
     2
 10
341.659929
 20
154.009109
 40
6.000000
 50
270.000000
 51
360.000000
  0
ARC
  8
0
 62
     2
 10
302.659929
 20
145.009109
 40
3.000000
 50
90.000000
 51
180.000000
  0
LINE
  8
0
 62
     2
 10
302.659929
 20
148.009109
 11
341.659929
 21
148.009109
  0
LINE
  8
0
 62
     2
 10
299.659929
 20
135.009109
 11
354.659929
 21
135.009109
  0
LINE
  8
0
 62
     2
 10
299.659929
 20
277.009109
 11
299.659929
 21
135.009109
  0
LINE
  8
0
 62
     2
 10
479.659929
 20
277.009109
 11
479.659929
 21
135.009109
  0
LINE
  8
0
 62
     2
 10
479.659929
 20
135.009109
 11
424.659929
 21
135.009109
  0
LINE
  8
0
 62
     2
 10
476.659929
 20
148.009109
 11
437.659929
 21
148.009109
  0
ARC
  8
0
 62
     2
 10
476.659929
 20
145.009109
 40
3.000000
 50
0.000000
 51
90.000000
  0
ARC
  8
0
 62
     2
 10
437.659929
 20
154.009109
 40
6.000000
 50
180.000000
 51
270.000000
  0
LINE
  8
OSA
 10
459.659929
 20
148.009109
 11
459.659929
 21
135.009109
  0
LINE
  8
0
 62
     2
 10
424.659929
 20
137.009109
 11
389.659929
 21
137.009109
  0
LINE
  8
OSA
 10
389.659929
 20
277.009109
 11
482.659929
 21
277.009109
  0
LINE
  8
OSA
 10
389.659929
 20
277.009109
 11
389.659929
 21
137.009109
  0
LINE
  8
OSA
 10
389.659929
 20
277.009109
 11
296.659929
 21
277.009109
  0
ARC
  8
OBRYS
 10
389.659929
 20
277.009109
 40
90.000000
 50
0.000000
 51
180.000000
  0
LINE
  8
OSA
 10
389.659929
 20
277.009109
 11
389.659929
 21
370.009109
  0
CIRCLE
  8
OSA
 10
389.659929
 20
277.009109
 40
65.000000
  0
LINE
  8
OBRYS
 10
380.659929
 20
342.009109
 11
380.659929
 21
331.267749
  0
LINE
  8
OBRYS
 10
398.659929
 20
342.009109
 11
398.659929
 21
331.267749
  0
ARC
  8
OBRYS
 10
389.659929
 20
342.009109
 40
9.000000
 50
0.000000
 51
179.999992
  0
ARC
  8
OBRYS
 10
454.659929
 20
277.009109
 40
9.000000
 50
270.000000
 51
89.999992
  0
ARC
  8
OBRYS
 10
389.659929
 20
212.009109
 40
9.000000
 50
180.000000
 51
360.000000
  0
ARC
  8
OBRYS
 10
324.659929
 20
277.009109
 40
9.000000
 50
90.000000
 51
270.000000
  0
LINE
  8
OBRYS
 10
454.659929
 20
268.009109
 11
443.918569
 21
268.009109
  0
LINE
  8
OBRYS
 10
324.659929
 20
286.009109
 11
335.401289
 21
286.009109
  0
LINE
  8
OBRYS
 10
454.659929
 20
286.009109
 11
443.918569
 21
286.009109
  0
LINE
  8
OBRYS
 10
324.659929
 20
268.009109
 11
335.401289
 21
268.009109
  0
CIRCLE
  8
OBRYS
 10
389.659929
 20
277.009109
 40
81.845299
  0
ARC
  8
OBRYS
 10
389.659929
 20
277.009109
 40
55.500000
 50
260.667582
 51
279.332418
  0
ARC
  8
OBRYS
 10
389.659929
 20
277.009109
 40
55.500000
 50
80.667582
 51
99.332418
  0
ARC
  8
OBRYS
 10
389.659929
 20
277.009109
 40
55.000000
 50
279.418027
 51
350.581973
  0
ARC
  8
OBRYS
 10
389.659929
 20
277.009109
 40
55.000000
 50
9.418027
 51
80.581973
  0
ARC
  8
OBRYS
 10
389.659929
 20
277.009109
 40
55.000000
 50
99.418027
 51
170.581973
  0
ARC
  8
OBRYS
 10
389.659929
 20
277.009109
 40
55.000000
 50
189.418027
 51
260.581973
  0
ARC
  8
OBRYS
 10
389.659929
 20
277.009109
 40
55.500000
 50
350.667582
 51
9.332418
  0
ARC
  8
OBRYS
 10
389.659929
 20
277.009109
 40
55.500000
 50
170.667582
 51
189.332418
  0
LINE
  8
OBRYS
 10
380.659929
 20
212.009109
 11
380.659929
 21
222.750469
  0
LINE
  8
OBRYS
 10
398.659929
 20
212.009109
 11
398.659929
 21
222.750469
  0
LINE
  8
0
 62
     2
 10
424.659929
 20
197.551208
 11
424.659929
 21
135.009109
  0
LINE
  8
0
 62
     2
 10
431.659929
 20
199.850754
 11
431.659929
 21
154.009109
  0
ARC
  8
OBRYS
 10
389.659929
 20
277.009109
 40
99.949874
 50
294.847886
 51
334.217460
  0
LINE
  8
0
 62
     2
 10
347.659929
 20
199.850754
 11
347.659929
 21
154.009109
  0
LINE
  8
0
 62
     2
 10
354.659929
 20
197.551208
 11
354.659929
 21
135.009109
  0
ARC
  8
OBRYS
 10
389.659929
 20
277.009109
 40
99.949874
 50
205.782540
 51
245.152114
  0
ARC
  8
OBRYS
 10
389.659929
 20
277.009109
 40
99.949874
 50
249.501948
 51
290.498052
  0
INSERT
  8
OBRYS
  2
Srouby_s_valcovou_hlavou___4
 62
     7
 10
324.659929
 20
277.009109
  0
INSERT
  8
OBRYS
  2
Srouby_s_valcovou_hlavou___5
 62
     7
 10
389.659929
 20
212.009109
  0
INSERT
  8
OBRYS
  2
Srouby_s_valcovou_hlavou___6
 62
     7
 10
454.659929
 20
277.009109
  0
INSERT
  8
OBRYS
  2
Srouby_s_valcovou_hlavou___7
 62
     7
 10
389.659929
 20
342.009109
  0
ARC
  8
OBRYS
 10
338.929689
 20
251.019827
 40
3.000000
 50
335.000000
 51
27.126224
  0
ARC
  8
OBRYS
 10
389.659929
 20
277.009109
 40
54.000000
 50
197.873776
 51
207.126224
  0
ARC
  8
OBRYS
 10
335.411035
 20
259.514609
 40
3.000000
 50
17.873776
 51
70.000000
  0
ARC
  8
OBRYS
 10
335.411035
 20
294.503608
 40
3.000000
 50
290.000000
 51
342.126224
  0
ARC
  8
OBRYS
 10
389.659929
 20
277.009109
 40
54.000000
 50
152.873776
 51
162.126224
  0
ARC
  8
OBRYS
 10
338.929689
 20
302.998390
 40
3.000000
 50
332.873776
 51
25.000000
  0
ARC
  8
OBRYS
 10
363.670647
 20
327.739349
 40
3.000000
 50
245.000000
 51
297.126224
  0
ARC
  8
OBRYS
 10
389.659929
 20
277.009109
 40
54.000000
 50
107.873776
 51
117.126224
  0
ARC
  8
OBRYS
 10
372.165430
 20
331.258003
 40
3.000000
 50
287.873776
 51
340.000000
  0
ARC
  8
OBRYS
 10
407.154428
 20
331.258003
 40
3.000000
 50
200.000000
 51
252.126224
  0
ARC
  8
OBRYS
 10
389.659929
 20
277.009109
 40
54.000000
 50
62.873776
 51
72.126224
  0
ARC
  8
OBRYS
 10
415.649211
 20
327.739349
 40
3.000000
 50
242.873776
 51
295.000000
  0
ARC
  8
OBRYS
 10
440.390169
 20
302.998390
 40
3.000000
 50
155.000000
 51
207.126224
  0
ARC
  8
OBRYS
 10
389.659929
 20
277.009109
 40
54.000000
 50
17.873776
 51
27.126224
  0
ARC
  8
OBRYS
 10
443.908823
 20
294.503608
 40
3.000000
 50
197.873776
 51
250.000000
  0
ARC
  8
OBRYS
 10
443.908823
 20
259.514609
 40
3.000000
 50
110.000000
 51
162.126224
  0
ARC
  8
OBRYS
 10
389.659929
 20
277.009109
 40
54.000000
 50
332.873776
 51
342.126224
  0
ARC
  8
OBRYS
 10
440.390169
 20
251.019827
 40
3.000000
 50
152.873776
 51
205.000000
  0
ARC
  8
OBRYS
 10
415.649211
 20
226.278869
 40
3.000000
 50
65.000000
 51
117.126224
  0
ARC
  8
OBRYS
 10
389.659929
 20
277.009109
 40
54.000000
 50
287.873776
 51
297.126224
  0
ARC
  8
OBRYS
 10
407.154428
 20
222.760215
 40
3.000000
 50
107.873776
 51
160.000000
  0
ARC
  8
OBRYS
 10
372.165430
 20
222.760215
 40
3.000000
 50
20.000000
 51
72.126224
  0
ARC
  8
OBRYS
 10
389.659929
 20
277.009109
 40
54.000000
 50
242.873776
 51
252.126224
  0
ARC
  8
OBRYS
 10
363.670647
 20
226.278869
 40
3.000000
 50
62.873776
 51
115.000000
  0
CIRCLE
  8
OBRYS
 10
389.659929
 20
277.009109
 40
32.500000
  0
LINE
  8
OBRYS
 10
394.659929
 20
297.809109
 11
394.659929
 21
293.779619
  0
LINE
  8
OBRYS
 10
384.659929
 20
297.809109
 11
384.659929
 21
293.779619
  0
ARC
  8
OBRYS
 10
389.659929
 20
277.009109
 40
17.500000
 50
106.601550
 51
73.398450
  0
ARC
  8
OBRYS
 10
389.659929
 20
277.009109
 40
18.654701
 50
105.547012
 51
74.452988
  0
CIRCLE
  8
OBRYS
 10
389.659929
 20
277.009109
 40
25.000000
  0
LINE
  8
OBRYS
 10
384.659929
 20
297.809109
 11
394.659929
 21
297.809109
  0
ENDBLK
  8
OBRYS
  0
BLOCK
  8
OBRYS
  2
Srouby_s_valcovou_hlavou___4
 70
   66
 10
324.659929
 20
277.009109
  0
LINE
  8
OBRYS
 10
320.659929
 20
274.699693
 11
320.659929
 21
279.318524
  0
LINE
  8
OBRYS
 10
320.659929
 20
279.318524
 11
324.659929
 21
281.627940
  0
LINE
  8
OBRYS
 10
324.659929
 20
281.627940
 11
328.659929
 21
279.318524
  0
LINE
  8
OBRYS
 10
328.659929
 20
279.318524
 11
328.659929
 21
274.699693
  0
LINE
  8
OBRYS
 10
328.659929
 20
274.699693
 11
324.659929
 21
272.390278
  0
LINE
  8
OBRYS
 10
324.659929
 20
272.390278
 11
320.659929
 21
274.699693
  0
CIRCLE
  8
OBRYS
 10
324.659929
 20
277.009109
 40
4.618831
  0
CIRCLE
  8
OBRYS
 10
324.659929
 20
277.009109
 40
8.000000
  0
ENDBLK
  8
OBRYS
  0
BLOCK
  8
OBRYS
  2
Srouby_s_valcovou_hlavou___5
 70
   66
 10
389.659929
 20
212.009109
  0
LINE
  8
OBRYS
 10
385.659929
 20
209.699693
 11
385.659929
 21
214.318524
  0
LINE
  8
OBRYS
 10
385.659929
 20
214.318524
 11
389.659929
 21
216.627940
  0
LINE
  8
OBRYS
 10
389.659929
 20
216.627940
 11
393.659929
 21
214.318524
  0
LINE
  8
OBRYS
 10
393.659929
 20
214.318524
 11
393.659929
 21
209.699693
  0
LINE
  8
OBRYS
 10
393.659929
 20
209.699693
 11
389.659929
 21
207.390278
  0
LINE
  8
OBRYS
 10
389.659929
 20
207.390278
 11
385.659929
 21
209.699693
  0
CIRCLE
  8
OBRYS
 10
389.659929
 20
212.009109
 40
4.618831
  0
CIRCLE
  8
OBRYS
 10
389.659929
 20
212.009109
 40
8.000000
  0
ENDBLK
  8
OBRYS
  0
BLOCK
  8
OBRYS
  2
Srouby_s_valcovou_hlavou___6
 70
   66
 10
454.659929
 20
277.009109
  0
LINE
  8
OBRYS
 10
450.659929
 20
274.699693
 11
450.659929
 21
279.318524
  0
LINE
  8
OBRYS
 10
450.659929
 20
279.318524
 11
454.659929
 21
281.627940
  0
LINE
  8
OBRYS
 10
454.659929
 20
281.627940
 11
458.659929
 21
279.318524
  0
LINE
  8
OBRYS
 10
458.659929
 20
279.318524
 11
458.659929
 21
274.699693
  0
LINE
  8
OBRYS
 10
458.659929
 20
274.699693
 11
454.659929
 21
272.390278
  0
LINE
  8
OBRYS
 10
454.659929
 20
272.390278
 11
450.659929
 21
274.699693
  0
CIRCLE
  8
OBRYS
 10
454.659929
 20
277.009109
 40
4.618831
  0
CIRCLE
  8
OBRYS
 10
454.659929
 20
277.009109
 40
8.000000
  0
ENDBLK
  8
OBRYS
  0
BLOCK
  8
OBRYS
  2
Srouby_s_valcovou_hlavou___7
 70
   66
 10
389.659929
 20
342.009109
  0
LINE
  8
OBRYS
 10
385.659929
 20
339.699693
 11
385.659929
 21
344.318524
  0
LINE
  8
OBRYS
 10
385.659929
 20
344.318524
 11
389.659929
 21
346.627940
  0
LINE
  8
OBRYS
 10
389.659929
 20
346.627940
 11
393.659929
 21
344.318524
  0
LINE
  8
OBRYS
 10
393.659929
 20
344.318524
 11
393.659929
 21
339.699693
  0
LINE
  8
OBRYS
 10
393.659929
 20
339.699693
 11
389.659929
 21
337.390278
  0
LINE
  8
OBRYS
 10
389.659929
 20
337.390278
 11
385.659929
 21
339.699693
  0
CIRCLE
  8
OBRYS
 10
389.659929
 20
342.009109
 40
4.618831
  0
CIRCLE
  8
OBRYS
 10
389.659929
 20
342.009109
 40
8.000000
  0
ENDBLK
  8
OBRYS
  0
BLOCK
  8
OBRYS
  2
_16
 70
   64
 10
978.688691
 20
277.009109
  0
LINE
  8
NEVIDITELNA
 10
914.188691
 20
147.009109
 11
914.607740
 21
135.009109
  0
LINE
  8
NEVIDITELNA
 10
903.188691
 20
147.009109
 11
902.769642
 21
135.009109
  0
LINE
  8
NEVIDITELNA
 10
1054.188691
 20
147.009109
 11
1054.607740
 21
135.009109
  0
LINE
  8
NEVIDITELNA
 10
1043.188691
 20
147.009109
 11
1042.769642
 21
135.009109
  0
ARC
  8
OBRYS
 10
978.688691
 20
277.009109
 40
85.247506
 50
241.870221
 51
245.164319
  0
ARC
  8
OBRYS
 10
978.688691
 20
277.009109
 40
85.247506
 50
294.835681
 51
298.129779
  0
LINE
  8
OBRYS
 10
936.440375
 20
148.009109
 11
942.192060
 21
148.009109
  0
LINE
  8
OBRYS
 10
1020.937007
 20
148.009109
 11
1015.185322
 21
148.009109
  0
LINE
  8
OBRYS
 10
1038.644486
 20
221.295954
 11
1051.453402
 21
208.487038
  0
LINE
  8
OBRYS
 10
1034.401846
 20
217.053313
 11
1047.210761
 21
204.244397
  0
LINE
  8
OBRYS
 10
981.688691
 20
195.218809
 11
981.688691
 21
177.104267
  0
LINE
  8
OBRYS
 10
975.688691
 20
195.218809
 11
975.688691
 21
177.104267
  0
LINE
  8
OBRYS
 10
918.732895
 20
221.295954
 11
905.923979
 21
208.487038
  0
LINE
  8
OBRYS
 10
922.975536
 20
217.053313
 11
910.166620
 21
204.244397
  0
LINE
  8
OBRYS
 10
1038.644486
 20
332.722263
 11
1044.414256
 21
338.492033
  0
LINE
  8
OBRYS
 10
1060.478990
 20
274.009109
 11
1068.638677
 21
274.009109
  0
LINE
  8
OBRYS
 10
896.898392
 20
280.009109
 11
888.738705
 21
280.009109
  0
LINE
  8
OBRYS
 10
922.975536
 20
336.964904
 11
917.205766
 21
342.734674
  0
LINE
  8
OBRYS
 10
1034.401846
 20
336.964904
 11
1040.171616
 21
342.734674
  0
LINE
  8
OBRYS
 10
1060.478990
 20
280.009109
 11
1068.638677
 21
280.009109
  0
LINE
  8
OBRYS
 10
896.898392
 20
274.009109
 11
888.738705
 21
274.009109
  0
LINE
  8
OBRYS
 10
918.732895
 20
332.722263
 11
912.963125
 21
338.492033
  0
LINE
  8
OBRYS
 10
975.688691
 20
358.799408
 11
975.688691
 21
366.959095
  0
LINE
  8
OBRYS
 10
981.688691
 20
358.799408
 11
981.688691
 21
366.959095
  0
LINE
  8
OBRYS
 10
965.688691
 20
160.009109
 11
965.688691
 21
146.009109
  0
ARC
  8
OBRYS
 10
964.688691
 20
153.009109
 40
7.000000
 50
90.000000
 51
270.000000
  0
LINE
  8
OBRYS
 10
964.688691
 20
160.009109
 11
965.688691
 21
160.009109
  0
LINE
  8
OBRYS
 10
964.688691
 20
146.009109
 11
965.688691
 21
146.009109
  0
LINE
  8
OBRYS
 10
968.688691
 20
146.009109
 11
967.688691
 21
146.009109
  0
LINE
  8
OBRYS
 10
968.688691
 20
160.009109
 11
967.688691
 21
160.009109
  0
ARC
  8
OBRYS
 10
968.688691
 20
153.009109
 40
7.000000
 50
270.000000
 51
90.000000
  0
LINE
  8
OBRYS
 10
967.688691
 20
160.009109
 11
967.688691
 21
146.009109
  0
LINE
  8
OBRYS
 10
965.688691
 20
174.009109
 11
965.688691
 21
162.009109
  0
LINE
  8
OBRYS
 10
963.688691
 20
174.009109
 11
965.688691
 21
174.009109
  0
LINE
  8
OBRYS
 10
963.688691
 20
162.009109
 11
965.688691
 21
162.009109
  0
ARC
  8
OBRYS
 10
964.788691
 20
168.009109
 40
6.100000
 50
100.388858
 51
259.611142
  0
ARC
  8
OBRYS
 10
968.588691
 20
168.009109
 40
6.100000
 50
280.388858
 51
79.611142
  0
LINE
  8
OBRYS
 10
969.688691
 20
162.009109
 11
967.688691
 21
162.009109
  0
LINE
  8
OBRYS
 10
969.688691
 20
174.009109
 11
967.688691
 21
174.009109
  0
LINE
  8
OBRYS
 10
967.688691
 20
174.009109
 11
967.688691
 21
162.009109
  0
ARC
  8
OBRYS
 10
987.688691
 20
152.009109
 40
6.000000
 50
180.000000
 51
270.000000
  0
ARC
  8
OBRYS
 10
987.688691
 20
168.009109
 40
6.000000
 50
90.000000
 51
180.000000
  0
ARC
  8
OBRYS
 10
993.688691
 20
168.009109
 40
6.000000
 50
0.000000
 51
90.000000
  0
ARC
  8
OBRYS
 10
993.688691
 20
152.009109
 40
6.000000
 50
270.000000
 51
360.000000
  0
LINE
  8
OBRYS
 10
981.688691
 20
168.009109
 11
981.688691
 21
152.009109
  0
LINE
  8
OBRYS
 10
987.688691
 20
146.009109
 11
989.688691
 21
146.009109
  0
LINE
  8
OBRYS
 10
989.688691
 20
146.009109
 11
989.688691
 21
174.009109
  0
LINE
  8
OBRYS
 10
989.688691
 20
174.009109
 11
987.688691
 21
174.009109
  0
LINE
  8
OBRYS
 10
993.688691
 20
174.009109
 11
991.688691
 21
174.009109
  0
LINE
  8
OBRYS
 10
991.688691
 20
174.009109
 11
991.688691
 21
146.009109
  0
LINE
  8
OBRYS
 10
991.688691
 20
146.009109
 11
993.688691
 21
146.009109
  0
LINE
  8
OBRYS
 10
999.688691
 20
152.009108
 11
999.688691
 21
168.009108
  0
LINE
  8
OBRYS
 10
943.688691
 20
143.009109
 11
978.688691
 21
143.009109
  0
LINE
  8
OBRYS
 10
1013.688691
 20
143.009109
 11
978.688691
 21
143.009109
  0
LINE
  8
0
 62
     2
 10
943.688691
 20
137.009109
 11
978.688691
 21
137.009109
  0
LINE
  8
OSA
 10
908.688691
 20
148.009109
 11
908.688691
 21
135.009109
  0
ARC
  8
0
 62
     2
 10
930.688691
 20
154.009109
 40
6.000000
 50
270.000000
 51
360.000000
  0
ARC
  8
0
 62
     2
 10
891.688691
 20
145.009109
 40
3.000000
 50
90.000000
 51
180.000000
  0
LINE
  8
0
 62
     2
 10
891.688691
 20
148.009109
 11
930.688691
 21
148.009109
  0
LINE
  8
0
 62
     2
 10
888.688691
 20
135.009109
 11
943.688691
 21
135.009109
  0
LINE
  8
0
 62
     2
 10
888.688691
 20
277.009109
 11
888.688691
 21
135.009109
  0
LINE
  8
0
 62
     2
 10
1068.688691
 20
277.009109
 11
1068.688691
 21
135.009109
  0
LINE
  8
0
 62
     2
 10
1068.688691
 20
135.009109
 11
1013.688691
 21
135.009109
  0
LINE
  8
0
 62
     2
 10
1065.688691
 20
148.009109
 11
1026.688691
 21
148.009109
  0
ARC
  8
0
 62
     2
 10
1065.688691
 20
145.009109
 40
3.000000
 50
0.000000
 51
90.000000
  0
ARC
  8
0
 62
     2
 10
1026.688691
 20
154.009109
 40
6.000000
 50
180.000000
 51
270.000000
  0
LINE
  8
OSA
 10
1048.688691
 20
148.009109
 11
1048.688691
 21
135.009109
  0
LINE
  8
0
 62
     2
 10
1013.688691
 20
137.009109
 11
978.688691
 21
137.009109
  0
LINE
  8
OSA
 10
978.688691
 20
277.009109
 11
1071.688691
 21
277.009109
  0
LINE
  8
OSA
 10
978.688691
 20
277.009109
 11
978.688691
 21
137.009109
  0
LINE
  8
OSA
 10
978.688691
 20
277.009109
 11
885.688691
 21
277.009109
  0
ARC
  8
OBRYS
 10
978.688691
 20
277.009109
 40
90.000000
 50
0.000000
 51
180.000000
  0
LINE
  8
OSA
 10
978.688691
 20
277.009109
 11
978.688691
 21
370.009109
  0
CIRCLE
  8
OSA
 10
978.688691
 20
277.009109
 40
65.000000
  0
LINE
  8
OBRYS
 10
969.688691
 20
342.009109
 11
969.688691
 21
331.267749
  0
LINE
  8
OBRYS
 10
987.688691
 20
342.009109
 11
987.688691
 21
331.267749
  0
ARC
  8
OBRYS
 10
978.688691
 20
342.009109
 40
9.000000
 50
0.000000
 51
179.999992
  0
ARC
  8
OBRYS
 10
1043.688691
 20
277.009109
 40
9.000000
 50
270.000000
 51
89.999992
  0
ARC
  8
OBRYS
 10
978.688691
 20
212.009109
 40
9.000000
 50
180.000000
 51
360.000000
  0
ARC
  8
OBRYS
 10
913.688691
 20
277.009109
 40
9.000000
 50
90.000000
 51
270.000000
  0
LINE
  8
OBRYS
 10
1043.688691
 20
268.009109
 11
1032.947331
 21
268.009109
  0
LINE
  8
OBRYS
 10
913.688691
 20
286.009109
 11
924.430051
 21
286.009109
  0
LINE
  8
OBRYS
 10
1043.688691
 20
286.009109
 11
1032.947331
 21
286.009109
  0
LINE
  8
OBRYS
 10
913.688691
 20
268.009109
 11
924.430051
 21
268.009109
  0
CIRCLE
  8
OBRYS
 10
978.688691
 20
277.009109
 40
81.845299
  0
ARC
  8
OBRYS
 10
978.688691
 20
277.009109
 40
55.500000
 50
260.667582
 51
279.332418
  0
ARC
  8
OBRYS
 10
978.688691
 20
277.009109
 40
55.500000
 50
80.667582
 51
99.332418
  0
ARC
  8
OBRYS
 10
978.688691
 20
277.009109
 40
55.000000
 50
279.418027
 51
350.581973
  0
ARC
  8
OBRYS
 10
978.688691
 20
277.009109
 40
55.000000
 50
9.418027
 51
80.581973
  0
ARC
  8
OBRYS
 10
978.688691
 20
277.009109
 40
55.000000
 50
99.418027
 51
170.581973
  0
ARC
  8
OBRYS
 10
978.688691
 20
277.009109
 40
55.000000
 50
189.418027
 51
260.581973
  0
ARC
  8
OBRYS
 10
978.688691
 20
277.009109
 40
55.500000
 50
350.667582
 51
9.332418
  0
ARC
  8
OBRYS
 10
978.688691
 20
277.009109
 40
55.500000
 50
170.667582
 51
189.332418
  0
LINE
  8
OBRYS
 10
969.688691
 20
212.009109
 11
969.688691
 21
222.750469
  0
LINE
  8
OBRYS
 10
987.688691
 20
212.009109
 11
987.688691
 21
222.750469
  0
LINE
  8
0
 62
     2
 10
1013.688691
 20
197.551208
 11
1013.688691
 21
135.009109
  0
LINE
  8
0
 62
     2
 10
1020.688691
 20
199.850754
 11
1020.688691
 21
154.009109
  0
ARC
  8
OBRYS
 10
978.688691
 20
277.009109
 40
99.949874
 50
294.847886
 51
334.217460
  0
LINE
  8
0
 62
     2
 10
936.688691
 20
199.850754
 11
936.688691
 21
154.009109
  0
LINE
  8
0
 62
     2
 10
943.688691
 20
197.551208
 11
943.688691
 21
135.009109
  0
ARC
  8
OBRYS
 10
978.688691
 20
277.009109
 40
99.949874
 50
205.782540
 51
245.152114
  0
ARC
  8
OBRYS
 10
978.688691
 20
277.009109
 40
99.949874
 50
249.501948
 51
290.498052
  0
INSERT
  8
OBRYS
  2
Srouby_s_valcovou_hlavou___9
 62
     7
 10
913.688691
 20
277.009109
  0
INSERT
  8
OBRYS
  2
Srouby_s_valcovou_hlavou___10
 62
     7
 10
978.688691
 20
212.009109
  0
INSERT
  8
OBRYS
  2
Srouby_s_valcovou_hlavou___11
 62
     7
 10
1043.688691
 20
277.009109
  0
INSERT
  8
OBRYS
  2
Srouby_s_valcovou_hlavou___12
 62
     7
 10
978.688691
 20
342.009109
  0
ARC
  8
OBRYS
 10
927.958451
 20
251.019827
 40
3.000000
 50
335.000000
 51
27.126224
  0
ARC
  8
OBRYS
 10
978.688691
 20
277.009109
 40
54.000000
 50
197.873776
 51
207.126224
  0
ARC
  8
OBRYS
 10
924.439797
 20
259.514609
 40
3.000000
 50
17.873776
 51
70.000000
  0
ARC
  8
OBRYS
 10
924.439797
 20
294.503608
 40
3.000000
 50
290.000000
 51
342.126224
  0
ARC
  8
OBRYS
 10
978.688691
 20
277.009109
 40
54.000000
 50
152.873776
 51
162.126224
  0
ARC
  8
OBRYS
 10
927.958451
 20
302.998390
 40
3.000000
 50
332.873776
 51
25.000000
  0
ARC
  8
OBRYS
 10
952.699409
 20
327.739349
 40
3.000000
 50
245.000000
 51
297.126224
  0
ARC
  8
OBRYS
 10
978.688691
 20
277.009109
 40
54.000000
 50
107.873776
 51
117.126224
  0
ARC
  8
OBRYS
 10
961.194191
 20
331.258003
 40
3.000000
 50
287.873776
 51
340.000000
  0
ARC
  8
OBRYS
 10
996.183190
 20
331.258003
 40
3.000000
 50
200.000000
 51
252.126224
  0
ARC
  8
OBRYS
 10
978.688691
 20
277.009109
 40
54.000000
 50
62.873776
 51
72.126224
  0
ARC
  8
OBRYS
 10
1004.677972
 20
327.739349
 40
3.000000
 50
242.873776
 51
295.000000
  0
ARC
  8
OBRYS
 10
1029.418931
 20
302.998390
 40
3.000000
 50
155.000000
 51
207.126224
  0
ARC
  8
OBRYS
 10
978.688691
 20
277.009109
 40
54.000000
 50
17.873776
 51
27.126224
  0
ARC
  8
OBRYS
 10
1032.937585
 20
294.503608
 40
3.000000
 50
197.873776
 51
250.000000
  0
ARC
  8
OBRYS
 10
1032.937585
 20
259.514609
 40
3.000000
 50
110.000000
 51
162.126224
  0
ARC
  8
OBRYS
 10
978.688691
 20
277.009109
 40
54.000000
 50
332.873776
 51
342.126224
  0
ARC
  8
OBRYS
 10
1029.418931
 20
251.019827
 40
3.000000
 50
152.873776
 51
205.000000
  0
ARC
  8
OBRYS
 10
1004.677972
 20
226.278869
 40
3.000000
 50
65.000000
 51
117.126224
  0
ARC
  8
OBRYS
 10
978.688691
 20
277.009109
 40
54.000000
 50
287.873776
 51
297.126224
  0
ARC
  8
OBRYS
 10
996.183190
 20
222.760215
 40
3.000000
 50
107.873776
 51
160.000000
  0
ARC
  8
OBRYS
 10
961.194191
 20
222.760215
 40
3.000000
 50
20.000000
 51
72.126224
  0
ARC
  8
OBRYS
 10
978.688691
 20
277.009109
 40
54.000000
 50
242.873776
 51
252.126224
  0
ARC
  8
OBRYS
 10
952.699409
 20
226.278869
 40
3.000000
 50
62.873776
 51
115.000000
  0
CIRCLE
  8
OBRYS
 10
978.688691
 20
277.009109
 40
32.500000
  0
LINE
  8
OBRYS
 10
983.688691
 20
297.809109
 11
983.688691
 21
293.779619
  0
LINE
  8
OBRYS
 10
973.688691
 20
297.809109
 11
973.688691
 21
293.779619
  0
ARC
  8
OBRYS
 10
978.688691
 20
277.009109
 40
17.500000
 50
106.601550
 51
73.398450
  0
ARC
  8
OBRYS
 10
978.688691
 20
277.009109
 40
18.654701
 50
105.547012
 51
74.452988
  0
CIRCLE
  8
OBRYS
 10
978.688691
 20
277.009109
 40
25.000000
  0
LINE
  8
OBRYS
 10
973.688691
 20
297.809109
 11
983.688691
 21
297.809109
  0
ENDBLK
  8
OBRYS
  0
BLOCK
  8
OBRYS
  2
Srouby_s_valcovou_hlavou___9
 70
   66
 10
913.688691
 20
277.009109
  0
LINE
  8
OBRYS
 10
909.688691
 20
274.699693
 11
909.688691
 21
279.318524
  0
LINE
  8
OBRYS
 10
909.688691
 20
279.318524
 11
913.688691
 21
281.627940
  0
LINE
  8
OBRYS
 10
913.688691
 20
281.627940
 11
917.688691
 21
279.318524
  0
LINE
  8
OBRYS
 10
917.688691
 20
279.318524
 11
917.688691
 21
274.699693
  0
LINE
  8
OBRYS
 10
917.688691
 20
274.699693
 11
913.688691
 21
272.390278
  0
LINE
  8
OBRYS
 10
913.688691
 20
272.390278
 11
909.688691
 21
274.699693
  0
CIRCLE
  8
OBRYS
 10
913.688691
 20
277.009109
 40
4.618831
  0
CIRCLE
  8
OBRYS
 10
913.688691
 20
277.009109
 40
8.000000
  0
ENDBLK
  8
OBRYS
  0
BLOCK
  8
OBRYS
  2
Srouby_s_valcovou_hlavou___10
 70
   66
 10
978.688691
 20
212.009109
  0
LINE
  8
OBRYS
 10
974.688691
 20
209.699693
 11
974.688691
 21
214.318524
  0
LINE
  8
OBRYS
 10
974.688691
 20
214.318524
 11
978.688691
 21
216.627940
  0
LINE
  8
OBRYS
 10
978.688691
 20
216.627940
 11
982.688691
 21
214.318524
  0
LINE
  8
OBRYS
 10
982.688691
 20
214.318524
 11
982.688691
 21
209.699693
  0
LINE
  8
OBRYS
 10
982.688691
 20
209.699693
 11
978.688691
 21
207.390278
  0
LINE
  8
OBRYS
 10
978.688691
 20
207.390278
 11
974.688691
 21
209.699693
  0
CIRCLE
  8
OBRYS
 10
978.688691
 20
212.009109
 40
4.618831
  0
CIRCLE
  8
OBRYS
 10
978.688691
 20
212.009109
 40
8.000000
  0
ENDBLK
  8
OBRYS
  0
BLOCK
  8
OBRYS
  2
Srouby_s_valcovou_hlavou___11
 70
   66
 10
1043.688691
 20
277.009109
  0
LINE
  8
OBRYS
 10
1039.688691
 20
274.699693
 11
1039.688691
 21
279.318524
  0
LINE
  8
OBRYS
 10
1039.688691
 20
279.318524
 11
1043.688691
 21
281.627940
  0
LINE
  8
OBRYS
 10
1043.688691
 20
281.627940
 11
1047.688691
 21
279.318524
  0
LINE
  8
OBRYS
 10
1047.688691
 20
279.318524
 11
1047.688691
 21
274.699693
  0
LINE
  8
OBRYS
 10
1047.688691
 20
274.699693
 11
1043.688691
 21
272.390278
  0
LINE
  8
OBRYS
 10
1043.688691
 20
272.390278
 11
1039.688691
 21
274.699693
  0
CIRCLE
  8
OBRYS
 10
1043.688691
 20
277.009109
 40
4.618831
  0
CIRCLE
  8
OBRYS
 10
1043.688691
 20
277.009109
 40
8.000000
  0
ENDBLK
  8
OBRYS
  0
BLOCK
  8
OBRYS
  2
Srouby_s_valcovou_hlavou___12
 70
   66
 10
978.688691
 20
342.009109
  0
LINE
  8
OBRYS
 10
974.688691
 20
339.699693
 11
974.688691
 21
344.318524
  0
LINE
  8
OBRYS
 10
974.688691
 20
344.318524
 11
978.688691
 21
346.627940
  0
LINE
  8
OBRYS
 10
978.688691
 20
346.627940
 11
982.688691
 21
344.318524
  0
LINE
  8
OBRYS
 10
982.688691
 20
344.318524
 11
982.688691
 21
339.699693
  0
LINE
  8
OBRYS
 10
982.688691
 20
339.699693
 11
978.688691
 21
337.390278
  0
LINE
  8
OBRYS
 10
978.688691
 20
337.390278
 11
974.688691
 21
339.699693
  0
CIRCLE
  8
OBRYS
 10
978.688691
 20
342.009109
 40
4.618831
  0
CIRCLE
  8
OBRYS
 10
978.688691
 20
342.009109
 40
8.000000
  0
ENDBLK
  8
OBRYS
  0
BLOCK
  8
OSA
  2
M10x1_17
 70
   66
 10
474.159929
 20
1074.900472
  0
LINE
  8
OSA
 10
464.831027
 20
-75.888207
 11
478.605277
 21
-75.888207
  0
LINE
  8
OSA
 62
     2
  6
CONTINUOUS
 10
474.159929
 20
-82.888207
 11
474.159929
 21
-68.888207
  0
LINE
  8
OSA
 62
     2
  6
CONTINUOUS
 10
474.159929
 20
-68.888207
 11
476.159929
 21
-68.888207
  0
LINE
  8
OSA
 62
     2
  6
CONTINUOUS
 10
474.159929
 20
-82.888207
 11
476.159929
 21
-82.888207
  0
ARC
  8
OSA
 62
     2
  6
CONTINUOUS
 10
476.159929
 20
-69.888207
 40
1.000000
 50
0.000000
 51
90.000000
  0
LINE
  8
OSA
 62
     2
  6
CONTINUOUS
 10
477.159929
 20
-81.888207
 11
477.159929
 21
-69.888207
  0
ARC
  8
OSA
 62
     2
  6
CONTINUOUS
 10
476.159929
 20
-81.888207
 40
1.000000
 50
270.000000
 51
360.000000
  0
ENDBLK
  8
OSA
  0
BLOCK
  8
OSA
  2
Sroub_M10x16_18
 70
   66
 10
389.659929
 20
-75.888207
  0
LINE
  8
OSA
 62
     2
  6
CONTINUOUS
 10
393.659929
 20
-78.197623
 11
393.659929
 21
-73.578792
  0
LINE
  8
OSA
 62
     2
  6
CONTINUOUS
 10
393.659929
 20
-73.578792
 11
389.659929
 21
-71.269376
  0
LINE
  8
OSA
 62
     2
  6
CONTINUOUS
 10
389.659929
 20
-71.269376
 11
385.659929
 21
-73.578792
  0
LINE
  8
OSA
 62
     2
  6
CONTINUOUS
 10
385.659929
 20
-73.578792
 11
385.659929
 21
-78.197623
  0
LINE
  8
OSA
 62
     2
  6
CONTINUOUS
 10
385.659929
 20
-78.197623
 11
389.659929
 21
-80.507038
  0
LINE
  8
OSA
 62
     2
  6
CONTINUOUS
 10
389.659929
 20
-80.507038
 11
393.659929
 21
-78.197623
  0
CIRCLE
  8
OSA
 62
     2
  6
CONTINUOUS
 10
389.659929
 20
-75.888207
 40
4.618831
  0
CIRCLE
  8
OSA
 62
     2
  6
CONTINUOUS
 10
389.659929
 20
-75.888207
 40
8.000000
  0
ENDBLK
  8
OSA
  0
ENDSEC
  0
SECTION
  2
ENTITIES
  0
ARC
  8
OBRYS
 10
144.183760
 20
151.009109
 40
7.000000
 50
285.275412
 51
286.601550
  0
ARC
  8
OBRYS
 10
58.183760
 20
151.009109
 40
7.000000
 50
253.398450
 51
254.724588
  0
LINE
  8
OBRYS
 10
91.189179
 20
134.738707
 11
56.339546
 21
144.256415
  0
ARC
  8
OBRYS
 10
101.183760
 20
263.009109
 40
80.000000
 50
331.044976
 51
28.955024
  0
ARC
  8
OBRYS
 10
101.183760
 20
263.009109
 40
80.000000
 50
151.044976
 51
208.955024
  0
ARC
  8
OBRYS
 10
111.968717
 20
131.844695
 40
3.000000
 50
105.275412
 51
168.652160
  0
ARC
  8
OBRYS
 10
101.183760
 20
134.009109
 40
8.000000
 50
191.347840
 51
348.652160
  0
LINE
  8
OBRYS
 10
111.178340
 20
134.738707
 11
146.027973
 21
144.256415
  0
ARC
  8
OBRYS
 10
90.398802
 20
131.844695
 40
3.000000
 50
11.347840
 51
74.724588
  0
INSERT
  8
OBRYS
  2
_0
 62
     7
 10
723.136098
 20
277.009109
  0
INSERT
  8
OBRYS
  2
_1
 62
     7
 10
633.136098
 20
277.009109
  0
LINE
  8
OBRYS
 10
633.136098
 20
367.009109
 11
633.136098
 21
329.152891
  0
LINE
  8
OBRYS
 10
642.136098
 20
334.451393
 11
642.136098
 21
365.009109
  0
LINE
  8
OBRYS
 10
714.136098
 20
334.451393
 11
714.136098
 21
365.009109
  0
INSERT
  8
OBRYS
  2
_2
 62
     7
 10
678.136098
 20
197.009109
  0
INSERT
  8
OBRYS
  2
_3
 62
     7
 10
294.659929
 20
576.093386
  0
INSERT
  8
OBRYS
  2
_4
 62
     7
 10
294.659929
 20
-75.888207
  0
INSERT
  8
OBRYS
  2
_5
 62
     7
 10
294.659929
 20
197.009109
  0
INSERT
  8
OBRYS
  2
_6
 62
     7
 10
1073.688691
 20
197.009109
  0
TEXT
  8
NEVIDITELNA
 62
     2
  6
CONTINUOUS
 10
183.903687
 20
804.993835
 40
15.000000
  1
MRP 80A - FT + 2x adaptér
 50
0.00
 51
0.00
 41
0.80
  0
TEXT
  8
NEVIDITELNA
 62
     2
  6
CONTINUOUS
 10
182.845871
 20
844.166016
 40
15.000000
  1
MRP 80A - B
 50
0.00
 51
0.00
 41
0.80
  0
LINE
  8
OBRYS
 10
299.659929
 20
621.093386
 11
299.659929
 21
619.093386
  0
LINE
  8
OBRYS
 10
479.659929
 20
621.093386
 11
479.659929
 21
619.093386
  0
INSERT
  8
OBRYS
  2
_7
 62
     7
 10
389.659929
 20
576.093386
  0
INSERT
  8
OBRYS
  2
_8
 62
     7
 10
389.659929
 20
576.093386
  0
INSERT
  8
OBRYS
  2
_9
 62
     7
 10
389.659929
 20
-120.888207
  0
LINE
  8
0
 62
     2
 10
456.264214
 20
-12.601004
 11
479.659929
 21
-12.601004
  0
POLYLINE
  8
0
 62
     2
 66
    1
  0
VERTEX
  8
0
 62
     2
 10
479.535553
 20
-12.601007
  0
VERTEX
  8
0
 62
     2
 10
479.275543
 20
-11.426660
  0
VERTEX
  8
0
 62
     2
 10
478.485901
 20
-10.396386
  0
SEQEND
  8
0
  0
POLYLINE
  8
0
 62
     2
 66
    1
  0
VERTEX
  8
0
 62
     2
 10
470.474854
 20
-5.939195
  0
VERTEX
  8
0
 62
     2
 10
471.208282
 20
-6.069131
  0
VERTEX
  8
0
 62
     2
 10
472.106354
 20
-6.590074
  0
VERTEX
  8
0
 62
     2
 10
479.236145
 20
-12.601007
  0
SEQEND
  8
0
  0
LINE
  8
0
 62
     2
 10
449.452418
 20
-10.396386
 11
449.983943
 21
-11.426659
  0
LINE
  8
0
 62
     2
 10
449.983943
 20
-11.426659
 11
450.158997
 21
-12.601004
  0
LINE
  8
0
 62
     2
 10
393.976966
 20
-12.601004
 11
450.158997
 21
-12.601004
  0
POLYLINE
  8
0
 62
     2
 66
    1
  0
VERTEX
  8
0
 62
     2
 10
455.486328
 20
-10.396386
  0
VERTEX
  8
0
 62
     2
 10
456.071503
 20
-11.426660
  0
VERTEX
  8
0
 62
     2
 10
456.264221
 20
-12.601007
  0
SEQEND
  8
0
  0
POLYLINE
  8
0
 62
     2
 66
    1
  0
VERTEX
  8
0
 62
     2
 10
449.957458
 20
-12.601007
  0
VERTEX
  8
0
 62
     2
 10
449.957458
 20
-12.601007
  0
VERTEX
  8
0
 62
     2
 10
445.158081
 20
-6.590074
  0
VERTEX
  8
0
 62
     2
 10
444.553558
 20
-6.069131
  0
VERTEX
  8
0
 62
     2
 10
444.059845
 20
-5.939195
  0
SEQEND
  8
0
  0
LINE
  8
0
 62
     2
 10
323.055654
 20
-12.601004
 11
299.659929
 21
-12.601004
  0
LINE
  8
0
 62
     2
 10
323.055654
 20
-12.601004
 11
323.248347
 21
-11.426659
  0
LINE
  8
0
 62
     2
 10
323.248347
 20
-11.426659
 11
323.833552
 21
-10.396386
  0
POLYLINE
  8
0
 62
     2
 66
    1
  0
VERTEX
  8
0
 62
     2
 10
393.926544
 20
-10.396386
  0
VERTEX
  8
0
 62
     2
 10
393.964478
 20
-11.426660
  0
VERTEX
  8
0
 62
     2
 10
393.976959
 20
-12.601007
  0
SEQEND
  8
0
  0
POLYLINE
  8
0
 62
     2
 66
    1
  0
VERTEX
  8
0
 62
     2
 10
385.342896
 20
-12.601007
  0
VERTEX
  8
0
 62
     2
 10
385.355377
 20
-11.426660
  0
VERTEX
  8
0
 62
     2
 10
385.393311
 20
-10.396386
  0
SEQEND
  8
0
  0
POLYLINE
  8
0
 62
     2
 66
    1
  0
VERTEX
  8
0
 62
     2
 10
299.784302
 20
-12.601007
  0
VERTEX
  8
0
 62
     2
 10
300.044342
 20
-11.426660
  0
VERTEX
  8
0
 62
     2
 10
300.833984
 20
-10.396386
  0
SEQEND
  8
0
  0
POLYLINE
  8
0
 62
     2
 66
    1
  0
VERTEX
  8
0
 62
     2
 10
308.845032
 20
-5.939195
  0
VERTEX
  8
0
 62
     2
 10
308.111572
 20
-6.069131
  0
VERTEX
  8
0
 62
     2
 10
307.213531
 20
-6.590074
  0
VERTEX
  8
0
 62
     2
 10
300.083710
 20
-12.601007
  0
SEQEND
  8
0
  0
POLYLINE
  8
0
 62
     2
 66
    1
  0
VERTEX
  8
0
 62
     2
 10
329.160858
 20
-12.601007
  0
VERTEX
  8
0
 62
     2
 10
329.335907
 20
-11.426660
  0
VERTEX
  8
0
 62
     2
 10
329.867462
 20
-10.396386
  0
SEQEND
  8
0
  0
POLYLINE
  8
0
 62
     2
 66
    1
  0
VERTEX
  8
0
 62
     2
 10
335.260010
 20
-5.939195
  0
VERTEX
  8
0
 62
     2
 10
334.766296
 20
-6.069131
  0
VERTEX
  8
0
 62
     2
 10
334.161804
 20
-6.590074
  0
VERTEX
  8
0
 62
     2
 10
329.362427
 20
-12.601007
  0
SEQEND
  8
0
  0
LINE
  8
0
 62
     2
 10
431.661675
 20
-5.888207
 11
431.661675
 21
14.111793
  0
LINE
  8
0
 62
     2
 10
347.658183
 20
-5.888207
 11
347.658183
 21
14.111793
  0
LINE
  8
0
 62
     2
 10
354.658183
 20
13.023003
 11
354.658183
 21
14.111793
  0
LINE
  8
0
 62
     2
 10
354.658183
 20
14.111793
 11
305.659929
 21
14.111793
  0
LINE
  8
0
 62
     2
 10
299.659929
 20
8.111793
 11
299.659929
 21
-23.888207
  0
LINE
  8
0
 62
     2
 10
424.661675
 20
13.023003
 11
424.661675
 21
14.111793
  0
LINE
  8
0
 62
     2
 10
424.661675
 20
14.111793
 11
473.659929
 21
14.111793
  0
LINE
  8
0
 62
     2
 10
479.659929
 20
8.111793
 11
479.659929
 21
-23.888207
  0
LINE
  8
0
 62
     2
 10
479.659929
 20
-12.601004
 11
479.659927
 21
-21.888207
  0
LINE
  8
0
 62
     2
 10
299.659929
 20
-12.601004
 11
299.659930
 21
-21.888207
  0
LINE
  8
0
 62
     2
 10
354.658183
 20
13.023003
 11
354.658183
 21
-5.888207
  0
LINE
  8
0
 62
     2
 10
424.661675
 20
13.023003
 11
424.661675
 21
-5.888207
  0
LINE
  8
0
 62
     2
 10
454.659929
 20
-5.888207
 11
443.773506
 21
-5.888207
  0
LINE
  8
0
 62
     2
 10
324.659929
 20
-5.888207
 11
335.546351
 21
-5.888207
  0
LINE
  8
0
 62
     2
 10
300.833977
 20
-10.396387
 11
305.364940
 21
-6.590074
  0
LINE
  8
0
 62
     2
 10
307.291082
 20
-5.888207
 11
308.845012
 21
-5.888207
  0
LINE
  8
0
 62
     2
 10
308.845012
 20
-5.888207
 11
308.845012
 21
-5.939193
  0
LINE
  8
0
 62
     2
 10
323.833543
 20
-10.396387
 11
327.191310
 21
-6.590074
  0
LINE
  8
0
 62
     2
 10
329.867449
 20
-10.396387
 11
332.917431
 21
-6.590074
  0
LINE
  8
0
 62
     2
 10
334.213998
 20
-5.888207
 11
335.260013
 21
-5.888207
  0
LINE
  8
0
 62
     2
 10
335.260013
 20
-5.888207
 11
335.260013
 21
-5.939193
  0
LINE
  8
0
 62
     2
 10
385.393312
 20
-10.396387
 11
385.610950
 21
-6.590074
  0
LINE
  8
0
 62
     2
 10
393.708908
 20
-6.590074
 11
393.926545
 21
-10.396387
  0
LINE
  8
0
 62
     2
 10
452.128547
 20
-6.590074
 11
455.486315
 21
-10.396387
  0
LINE
  8
0
 62
     2
 10
444.059845
 20
-5.939193
 11
444.059845
 21
-5.888207
  0
LINE
  8
0
 62
     2
 10
444.059845
 20
-5.888207
 11
445.105860
 21
-5.888207
  0
LINE
  8
0
 62
     2
 10
446.402427
 20
-6.590074
 11
449.452408
 21
-10.396387
  0
LINE
  8
0
 62
     2
 10
478.485881
 20
-10.396387
 11
473.954918
 21
-6.590074
  0
LINE
  8
0
 62
     2
 10
472.028776
 20
-5.888207
 11
470.474846
 21
-5.888207
  0
LINE
  8
0
 62
     2
 10
470.474846
 20
-5.888207
 11
470.474846
 21
-5.939193
  0
LINE
  8
0
 62
     2
 10
328.618720
 20
-5.888207
 11
329.770292
 21
-5.888207
  0
LINE
  8
0
 62
     2
 10
449.549565
 20
-5.888207
 11
450.701138
 21
-5.888207
  0
LINE
  8
0
 62
     2
 10
393.541748
 20
-5.888207
 11
393.616388
 21
-5.888207
  0
LINE
  8
0
 62
     2
 10
385.703469
 20
-5.888207
 11
385.778110
 21
-5.888207
  0
LINE
  8
0
 62
     2
 10
429.713019
 20
-5.888207
 11
433.753579
 21
-5.888207
  0
LINE
  8
0
 62
     2
 10
345.566279
 20
-5.888207
 11
349.606839
 21
-5.888207
  0
LINE
  8
0
 62
     2
 10
347.658183
 20
-5.888207
 11
347.658183
 21
13.023003
  0
ARC
  8
0
 62
     2
 10
305.659929
 20
8.111793
 40
6.000000
 50
90.000000
 51
180.000000
  0
LINE
  8
0
 62
     2
 10
315.449780
 20
-5.888207
 11
315.085100
 21
-5.443844
  0
ARC
  8
0
 62
     2
 10
319.658183
 20
-2.388207
 40
5.500000
 50
326.250000
 51
213.750000
  0
LINE
  8
0
 62
     2
 10
324.231266
 20
-5.443844
 11
323.866586
 21
-5.888207
  0
LINE
  8
0
 62
     2
 10
431.661675
 20
-5.888207
 11
431.661675
 21
13.023003
  0
ARC
  8
0
 62
     2
 10
473.659929
 20
8.111793
 40
6.000000
 50
0.000000
 51
90.000000
  0
LINE
  8
0
 62
     2
 10
463.870078
 20
-5.888207
 11
464.234758
 21
-5.443844
  0
ARC
  8
0
 62
     2
 10
459.661675
 20
-2.388207
 40
5.500000
 50
326.250000
 51
213.750000
  0
LINE
  8
0
 62
     2
 10
455.088592
 20
-5.443844
 11
455.453272
 21
-5.888207
  0
LINE
  8
0
 62
     2
 10
308.845012
 20
-5.888207
 11
308.845012
 21
-5.939193
  0
LINE
  8
0
 62
     2
 10
331.846236
 20
-5.888207
 11
308.845012
 21
-5.888207
  0
LINE
  8
0
 62
     2
 10
388.713938
 20
-5.888207
 11
333.184069
 21
-5.888207
  0
LINE
  8
0
 62
     2
 10
446.135788
 20
-5.888207
 11
390.605920
 21
-5.888207
  0
LINE
  8
0
 62
     2
 10
470.474846
 20
-5.888207
 11
447.473621
 21
-5.888207
  0
LINE
  8
0
 62
     2
 10
470.474846
 20
-5.888207
 11
470.474846
 21
-5.939193
  0
LINE
  8
0
 62
     2
 10
328.561241
 20
-6.590074
 11
307.213521
 21
-6.590074
  0
LINE
  8
0
 62
     2
 10
385.699744
 20
-6.590074
 11
334.161788
 21
-6.590074
  0
LINE
  8
0
 62
     2
 10
445.158069
 20
-6.590074
 11
393.620114
 21
-6.590074
  0
LINE
  8
0
 62
     2
 10
472.106337
 20
-6.590074
 11
450.758617
 21
-6.590074
  0
LINE
  8
0
 62
     2
 10
329.362409
 20
-12.601004
 11
385.342892
 21
-12.601004
  0
LINE
  8
0
 62
     2
 10
398.659929
 20
-5.888207
 11
443.773506
 21
-5.888207
  0
LINE
  8
0
 62
     2
 10
335.546351
 20
-5.888207
 11
380.659929
 21
-5.888207
  0
LINE
  8
0
 62
     2
 10
463.659929
 20
-5.888207
 11
454.659929
 21
-5.888207
  0
LINE
  8
0
 62
     2
 10
324.659929
 20
-5.888207
 11
315.659929
 21
-5.888207
  0
LINE
  8
0
 62
     2
 10
398.659929
 20
-5.888207
 11
380.659929
 21
-5.888207
  0
POLYLINE
  8
0
 62
     2
 66
    1
  0
VERTEX
  8
0
 62
     2
 10
305.364960
 20
-6.590074
  0
VERTEX
  8
0
 62
     2
 10
306.266205
 20
-6.069131
  0
VERTEX
  8
0
 62
     2
 10
307.291077
 20
-5.888207
  0
SEQEND
  8
0
  0
POLYLINE
  8
0
 62
     2
 66
    1
  0
VERTEX
  8
0
 62
     2
 10
327.191315
 20
-6.590074
  0
VERTEX
  8
0
 62
     2
 10
327.859222
 20
-6.069131
  0
VERTEX
  8
0
 62
     2
 10
328.618713
 20
-5.888207
  0
SEQEND
  8
0
  0
LINE
  8
0
 62
     2
 10
329.867449
 20
-10.396387
 11
323.833543
 21
-10.396387
  0
LINE
  8
0
 62
     2
 10
332.917431
 20
-6.590074
 11
327.191310
 21
-6.590074
  0
LINE
  8
0
 62
     2
 10
328.618720
 20
-5.888207
 11
334.213998
 21
-5.888207
  0
POLYLINE
  8
0
 62
     2
 66
    1
  0
VERTEX
  8
0
 62
     2
 10
332.917450
 20
-6.590074
  0
VERTEX
  8
0
 62
     2
 10
333.524109
 20
-6.069131
  0
VERTEX
  8
0
 62
     2
 10
334.213989
 20
-5.888207
  0
SEQEND
  8
0
  0
POLYLINE
  8
0
 62
     2
 66
    1
  0
VERTEX
  8
0
 62
     2
 10
385.610962
 20
-6.590074
  0
VERTEX
  8
0
 62
     2
 10
385.654236
 20
-6.069131
  0
VERTEX
  8
0
 62
     2
 10
385.703461
 20
-5.888207
  0
SEQEND
  8
0
  0
POLYLINE
  8
0
 62
     2
 66
    1
  0
VERTEX
  8
0
 62
     2
 10
393.616394
 20
-5.888207
  0
VERTEX
  8
0
 62
     2
 10
393.665619
 20
-6.069131
  0
VERTEX
  8
0
 62
     2
 10
393.708923
 20
-6.590074
  0
SEQEND
  8
0
  0
LINE
  8
0
 62
     2
 10
393.926545
 20
-10.396387
 11
385.393312
 21
-10.396387
  0
LINE
  8
0
 62
     2
 10
393.708908
 20
-6.590074
 11
385.610950
 21
-6.590074
  0
LINE
  8
0
 62
     2
 10
385.703469
 20
-5.888207
 11
393.616388
 21
-5.888207
  0
POLYLINE
  8
0
 62
     2
 66
    1
  0
VERTEX
  8
0
 62
     2
 10
450.701141
 20
-5.888207
  0
VERTEX
  8
0
 62
     2
 10
451.460663
 20
-6.069131
  0
VERTEX
  8
0
 62
     2
 10
452.128540
 20
-6.590074
  0
SEQEND
  8
0
  0
LINE
  8
0
 62
     2
 10
455.486315
 20
-10.396387
 11
449.452408
 21
-10.396387
  0
LINE
  8
0
 62
     2
 10
452.128547
 20
-6.590074
 11
446.402427
 21
-6.590074
  0
LINE
  8
0
 62
     2
 10
445.105860
 20
-5.888207
 11
450.701138
 21
-5.888207
  0
POLYLINE
  8
0
 62
     2
 66
    1
  0
VERTEX
  8
0
 62
     2
 10
445.105865
 20
-5.888207
  0
VERTEX
  8
0
 62
     2
 10
445.795746
 20
-6.069131
  0
VERTEX
  8
0
 62
     2
 10
446.402435
 20
-6.590074
  0
SEQEND
  8
0
  0
POLYLINE
  8
0
 62
     2
 66
    1
  0
VERTEX
  8
0
 62
     2
 10
473.954926
 20
-6.590074
  0
VERTEX
  8
0
 62
     2
 10
473.053650
 20
-6.069131
  0
VERTEX
  8
0
 62
     2
 10
472.028778
 20
-5.888207
  0
SEQEND
  8
0
  0
LINE
  8
0
 62
     2
 10
329.770292
 20
-5.888207
 11
331.846236
 21
-5.888207
  0
LINE
  8
0
 62
     2
 10
333.184069
 20
-5.888207
 11
335.260013
 21
-5.888207
  0
LINE
  8
0
 62
     2
 10
444.059845
 20
-5.888207
 11
446.135788
 21
-5.888207
  0
LINE
  8
0
 62
     2
 10
447.473621
 20
-5.888207
 11
449.549565
 21
-5.888207
  0
LINE
  8
0
 62
     2
 10
385.778110
 20
-5.888207
 11
388.713938
 21
-5.888207
  0
LINE
  8
0
 62
     2
 10
390.605920
 20
-5.888207
 11
393.541748
 21
-5.888207
  0
LINE
  8
0
 62
     2
 10
443.862249
 20
-5.888207
 11
444.434428
 21
-5.888207
  0
LINE
  8
0
 62
     2
 10
442.320904
 20
-5.888207
 11
443.040666
 21
-5.888207
  0
LINE
  8
0
 62
     2
 10
416.320761
 20
-5.888207
 11
437.472962
 21
-5.888207
  0
LINE
  8
0
 62
     2
 10
402.244057
 20
-5.888207
 11
404.616793
 21
-5.888207
  0
LINE
  8
0
 62
     2
 10
391.949478
 20
-5.888207
 11
397.758905
 21
-5.888207
  0
LINE
  8
0
 62
     2
 10
381.560953
 20
-5.888207
 11
387.370380
 21
-5.888207
  0
LINE
  8
0
 62
     2
 10
374.703065
 20
-5.888207
 11
377.075800
 21
-5.888207
  0
LINE
  8
0
 62
     2
 10
362.999096
 20
-5.888207
 11
341.846896
 21
-5.888207
  0
LINE
  8
0
 62
     2
 10
336.998954
 20
-5.888207
 11
336.279192
 21
-5.888207
  0
LINE
  8
0
 62
     2
 10
335.457608
 20
-5.888207
 11
334.885430
 21
-5.888207
  0
LINE
  8
0
 62
     2
 10
362.999096
 20
-5.888207
 11
374.703065
 21
-5.888207
  0
LINE
  8
0
 62
     2
 10
416.320761
 20
-5.888207
 11
404.616793
 21
-5.888207
  0
LINE
  8
0
 62
     2
 10
442.320904
 20
-5.888207
 11
437.398033
 21
-5.888207
  0
LINE
  8
0
 62
     2
 10
437.472962
 20
-5.888207
 11
437.398033
 21
-5.888207
  0
LINE
  8
0
 62
     2
 10
341.846896
 20
-5.888207
 11
341.921825
 21
-5.888207
  0
LINE
  8
0
 62
     2
 10
336.998954
 20
-5.888207
 11
341.921825
 21
-5.888207
  0
LINE
  8
0
 62
     2
 10
357.159929
 20
-5.888207
 11
422.159929
 21
-5.888207
  0
LINE
  8
0
 62
     2
 10
443.862249
 20
-5.888207
 11
443.040666
 21
-5.888207
  0
LINE
  8
0
 62
     2
 10
402.244057
 20
-5.888207
 11
397.758905
 21
-5.888207
  0
LINE
  8
0
 62
     2
 10
391.949478
 20
-5.888207
 11
387.370380
 21
-5.888207
  0
LINE
  8
0
 62
     2
 10
381.560953
 20
-5.888207
 11
377.075800
 21
-5.888207
  0
LINE
  8
0
 62
     2
 10
335.457608
 20
-5.888207
 11
336.279192
 21
-5.888207
  0
LINE
  8
0
 62
     2
 10
392.659929
 20
-5.888207
 11
429.713019
 21
-5.888207
  0
LINE
  8
0
 62
     2
 10
433.753579
 20
-5.888207
 11
436.749155
 21
-5.888207
  0
LINE
  8
0
 62
     2
 10
436.749155
 20
-5.888207
 11
392.659929
 21
-5.888207
  0
LINE
  8
0
 62
     2
 10
386.659929
 20
-5.888207
 11
342.570703
 21
-5.888207
  0
LINE
  8
0
 62
     2
 10
349.606839
 20
-5.888207
 11
386.659929
 21
-5.888207
  0
LINE
  8
0
 62
     2
 10
342.570703
 20
-5.888207
 11
345.566279
 21
-5.888207
  0
LINE
  8
0
 62
     2
 10
304.906481
 20
-17.888207
 11
309.115999
 21
-17.888207
  0
LINE
  8
0
 62
     2
 10
304.323103
 20
-19.888207
 11
310.063354
 21
-19.888207
  0
LINE
  8
0
 62
     2
 10
309.723454
 20
-21.888207
 11
304.323103
 21
-21.888207
  0
LINE
  8
0
 62
     2
 10
353.963917
 20
-17.888207
 11
350.344384
 21
-17.888207
  0
LINE
  8
0
 62
     2
 10
351.692675
 20
-19.888207
 11
348.572007
 21
-19.888207
  0
LINE
  8
0
 62
     2
 10
348.572007
 20
-21.888207
 11
350.808905
 21
-21.888207
  0
LINE
  8
0
 62
     2
 10
360.507059
 20
-17.888207
 11
353.963917
 21
-17.888207
  0
LINE
  8
0
 62
     2
 10
427.627183
 20
-19.888207
 11
430.747851
 21
-19.888207
  0
LINE
  8
0
 62
     2
 10
428.975474
 20
-17.888207
 11
425.355940
 21
-17.888207
  0
LINE
  8
0
 62
     2
 10
428.510952
 20
-21.888207
 11
430.747851
 21
-21.888207
  0
LINE
  8
0
 62
     2
 10
425.355940
 20
-17.888207
 11
418.812799
 21
-17.888207
  0
LINE
  8
0
 62
     2
 10
469.256503
 20
-19.888207
 11
474.996755
 21
-19.888207
  0
LINE
  8
0
 62
     2
 10
474.413376
 20
-17.888207
 11
470.203858
 21
-17.888207
  0
LINE
  8
0
 62
     2
 10
469.596404
 20
-21.888207
 11
474.996755
 21
-21.888207
  0
LINE
  8
0
 62
     2
 10
301.250896
 20
-21.888207
 11
306.817283
 21
-21.888207
  0
LINE
  8
0
 62
     2
 10
479.659927
 20
-21.888207
 11
475.086953
 21
-21.888207
  0
LINE
  8
0
 62
     2
 10
479.659929
 20
-24.888207
 11
479.350911
 21
-24.888207
  0
LINE
  8
0
 62
     2
 10
299.763574
 20
-21.888207
 11
301.250896
 21
-21.888207
  0
LINE
  8
0
 62
     2
 10
299.659929
 20
-32.888207
 11
299.659929
 21
-25.888207
  0
LINE
  8
0
 62
     2
 10
479.659929
 20
-25.888207
 11
479.659929
 21
-32.888207
  0
LINE
  8
0
 62
     2
 10
309.365700
 20
-22.888207
 11
309.970244
 21
-21.841106
  0
LINE
  8
0
 62
     2
 10
469.349613
 20
-21.841106
 11
469.954157
 21
-22.888207
  0
LINE
  8
0
 62
     2
 10
470.724073
 20
-23.888207
 11
470.724073
 21
-23.797437
  0
LINE
  8
0
 62
     2
 10
394.201942
 20
-23.797437
 11
394.201942
 21
-23.888207
  0
LINE
  8
0
 62
     2
 10
404.335350
 20
-23.888207
 11
404.335350
 21
-21.888207
  0
LINE
  8
0
 62
     2
 10
406.233665
 20
-23.888207
 11
406.233665
 21
-21.888207
  0
LINE
  8
0
 62
     2
 10
414.281354
 20
-23.888207
 11
414.281354
 21
-21.888207
  0
LINE
  8
0
 62
     2
 10
416.917065
 20
-23.888207
 11
416.917065
 21
-19.598815
  0
LINE
  8
0
 62
     2
 10
443.769247
 20
-23.888207
 11
443.769247
 21
-23.797437
  0
LINE
  8
0
 62
     2
 10
335.550611
 20
-23.797437
 11
335.550611
 21
-23.888207
  0
LINE
  8
0
 62
     2
 10
362.402792
 20
-19.598815
 11
362.402792
 21
-23.888207
  0
LINE
  8
0
 62
     2
 10
365.038504
 20
-23.888207
 11
365.038504
 21
-21.888207
  0
LINE
  8
0
 62
     2
 10
373.086193
 20
-23.888207
 11
373.086193
 21
-21.888207
  0
LINE
  8
0
 62
     2
 10
374.984507
 20
-21.888207
 11
374.984507
 21
-23.888207
  0
LINE
  8
0
 62
     2
 10
385.117916
 20
-23.797437
 11
385.117916
 21
-23.888207
  0
LINE
  8
0
 62
     2
 10
308.595785
 20
-23.888207
 11
308.595785
 21
-23.797437
  0
LINE
  8
0
 62
     2
 10
479.659927
 20
-21.888207
 11
474.996755
 21
-21.888207
  0
LINE
  8
0
 62
     2
 10
469.256503
 20
-21.888207
 11
430.747851
 21
-21.888207
  0
LINE
  8
0
 62
     2
 10
416.889658
 20
-21.888207
 11
362.430200
 21
-21.888207
  0
LINE
  8
0
 62
     2
 10
310.063354
 20
-21.888207
 11
348.572007
 21
-21.888207
  0
LINE
  8
0
 62
     2
 10
299.659930
 20
-21.888207
 11
304.323103
 21
-21.888207
  0
POLYLINE
  8
0
 62
     2
 66
    1
  0
VERTEX
  8
0
 62
     2
 10
474.413391
 20
-17.888208
  0
VERTEX
  8
0
 62
     2
 10
472.809082
 20
-17.888208
  0
VERTEX
  8
0
 62
     2
 10
470.203857
 20
-17.888208
  0
VERTEX
  8
0
 62
     2
 10
470.019043
 20
-17.926630
  0
VERTEX
  8
0
 62
     2
 10
469.841339
 20
-18.040445
  0
VERTEX
  8
0
 62
     2
 10
469.677551
 20
-18.225275
  0
VERTEX
  8
0
 62
     2
 10
469.533997
 20
-18.473993
  0
VERTEX
  8
0
 62
     2
 10
469.416168
 20
-18.777063
  0
VERTEX
  8
0
 62
     2
 10
469.328613
 20
-19.122843
  0
VERTEX
  8
0
 62
     2
 10
469.274719
 20
-19.498026
  0
VERTEX
  8
0
 62
     2
 10
469.256500
 20
-19.888208
  0
VERTEX
  8
0
 62
     2
 10
469.256500
 20
-21.888208
  0
SEQEND
  8
0
  0
LINE
  8
0
 62
     2
 10
428.975474
 20
-17.888207
 11
418.812799
 21
-17.888207
  0
ARC
  8
0
 62
     2
 10
418.813669
 20
-19.747389
 40
1.861409
 50
90.197522
 51
136.412113
  0
ARC
  8
0
 62
     2
 10
418.901674
 20
-19.863159
 40
2.009658
 50
136.390131
 51
180.175523
  0
LINE
  8
0
 62
     2
 10
416.889658
 20
-19.888207
 11
416.889658
 21
-21.888207
  0
LINE
  8
0
 62
     2
 10
362.430200
 20
-21.888207
 11
362.430200
 21
-19.888207
  0
ARC
  8
0
 62
     2
 10
360.360612
 20
-19.887371
 40
2.067583
 50
359.824477
 51
43.609869
  0
ARC
  8
0
 62
     2
 10
360.481009
 20
-19.802748
 40
1.917352
 50
43.587887
 51
89.802478
  0
LINE
  8
0
 62
     2
 10
360.507059
 20
-17.888207
 11
350.344384
 21
-17.888207
  0
POLYLINE
  8
0
 62
     2
 66
    1
  0
VERTEX
  8
0
 62
     2
 10
304.906494
 20
-17.888208
  0
VERTEX
  8
0
 62
     2
 10
306.510773
 20
-17.888208
  0
VERTEX
  8
0
 62
     2
 10
309.115997
 20
-17.888208
  0
VERTEX
  8
0
 62
     2
 10
309.300812
 20
-17.926630
  0
VERTEX
  8
0
 62
     2
 10
309.478546
 20
-18.040445
  0
VERTEX
  8
0
 62
     2
 10
309.642334
 20
-18.225275
  0
VERTEX
  8
0
 62
     2
 10
309.785889
 20
-18.473993
  0
VERTEX
  8
0
 62
     2
 10
309.903687
 20
-18.777063
  0
VERTEX
  8
0
 62
     2
 10
309.991241
 20
-19.122843
  0
VERTEX
  8
0
 62
     2
 10
310.045166
 20
-19.498026
  0
VERTEX
  8
0
 62
     2
 10
310.063354
 20
-19.888208
  0
VERTEX
  8
0
 62
     2
 10
310.063354
 20
-21.888208
  0
SEQEND
  8
0
  0
LINE
  8
0
 62
     2
 10
299.659930
 20
-21.888207
 11
299.659929
 21
-30.888207
  0
LINE
  8
0
 62
     2
 10
299.659929
 20
-24.888207
 11
299.968947
 21
-24.888207
  0
LINE
  8
0
 62
     2
 10
299.763574
 20
-21.952186
 11
300.083700
 21
-21.888207
  0
LINE
  8
0
 62
     2
 10
300.083700
 20
-21.888207
 11
299.659930
 21
-21.888207
  0
LINE
  8
0
 62
     2
 10
309.943050
 20
-21.888207
 11
307.342465
 21
-21.888207
  0
LINE
  8
0
 62
     2
 10
469.376807
 20
-21.888207
 11
471.977393
 21
-21.888207
  0
LINE
  8
0
 62
     2
 10
473.321239
 20
-21.888207
 11
475.086953
 21
-21.888207
  0
LINE
  8
0
 62
     2
 10
309.384657
 20
-21.888207
 11
305.505228
 21
-21.888207
  0
LINE
  8
0
 62
     2
 10
473.814629
 20
-21.888207
 11
469.935200
 21
-21.888207
  0
LINE
  8
0
 62
     2
 10
310.063354
 20
-19.888207
 11
307.814629
 21
-19.888207
  0
LINE
  8
0
 62
     2
 10
471.505228
 20
-19.888207
 11
469.256503
 21
-19.888207
  0
LINE
  8
0
 62
     2
 10
309.943050
 20
-21.888207
 11
305.825687
 21
-21.888207
  0
LINE
  8
0
 62
     2
 10
310.063354
 20
-19.888207
 11
305.825687
 21
-19.888207
  0
LINE
  8
0
 62
     2
 10
307.825687
 20
-17.888207
 11
309.115999
 21
-17.888207
  0
LINE
  8
0
 62
     2
 10
469.376807
 20
-21.888207
 11
473.494171
 21
-21.888207
  0
LINE
  8
0
 62
     2
 10
473.494171
 20
-19.888207
 11
469.256503
 21
-19.888207
  0
LINE
  8
0
 62
     2
 10
470.203858
 20
-17.888207
 11
471.494171
 21
-17.888207
  0
POLYLINE
  8
0
 62
     2
 66
    1
  0
VERTEX
  8
0
 62
     2
 10
304.323120
 20
-21.888208
  0
VERTEX
  8
0
 62
     2
 10
304.323120
 20
-19.888208
  0
VERTEX
  8
0
 62
     2
 10
304.334320
 20
-19.498026
  0
VERTEX
  8
0
 62
     2
 10
304.367523
 20
-19.122843
  0
VERTEX
  8
0
 62
     2
 10
304.421417
 20
-18.777063
  0
VERTEX
  8
0
 62
     2
 10
304.493988
 20
-18.473993
  0
VERTEX
  8
0
 62
     2
 10
304.582367
 20
-18.225275
  0
VERTEX
  8
0
 62
     2
 10
304.683228
 20
-18.040445
  0
VERTEX
  8
0
 62
     2
 10
304.792664
 20
-17.926630
  0
VERTEX
  8
0
 62
     2
 10
304.906494
 20
-17.888208
  0
SEQEND
  8
0
  0
LINE
  8
0
 62
     2
 10
310.063354
 20
-21.823336
 11
309.723454
 21
-21.888207
  0
POLYLINE
  8
0
 62
     2
 66
    1
  0
VERTEX
  8
0
 62
     2
 10
350.344391
 20
-17.888208
  0
VERTEX
  8
0
 62
     2
 10
349.998627
 20
-17.926630
  0
VERTEX
  8
0
 62
     2
 10
349.666138
 20
-18.040445
  0
VERTEX
  8
0
 62
     2
 10
349.359711
 20
-18.225275
  0
VERTEX
  8
0
 62
     2
 10
349.091125
 20
-18.473993
  0
VERTEX
  8
0
 62
     2
 10
348.870697
 20
-18.777063
  0
VERTEX
  8
0
 62
     2
 10
348.706940
 20
-19.122843
  0
VERTEX
  8
0
 62
     2
 10
348.606079
 20
-19.498026
  0
VERTEX
  8
0
 62
     2
 10
348.572021
 20
-19.888208
  0
VERTEX
  8
0
 62
     2
 10
348.572021
 20
-21.888208
  0
SEQEND
  8
0
  0
POLYLINE
  8
0
 62
     2
 66
    1
  0
VERTEX
  8
0
 62
     2
 10
350.808899
 20
-21.888208
  0
VERTEX
  8
0
 62
     2
 10
351.070679
 20
-21.767588
  0
VERTEX
  8
0
 62
     2
 10
351.300873
 20
-21.420298
  0
VERTEX
  8
0
 62
     2
 10
351.471741
 20
-20.888208
  0
VERTEX
  8
0
 62
     2
 10
351.692688
 20
-19.888208
  0
VERTEX
  8
0
 62
     2
 10
351.852020
 20
-19.498026
  0
VERTEX
  8
0
 62
     2
 10
351.935730
 20
-19.356119
  0
VERTEX
  8
0
 62
     2
 10
352.153076
 20
-19.122843
  0
VERTEX
  8
0
 62
     2
 10
352.282654
 20
-19.008829
  0
VERTEX
  8
0
 62
     2
 10
352.320129
 20
-18.994654
  0
VERTEX
  8
0
 62
     2
 10
357.982941
 20
-18.888208
  0
VERTEX
  8
0
 62
     2
 10
360.107574
 20
-18.888208
  0
VERTEX
  8
0
 62
     2
 10
362.183289
 20
-18.927225
  0
SEQEND
  8
0
  0
ARC
  8
0
 62
     2
 10
353.965677
 20
-19.614635
 40
1.731081
 50
90.423416
 51
137.873934
  0
POLYLINE
  8
0
 62
     2
 66
    1
  0
VERTEX
  8
0
 62
     2
 10
352.657349
 20
-18.473993
  0
VERTEX
  8
0
 62
     2
 10
352.427582
 20
-18.777063
  0
VERTEX
  8
0
 62
     2
 10
352.320129
 20
-18.994654
  0
SEQEND
  8
0
  0
POLYLINE
  8
0
 62
     2
 66
    1
  0
VERTEX
  8
0
 62
     2
 10
417.136597
 20
-18.927225
  0
VERTEX
  8
0
 62
     2
 10
419.212280
 20
-18.888208
  0
VERTEX
  8
0
 62
     2
 10
421.336914
 20
-18.888208
  0
VERTEX
  8
0
 62
     2
 10
426.999756
 20
-18.994654
  0
VERTEX
  8
0
 62
     2
 10
427.037201
 20
-19.008829
  0
VERTEX
  8
0
 62
     2
 10
427.166779
 20
-19.122843
  0
VERTEX
  8
0
 62
     2
 10
427.384125
 20
-19.356119
  0
VERTEX
  8
0
 62
     2
 10
427.467834
 20
-19.498026
  0
VERTEX
  8
0
 62
     2
 10
427.627197
 20
-19.888208
  0
VERTEX
  8
0
 62
     2
 10
427.848145
 20
-20.888208
  0
VERTEX
  8
0
 62
     2
 10
428.018982
 20
-21.420298
  0
VERTEX
  8
0
 62
     2
 10
428.249176
 20
-21.767588
  0
VERTEX
  8
0
 62
     2
 10
428.510956
 20
-21.888208
  0
SEQEND
  8
0
  0
POLYLINE
  8
0
 62
     2
 66
    1
  0
VERTEX
  8
0
 62
     2
 10
430.747864
 20
-21.888208
  0
VERTEX
  8
0
 62
     2
 10
430.747864
 20
-19.888208
  0
VERTEX
  8
0
 62
     2
 10
430.713806
 20
-19.498026
  0
VERTEX
  8
0
 62
     2
 10
430.612946
 20
-19.122843
  0
VERTEX
  8
0
 62
     2
 10
430.449158
 20
-18.777063
  0
VERTEX
  8
0
 62
     2
 10
430.228729
 20
-18.473993
  0
VERTEX
  8
0
 62
     2
 10
429.960144
 20
-18.225275
  0
VERTEX
  8
0
 62
     2
 10
429.653748
 20
-18.040445
  0
VERTEX
  8
0
 62
     2
 10
429.321259
 20
-17.926630
  0
VERTEX
  8
0
 62
     2
 10
428.975494
 20
-17.888208
  0
SEQEND
  8
0
  0
POLYLINE
  8
0
 62
     2
 66
    1
  0
VERTEX
  8
0
 62
     2
 10
426.999756
 20
-18.994654
  0
VERTEX
  8
0
 62
     2
 10
426.892303
 20
-18.777063
  0
VERTEX
  8
0
 62
     2
 10
426.662506
 20
-18.473993
  0
VERTEX
  8
0
 62
     2
 10
426.382507
 20
-18.225275
  0
VERTEX
  8
0
 62
     2
 10
426.063049
 20
-18.040445
  0
VERTEX
  8
0
 62
     2
 10
425.716431
 20
-17.926630
  0
VERTEX
  8
0
 62
     2
 10
425.355957
 20
-17.888208
  0
SEQEND
  8
0
  0
POLYLINE
  8
0
 62
     2
 66
    1
  0
VERTEX
  8
0
 62
     2
 10
474.996765
 20
-21.888208
  0
VERTEX
  8
0
 62
     2
 10
474.996765
 20
-19.888208
  0
VERTEX
  8
0
 62
     2
 10
474.985565
 20
-19.498026
  0
VERTEX
  8
0
 62
     2
 10
474.952362
 20
-19.122843
  0
VERTEX
  8
0
 62
     2
 10
474.898438
 20
-18.777063
  0
VERTEX
  8
0
 62
     2
 10
474.825897
 20
-18.473993
  0
VERTEX
  8
0
 62
     2
 10
474.737488
 20
-18.225275
  0
VERTEX
  8
0
 62
     2
 10
474.636627
 20
-18.040445
  0
VERTEX
  8
0
 62
     2
 10
474.527191
 20
-17.926630
  0
VERTEX
  8
0
 62
     2
 10
474.413391
 20
-17.888208
  0
SEQEND
  8
0
  0
LINE
  8
0
 62
     2
 10
469.256503
 20
-21.823336
 11
469.596404
 21
-21.888207
  0
POLYLINE
  8
0
 62
     2
 66
    1
  0
VERTEX
  8
0
 62
     2
 10
306.817291
 20
-21.888208
  0
VERTEX
  8
0
 62
     2
 10
306.803802
 20
-21.945856
  0
VERTEX
  8
0
 62
     2
 10
306.153198
 20
-22.116571
  0
VERTEX
  8
0
 62
     2
 10
305.967346
 20
-22.393793
  0
VERTEX
  8
0
 62
     2
 10
305.590210
 20
-22.766886
  0
VERTEX
  8
0
 62
     2
 10
305.450684
 20
-23.221491
  0
VERTEX
  8
0
 62
     2
 10
305.214050
 20
-23.740152
  0
VERTEX
  8
0
 62
     2
 10
305.205078
 20
-23.888208
  0
SEQEND
  8
0
  0
POLYLINE
  8
0
 62
     2
 66
    1
  0
VERTEX
  8
0
 62
     2
 10
300.770538
 20
-24.123316
  0
VERTEX
  8
0
 62
     2
 10
300.755615
 20
-23.740152
  0
VERTEX
  8
0
 62
     2
 10
300.628387
 20
-22.766886
  0
VERTEX
  8
0
 62
     2
 10
300.437958
 20
-22.116571
  0
VERTEX
  8
0
 62
     2
 10
300.408905
 20
-22.087030
  0
VERTEX
  8
0
 62
     2
 10
299.763580
 20
-21.952188
  0
SEQEND
  8
0
  0
POLYLINE
  8
0
 62
     2
 66
    1
  0
VERTEX
  8
0
 62
     2
 10
475.086945
 20
-21.888208
  0
VERTEX
  8
0
 62
     2
 10
475.212433
 20
-21.945856
  0
VERTEX
  8
0
 62
     2
 10
475.944733
 20
-22.116571
  0
VERTEX
  8
0
 62
     2
 10
476.222748
 20
-22.393793
  0
VERTEX
  8
0
 62
     2
 10
476.671906
 20
-22.766886
  0
VERTEX
  8
0
 62
     2
 10
476.877502
 20
-23.221491
  0
VERTEX
  8
0
 62
     2
 10
477.157806
 20
-23.740152
  0
VERTEX
  8
0
 62
     2
 10
477.175049
 20
-23.888208
  0
SEQEND
  8
0
  0
LINE
  8
0
 62
     2
 10
479.659929
 20
-30.888207
 11
479.659929
 21
-24.302936
  0
LINE
  8
0
 62
     2
 10
479.659929
 20
-24.302936
 11
479.659927
 21
-21.888207
  0
POLYLINE
  8
0
 62
     2
 66
    1
  0
VERTEX
  8
0
 62
     2
 10
301.250916
 20
-21.888208
  0
VERTEX
  8
0
 62
     2
 10
301.278992
 20
-21.945856
  0
VERTEX
  8
0
 62
     2
 10
301.305969
 20
-22.116571
  0
VERTEX
  8
0
 62
     2
 10
301.330872
 20
-22.393793
  0
SEQEND
  8
0
  0
POLYLINE
  8
0
 62
     2
 66
    1
  0
VERTEX
  8
0
 62
     2
 10
301.330872
 20
-22.393793
  0
VERTEX
  8
0
 62
     2
 10
301.352692
 20
-22.766886
  0
VERTEX
  8
0
 62
     2
 10
301.370575
 20
-23.221491
  0
VERTEX
  8
0
 62
     2
 10
301.383881
 20
-23.740152
  0
VERTEX
  8
0
 62
     2
 10
301.386810
 20
-23.942530
  0
SEQEND
  8
0
  0
ARC
  8
0
 62
     2
 10
301.659929
 20
-25.888207
 40
2.000000
 50
90.000000
 51
180.000000
  0
ARC
  8
0
 62
     2
 10
477.659929
 20
-25.888207
 40
2.000000
 50
0.000000
 51
90.000000
  0
POLYLINE
  8
0
 62
     2
 66
    1
  0
VERTEX
  8
0
 62
     2
 10
307.633667
 20
-23.888208
  0
VERTEX
  8
0
 62
     2
 10
308.317688
 20
-23.767588
  0
VERTEX
  8
0
 62
     2
 10
308.919220
 20
-23.420298
  0
VERTEX
  8
0
 62
     2
 10
309.365692
 20
-22.888208
  0
SEQEND
  8
0
  0
POLYLINE
  8
0
 62
     2
 66
    1
  0
VERTEX
  8
0
 62
     2
 10
471.686218
 20
-23.888208
  0
VERTEX
  8
0
 62
     2
 10
471.002167
 20
-23.767588
  0
VERTEX
  8
0
 62
     2
 10
470.400635
 20
-23.420298
  0
VERTEX
  8
0
 62
     2
 10
469.954163
 20
-22.888208
  0
SEQEND
  8
0
  0
LINE
  8
0
 62
     2
 10
479.659929
 20
-25.888207
 11
299.659929
 21
-25.888207
  0
LINE
  8
0
 62
     2
 10
301.659929
 20
-23.888207
 11
477.659929
 21
-23.888207
  0
LINE
  8
0
 62
     2
 10
308.070635
 20
-23.888207
 11
307.633649
 21
-23.888207
  0
LINE
  8
0
 62
     2
 10
335.104873
 20
-23.888207
 11
328.830300
 21
-23.888207
  0
LINE
  8
0
 62
     2
 10
394.096722
 20
-23.888207
 11
385.223136
 21
-23.888207
  0
LINE
  8
0
 62
     2
 10
444.214985
 20
-23.888207
 11
450.489558
 21
-23.888207
  0
LINE
  8
0
 62
     2
 10
471.249222
 20
-23.888207
 11
471.686208
 21
-23.888207
  0
POLYLINE
  8
0
 62
     2
 66
    1
  0
VERTEX
  8
0
 62
     2
 10
328.830292
 20
-23.888208
  0
VERTEX
  8
0
 62
     2
 10
328.923401
 20
-23.863901
  0
VERTEX
  8
0
 62
     2
 10
329.127228
 20
-23.797434
  0
VERTEX
  8
0
 62
     2
 10
329.206177
 20
-23.767588
  0
VERTEX
  8
0
 62
     2
 10
329.486786
 20
-23.420298
  0
VERTEX
  8
0
 62
     2
 10
329.695038
 20
-22.888208
  0
VERTEX
  8
0
 62
     2
 10
329.964355
 20
-21.888208
  0
SEQEND
  8
0
  0
POLYLINE
  8
0
 62
     2
 66
    1
  0
VERTEX
  8
0
 62
     2
 10
450.489563
 20
-23.888208
  0
VERTEX
  8
0
 62
     2
 10
450.396484
 20
-23.863901
  0
VERTEX
  8
0
 62
     2
 10
450.192627
 20
-23.797434
  0
VERTEX
  8
0
 62
     2
 10
450.113678
 20
-23.767588
  0
VERTEX
  8
0
 62
     2
 10
449.833069
 20
-23.420298
  0
VERTEX
  8
0
 62
     2
 10
449.624817
 20
-22.888208
  0
VERTEX
  8
0
 62
     2
 10
449.355499
 20
-21.888208
  0
SEQEND
  8
0
  0
LINE
  8
0
 62
     2
 10
309.858308
 20
-22.888207
 11
309.365700
 21
-22.888207
  0
LINE
  8
0
 62
     2
 10
336.768281
 20
-22.888207
 11
329.695043
 21
-22.888207
  0
LINE
  8
0
 62
     2
 10
384.658395
 20
-22.888207
 11
394.661463
 21
-22.888207
  0
LINE
  8
0
 62
     2
 10
442.551577
 20
-22.888207
 11
449.624815
 21
-22.888207
  0
LINE
  8
0
 62
     2
 10
469.954157
 20
-22.888207
 11
469.461549
 21
-22.888207
  0
POLYLINE
  8
0
 62
     2
 66
    1
  0
VERTEX
  8
0
 62
     2
 10
468.862732
 20
-21.888208
  0
VERTEX
  8
0
 62
     2
 10
469.461548
 20
-22.888208
  0
VERTEX
  8
0
 62
     2
 10
469.924622
 20
-23.420298
  0
VERTEX
  8
0
 62
     2
 10
470.548523
 20
-23.767588
  0
VERTEX
  8
0
 62
     2
 10
470.724091
 20
-23.797434
  0
VERTEX
  8
0
 62
     2
 10
471.110748
 20
-23.863901
  0
VERTEX
  8
0
 62
     2
 10
471.249237
 20
-23.888208
  0
VERTEX
  8
0
 62
     2
 10
471.509247
 20
-23.888208
  0
VERTEX
  8
0
 62
     2
 10
471.903717
 20
-23.888208
  0
VERTEX
  8
0
 62
     2
 10
472.278473
 20
-23.888208
  0
VERTEX
  8
0
 62
     2
 10
472.618591
 20
-23.888208
  0
VERTEX
  8
0
 62
     2
 10
472.910522
 20
-23.888208
  0
VERTEX
  8
0
 62
     2
 10
473.142670
 20
-23.888208
  0
VERTEX
  8
0
 62
     2
 10
473.305786
 20
-23.888208
  0
VERTEX
  8
0
 62
     2
 10
473.393402
 20
-23.888208
  0
VERTEX
  8
0
 62
     2
 10
473.401978
 20
-23.888208
  0
SEQEND
  8
0
  0
POLYLINE
  8
0
 62
     2
 66
    1
  0
VERTEX
  8
0
 62
     2
 10
394.879425
 20
-21.888208
  0
VERTEX
  8
0
 62
     2
 10
394.661469
 20
-22.888208
  0
VERTEX
  8
0
 62
     2
 10
394.492920
 20
-23.420298
  0
VERTEX
  8
0
 62
     2
 10
394.265839
 20
-23.767588
  0
VERTEX
  8
0
 62
     2
 10
394.201935
 20
-23.797434
  0
VERTEX
  8
0
 62
     2
 10
394.103577
 20
-23.863901
  0
VERTEX
  8
0
 62
     2
 10
394.096741
 20
-23.888208
  0
VERTEX
  8
0
 62
     2
 10
394.083893
 20
-23.888208
  0
SEQEND
  8
0
  0
POLYLINE
  8
0
 62
     2
 66
    1
  0
VERTEX
  8
0
 62
     2
 10
441.974030
 20
-21.888208
  0
VERTEX
  8
0
 62
     2
 10
442.551575
 20
-22.888208
  0
VERTEX
  8
0
 62
     2
 10
442.998199
 20
-23.420298
  0
VERTEX
  8
0
 62
     2
 10
443.599945
 20
-23.767588
  0
VERTEX
  8
0
 62
     2
 10
443.769257
 20
-23.797434
  0
VERTEX
  8
0
 62
     2
 10
444.112244
 20
-23.863901
  0
VERTEX
  8
0
 62
     2
 10
444.214996
 20
-23.888208
  0
VERTEX
  8
0
 62
     2
 10
444.407928
 20
-23.888208
  0
VERTEX
  8
0
 62
     2
 10
444.644562
 20
-23.888208
  0
VERTEX
  8
0
 62
     2
 10
444.812714
 20
-23.888208
  0
VERTEX
  8
0
 62
     2
 10
444.905731
 20
-23.888208
  0
VERTEX
  8
0
 62
     2
 10
444.919861
 20
-23.888208
  0
SEQEND
  8
0
  0
POLYLINE
  8
0
 62
     2
 66
    1
  0
VERTEX
  8
0
 62
     2
 10
337.345825
 20
-21.888208
  0
VERTEX
  8
0
 62
     2
 10
336.768280
 20
-22.888208
  0
VERTEX
  8
0
 62
     2
 10
336.321655
 20
-23.420298
  0
VERTEX
  8
0
 62
     2
 10
335.719940
 20
-23.767588
  0
VERTEX
  8
0
 62
     2
 10
335.550629
 20
-23.797434
  0
VERTEX
  8
0
 62
     2
 10
335.207642
 20
-23.863901
  0
VERTEX
  8
0
 62
     2
 10
335.104889
 20
-23.888208
  0
VERTEX
  8
0
 62
     2
 10
334.911926
 20
-23.888208
  0
VERTEX
  8
0
 62
     2
 10
334.675293
 20
-23.888208
  0
VERTEX
  8
0
 62
     2
 10
334.507141
 20
-23.888208
  0
VERTEX
  8
0
 62
     2
 10
334.414154
 20
-23.888208
  0
VERTEX
  8
0
 62
     2
 10
334.400024
 20
-23.888208
  0
SEQEND
  8
0
  0
POLYLINE
  8
0
 62
     2
 66
    1
  0
VERTEX
  8
0
 62
     2
 10
385.235992
 20
-23.888208
  0
VERTEX
  8
0
 62
     2
 10
385.223145
 20
-23.888208
  0
VERTEX
  8
0
 62
     2
 10
385.216309
 20
-23.863901
  0
VERTEX
  8
0
 62
     2
 10
385.117920
 20
-23.797434
  0
VERTEX
  8
0
 62
     2
 10
385.054016
 20
-23.767588
  0
VERTEX
  8
0
 62
     2
 10
384.826935
 20
-23.420298
  0
VERTEX
  8
0
 62
     2
 10
384.658386
 20
-22.888208
  0
VERTEX
  8
0
 62
     2
 10
384.440460
 20
-21.888208
  0
SEQEND
  8
0
  0
POLYLINE
  8
0
 62
     2
 66
    1
  0
VERTEX
  8
0
 62
     2
 10
310.457123
 20
-21.888208
  0
VERTEX
  8
0
 62
     2
 10
309.858307
 20
-22.888208
  0
VERTEX
  8
0
 62
     2
 10
309.395233
 20
-23.420298
  0
VERTEX
  8
0
 62
     2
 10
308.771332
 20
-23.767588
  0
VERTEX
  8
0
 62
     2
 10
308.595795
 20
-23.797434
  0
VERTEX
  8
0
 62
     2
 10
308.209137
 20
-23.863901
  0
VERTEX
  8
0
 62
     2
 10
308.070648
 20
-23.888208
  0
VERTEX
  8
0
 62
     2
 10
307.810638
 20
-23.888208
  0
VERTEX
  8
0
 62
     2
 10
307.416138
 20
-23.888208
  0
VERTEX
  8
0
 62
     2
 10
307.041382
 20
-23.888208
  0
VERTEX
  8
0
 62
     2
 10
306.701294
 20
-23.888208
  0
VERTEX
  8
0
 62
     2
 10
306.409332
 20
-23.888208
  0
VERTEX
  8
0
 62
     2
 10
306.177185
 20
-23.888208
  0
VERTEX
  8
0
 62
     2
 10
306.014069
 20
-23.888208
  0
VERTEX
  8
0
 62
     2
 10
305.926483
 20
-23.888208
  0
VERTEX
  8
0
 62
     2
 10
305.917877
 20
-23.888208
  0
SEQEND
  8
0
  0
LINE
  8
0
 62
     2
 10
308.070635
 20
-23.888207
 11
305.917886
 21
-23.888207
  0
LINE
  8
0
 62
     2
 10
471.249222
 20
-23.888207
 11
473.401971
 21
-23.888207
  0
POLYLINE
  8
0
 62
     2
 66
    1
  0
VERTEX
  8
0
 62
     2
 10
659.008057
 20
352.089691
  0
VERTEX
  8
0
 62
     2
 10
658.980103
 20
351.996368
  0
VERTEX
  8
0
 62
     2
 10
658.926147
 20
351.843353
  0
VERTEX
  8
0
 62
     2
 10
658.795166
 20
351.508942
  0
VERTEX
  8
0
 62
     2
 10
658.527161
 20
350.864502
  0
VERTEX
  8
0
 62
     2
 10
657.180725
 20
349.900635
  0
VERTEX
  8
0
 62
     2
 10
656.792969
 20
349.628387
  0
VERTEX
  8
0
 62
     2
 10
654.197571
 20
348.814850
  0
VERTEX
  8
0
 62
     2
 10
651.136108
 20
348.529175
  0
VERTEX
  8
0
 62
     2
 10
644.136108
 20
348.529175
  0
VERTEX
  8
0
 62
     2
 10
643.370728
 20
348.662781
  0
VERTEX
  8
0
 62
     2
 10
643.167664
 20
348.781891
  0
VERTEX
  8
0
 62
     2
 10
642.721924
 20
349.071106
  0
VERTEX
  8
0
 62
     2
 10
642.288391
 20
349.701111
  0
VERTEX
  8
0
 62
     2
 10
642.169250
 20
350.282623
  0
VERTEX
  8
0
 62
     2
 10
642.136108
 20
350.461090
  0
SEQEND
  8
0
  0
LINE
  8
OBRYS
 10
655.495259
 20
358.509109
 11
678.136098
 21
358.509109
  0
LINE
  8
0
 62
     2
 10
642.268525
 20
359.843351
 11
651.136098
 21
359.843351
  0
POLYLINE
  8
0
 62
     2
 66
    1
  0
VERTEX
  8
0
 62
     2
 10
659.032715
 20
352.363342
  0
VERTEX
  8
0
 62
     2
 10
659.036682
 20
352.333740
  0
VERTEX
  8
0
 62
     2
 10
659.036682
 20
352.305298
  0
SEQEND
  8
0
  0
ARC
  8
0
 62
     2
 10
658.464918
 20
352.282188
 40
0.574217
 50
343.397780
 51
1.497555
  0
LINE
  8
0
 62
     2
 10
651.136098
 20
359.843351
 11
651.136098
 21
348.529173
  0
POLYLINE
  8
0
 62
     2
 66
    1
  0
VERTEX
  8
0
 62
     2
 10
658.527161
 20
354.904816
  0
VERTEX
  8
0
 62
     2
 10
656.792969
 20
357.500214
  0
VERTEX
  8
0
 62
     2
 10
654.197571
 20
359.234375
  0
VERTEX
  8
0
 62
     2
 10
651.136108
 20
359.843353
  0
SEQEND
  8
0
  0
LINE
  8
0
 62
     2
 10
658.527134
 20
354.904818
 11
659.032667
 21
352.363333
  0
POLYLINE
  8
0
 62
     2
 66
    1
  0
VERTEX
  8
0
 62
     2
 10
655.283020
 20
358.509094
  0
VERTEX
  8
0
 62
     2
 10
654.197571
 20
359.234375
  0
VERTEX
  8
0
 62
     2
 10
651.136108
 20
359.843353
  0
SEQEND
  8
0
  0
LINE
  8
OBRYS
 10
678.136098
 20
358.509109
 11
712.136098
 21
358.509109
  0
LINE
  8
OBRYS
 10
669.136031
 20
361.509109
 11
687.136165
 21
361.509109
  0
LINE
  8
OBRYS
 10
687.136165
 20
361.509109
 11
687.136097
 21
360.509245
  0
ARC
  8
OBRYS
 10
689.136097
 20
360.509109
 40
2.000000
 50
179.996087
 51
270.000000
  0
LINE
  8
OBRYS
 10
669.136031
 20
361.509109
 11
669.136099
 21
360.509245
  0
ARC
  8
OBRYS
 10
667.136099
 20
360.509109
 40
2.000000
 50
270.000000
 51
0.003913
  0
ARC
  8
OBRYS
 10
712.136098
 20
360.509109
 40
2.000000
 50
270.000000
 51
360.000000
  0
ARC
  8
OBRYS
 10
716.136098
 20
365.009109
 40
2.000000
 50
90.000000
 51
180.000000
  0
ARC
  8
OBRYS
 10
640.136098
 20
365.009109
 40
2.000000
 50
0.000000
 51
90.000000
  0
LINE
  8
OBRYS
 62
     7
  6
DASHDOT
 10
608.136098
 20
277.009109
 11
748.136098
 21
277.009109
  0
LINE
  8
OBRYS
 62
     7
  6
DASHDOT
 10
608.136098
 20
197.009109
 11
748.136098
 21
197.009109
  0
LINE
  8
OBRYS
 62
     7
  6
DASHDOT
 10
678.136098
 20
142.882053
 11
678.136098
 21
369.009109
  0
INSERT
  8
OSA
 66
     1
  2
M10x1_10
  6
CONTINUOUS
 10
1187.551293
 20
361.509109
  0
ATTRIB
  8
OSA
 62
     2
  6
CONTINUOUS
 10
0.000000
 20
0.000000
 40
3.749998
  1
DIN 908
  2
norma roz.
 70
     1
  0
SEQEND
  8
OSA
  0
LINE
  8
OBRYS
 10
640.136098
 20
367.009109
 11
633.136098
 21
367.009109
  0
LINE
  8
OBRYS
 10
723.136098
 20
367.009109
 11
716.136098
 21
367.009109
  0
ARC
  8
OBRYS
 10
101.183760
 20
197.009109
 40
70.000000
 50
180.000000
 51
186.204535
  0
INSERT
  8
OBRYS
  2
_11
 62
     7
 10
101.183760
 20
277.009109
  0
ARC
  8
OBRYS
 10
101.183760
 20
197.009109
 40
70.000000
 50
353.795465
 51
360.000000
  0
INSERT
  8
OBRYS
  2
_12
 62
     7
 10
146.183760
 20
277.009109
  0
ARC
  8
OBRYS
 10
132.183760
 20
179.111250
 40
12.000000
 50
300.000000
 51
360.000000
  0
LINE
  8
OBRYS
 10
144.183760
 20
179.111250
 11
144.183760
 21
214.906967
  0
LINE
  8
OBRYS
 10
107.183760
 20
150.821087
 11
138.183760
 21
168.718945
  0
ARC
  8
OBRYS
 10
132.183760
 20
214.906967
 40
12.000000
 50
0.000000
 51
60.000000
  0
LINE
  8
OBRYS
 10
138.183760
 20
225.299272
 11
107.183760
 21
243.197130
  0
ARC
  8
OBRYS
 10
101.183760
 20
232.804825
 40
12.000000
 50
60.000000
 51
120.000000
  0
LINE
  8
OBRYS
 10
95.183760
 20
243.197130
 11
64.183760
 21
225.299272
  0
ARC
  8
OBRYS
 10
70.183760
 20
214.906967
 40
12.000000
 50
120.000000
 51
180.000000
  0
LINE
  8
OBRYS
 10
58.183760
 20
214.906967
 11
58.183760
 21
179.111250
  0
ARC
  8
OBRYS
 10
70.183760
 20
179.111250
 40
12.000000
 50
180.000000
 51
240.000000
  0
LINE
  8
OBRYS
 10
64.183760
 20
168.718945
 11
95.183760
 21
150.821087
  0
ARC
  8
OBRYS
 10
101.183760
 20
161.213392
 40
12.000000
 50
240.000000
 51
300.000000
  0
CIRCLE
  8
OBRYS
 10
101.183760
 20
197.009109
 40
36.000000
  0
LINE
  8
OBRYS
 62
     7
  6
DASHDOT
 10
101.183760
 20
142.882053
 11
101.183760
 21
369.009109
  0
LINE
  8
OBRYS
 62
     7
  6
DASHDOT
 10
171.183760
 20
197.009109
 11
31.183760
 21
197.009109
  0
LINE
  8
OBRYS
 62
     7
  6
DASHDOT
 10
171.183760
 20
277.009109
 11
31.183760
 21
277.009109
  0
ARC
  8
OBRYS
 10
146.183760
 20
185.009109
 40
2.000000
 50
90.000000
 51
180.000000
  0
ARC
  8
OBRYS
 10
139.183760
 20
365.009109
 40
2.000000
 50
90.000000
 51
180.000000
  0
ARC
  8
OBRYS
 10
63.183760
 20
365.009109
 40
2.000000
 50
0.000000
 51
90.000000
  0
ARC
  8
OBRYS
 10
67.183760
 20
360.509109
 40
2.000000
 50
180.000000
 51
270.000000
  0
ARC
  8
OBRYS
 10
56.183760
 20
185.009109
 40
2.000000
 50
0.000000
 51
90.000000
  0
ARC
  8
OBRYS
 10
112.183759
 20
360.509109
 40
2.000000
 50
179.996087
 51
270.000000
  0
LINE
  8
OBRYS
 10
110.183827
 20
361.509109
 11
110.183759
 21
360.509245
  0
ARC
  8
OBRYS
 10
90.183761
 20
360.509109
 40
2.000000
 50
270.000000
 51
0.003913
  0
LINE
  8
OBRYS
 10
92.183693
 20
361.509109
 11
92.183761
 21
360.509245
  0
LINE
  8
OBRYS
 10
110.183827
 20
361.509109
 11
92.183693
 21
361.509109
  0
LINE
  8
OBRYS
 10
65.183760
 20
225.876622
 11
65.183760
 21
365.009109
  0
LINE
  8
OBRYS
 10
101.183760
 20
358.509109
 11
67.183760
 21
358.509109
  0
LINE
  8
OBRYS
 10
146.183760
 20
367.009109
 11
146.183760
 21
277.009109
  0
LINE
  8
OBRYS
 10
137.183760
 20
225.876622
 11
137.183760
 21
365.009109
  0
LINE
  8
OBRYS
 10
146.183760
 20
187.009109
 11
146.183760
 21
277.009109
  0
LINE
  8
0
 62
     2
 10
128.183760
 20
252.338510
 11
128.183760
 21
244.960858
  0
LINE
  8
0
 62
     2
 10
128.183760
 20
309.057359
 11
128.183760
 21
301.679708
  0
POLYLINE
  8
0
 62
     2
 66
    1
  0
VERTEX
  8
0
 62
     2
 10
124.036842
 20
358.509094
  0
VERTEX
  8
0
 62
     2
 10
125.122292
 20
359.234375
  0
VERTEX
  8
0
 62
     2
 10
128.183762
 20
359.843353
  0
SEQEND
  8
0
  0
LINE
  8
0
 62
     2
 10
120.792723
 20
354.904818
 11
120.287191
 21
352.363333
  0
POLYLINE
  8
0
 62
     2
 66
    1
  0
VERTEX
  8
0
 62
     2
 10
120.792732
 20
354.904816
  0
VERTEX
  8
0
 62
     2
 10
122.526909
 20
357.500214
  0
VERTEX
  8
0
 62
     2
 10
125.122292
 20
359.234375
  0
VERTEX
  8
0
 62
     2
 10
128.183762
 20
359.843353
  0
SEQEND
  8
0
  0
LINE
  8
0
 62
     2
 10
128.183760
 20
359.843351
 11
128.183760
 21
348.529173
  0
ARC
  8
0
 62
     2
 10
120.854940
 20
352.282188
 40
0.574217
 50
178.502445
 51
196.602220
  0
POLYLINE
  8
0
 62
     2
 66
    1
  0
VERTEX
  8
0
 62
     2
 10
120.287193
 20
352.363342
  0
VERTEX
  8
0
 62
     2
 10
120.283211
 20
352.333740
  0
VERTEX
  8
0
 62
     2
 10
120.283211
 20
352.305298
  0
SEQEND
  8
0
  0
LINE
  8
0
 62
     2
 10
120.393726
 20
309.062037
 11
120.792723
 21
311.067934
  0
POLYLINE
  8
0
 62
     2
 66
    1
  0
VERTEX
  8
0
 62
     2
 10
120.792732
 20
311.067932
  0
VERTEX
  8
0
 62
     2
 10
122.526909
 20
313.663330
  0
VERTEX
  8
0
 62
     2
 10
125.122292
 20
315.397491
  0
VERTEX
  8
0
 62
     2
 10
128.183762
 20
316.006470
  0
SEQEND
  8
0
  0
LINE
  8
0
 62
     2
 10
128.183760
 20
316.006467
 11
128.183760
 21
300.532251
  0
POLYLINE
  8
0
 62
     2
 66
    1
  0
VERTEX
  8
0
 62
     2
 10
120.311806
 20
308.601166
  0
VERTEX
  8
0
 62
     2
 10
120.339775
 20
308.775757
  0
VERTEX
  8
0
 62
     2
 10
120.393730
 20
309.062042
  0
SEQEND
  8
0
  0
ARC
  8
0
 62
     2
 10
122.947614
 20
308.163728
 40
2.668241
 50
172.234621
 51
185.194882
  0
POLYLINE
  8
0
 62
     2
 66
    1
  0
VERTEX
  8
0
 62
     2
 10
120.524727
 20
306.581207
  0
VERTEX
  8
0
 62
     2
 10
120.393730
 20
307.260071
  0
VERTEX
  8
0
 62
     2
 10
120.339775
 20
307.570709
  0
VERTEX
  8
0
 62
     2
 10
120.311806
 20
307.760132
  0
VERTEX
  8
0
 62
     2
 10
120.295998
 20
307.896393
  0
SEQEND
  8
0
  0
POLYLINE
  8
0
 62
     2
 66
    1
  0
VERTEX
  8
0
 62
     2
 10
128.183762
 20
238.011749
  0
VERTEX
  8
0
 62
     2
 10
125.122292
 20
238.620728
  0
VERTEX
  8
0
 62
     2
 10
122.526909
 20
240.354889
  0
VERTEX
  8
0
 62
     2
 10
120.792732
 20
242.950287
  0
VERTEX
  8
0
 62
     2
 10
120.393730
 20
244.956177
  0
SEQEND
  8
0
  0
LINE
  8
0
 62
     2
 10
128.183760
 20
253.485966
 11
128.183760
 21
238.011751
  0
POLYLINE
  8
0
 62
     2
 66
    1
  0
VERTEX
  8
0
 62
     2
 10
120.287193
 20
245.644073
  0
VERTEX
  8
0
 62
     2
 10
120.283211
 20
245.733978
  0
VERTEX
  8
0
 62
     2
 10
120.283211
 20
245.820404
  0
VERTEX
  8
0
 62
     2
 10
120.283211
 20
245.914215
  0
VERTEX
  8
0
 62
     2
 10
120.287193
 20
246.011749
  0
SEQEND
  8
0
  0
ARC
  8
0
 62
     2
 10
128.775309
 20
246.683836
 40
8.554676
 50
184.910716
 51
192.696518
  0
LINE
  8
0
 62
     2
 10
137.051332
 20
359.843351
 11
128.183760
 21
359.843351
  0
LINE
  8
0
 62
     2
 10
128.183760
 20
316.006467
 11
137.183760
 21
316.006467
  0
LINE
  8
0
 62
     2
 10
137.183760
 20
238.011751
 11
128.183760
 21
238.011751
  0
LINE
  8
OBRYS
 10
123.824599
 20
358.509109
 11
101.183760
 21
358.509109
  0
POLYLINE
  8
0
 62
     2
 66
    1
  0
VERTEX
  8
0
 62
     2
 10
120.311806
 20
352.089691
  0
VERTEX
  8
0
 62
     2
 10
120.339775
 20
351.996368
  0
VERTEX
  8
0
 62
     2
 10
120.393730
 20
351.843353
  0
VERTEX
  8
0
 62
     2
 10
120.524727
 20
351.508942
  0
VERTEX
  8
0
 62
     2
 10
120.792732
 20
350.864502
  0
VERTEX
  8
0
 62
     2
 10
122.139183
 20
349.900635
  0
VERTEX
  8
0
 62
     2
 10
122.526909
 20
349.628387
  0
VERTEX
  8
0
 62
     2
 10
125.122292
 20
348.814850
  0
VERTEX
  8
0
 62
     2
 10
128.183762
 20
348.529175
  0
VERTEX
  8
0
 62
     2
 10
135.183762
 20
348.529175
  0
VERTEX
  8
0
 62
     2
 10
135.949127
 20
348.662781
  0
VERTEX
  8
0
 62
     2
 10
136.152191
 20
348.781891
  0
VERTEX
  8
0
 62
     2
 10
136.597961
 20
349.071106
  0
VERTEX
  8
0
 62
     2
 10
137.031509
 20
349.701111
  0
VERTEX
  8
0
 62
     2
 10
137.150635
 20
350.282623
  0
VERTEX
  8
0
 62
     2
 10
137.183762
 20
350.461090
  0
SEQEND
  8
0
  0
LINE
  8
0
 62
     2
 10
137.183760
 20
301.468479
 11
137.150644
 21
301.354710
  0
LINE
  8
0
 62
     2
 10
137.150644
 20
301.354710
 11
137.031519
 21
301.068255
  0
LINE
  8
0
 62
     2
 10
137.031519
 20
301.068255
 11
136.597973
 21
300.757900
  0
LINE
  8
0
 62
     2
 10
136.597973
 20
300.757900
 11
136.152201
 21
300.615430
  0
LINE
  8
0
 62
     2
 10
136.152201
 20
300.615430
 11
135.949127
 21
300.576231
  0
LINE
  8
0
 62
     2
 10
135.949127
 20
300.576231
 11
135.183760
 21
300.532251
  0
LINE
  8
0
 62
     2
 10
135.183760
 20
300.532251
 11
128.183760
 21
300.532251
  0
LINE
  8
0
 62
     2
 10
128.183760
 20
300.532251
 11
125.122292
 21
301.112187
  0
LINE
  8
0
 62
     2
 10
125.122292
 20
301.112187
 11
122.526905
 21
302.763704
  0
LINE
  8
0
 62
     2
 10
122.526905
 20
302.763704
 11
122.139182
 21
303.316314
  0
LINE
  8
0
 62
     2
 10
122.139182
 20
303.316314
 11
120.792723
 21
305.272972
  0
LINE
  8
0
 62
     2
 10
120.792723
 20
305.272972
 11
120.524726
 21
306.581200
  0
LINE
  8
0
 62
     2
 10
120.287191
 20
246.011751
 11
120.295989
 21
246.121823
  0
LINE
  8
0
 62
     2
 10
120.295989
 20
246.121823
 11
120.311801
 21
246.258087
  0
LINE
  8
0
 62
     2
 10
120.311801
 20
246.258087
 11
120.339779
 21
246.447517
  0
LINE
  8
0
 62
     2
 10
120.339779
 20
246.447517
 11
120.393726
 21
246.758151
  0
LINE
  8
0
 62
     2
 10
120.393726
 20
246.758151
 11
120.524726
 21
247.437017
  0
LINE
  8
0
 62
     2
 10
120.524726
 20
247.437017
 11
120.792723
 21
248.745245
  0
LINE
  8
0
 62
     2
 10
120.792723
 20
248.745245
 11
122.139182
 21
250.701904
  0
LINE
  8
0
 62
     2
 10
122.139182
 20
250.701904
 11
122.526905
 21
251.254513
  0
LINE
  8
0
 62
     2
 10
122.526905
 20
251.254513
 11
125.122292
 21
252.906031
  0
LINE
  8
0
 62
     2
 10
125.122292
 20
252.906031
 11
128.183760
 21
253.485966
  0
LINE
  8
0
 62
     2
 10
128.183760
 20
253.485966
 11
135.183760
 21
253.485966
  0
LINE
  8
0
 62
     2
 10
135.183760
 20
253.485966
 11
135.949127
 21
253.441986
  0
LINE
  8
0
 62
     2
 10
135.949127
 20
253.441986
 11
136.152201
 21
253.402787
  0
LINE
  8
0
 62
     2
 10
136.152201
 20
253.402787
 11
136.597973
 21
253.260317
  0
LINE
  8
0
 62
     2
 10
136.597973
 20
253.260317
 11
137.031519
 21
252.949963
  0
LINE
  8
0
 62
     2
 10
137.031519
 20
252.949963
 11
137.150644
 21
252.663508
  0
LINE
  8
0
 62
     2
 10
137.150644
 20
252.663508
 11
137.183760
 21
252.549738
  0
INSERT
  8
OSA
 66
     1
  2
M10x1_13
  6
CONTINUOUS
 10
610.598954
 20
361.509109
  0
ATTRIB
  8
OSA
 62
     2
  6
CONTINUOUS
 10
0.000000
 20
0.000000
 40
3.749998
  1
DIN 908
  2
norma roz.
 70
     1
  0
SEQEND
  8
OSA
  0
INSERT
  8
OSA
 66
     1
  2
Sroub_M10x16_14
  6
CONTINUOUS
 10
101.183760
 20
277.009109
  0
ATTRIB
  8
OSA
  6
CONTINUOUS
 10
0.000000
 20
0.000000
 40
2.500000
  1
DIN 912
  2
norma roz.
 70
     1
  0
ATTRIB
  8
OSA
  6
CONTINUOUS
 10
0.000000
 20
0.000000
 40
2.500000
  1
1.5
  2
roztec
 70
     1
  0
ATTRIB
  8
OSA
  6
CONTINUOUS
 10
0.000000
 20
0.000000
 40
2.500000
  1
*N
  2
puvod
 70
     1
  0
SEQEND
  8
OSA
  0
CIRCLE
  8
OSA
 62
     2
  6
CONTINUOUS
 10
101.183760
 20
277.009109
 40
9.000000
  0
LINE
  8
OBRYS
 10
146.183760
 20
367.009109
 11
139.183760
 21
367.009109
  0
LINE
  8
OBRYS
 10
1068.688691
 20
244.804825
 11
1073.688691
 21
244.804825
  0
LINE
  8
OBRYS
 10
1068.688691
 20
149.213392
 11
1073.688691
 21
149.213392
  0
LINE
  8
OBRYS
 10
1073.688691
 20
179.111250
 11
1068.688691
 21
179.111250
  0
LINE
  8
OBRYS
 10
1073.688691
 20
168.718944
 11
1068.688691
 21
168.718944
  0
LINE
  8
OBRYS
 10
1073.688691
 20
150.821087
 11
1068.688691
 21
150.821087
  0
LINE
  8
OBRYS
 10
1073.688691
 20
214.906967
 11
1068.688691
 21
214.906967
  0
LINE
  8
OBRYS
 10
1073.688691
 20
225.299273
 11
1068.688691
 21
225.299273
  0
LINE
  8
OBRYS
 10
883.688691
 20
244.804825
 11
888.688691
 21
244.804825
  0
LINE
  8
OBRYS
 10
883.688691
 20
149.213392
 11
888.688691
 21
149.213392
  0
LINE
  8
OBRYS
 10
883.688691
 20
225.299273
 11
888.688691
 21
225.299273
  0
LINE
  8
OBRYS
 10
883.688691
 20
214.906967
 11
888.688691
 21
214.906967
  0
LINE
  8
OBRYS
 10
883.688691
 20
150.821087
 11
888.688691
 21
150.821087
  0
LINE
  8
OBRYS
 10
883.688691
 20
168.718944
 11
888.688691
 21
168.718944
  0
LINE
  8
OBRYS
 10
883.688691
 20
179.111250
 11
888.688691
 21
179.111250
  0
LINE
  8
OBRYS
 10
1073.688691
 20
149.213392
 11
1073.688691
 21
244.804825
  0
LINE
  8
OBRYS
 10
883.688691
 20
149.213392
 11
883.688691
 21
244.804825
  0
LINE
  8
OSA
 10
878.688691
 20
197.009109
 11
1078.688691
 21
197.009109
  0
LINE
  8
OSA
 10
489.659929
 20
197.009109
 11
289.659929
 21
197.009109
  0
LINE
  8
OBRYS
 10
484.659929
 20
179.111250
 11
479.659929
 21
179.111250
  0
LINE
  8
OBRYS
 10
484.659929
 20
168.718944
 11
479.659929
 21
168.718944
  0
LINE
  8
OBRYS
 10
484.659929
 20
150.821087
 11
479.659929
 21
150.821087
  0
LINE
  8
OBRYS
 10
484.659929
 20
214.906967
 11
479.659929
 21
214.906967
  0
LINE
  8
OBRYS
 10
484.659929
 20
225.299273
 11
479.659929
 21
225.299273
  0
LINE
  8
OBRYS
 10
484.659929
 20
149.213392
 11
479.659929
 21
149.213392
  0
LINE
  8
OBRYS
 10
484.659929
 20
244.804825
 11
479.659929
 21
244.804825
  0
LINE
  8
OBRYS
 10
294.659929
 20
225.299273
 11
299.659929
 21
225.299273
  0
LINE
  8
OBRYS
 10
294.659929
 20
214.906967
 11
299.659929
 21
214.906967
  0
LINE
  8
OBRYS
 10
294.659929
 20
150.821087
 11
299.659929
 21
150.821087
  0
LINE
  8
OBRYS
 10
294.659929
 20
168.718944
 11
299.659929
 21
168.718944
  0
LINE
  8
OBRYS
 10
294.659929
 20
179.111250
 11
299.659929
 21
179.111250
  0
LINE
  8
OBRYS
 10
299.659929
 20
149.213392
 11
294.659929
 21
149.213392
  0
LINE
  8
OBRYS
 10
299.659929
 20
244.804825
 11
294.659929
 21
244.804825
  0
LINE
  8
OBRYS
 10
484.659929
 20
149.213392
 11
484.659929
 21
244.804825
  0
LINE
  8
OBRYS
 10
294.659929
 20
149.213392
 11
294.659929
 21
244.804825
  0
LINE
  8
OBRYS
 10
479.659929
 20
-37.888207
 11
479.659929
 21
-30.888207
  0
LINE
  8
OBRYS
 10
299.659929
 20
-37.888207
 11
299.659929
 21
-30.888207
  0
LINE
  8
OBRYS
 10
299.659929
 20
531.093386
 11
299.659929
 21
533.093386
  0
LINE
  8
OBRYS
 10
479.659929
 20
531.093386
 11
479.659929
 21
533.093386
  0
INSERT
  8
OBRYS
  2
_15
 62
     7
 10
389.659929
 20
277.009109
  0
INSERT
  8
OBRYS
  2
_16
 62
     7
 10
978.688691
 20
277.009109
  0
LINE
  8
OBRYS
 10
294.659929
 20
-118.888207
 11
293.555230
 21
-118.926784
  0
LINE
  8
OBRYS
 10
294.659929
 20
-32.888207
 11
293.555230
 21
-32.849630
  0
LINE
  8
0
 62
     2
 10
477.159929
 20
-69.888207
 11
484.659929
 21
-69.888207
  0
LINE
  8
0
 62
     2
 10
477.159929
 20
-81.888207
 11
484.659929
 21
-81.888207
  0
LINE
  8
0
 62
     2
 10
294.659929
 20
-115.703888
 11
294.659929
 21
-108.818661
  0
LINE
  8
0
 62
     2
 10
294.659929
 20
-79.338207
 11
294.659929
 21
-72.438207
  0
LINE
  8
0
 62
     2
 10
294.659929
 20
-115.703888
 11
294.659929
 21
-108.818661
  0
LINE
  8
0
 62
     2
 10
294.659929
 20
-36.072527
 11
294.659929
 21
-42.957754
  0
LINE
  8
0
 62
     2
 10
294.659929
 20
-36.072527
 11
294.659929
 21
-42.957754
  0
LINE
  8
0
 62
     2
 10
294.659929
 20
-72.438207
 11
294.659929
 21
-79.338207
  0
LINE
  8
0
 62
     2
 10
294.659929
 20
-111.888207
 11
294.659929
 21
-39.888207
  0
LINE
  8
0
 62
     2
 10
484.659929
 20
-111.888207
 11
484.659929
 21
-39.888207
  0
LINE
  8
0
 62
     2
 10
484.659929
 20
-112.888207
 11
484.659929
 21
-118.888207
  0
LINE
  8
0
 62
     2
 10
294.659929
 20
-118.888207
 11
294.659929
 21
-112.888207
  0
LINE
  8
0
 62
     2
 10
484.659929
 20
-69.888207
 11
484.659929
 21
-81.888207
  0
LINE
  8
0
 62
     2
 10
294.659929
 20
-81.888207
 11
294.659929
 21
-69.888207
  0
LINE
  8
0
 62
     2
 10
484.659929
 20
-32.888207
 11
484.659929
 21
-38.888207
  0
LINE
  8
0
 62
     2
 10
294.659929
 20
-38.888207
 11
294.659929
 21
-32.888207
  0
LINE
  8
0
 62
     2
 10
484.659929
 20
-118.888207
 11
479.659929
 21
-118.888207
  0
LINE
  8
0
 62
     2
 10
299.659929
 20
-118.888207
 11
294.659929
 21
-118.888207
  0
LINE
  8
0
 62
     2
 10
479.350911
 20
-112.888207
 11
484.659929
 21
-112.888207
  0
LINE
  8
0
 62
     2
 10
294.659929
 20
-112.888207
 11
299.968947
 21
-112.888207
  0
LINE
  8
0
 62
     2
 10
484.659929
 20
-81.888207
 11
484.659929
 21
-112.888207
  0
LINE
  8
0
 62
     2
 10
294.659929
 20
-81.888207
 11
308.159929
 21
-81.888207
  0
LINE
  8
0
 62
     2
 10
294.659929
 20
-112.888207
 11
294.659929
 21
-81.888207
  0
LINE
  8
0
 62
     2
 10
294.659929
 20
-69.888207
 11
308.159929
 21
-69.888207
  0
LINE
  8
0
 62
     2
 10
484.659929
 20
-38.888207
 11
484.659929
 21
-69.888207
  0
LINE
  8
0
 62
     2
 10
479.350911
 20
-38.888207
 11
484.659929
 21
-38.888207
  0
LINE
  8
0
 62
     2
 10
294.659929
 20
-38.888207
 11
299.968947
 21
-38.888207
  0
LINE
  8
0
 62
     2
 10
294.659929
 20
-69.888207
 11
294.659929
 21
-38.888207
  0
LINE
  8
0
 62
     2
 10
479.659929
 20
-32.888207
 11
484.659929
 21
-32.888207
  0
LINE
  8
0
 62
     2
 10
294.659929
 20
-32.888207
 11
299.659929
 21
-32.888207
  0
LINE
  8
OBRYS
 10
294.659929
 20
576.093386
 11
294.659929
 21
619.093386
  0
LINE
  8
OBRYS
 10
294.659929
 20
576.093386
 11
294.659929
 21
533.093386
  0
LINE
  8
0
 62
     2
 10
294.659929
 20
609.023840
 11
294.659929
 21
615.909067
  0
LINE
  8
0
 62
     2
 10
294.659929
 20
572.643386
 11
294.659929
 21
579.543386
  0
LINE
  8
0
 62
     2
 10
294.659929
 20
609.023840
 11
294.659929
 21
615.909067
  0
LINE
  8
0
 62
     2
 10
294.659929
 20
543.162933
 11
294.659929
 21
536.277706
  0
LINE
  8
0
 62
     2
 10
294.659929
 20
543.162933
 11
294.659929
 21
536.277706
  0
LINE
  8
0
 62
     2
 10
294.659929
 20
579.543386
 11
294.659929
 21
572.643386
  0
LINE
  8
0
 62
     2
 10
294.659929
 20
540.093386
 11
294.659929
 21
612.093386
  0
LINE
  8
0
 62
     2
 10
484.659929
 20
540.093386
 11
484.659929
 21
612.093386
  0
LINE
  8
0
 62
     2
 10
450.459929
 20
613.093386
 11
458.859929
 21
613.093386
  0
LINE
  8
0
 62
     2
 10
320.459929
 20
613.093386
 11
328.859929
 21
613.093386
  0
POLYLINE
  8
0
 62
     2
 66
    1
  0
VERTEX
  8
0
 62
     2
 10
334.659943
 20
533.093384
  0
VERTEX
  8
0
 62
     2
 10
333.817505
 20
533.093384
  0
VERTEX
  8
0
 62
     2
 10
331.117065
 20
533.093384
  0
VERTEX
  8
0
 62
     2
 10
331.076019
 20
533.093384
  0
VERTEX
  8
0
 62
     2
 10
330.126587
 20
533.355591
  0
VERTEX
  8
0
 62
     2
 10
329.683441
 20
534.130859
  0
VERTEX
  8
0
 62
     2
 10
329.765930
 20
535.385193
  0
VERTEX
  8
0
 62
     2
 10
330.221252
 20
536.649536
  0
VERTEX
  8
0
 62
     2
 10
330.249725
 20
537.063843
  0
VERTEX
  8
0
 62
     2
 10
330.886230
 20
539.093384
  0
VERTEX
  8
0
 62
     2
 10
333.143066
 20
544.615173
  0
VERTEX
  8
0
 62
     2
 10
334.567657
 20
552.152588
  0
VERTEX
  8
0
 62
     2
 10
334.288879
 20
559.496033
  0
VERTEX
  8
0
 62
     2
 10
332.250031
 20
567.234375
  0
VERTEX
  8
0
 62
     2
 10
330.880951
 20
570.093384
  0
VERTEX
  8
0
 62
     2
 10
330.086304
 20
572.385193
  0
VERTEX
  8
0
 62
     2
 10
329.806396
 20
574.839050
  0
VERTEX
  8
0
 62
     2
 10
329.929962
 20
576.093384
  0
VERTEX
  8
0
 62
     2
 10
329.806396
 20
577.347717
  0
VERTEX
  8
0
 62
     2
 10
330.086304
 20
579.801575
  0
VERTEX
  8
0
 62
     2
 10
330.880951
 20
582.093384
  0
VERTEX
  8
0
 62
     2
 10
332.250031
 20
584.952393
  0
VERTEX
  8
0
 62
     2
 10
334.288879
 20
592.690796
  0
VERTEX
  8
0
 62
     2
 10
334.567657
 20
600.034180
  0
VERTEX
  8
0
 62
     2
 10
333.143066
 20
607.571594
  0
VERTEX
  8
0
 62
     2
 10
330.886230
 20
613.093384
  0
VERTEX
  8
0
 62
     2
 10
330.249725
 20
615.122925
  0
VERTEX
  8
0
 62
     2
 10
330.221252
 20
615.537231
  0
VERTEX
  8
0
 62
     2
 10
329.765930
 20
616.801575
  0
VERTEX
  8
0
 62
     2
 10
329.683441
 20
618.055908
  0
VERTEX
  8
0
 62
     2
 10
330.126587
 20
618.831177
  0
VERTEX
  8
0
 62
     2
 10
331.076019
 20
619.093384
  0
VERTEX
  8
0
 62
     2
 10
331.117065
 20
619.093384
  0
VERTEX
  8
0
 62
     2
 10
333.817505
 20
619.093384
  0
VERTEX
  8
0
 62
     2
 10
334.659943
 20
619.093384
  0
SEQEND
  8
0
  0
LINE
  8
0
 62
     2
 10
444.659929
 20
619.093386
 11
444.659929
 21
533.093386
  0
POLYLINE
  8
0
 62
     2
 66
    1
  0
VERTEX
  8
0
 62
     2
 10
444.659943
 20
533.093384
  0
VERTEX
  8
0
 62
     2
 10
445.502350
 20
533.093384
  0
VERTEX
  8
0
 62
     2
 10
448.202789
 20
533.093384
  0
VERTEX
  8
0
 62
     2
 10
448.243835
 20
533.093384
  0
VERTEX
  8
0
 62
     2
 10
449.193268
 20
533.355591
  0
VERTEX
  8
0
 62
     2
 10
449.636414
 20
534.130859
  0
VERTEX
  8
0
 62
     2
 10
449.553925
 20
535.385193
  0
VERTEX
  8
0
 62
     2
 10
449.098602
 20
536.649536
  0
VERTEX
  8
0
 62
     2
 10
449.070129
 20
537.063843
  0
VERTEX
  8
0
 62
     2
 10
448.433624
 20
539.093384
  0
VERTEX
  8
0
 62
     2
 10
446.176819
 20
544.615173
  0
VERTEX
  8
0
 62
     2
 10
444.752197
 20
552.152588
  0
VERTEX
  8
0
 62
     2
 10
445.030975
 20
559.496033
  0
VERTEX
  8
0
 62
     2
 10
447.069824
 20
567.234375
  0
VERTEX
  8
0
 62
     2
 10
448.438904
 20
570.093384
  0
VERTEX
  8
0
 62
     2
 10
449.233551
 20
572.385193
  0
VERTEX
  8
0
 62
     2
 10
449.513458
 20
574.839050
  0
VERTEX
  8
0
 62
     2
 10
449.389923
 20
576.093384
  0
VERTEX
  8
0
 62
     2
 10
449.513458
 20
577.347717
  0
VERTEX
  8
0
 62
     2
 10
449.233551
 20
579.801575
  0
VERTEX
  8
0
 62
     2
 10
448.438904
 20
582.093384
  0
VERTEX
  8
0
 62
     2
 10
447.069824
 20
584.952393
  0
VERTEX
  8
0
 62
     2
 10
445.030975
 20
592.690796
  0
VERTEX
  8
0
 62
     2
 10
444.752197
 20
600.034180
  0
VERTEX
  8
0
 62
     2
 10
446.176819
 20
607.571594
  0
VERTEX
  8
0
 62
     2
 10
448.433624
 20
613.093384
  0
VERTEX
  8
0
 62
     2
 10
449.070129
 20
615.122925
  0
VERTEX
  8
0
 62
     2
 10
449.098602
 20
615.537231
  0
VERTEX
  8
0
 62
     2
 10
449.553925
 20
616.801575
  0
VERTEX
  8
0
 62
     2
 10
449.636414
 20
618.055908
  0
VERTEX
  8
0
 62
     2
 10
449.193268
 20
618.831177
  0
VERTEX
  8
0
 62
     2
 10
448.243835
 20
619.093384
  0
VERTEX
  8
0
 62
     2
 10
448.202789
 20
619.093384
  0
VERTEX
  8
0
 62
     2
 10
445.502350
 20
619.093384
  0
VERTEX
  8
0
 62
     2
 10
444.659943
 20
619.093384
  0
SEQEND
  8
0
  0
POLYLINE
  8
0
 62
     2
 66
    1
  0
VERTEX
  8
0
 62
     2
 10
429.993103
 20
533.093384
  0
VERTEX
  8
0
 62
     2
 10
424.101440
 20
533.403564
  0
VERTEX
  8
0
 62
     2
 10
407.218048
 20
533.907959
  0
VERTEX
  8
0
 62
     2
 10
406.017853
 20
533.919617
  0
VERTEX
  8
0
 62
     2
 10
389.659943
 20
534.408325
  0
VERTEX
  8
0
 62
     2
 10
373.302002
 20
533.919617
  0
VERTEX
  8
0
 62
     2
 10
372.101807
 20
533.907959
  0
VERTEX
  8
0
 62
     2
 10
355.218414
 20
533.403564
  0
VERTEX
  8
0
 62
     2
 10
349.326752
 20
533.093384
  0
SEQEND
  8
0
  0
POLYLINE
  8
0
 62
     2
 66
    1
  0
VERTEX
  8
0
 62
     2
 10
349.326752
 20
619.093384
  0
VERTEX
  8
0
 62
     2
 10
355.218414
 20
618.783203
  0
VERTEX
  8
0
 62
     2
 10
372.101807
 20
618.278809
  0
VERTEX
  8
0
 62
     2
 10
373.302002
 20
618.267151
  0
VERTEX
  8
0
 62
     2
 10
389.659943
 20
617.778442
  0
VERTEX
  8
0
 62
     2
 10
406.017853
 20
618.267151
  0
VERTEX
  8
0
 62
     2
 10
407.218048
 20
618.278809
  0
VERTEX
  8
0
 62
     2
 10
424.101440
 20
618.783203
  0
VERTEX
  8
0
 62
     2
 10
429.993103
 20
619.093384
  0
SEQEND
  8
0
  0
LINE
  8
0
 62
     2
 10
334.659929
 20
619.093386
 11
334.659929
 21
533.093386
  0
LINE
  8
0
 62
     2
 10
484.659929
 20
582.093386
 11
484.659929
 21
570.093386
  0
LINE
  8
0
 62
     2
 10
294.659929
 20
582.093386
 11
294.659929
 21
570.093386
  0
LINE
  8
0
 62
     2
 10
484.659929
 20
619.093386
 11
484.659929
 21
613.093386
  0
LINE
  8
0
 62
     2
 10
294.659929
 20
619.093386
 11
294.659929
 21
613.093386
  0
LINE
  8
0
 62
     2
 10
484.659929
 20
539.093386
 11
484.659929
 21
533.093386
  0
LINE
  8
0
 62
     2
 10
294.659929
 20
539.093386
 11
294.659929
 21
533.093386
  0
LINE
  8
0
 62
     2
 10
446.042368
 20
619.093386
 11
454.561307
 21
619.093386
  0
LINE
  8
0
 62
     2
 10
324.758551
 20
619.093386
 11
333.277490
 21
619.093386
  0
LINE
  8
0
 62
     2
 10
454.561307
 20
533.093386
 11
446.042368
 21
533.093386
  0
LINE
  8
0
 62
     2
 10
333.277490
 20
533.093386
 11
324.758551
 21
533.093386
  0
LINE
  8
0
 62
     2
 10
325.412221
 20
539.093386
 11
320.459929
 21
539.093386
  0
LINE
  8
0
 62
     2
 10
458.859929
 20
539.093386
 11
453.907637
 21
539.093386
  0
LINE
  8
0
 62
     2
 10
318.825687
 20
539.093386
 11
330.886224
 21
539.093386
  0
LINE
  8
0
 62
     2
 10
448.433633
 20
539.093386
 11
460.494171
 21
539.093386
  0
LINE
  8
0
 62
     2
 10
444.659929
 20
612.093386
 11
444.659929
 21
609.093386
  0
LINE
  8
0
 62
     2
 10
334.659929
 20
612.093386
 11
334.659929
 21
609.093386
  0
LINE
  8
0
 62
     2
 10
349.326760
 20
533.093386
 11
334.659929
 21
533.093386
  0
LINE
  8
0
 62
     2
 10
444.659929
 20
533.093386
 11
429.993098
 21
533.093386
  0
LINE
  8
0
 62
     2
 10
429.993098
 20
619.093386
 11
444.659929
 21
619.093386
  0
LINE
  8
0
 62
     2
 10
334.659929
 20
619.093386
 11
349.326760
 21
619.093386
  0
LINE
  8
0
 62
     2
 10
484.659929
 20
570.093386
 11
484.659929
 21
539.093386
  0
LINE
  8
0
 62
     2
 10
448.438899
 20
570.093386
 11
484.659929
 21
570.093386
  0
LINE
  8
0
 62
     2
 10
294.659929
 20
570.093386
 11
294.659929
 21
539.093386
  0
LINE
  8
0
 62
     2
 10
330.880959
 20
570.093386
 11
294.659929
 21
570.093386
  0
LINE
  8
0
 62
     2
 10
448.438899
 20
582.093386
 11
484.659929
 21
582.093386
  0
LINE
  8
0
 62
     2
 10
330.880959
 20
582.093386
 11
294.659929
 21
582.093386
  0
LINE
  8
0
 62
     2
 10
484.659929
 20
613.093386
 11
484.659929
 21
582.093386
  0
LINE
  8
0
 62
     2
 10
448.433633
 20
613.093386
 11
484.659929
 21
613.093386
  0
LINE
  8
0
 62
     2
 10
294.659929
 20
613.093386
 11
294.659929
 21
582.093386
  0
LINE
  8
0
 62
     2
 10
330.886224
 20
613.093386
 11
294.659929
 21
613.093386
  0
LINE
  8
0
 62
     2
 10
448.243850
 20
619.093386
 11
484.659929
 21
619.093386
  0
LINE
  8
0
 62
     2
 10
331.076008
 20
619.093386
 11
294.659929
 21
619.093386
  0
LINE
  8
0
 62
     2
 10
484.659929
 20
533.093386
 11
448.243850
 21
533.093386
  0
LINE
  8
0
 62
     2
 10
294.659929
 20
533.093386
 11
331.076008
 21
533.093386
  0
LINE
  8
0
 62
     2
 10
448.433633
 20
539.093386
 11
484.659929
 21
539.093386
  0
LINE
  8
0
 62
     2
 10
330.886224
 20
539.093386
 11
294.659929
 21
539.093386
  0
LINE
  8
0
 62
     2
 10
444.659929
 20
543.093386
 11
444.659929
 21
540.093386
  0
LINE
  8
0
 62
     2
 10
334.659929
 20
540.093386
 11
334.659929
 21
543.093386
  0
LINE
  8
OBRYS
 62
     7
  6
DASHDOT
 10
389.659929
 20
506.093386
 11
389.659929
 21
646.093386
  0
LINE
  8
OBRYS
 62
     7
  6
DASHDOT
 10
490.786226
 20
576.093386
 11
297.659929
 21
576.093386
  0
LINE
  8
OBRYS
 10
299.659929
 20
531.093386
 11
479.659929
 21
531.093386
  0
INSERT
  8
OSA
 66
     1
  2
M10x1_17
  6
CONTINUOUS
 10
474.159929
 20
1074.900472
  0
ATTRIB
  8
OSA
 62
     2
  6
CONTINUOUS
 10
0.000000
 20
0.000000
 40
3.749998
  1
DIN 908
  2
norma roz.
 70
     1
  0
SEQEND
  8
OSA
  0
LINE
  8
OBRYS
 10
474.159929
 20
-66.888140
 11
474.159929
 21
-84.888275
  0
LINE
  8
OBRYS
 10
474.159929
 20
-84.888275
 11
473.160065
 21
-84.888206
  0
ARC
  8
OBRYS
 10
473.159929
 20
-86.888206
 40
2.000000
 50
89.996087
 51
180.000000
  0
LINE
  8
OBRYS
 10
474.159929
 20
-66.888140
 11
473.160065
 21
-66.888208
  0
ARC
  8
OBRYS
 10
473.159929
 20
-64.888208
 40
2.000000
 50
180.000000
 51
270.003913
  0
LINE
  8
OBRYS
 10
299.659929
 20
-30.888207
 11
479.659929
 21
-30.888207
  0
LINE
  8
OBRYS
 10
477.659929
 20
-111.888207
 11
301.659929
 21
-111.888207
  0
LINE
  8
OBRYS
 10
477.659929
 20
-39.888207
 11
301.659929
 21
-39.888207
  0
LINE
  8
0
 62
     2
 10
417.923792
 20
-56.279244
 11
419.232021
 21
-56.547241
  0
LINE
  8
0
 62
     2
 10
415.967134
 20
-54.932785
 11
417.923792
 21
-56.279244
  0
LINE
  8
0
 62
     2
 10
415.414525
 20
-54.545062
 11
415.967134
 21
-54.932785
  0
LINE
  8
0
 62
     2
 10
413.763007
 20
-51.949675
 11
415.414525
 21
-54.545062
  0
LINE
  8
0
 62
     2
 10
413.183071
 20
-48.888207
 11
413.763007
 21
-51.949675
  0
LINE
  8
0
 62
     2
 10
413.183071
 20
-41.888207
 11
413.183071
 21
-48.888207
  0
LINE
  8
0
 62
     2
 10
413.227051
 20
-41.122841
 11
413.183071
 21
-41.888207
  0
LINE
  8
0
 62
     2
 10
413.266251
 20
-40.919766
 11
413.227051
 21
-41.122841
  0
LINE
  8
0
 62
     2
 10
413.408720
 20
-40.473994
 11
413.266251
 21
-40.919766
  0
LINE
  8
0
 62
     2
 10
413.719075
 20
-40.040448
 11
413.408720
 21
-40.473994
  0
LINE
  8
0
 62
     2
 10
414.005530
 20
-39.921324
 11
413.719075
 21
-40.040448
  0
LINE
  8
0
 62
     2
 10
414.119299
 20
-39.888207
 11
414.005530
 21
-39.921324
  0
POLYLINE
  8
0
 62
     2
 66
    1
  0
VERTEX
  8
0
 62
     2
 10
464.740509
 20
-56.760143
  0
VERTEX
  8
0
 62
     2
 10
464.647186
 20
-56.732189
  0
VERTEX
  8
0
 62
     2
 10
464.494171
 20
-56.678234
  0
VERTEX
  8
0
 62
     2
 10
464.159760
 20
-56.547253
  0
VERTEX
  8
0
 62
     2
 10
463.515320
 20
-56.279247
  0
VERTEX
  8
0
 62
     2
 10
462.551453
 20
-54.932812
  0
VERTEX
  8
0
 62
     2
 10
462.279236
 20
-54.545055
  0
VERTEX
  8
0
 62
     2
 10
461.465668
 20
-51.949657
  0
VERTEX
  8
0
 62
     2
 10
461.179993
 20
-48.888195
  0
VERTEX
  8
0
 62
     2
 10
461.179993
 20
-41.888195
  0
VERTEX
  8
0
 62
     2
 10
461.313599
 20
-41.122814
  0
VERTEX
  8
0
 62
     2
 10
461.432709
 20
-40.919750
  0
VERTEX
  8
0
 62
     2
 10
461.721924
 20
-40.474010
  0
VERTEX
  8
0
 62
     2
 10
462.351929
 20
-40.040478
  0
VERTEX
  8
0
 62
     2
 10
462.933441
 20
-39.921337
  0
VERTEX
  8
0
 62
     2
 10
463.111908
 20
-39.888195
  0
SEQEND
  8
0
  0
LINE
  8
OBRYS
 10
471.159929
 20
-53.247368
 11
471.159929
 21
-75.888207
  0
LINE
  8
0
 62
     2
 10
428.657287
 20
-48.888207
 11
428.657287
 21
-39.888207
  0
LINE
  8
0
 62
     2
 10
472.494171
 20
-40.020635
 11
472.494171
 21
-48.888207
  0
POLYLINE
  8
0
 62
     2
 66
    1
  0
VERTEX
  8
0
 62
     2
 10
419.232025
 20
-56.547253
  0
VERTEX
  8
0
 62
     2
 10
419.910889
 20
-56.678234
  0
VERTEX
  8
0
 62
     2
 10
420.221527
 20
-56.732189
  0
VERTEX
  8
0
 62
     2
 10
420.410950
 20
-56.760143
  0
VERTEX
  8
0
 62
     2
 10
420.547211
 20
-56.775951
  0
SEQEND
  8
0
  0
ARC
  8
0
 62
     2
 10
420.814548
 20
-54.124353
 40
2.668241
 50
264.805118
 51
277.765379
  0
POLYLINE
  8
0
 62
     2
 66
    1
  0
VERTEX
  8
0
 62
     2
 10
421.251984
 20
-56.760143
  0
VERTEX
  8
0
 62
     2
 10
421.426575
 20
-56.732189
  0
VERTEX
  8
0
 62
     2
 10
421.712860
 20
-56.678234
  0
SEQEND
  8
0
  0
LINE
  8
0
 62
     2
 10
428.657287
 20
-48.888207
 11
413.183071
 21
-48.888207
  0
POLYLINE
  8
0
 62
     2
 66
    1
  0
VERTEX
  8
0
 62
     2
 10
423.718750
 20
-56.279247
  0
VERTEX
  8
0
 62
     2
 10
426.314148
 20
-54.545055
  0
VERTEX
  8
0
 62
     2
 10
428.048340
 20
-51.949657
  0
VERTEX
  8
0
 62
     2
 10
428.657288
 20
-48.888195
  0
SEQEND
  8
0
  0
LINE
  8
0
 62
     2
 10
421.712857
 20
-56.678241
 11
423.718754
 21
-56.279244
  0
POLYLINE
  8
0
 62
     2
 66
    1
  0
VERTEX
  8
0
 62
     2
 10
465.014160
 20
-56.784801
  0
VERTEX
  8
0
 62
     2
 10
464.984558
 20
-56.788769
  0
VERTEX
  8
0
 62
     2
 10
464.956116
 20
-56.788769
  0
SEQEND
  8
0
  0
ARC
  8
0
 62
     2
 10
464.933008
 20
-56.217027
 40
0.574217
 50
253.397780
 51
271.497555
  0
LINE
  8
0
 62
     2
 10
472.494171
 20
-48.888207
 11
461.179994
 21
-48.888207
  0
POLYLINE
  8
0
 62
     2
 66
    1
  0
VERTEX
  8
0
 62
     2
 10
467.555634
 20
-56.279247
  0
VERTEX
  8
0
 62
     2
 10
470.151031
 20
-54.545055
  0
VERTEX
  8
0
 62
     2
 10
471.885193
 20
-51.949657
  0
VERTEX
  8
0
 62
     2
 10
472.494171
 20
-48.888195
  0
SEQEND
  8
0
  0
LINE
  8
0
 62
     2
 10
467.555638
 20
-56.279244
 11
465.014154
 21
-56.784776
  0
POLYLINE
  8
0
 62
     2
 66
    1
  0
VERTEX
  8
0
 62
     2
 10
471.159943
 20
-53.035107
  0
VERTEX
  8
0
 62
     2
 10
471.885193
 20
-51.949657
  0
VERTEX
  8
0
 62
     2
 10
472.494171
 20
-48.888195
  0
SEQEND
  8
0
  0
LINE
  8
0
 62
     2
 10
421.708179
 20
-48.888207
 11
414.330528
 21
-48.888207
  0
LINE
  8
OBRYS
 10
471.159929
 20
-75.888207
 11
471.159929
 21
-109.888207
  0
LINE
  8
OBRYS
 10
479.659929
 20
-125.888207
 11
479.659929
 21
-113.888207
  0
ARC
  8
OBRYS
 10
473.159929
 20
-109.888207
 40
2.000000
 50
180.000000
 51
270.000000
  0
ARC
  8
OBRYS
 10
477.659929
 20
-113.888207
 40
2.000000
 50
0.000000
 51
90.000000
  0
ARC
  8
OBRYS
 10
477.659929
 20
-37.888207
 40
2.000000
 50
270.000000
 51
360.000000
  0
LINE
  8
OBRYS
 62
     7
  6
DASHDOT
 10
491.270788
 20
-75.888207
 11
297.659929
 21
-75.888207
  0
LINE
  8
OBRYS
 62
     7
  6
DASHDOT
 10
389.659929
 20
-5.888207
 11
389.659929
 21
-145.888207
  0
ARC
  8
OBRYS
 10
301.659929
 20
-37.888207
 40
2.000000
 50
180.000000
 51
270.000000
  0
ARC
  8
OBRYS
 10
301.659929
 20
-113.888207
 40
2.000000
 50
90.000000
 51
180.000000
  0
ARC
  8
OBRYS
 10
306.159929
 20
-109.888207
 40
2.000000
 50
270.000000
 51
360.000000
  0
LINE
  8
OBRYS
 10
299.659929
 20
-125.888207
 11
299.659929
 21
-113.888207
  0
LINE
  8
OBRYS
 10
308.159929
 20
-75.888207
 11
308.159929
 21
-109.888207
  0
LINE
  8
0
 62
     2
 10
357.611679
 20
-48.888207
 11
364.989330
 21
-48.888207
  0
POLYLINE
  8
0
 62
     2
 66
    1
  0
VERTEX
  8
0
 62
     2
 10
308.159943
 20
-53.035107
  0
VERTEX
  8
0
 62
     2
 10
307.434662
 20
-51.949657
  0
VERTEX
  8
0
 62
     2
 10
306.825684
 20
-48.888195
  0
SEQEND
  8
0
  0
LINE
  8
0
 62
     2
 10
311.764219
 20
-56.279244
 11
314.305704
 21
-56.784776
  0
POLYLINE
  8
0
 62
     2
 66
    1
  0
VERTEX
  8
0
 62
     2
 10
311.764221
 20
-56.279247
  0
VERTEX
  8
0
 62
     2
 10
309.168823
 20
-54.545055
  0
VERTEX
  8
0
 62
     2
 10
307.434662
 20
-51.949657
  0
VERTEX
  8
0
 62
     2
 10
306.825684
 20
-48.888195
  0
SEQEND
  8
0
  0
LINE
  8
0
 62
     2
 10
306.825687
 20
-48.888207
 11
318.139864
 21
-48.888207
  0
ARC
  8
0
 62
     2
 10
314.386849
 20
-56.217027
 40
0.574217
 50
268.502445
 51
286.602220
  0
POLYLINE
  8
0
 62
     2
 66
    1
  0
VERTEX
  8
0
 62
     2
 10
314.305695
 20
-56.784801
  0
VERTEX
  8
0
 62
     2
 10
314.335297
 20
-56.788769
  0
VERTEX
  8
0
 62
     2
 10
314.363739
 20
-56.788769
  0
SEQEND
  8
0
  0
LINE
  8
0
 62
     2
 10
357.607001
 20
-56.678241
 11
355.601103
 21
-56.279244
  0
POLYLINE
  8
0
 62
     2
 66
    1
  0
VERTEX
  8
0
 62
     2
 10
355.601105
 20
-56.279247
  0
VERTEX
  8
0
 62
     2
 10
353.005707
 20
-54.545055
  0
VERTEX
  8
0
 62
     2
 10
351.271545
 20
-51.949657
  0
VERTEX
  8
0
 62
     2
 10
350.662567
 20
-48.888195
  0
SEQEND
  8
0
  0
LINE
  8
0
 62
     2
 10
350.662571
 20
-48.888207
 11
366.136787
 21
-48.888207
  0
POLYLINE
  8
0
 62
     2
 66
    1
  0
VERTEX
  8
0
 62
     2
 10
358.067871
 20
-56.760143
  0
VERTEX
  8
0
 62
     2
 10
357.893280
 20
-56.732189
  0
VERTEX
  8
0
 62
     2
 10
357.606995
 20
-56.678234
  0
SEQEND
  8
0
  0
ARC
  8
0
 62
     2
 10
358.505310
 20
-54.124353
 40
2.668241
 50
262.234621
 51
275.194882
  0
POLYLINE
  8
0
 62
     2
 66
    1
  0
VERTEX
  8
0
 62
     2
 10
360.087830
 20
-56.547253
  0
VERTEX
  8
0
 62
     2
 10
359.408966
 20
-56.678234
  0
VERTEX
  8
0
 62
     2
 10
359.098328
 20
-56.732189
  0
VERTEX
  8
0
 62
     2
 10
358.908905
 20
-56.760143
  0
VERTEX
  8
0
 62
     2
 10
358.772644
 20
-56.775951
  0
SEQEND
  8
0
  0
LINE
  8
0
 62
     2
 10
306.825687
 20
-40.020635
 11
306.825687
 21
-48.888207
  0
LINE
  8
0
 62
     2
 10
350.662571
 20
-48.888207
 11
350.662571
 21
-39.888207
  0
LINE
  8
OBRYS
 10
308.159929
 20
-53.247368
 11
308.159929
 21
-75.888207
  0
POLYLINE
  8
0
 62
     2
 66
    1
  0
VERTEX
  8
0
 62
     2
 10
314.579346
 20
-56.760143
  0
VERTEX
  8
0
 62
     2
 10
314.672668
 20
-56.732189
  0
VERTEX
  8
0
 62
     2
 10
314.825684
 20
-56.678234
  0
VERTEX
  8
0
 62
     2
 10
315.160095
 20
-56.547253
  0
VERTEX
  8
0
 62
     2
 10
315.804535
 20
-56.279247
  0
VERTEX
  8
0
 62
     2
 10
316.768402
 20
-54.932812
  0
VERTEX
  8
0
 62
     2
 10
317.040619
 20
-54.545055
  0
VERTEX
  8
0
 62
     2
 10
317.854187
 20
-51.949657
  0
VERTEX
  8
0
 62
     2
 10
318.139862
 20
-48.888195
  0
VERTEX
  8
0
 62
     2
 10
318.139862
 20
-41.888195
  0
VERTEX
  8
0
 62
     2
 10
318.006256
 20
-41.122814
  0
VERTEX
  8
0
 62
     2
 10
317.887146
 20
-40.919750
  0
VERTEX
  8
0
 62
     2
 10
317.597931
 20
-40.474010
  0
VERTEX
  8
0
 62
     2
 10
316.967926
 20
-40.040478
  0
VERTEX
  8
0
 62
     2
 10
316.386414
 20
-39.921337
  0
VERTEX
  8
0
 62
     2
 10
316.207947
 20
-39.888195
  0
SEQEND
  8
0
  0
LINE
  8
0
 62
     2
 10
365.200559
 20
-39.888207
 11
365.314328
 21
-39.921324
  0
LINE
  8
0
 62
     2
 10
365.314328
 20
-39.921324
 11
365.600783
 21
-40.040448
  0
LINE
  8
0
 62
     2
 10
365.600783
 20
-40.040448
 11
365.911138
 21
-40.473994
  0
LINE
  8
0
 62
     2
 10
365.911138
 20
-40.473994
 11
366.053607
 21
-40.919766
  0
LINE
  8
0
 62
     2
 10
366.053607
 20
-40.919766
 11
366.092806
 21
-41.122841
  0
LINE
  8
0
 62
     2
 10
366.092806
 20
-41.122841
 11
366.136787
 21
-41.888207
  0
LINE
  8
0
 62
     2
 10
366.136787
 20
-41.888207
 11
366.136787
 21
-48.888207
  0
LINE
  8
0
 62
     2
 10
366.136787
 20
-48.888207
 11
365.556851
 21
-51.949675
  0
LINE
  8
0
 62
     2
 10
365.556851
 20
-51.949675
 11
363.905333
 21
-54.545062
  0
LINE
  8
0
 62
     2
 10
363.905333
 20
-54.545062
 11
363.352724
 21
-54.932785
  0
LINE
  8
0
 62
     2
 10
363.352724
 20
-54.932785
 11
361.396065
 21
-56.279244
  0
LINE
  8
0
 62
     2
 10
361.396065
 20
-56.279244
 11
360.087837
 21
-56.547241
  0
INSERT
  8
OSA
 66
     1
  2
Sroub_M10x16_18
  6
CONTINUOUS
 10
389.659929
 20
-75.888207
  0
ATTRIB
  8
OSA
  6
CONTINUOUS
 10
0.000000
 20
0.000000
 40
2.500000
  1
DIN 912
  2
norma roz.
 70
     1
  0
ATTRIB
  8
OSA
  6
CONTINUOUS
 10
0.000000
 20
0.000000
 40
2.500000
  1
1.5
  2
roztec
 70
     1
  0
ATTRIB
  8
OSA
  6
CONTINUOUS
 10
0.000000
 20
0.000000
 40
2.500000
  1
*N
  2
puvod
 70
     1
  0
SEQEND
  8
OSA
  0
CIRCLE
  8
OSA
 62
     2
  6
CONTINUOUS
 10
389.659929
 20
-75.888207
 40
9.000000
  0
LINE
  8
OSA
 10
389.659929
 20
404.509109
 11
389.659929
 21
182.009109
  0
LINE
  8
OSA
 10
294.659929
 20
277.009109
 11
484.659929
 21
277.009109
  0
LINE
  8
OSA
 10
1073.688691
 20
277.009109
 11
883.688691
 21
277.009109
  0
LINE
  8
OSA
 10
978.688691
 20
404.509109
 11
978.688691
 21
182.009109
  0
ENDSEC
  0
EOF

