  0
SECTION
  2
HEADER
  9
$ACADVER
  1
AC1009
  9
$INSBASE
 10
0.0
 20
0.0
 30
0.0
  9
$LIMMIN
 10
0.0
 20
0.0
  9
$LIMMAX
 10
430.0000
 20
307.0000
  9
$EXTMIN
 10
99999999999999998000000000000000000000.0000
 20
99999999999999998000000000000000000000.0000
  9
$EXTMAX
 10
99999999999999998000000000000000000000.0000
 20
99999999999999998000000000000000000000.0000
  9
$VIEWCTR
 10
430.2312
 20
383.0236
  9
$VIEWSIZE
 40
928.3340
  9
$DIMLFAC
 40
0.6667
  9
$MEASUREMENT
 70
     1
  9
$DWGCODEPAGE
 3
ANSI_1250
  9
$CLAYER
  8
OBRYS
  9
$CELTYPE
  6
BYLAYER
  9
$CECOLOR
 62
  256
  9
$ORTHOMODE
 70
     0
  9
$REGENMODE
 70
     1
  9
$FILLMODE
 70
     1
  9
$QTEXTMODE
 70
     0
  9
$MIRRTEXT
 70
     1
  9
$DRAGMODE
 70
     2
  9
$LTSCALE
 40
1.0
  9
$OSMODE
 70
    37
  9
$ATTMODE
 70
     1
  9
$TEXTSIZE
 40
2.5
  9
$TRACEWID
 40
1.0
  9
$TEXTSTYLE
  7
STANDARD
  9
$CLAYER
  8
0
  9
$CELTYPE
  6
BYLAYER
  9
$CECOLOR
 62
   256
  9
$DIMSCALE
 40
1.0
  9
$DIMASZ
 40
2.5
  9
$DIMEXO
 40
0.625
  9
$DIMDLI
 40
3.75
  9
$DIMRND
 40
0.0
  9
$DIMDLE
 40
0.0
  9
$DIMEXE
 40
1.25
  9
$DIMTP
 40
0.0
  9
$DIMTM
 40
0.0
  9
$DIMTXT
 40
2.5
  9
$DIMCEN
 40
2.5
  9
$DIMTSZ
 40
0.0
  9
$DIMTOL
 70
     0
  9
$DIMLIM
 70
     0
  9
$DIMTIH
 70
     0
  9
$DIMTOH
 70
     0
  9
$DIMSE1
 70
     0
  9
$DIMSE2
 70
     0
  9
$DIMTAD
 70
     1
  9
$DIMZIN
 70
     8
  9
$DIMBLK
  1

  9
$DIMASO
 70
     1
  9
$DIMSHO
 70
     1
  9
$DIMPOST
  1

  9
$DIMAPOST
  1

  9
$DIMALT
 70
     0
  9
$DIMALTD
 70
     3
  9
$DIMALTF
 40
0.03937007874016
  9
$DIMTOFL
 70
     1
  9
$DIMTVP
 40
0.0
  9
$DIMTIX
 70
     0
  9
$DIMSOXD
 70
     0
  9
$DIMSAH
 70
     0
  9
$DIMBLK1
  1

  9
$DIMBLK2
  1

  9
$DIMSTYLE
  2
ISO-25
  9
$DIMCLRD
 70
     0
  9
$DIMCLRE
 70
     0
  9
$DIMCLRT
 70
     0
  9
$DIMTFAC
 40
1.0
  9
$DIMGAP
 40
0.625
  9
$LUNITS
 70
     2
  9
$LUPREC
 70
     4
  9
$SKETCHINC
 40
1.0
  9
$FILLETRAD
 40
10.0
  9
$AUNITS
 70
     0
  9
$AUPREC
 70
     0
  9
$MENU
  1
.
  9
$ELEVATION
 40
0.0
  9
$PELEVATION
 40
0.0
  9
$THICKNESS
 40
0.0
  9
$LIMCHECK
 70
     0
  9
$BLIPMODE
 70
     0
  9
$CHAMFERA
 40
10.0
  9
$CHAMFERB
 40
10.0
  9
$SKPOLY
 70
     0
  9
$TDCREATE
 40
2451579.5163292708
  9
$TDUPDATE
 40
2451579.6904035881
  9
$TDINDWG
 40
0.0082924769
  9
$TDUSRTIMER
 40
0.0082825116
  9
$USRTIMER
 70
     1
  9
$ANGBASE
 50
0.0
  9
$ANGDIR
 70
     0
  9
$PDMODE
 70
     0
  9
$PDSIZE
 40
0.0
  9
$PLINEWID
 40
0.0
  9
$COORDS
 70
     1
  9
$SPLFRAME
 70
     0
  9
$SPLINETYPE
 70
     6
  9
$SPLINESEGS
 70
     8
  9
$ATTDIA
 70
     0
  9
$ATTREQ
 70
     1
  9
$SURFTAB1
 70
     6
  9
$SURFTAB2
 70
     6
  9
$SURFTYPE
 70
     6
  9
$SURFU
 70
     6
  9
$SURFV
 70
     6
  9
$UCSNAME
  2

  9
$UCSORG
 10
0.0
 20
0.0
 30
0.0
  9
$UCSXDIR
 10
1.0
 20
0.0
 30
0.0
  9
$UCSYDIR
 10
0.0
 20
1.0
 30
0.0
  9
$PUCSNAME
  2

  9
$PUCSORG
 10
0.0
 20
0.0
 30
0.0
  9
$PUCSXDIR
 10
1.0
 20
0.0
 30
0.0
  9
$PUCSYDIR
 10
0.0
 20
1.0
 30
0.0
  9
$USERI1
 70
     0
  9
$USERI2
 70
     0
  9
$USERI3
 70
     0
  9
$USERI4
 70
     0
  9
$USERI5
 70
     0
  9
$USERR1
 40
0.0
  9
$USERR2
 40
0.0
  9
$USERR3
 40
0.0
  9
$USERR4
 40
0.0
  9
$USERR5
 40
0.0
  9
$WORLDVIEW
 70
     1
  9
$SHADEDGE
 70
     3
  9
$SHADEDIF
 70
    70
  9
$TILEMODE
 70
     1
  9
$MAXACTVP
 70
    64
  9
$PLIMCHECK
 70
     0
  9
$PEXTMIN
 10
1.0000000000000000E+020
 20
1.0000000000000000E+020
 30
1.0000000000000000E+020
  9
$PEXTMAX
 10
-1.0000000000000000E+020
 20
-1.0000000000000000E+020
 30
-1.0000000000000000E+020
  9
$PLIMMIN
 10
0.0
 20
0.0
  9
$PLIMMAX
 10
420.0
 20
297.0
  9
$UNITMODE
 70
     0
  9
$VISRETAIN
 70
     1
  9
$PLINEGEN
 70
     0
  9
$PSLTSCALE
 70
     1
  0
ENDSEC
  0
SECTION
  2
TABLES
  0
TABLE
  2
VPORT
 70
     2
  0
VPORT
  2
*ACTIVE
 70
     0
 10
0.0
 20
0.0
 11
1.0
 21
1.0
 12
430.2312
 22
383.0236
 13
0.0
 23
0.0
 14
10.0
 24
10.0
 15
10.0
 25
10.0
 16
0.0
 26
0.0
 36
1.0
 17
0.0
 27
0.0
 37
0.0
 40
928.3340
 41
1.6916
 42
50.0
 43
0.0
 44
0.0
 50
0.0
 51
0.0
 71
     0
 72
   100
 73
     1
 74
     3
 75
     0
 76
     0
 77
     0
 78
     0
  0
ENDTAB
  0
TABLE
  2
LTYPE
 70
     7
  0
LTYPE
  2
CONTINUOUS
 70
     0
  3
Solid line
 72
    65
 73
     0
 40
0.0
  0
LTYPE
  2
HIDDEN2
 70
     0
  3
Hidden (.5x) _ _ _ _ _ _ _ _ _ _ _ _ _ _ _ _ _
 72
    65
 73
     2
 40
5.1
 49
3.5
 49
-1.6
  0
LTYPE
  2
DASHDOT
 70
     0
  3
Dash dot __ . __ . __ . __ . __ . __ . __ . __
 72
    65
 73
     4
 40
10.4
 49
6.2
 49
-2.1
 49
0.0
 49
-2.1
  0
LTYPE
  2
DOT
 70
     0
  3
Dot . . . . . . . . . . . . . . . . . . . . . .
 72
    65
 73
     2
 40
2.2
 49
1.1
 49
-1.1
  0
LTYPE
  2
DASHED
 70
     0
  3
Dashed __ __ __ __ __ __ __ __ __ __ __ __ __ _
 72
    65
 73
     2
 40
11.049999999999979
 49
8.699999999999999
 49
-2.3499999999999979
  0
LTYPE
  2
PHANTOM2
 70
     0
  3
Phantom (.5x) ___ _ _ ___ _ _ ___ _ _ ___ _ _
 72
    65
 73
     6
 40
18.3
 49
7.8
 49
-2.1
 49
2.1
 49
-2.1
 49
2.1
 49
-2.1
  0
LTYPE
  2
CENTER
 70
     0
  3
Center ____ _ ____ _ ____ _ ____ _ ____ _ ____
 72
    65
 73
     4
 40
14.1
 49
7.8
 49
-2.1
 49
2.1
 49
-2.1
  0
ENDTAB
  0
TABLE
  2
LAYER
 70
     7
  0
LAYER
  2
0
 70
    64
 62
     7
  6
CONTINUOUS
  0
LAYER
  2
OBRYS
 70
    64
 62
     2
  6
CONTINUOUS
  0
LAYER
  2
OSA
 70
    64
 62
     7
  6
DASHDOT
  0
LAYER
  2
KOTA
 70
    64
 62
     3
  6
CONTINUOUS
  0
LAYER
  2
SRAFY
 70
    64
 62
     7
  6
CONTINUOUS
  0
LAYER
  2
POMOC
 70
    64
 62
     1
  6
DOT
  0
LAYER
  2
NEVIDITELNA
 70
    64
 62
     4
  6
HIDDEN2
  0
ENDTAB
  0
TABLE
  2
STYLE
 70
     1
  0
STYLE
  2
STANDARD
 70
     0
 40
0.0
 41
1.0
 50
0.0
 71
     0
 42
2.5
  3
txt
  4

  0
ENDTAB
  0
TABLE
  2
VIEW
 70
     0
  0
ENDTAB
  0
TABLE
  2
UCS
 70
     0
  0
ENDTAB
  0
TABLE
  2
APPID
 70
     1
  0
APPID
  2
ACAD
 70
     0
  0
ENDTAB
  0
TABLE
  2
DIMSTYLE
 70
     1
  0
DIMSTYLE
  2
ISO-25
 70
     0
  3

  4

  5

  6

  7

 40
1.0
 41
2.5
 42
0.625
 43
3.75
 44
1.25
 45
0.0
 46
0.0
 47
0.0
 48
0.0
140
2.5
141
2.5
142
0.0
143
0.03937007874016
144
1.0
145
0.0
146
1.0
147
0.625
 71
     0
 72
     0
 73
     0
 74
     0
 75
     0
 76
     0
 77
     1
 78
     8
170
     0
171
     3
172
     1
173
     0
174
     0
175
     0
176
     0
177
     0
178
     0
  0
ENDTAB
  0
ENDSEC
  0
SECTION
  2
BLOCKS
  0
BLOCK
  8
0
  2
$MODEL_SPACE
 70
     0
 10
0.0
 20
0.0
 30
0.0
  3
$MODEL_SPACE
  1

  0
ENDBLK
  8
0
  0
BLOCK
 67
     1
  8
0
  2
$PAPER_SPACE
 70
     0
 10
0.0
 20
0.0
 30
0.0
  3
$PAPER_SPACE
  1

  0
ENDBLK
 67
     1
  8
0
  0
BLOCK
  8
OBRYS
  2
_0
 70
   64
 10
723.136098
 20
277.009109
  0
LINE
  8
OBRYS
 10
748.136098
 20
222.009109
 11
744.636098
 21
222.009109
  0
LINE
  8
OBRYS
 10
730.136098
 20
222.899791
 11
730.355169
 21
222.899791
  0
ARC
  8
OBRYS
 10
728.136098
 20
189.009109
 40
2.000000
 50
270.000000
 51
360.000000
  0
LINE
  8
OBRYS
 10
744.636098
 20
220.679940
 11
744.636098
 21
231.914280
  0
LINE
  8
OBRYS
 10
730.136098
 20
222.072809
 11
730.136098
 21
215.749069
  0
LINE
  8
OBRYS
 10
730.136098
 20
194.845889
 11
730.136098
 21
194.405479
  0
POLYLINE
  8
OBRYS
 66
    1
  0
VERTEX
  8
OBRYS
 10
730.136108
 20
215.749054
  0
VERTEX
  8
OBRYS
 10
730.192261
 20
216.004700
  0
VERTEX
  8
OBRYS
 10
730.262207
 20
216.272552
  0
VERTEX
  8
OBRYS
 10
730.317017
 20
216.440674
  0
VERTEX
  8
OBRYS
 10
730.355164
 20
216.476410
  0
VERTEX
  8
OBRYS
 10
730.837952
 20
216.866486
  0
VERTEX
  8
OBRYS
 10
731.636108
 20
217.178864
  0
VERTEX
  8
OBRYS
 10
744.636108
 20
220.679932
  0
SEQEND
  8
OBRYS
  0
LINE
  8
OBRYS
 10
744.636098
 20
229.145340
 11
748.136098
 21
229.145340
  0
LINE
  8
OBRYS
 10
735.136098
 20
199.602755
 11
735.136098
 21
199.024281
  0
LINE
  8
OBRYS
 10
744.636098
 20
223.628372
 11
744.636098
 21
224.379376
  0
LINE
  8
OBRYS
 10
744.636098
 20
222.009109
 11
744.636098
 21
222.581287
  0
LINE
  8
OBRYS
 10
730.136098
 20
193.267066
 11
730.136098
 21
195.159798
  0
POLYLINE
  8
OBRYS
 66
    1
  0
VERTEX
  8
OBRYS
 10
735.136108
 20
218.121460
  0
VERTEX
  8
OBRYS
 10
744.636108
 20
220.679932
  0
VERTEX
  8
OBRYS
 10
744.636108
 20
222.581299
  0
SEQEND
  8
OBRYS
  0
LINE
  8
OBRYS
 10
744.636098
 20
223.628372
 11
744.636098
 21
224.862831
  0
LINE
  8
OBRYS
 10
735.136098
 20
218.121472
 11
735.136098
 21
199.602755
  0
LINE
  8
OBRYS
 10
735.136098
 20
206.809109
 11
735.136098
 21
217.209109
  0
LINE
  8
OBRYS
 10
744.636098
 20
229.579773
 11
744.636098
 21
229.919883
  0
LINE
  8
OBRYS
 10
744.636098
 20
236.247168
 11
744.636098
 21
225.847168
  0
LINE
  8
OBRYS
 10
734.136098
 20
195.674867
 11
730.457505
 21
195.674867
  0
LINE
  8
OBRYS
 10
734.136098
 20
195.674867
 11
729.136098
 21
195.674867
  0
LINE
  8
OBRYS
 10
730.136098
 20
208.674867
 11
734.136098
 21
208.674867
  0
POLYLINE
  8
OBRYS
 66
    1
  0
VERTEX
  8
OBRYS
 10
730.136108
 20
193.520035
  0
VERTEX
  8
OBRYS
 10
729.983887
 20
192.812927
  0
VERTEX
  8
OBRYS
 10
729.550293
 20
192.213470
  0
VERTEX
  8
OBRYS
 10
729.136108
 20
191.957779
  0
SEQEND
  8
OBRYS
  0
LINE
  8
OBRYS
 10
734.136098
 20
208.674867
 11
734.136098
 21
195.674867
  0
POLYLINE
  8
OBRYS
 66
    1
  0
VERTEX
  8
OBRYS
 10
729.136108
 20
191.957779
  0
VERTEX
  8
OBRYS
 10
729.136108
 20
194.133514
  0
VERTEX
  8
OBRYS
 10
729.142151
 20
194.149170
  0
VERTEX
  8
OBRYS
 10
729.136108
 20
194.164810
  0
VERTEX
  8
OBRYS
 10
729.136108
 20
197.698029
  0
VERTEX
  8
OBRYS
 10
729.550293
 20
197.953735
  0
VERTEX
  8
OBRYS
 10
729.983887
 20
198.553192
  0
VERTEX
  8
OBRYS
 10
730.136108
 20
199.260284
  0
SEQEND
  8
OBRYS
  0
LINE
  8
OBRYS
 10
735.136108
 20
199.602753
 11
734.136108
 21
199.003937
  0
LINE
  8
OBRYS
 10
735.136098
 20
199.024281
 11
734.136098
 21
198.446931
  0
LINE
  8
OBRYS
 10
730.136098
 20
189.009109
 11
730.136098
 21
195.674867
  0
LINE
  8
OBRYS
 10
728.136098
 20
187.009109
 11
723.136098
 21
187.009109
  0
LINE
  8
OBRYS
 10
748.136108
 20
250.443207
 11
747.088318
 21
250.443207
  0
POLYLINE
  8
OBRYS
 66
    1
  0
VERTEX
  8
OBRYS
 10
744.636108
 20
246.537216
  0
VERTEX
  8
OBRYS
 10
744.636108
 20
231.914276
  0
VERTEX
  8
OBRYS
 10
731.636108
 20
224.406219
  0
VERTEX
  8
OBRYS
 10
730.837952
 20
223.736298
  0
VERTEX
  8
OBRYS
 10
730.355164
 20
222.899780
  0
VERTEX
  8
OBRYS
 10
730.317017
 20
222.839661
  0
VERTEX
  8
OBRYS
 10
730.262207
 20
222.556793
  0
VERTEX
  8
OBRYS
 10
730.192261
 20
222.261108
  0
VERTEX
  8
OBRYS
 10
730.136108
 20
222.072815
  0
VERTEX
  8
OBRYS
 10
730.136108
 20
222.024475
  0
VERTEX
  8
OBRYS
 10
730.136108
 20
221.856323
  0
VERTEX
  8
OBRYS
 10
730.136108
 20
221.763306
  0
VERTEX
  8
OBRYS
 10
730.136108
 20
221.749176
  0
SEQEND
  8
OBRYS
  0
LINE
  8
OBRYS
 10
730.136098
 20
199.260292
 11
730.136098
 21
230.214372
  0
LINE
  8
OBRYS
 10
748.136098
 20
252.279275
 11
748.136098
 21
222.009109
  0
LINE
  8
OBRYS
 10
744.636098
 20
229.145340
 11
744.636098
 21
246.537207
  0
ENDBLK
  8
OBRYS
  0
BLOCK
  8
OBRYS
  2
_1
 70
   64
 10
678.136098
 20
357.009109
  0
ARC
  8
OBRYS
 10
678.136098
 20
291.009109
 40
92.000000
 50
45.920846
 51
134.079154
  0
ARC
  8
OBRYS
 10
678.136098
 20
291.009109
 40
52.000000
 50
44.999997
 51
135.000047
  0
ARC
  8
OBRYS
 10
678.136098
 20
291.009109
 40
32.000000
 50
44.999996
 51
135.000004
  0
ARC
  8
OBRYS
 10
648.437613
 20
320.707593
 40
10.000000
 50
135.000000
 51
315.000000
  0
ARC
  8
OBRYS
 10
707.834583
 20
320.707593
 40
10.000000
 50
225.000000
 51
45.000000
  0
CIRCLE
  8
OBRYS
 10
733.536098
 20
387.009109
 40
5.500000
  0
CIRCLE
  8
OBRYS
 10
678.136098
 20
420.009109
 40
5.500000
  0
CIRCLE
  8
OBRYS
 10
622.736098
 20
387.009109
 40
5.500000
  0
CIRCLE
  8
OBRYS
 10
678.136098
 20
257.009109
 40
5.500000
  0
CIRCLE
  8
OBRYS
 10
622.736098
 20
327.009109
 40
5.500000
  0
CIRCLE
  8
OBRYS
 10
733.536098
 20
327.009109
 40
5.500000
  0
ARC
  8
OBRYS
 10
678.136098
 20
291.009109
 40
74.000000
 50
333.573390
 51
17.140998
  0
ARC
  8
OBRYS
 10
678.136098
 20
291.009109
 40
61.000000
 50
333.573390
 51
17.140998
  0
ARC
  8
OBRYS
 10
742.637908
 20
310.902990
 40
6.500000
 50
17.141009
 51
197.141009
  0
ARC
  8
OBRYS
 10
613.634288
 20
310.902990
 40
6.500000
 50
342.858991
 51
162.858991
  0
ARC
  8
OBRYS
 10
678.136098
 20
291.009109
 40
61.000000
 50
162.858989
 51
206.426677
  0
ARC
  8
OBRYS
 10
678.136098
 20
291.009109
 40
74.000000
 50
162.858989
 51
206.426680
  0
ARC
  8
OBRYS
 10
678.136098
 20
291.009109
 40
61.000000
 50
63.573333
 51
116.426645
  0
ARC
  8
OBRYS
 10
678.136098
 20
291.009109
 40
74.000000
 50
63.573335
 51
116.426619
  0
ARC
  8
OBRYS
 10
678.136098
 20
291.009109
 40
61.000000
 50
243.573355
 51
296.426659
  0
ARC
  8
OBRYS
 10
678.136098
 20
291.009109
 40
74.000000
 50
243.573377
 51
296.426631
  0
ARC
  8
OBRYS
 10
708.177086
 20
351.455689
 40
6.500000
 50
243.573499
 51
63.573499
  0
ARC
  8
OBRYS
 10
648.095110
 20
351.455689
 40
6.500000
 50
116.426501
 51
296.426501
  0
ARC
  8
OBRYS
 10
648.095110
 20
230.562529
 40
6.500000
 50
63.573499
 51
243.573499
  0
ARC
  8
OBRYS
 10
617.689518
 20
260.968120
 40
6.500000
 50
206.427008
 51
26.427008
  0
ARC
  8
OBRYS
 10
738.582678
 20
260.968120
 40
6.500000
 50
153.572992
 51
333.572992
  0
ARC
  8
OBRYS
 10
708.177086
 20
230.562529
 40
6.500000
 50
296.426501
 51
116.426501
  0
CIRCLE
  8
OBRYS
 10
678.136098
 20
291.009109
 40
55.000000
  0
CIRCLE
  8
OBRYS
 10
678.136098
 20
291.009109
 40
80.000000
  0
ARC
  8
OBRYS
 10
678.136098
 20
357.009109
 40
64.000000
 50
345.942370
 51
19.389830
  0
ARC
  8
OBRYS
 10
678.136098
 20
357.009109
 40
64.000000
 50
160.610170
 51
194.057630
  0
INSERT
  8
OBRYS
  2
Vnitrni_metricky_zavit_M8__1
 62
     7
 10
724.098039
 20
336.971049
  0
INSERT
  8
OBRYS
  2
Vnitrni_metricky_zavit_M8__2
 62
     7
 10
632.174157
 20
336.971049
  0
LINE
  8
OSA
 10
639.775555
 20
329.369652
 11
624.572759
 21
344.572447
  0
LINE
  8
OSA
 10
716.496641
 20
329.369652
 11
731.699437
 21
344.572447
  0
CIRCLE
  8
OBRYS
 10
724.098039
 20
245.047168
 40
4.500000
  0
LINE
  8
OSA
 10
716.496641
 20
252.648566
 11
731.699437
 21
237.445770
  0
LINE
  8
OSA
 10
639.775555
 20
252.648566
 11
624.572759
 21
237.445770
  0
CIRCLE
  8
OBRYS
 10
632.174157
 20
245.047168
 40
4.500000
  0
CIRCLE
  8
OSA
 10
678.136098
 20
291.009109
 40
65.000000
  0
CIRCLE
  8
OBRYS
 10
653.136098
 20
268.009109
 40
3.000000
  0
LINE
  8
OSA
 10
653.136098
 20
268.009109
 11
661.136098
 21
268.009109
  0
LINE
  8
OSA
 10
653.136098
 20
268.009109
 11
653.136098
 21
276.009109
  0
LINE
  8
OSA
 10
653.136098
 20
268.009109
 11
653.136098
 21
260.009109
  0
LINE
  8
OSA
 10
653.136098
 20
268.009109
 11
642.993531
 21
268.009109
  0
CIRCLE
  8
OBRYS
 10
678.136098
 20
257.009109
 40
3.200000
  0
LINE
  8
OSA
 10
678.136098
 20
257.009109
 11
686.136098
 21
257.009109
  0
LINE
  8
OSA
 10
678.136098
 20
257.009109
 11
670.136098
 21
257.009109
  0
CIRCLE
  8
OBRYS
 10
733.536098
 20
387.009109
 40
3.200000
  0
CIRCLE
  8
OBRYS
 10
733.536098
 20
327.009109
 40
3.200000
  0
CIRCLE
  8
OBRYS
 10
622.736098
 20
327.009109
 40
3.200000
  0
CIRCLE
  8
OBRYS
 10
622.736098
 20
387.009109
 40
3.200000
  0
CIRCLE
  8
OBRYS
 10
721.136098
 20
403.009109
 40
3.000000
  0
LINE
  8
OSA
 10
721.136098
 20
403.009109
 11
733.136098
 21
403.009109
  0
LINE
  8
OSA
 10
721.136098
 20
403.009109
 11
709.136098
 21
403.009109
  0
LINE
  8
OSA
 10
721.136098
 20
403.009109
 11
721.136098
 21
415.009109
  0
LINE
  8
OSA
 10
721.136098
 20
403.009109
 11
721.136098
 21
391.009109
  0
LINE
  8
OSA
 10
614.736098
 20
387.009109
 11
630.736098
 21
387.009109
  0
LINE
  8
OSA
 10
614.736098
 20
327.009109
 11
630.736098
 21
327.009109
  0
LINE
  8
OSA
 10
622.736098
 20
394.417144
 11
622.736098
 21
318.116898
  0
LINE
  8
OSA
 10
733.536098
 20
394.417144
 11
733.536098
 21
318.116898
  0
LINE
  8
OSA
 10
741.536098
 20
327.009109
 11
725.536098
 21
327.009109
  0
LINE
  8
OSA
 10
741.536098
 20
387.009109
 11
725.536098
 21
387.009109
  0
ARC
  8
OBRYS
 10
688.921056
 20
422.173522
 40
3.000000
 50
191.347840
 51
254.724588
  0
ARC
  8
OBRYS
 10
678.136098
 20
420.009109
 40
8.000000
 50
11.347840
 51
168.652160
  0
LINE
  8
OBRYS
 10
688.130679
 20
419.279510
 11
722.980312
 21
409.761803
  0
ARC
  8
OBRYS
 10
667.351140
 20
422.173522
 40
3.000000
 50
285.275412
 51
348.652160
  0
LINE
  8
OBRYS
 10
668.141518
 20
419.279510
 11
633.291884
 21
409.761803
  0
ARC
  8
OBRYS
 10
622.736098
 20
387.009109
 40
8.000000
 50
139.392698
 51
224.840000
  0
ARC
  8
OBRYS
 10
614.936231
 20
379.252687
 40
3.000000
 50
340.610170
 51
44.839984
  0
LINE
  8
0
 62
     2
 10
616.662591
 20
392.216076
 11
629.821779
 21
407.565205
  0
ARC
  8
OBRYS
 10
635.136098
 20
403.009109
 40
7.000000
 50
105.275412
 51
139.392700
  0
ARC
  8
OBRYS
 10
721.136098
 20
403.009109
 40
7.000000
 50
40.607300
 51
74.724588
  0
ARC
  8
OBRYS
 10
733.536098
 20
387.009109
 40
8.000000
 50
315.160016
 51
40.607302
  0
LINE
  8
0
 62
     2
 10
739.609605
 20
392.216076
 11
726.450417
 21
407.565205
  0
ARC
  8
OBRYS
 10
741.335965
 20
379.252687
 40
3.000000
 50
135.160016
 51
199.389830
  0
LINE
  8
OSA
 10
687.586098
 20
420.009109
 11
668.686098
 21
420.009109
  0
CIRCLE
  8
OBRYS
 10
678.136098
 20
420.009109
 40
3.200000
  0
LINE
  8
OSA
 10
678.136098
 20
291.009109
 11
678.136098
 21
430.307049
  0
LINE
  8
OSA
 10
607.886098
 20
357.009109
 11
748.386098
 21
357.009109
  0
CIRCLE
  8
OBRYS
 10
678.136098
 20
291.009109
 40
23.500000
  0
LINE
  8
OSA
 10
678.136098
 20
291.009109
 11
678.136098
 21
204.759109
  0
LINE
  8
OSA
 10
678.136098
 20
291.009109
 11
764.386098
 21
291.009109
  0
LINE
  8
OSA
 10
678.136098
 20
291.009109
 11
591.886098
 21
291.009109
  0
CIRCLE
  8
OBRYS
 10
678.136098
 20
291.009109
 40
12.500000
  0
LINE
  8
OBRYS
 10
675.636098
 20
300.209109
 11
680.636098
 21
300.209109
  0
LINE
  8
OBRYS
 10
680.636098
 20
297.547457
 11
680.636098
 21
300.209109
  0
LINE
  8
OBRYS
 10
675.636098
 20
297.547457
 11
675.636098
 21
300.209109
  0
ARC
  8
OBRYS
 10
678.136098
 20
291.009109
 40
7.000000
 50
110.924832
 51
69.075168
  0
ENDBLK
  8
OBRYS
  0
BLOCK
  8
OBRYS
  2
Vnitrni_metricky_zavit_M8__1
 70
   66
 10
724.098039
 20
336.971049
  0
CIRCLE
  8
OBRYS
 10
724.098039
 20
336.971049
 40
3.323500
  0
ARC
  8
OBRYS
 62
     7
 10
724.098039
 20
336.971049
 40
4.000000
 50
265.000000
 51
185.000000
  0
ENDBLK
  8
OBRYS
  0
BLOCK
  8
OBRYS
  2
Vnitrni_metricky_zavit_M8__2
 70
   66
 10
632.174157
 20
336.971049
  0
CIRCLE
  8
OBRYS
 10
632.174157
 20
336.971049
 40
3.323500
  0
ARC
  8
OBRYS
 62
     7
 10
632.174157
 20
336.971049
 40
4.000000
 50
265.000000
 51
185.000000
  0
ENDBLK
  8
OBRYS
  0
BLOCK
  8
OBRYS
  2
_2
 70
   64
 10
1022.407825
 20
357.009109
  0
ARC
  8
OBRYS
 10
1042.394062
 20
424.009109
 40
3.000000
 50
90.000000
 51
130.000000
  0
LINE
  8
OBRYS
 10
1028.979949
 20
416.669553
 11
1040.465699
 21
426.307242
  0
LINE
  8
OBRYS
 10
1065.407825
 20
427.009109
 11
1042.394062
 21
427.009109
  0
ARC
  8
OBRYS
 10
1035.407825
 20
409.009109
 40
10.000000
 50
130.000000
 51
180.000000
  0
LINE
  8
OSA
 10
1070.407825
 20
357.009109
 11
1012.407825
 21
357.009109
  0
ARC
  8
OBRYS
 10
1022.407825
 20
306.213392
 40
3.000000
 50
0.000000
 51
90.000000
  0
ARC
  8
OBRYS
 10
1022.407825
 20
407.804825
 40
3.000000
 50
270.000000
 51
360.000000
  0
ARC
  8
OBRYS
 10
1035.407825
 20
259.009109
 40
10.000000
 50
180.000000
 51
270.000000
  0
LINE
  8
OBRYS
 10
1065.407825
 20
249.009109
 11
1035.407825
 21
249.009109
  0
LINE
  8
OBRYS
 10
1065.407825
 20
427.009109
 11
1065.407825
 21
249.009109
  0
LINE
  8
OSA
 10
1070.362085
 20
291.009109
 11
1020.407825
 21
291.009109
  0
LINE
  8
OBRYS
 10
1022.407825
 20
396.495424
 11
1022.407825
 21
357.009109
  0
LINE
  8
OBRYS
 10
1022.407825
 20
317.522793
 11
1022.407825
 21
357.009109
  0
LINE
  8
OBRYS
 10
1025.407825
 20
410.329617
 11
1025.407825
 21
357.009109
  0
LINE
  8
OBRYS
 10
1025.407825
 20
357.009109
 11
1025.407825
 21
259.009109
  0
LINE
  8
OBRYS
 10
1065.407825
 20
422.009109
 11
1034.722824
 21
422.009109
  0
LINE
  8
OBRYS
 10
1058.407825
 20
379.384441
 11
1035.343383
 21
379.384441
  0
LINE
  8
OBRYS
 10
1058.407825
 20
334.633776
 11
1035.343383
 21
334.633776
  0
LINE
  8
OBRYS
 10
1060.407825
 20
377.384441
 11
1060.407825
 21
336.633776
  0
LINE
  8
OBRYS
 10
1058.407825
 20
319.555510
 11
1035.343383
 21
319.555510
  0
LINE
  8
OBRYS
 10
1060.407825
 20
317.555510
 11
1060.407825
 21
249.009109
  0
LINE
  8
OBRYS
 10
1060.407825
 20
409.195905
 11
1035.343383
 21
409.195905
  0
LINE
  8
OBRYS
 10
1082.407825
 20
371.009109
 11
1082.407825
 21
214.009109
  0
LINE
  8
OBRYS
 10
1092.407825
 20
371.009109
 11
1092.407825
 21
211.009109
  0
LINE
  8
OBRYS
 10
1092.407825
 20
211.009109
 11
1085.407825
 21
211.009109
  0
ARC
  8
OBRYS
 10
1085.407825
 20
214.009109
 40
3.000000
 50
180.000000
 51
270.000000
  0
ARC
  8
OBRYS
 10
1079.407825
 20
246.009109
 40
3.000000
 50
0.000000
 51
90.000000
  0
LINE
  8
OBRYS
 10
1079.407825
 20
249.009109
 11
1065.407825
 21
249.009109
  0
LINE
  8
OBRYS
 10
1065.407825
 20
427.009109
 11
1065.407825
 21
249.009109
  0
LINE
  8
OBRYS
 10
1073.407825
 20
427.009109
 11
1065.407825
 21
427.009109
  0
ARC
  8
OBRYS
 10
1073.407825
 20
425.009109
 40
2.000000
 50
0.000000
 51
90.000000
  0
LINE
  8
OBRYS
 10
1075.407825
 20
425.009109
 11
1075.407825
 21
384.420651
  0
ARC
  8
OBRYS
 10
1078.407825
 20
384.420651
 40
3.000000
 50
180.000000
 51
210.000000
  0
LINE
  8
OBRYS
 10
1092.407825
 20
371.009109
 11
1084.418932
 21
371.009109
  0
LINE
  8
OBRYS
 10
1075.809749
 20
382.920651
 11
1081.820856
 21
372.509109
  0
ARC
  8
OBRYS
 10
1084.418932
 20
374.009109
 40
3.000000
 50
210.000000
 51
270.000000
  0
LINE
  8
OSA
 10
1098.657825
 20
291.009109
 11
1059.157825
 21
291.009109
  0
LINE
  8
OBRYS
 10
1065.407825
 20
422.009109
 11
1075.407825
 21
422.009109
  0
LINE
  8
OBRYS
 10
1065.407825
 20
409.195905
 11
1072.625609
 21
409.195905
  0
LINE
  8
OBRYS
 10
1065.407825
 20
379.384441
 11
1074.212182
 21
379.384441
  0
LINE
  8
OBRYS
 10
1065.407825
 20
334.633776
 11
1079.911217
 21
334.633776
  0
LINE
  8
OBRYS
 10
1065.407825
 20
319.555510
 11
1079.911217
 21
319.555510
  0
ENDBLK
  8
OBRYS
  0
BLOCK
  8
OBRYS
  2
_3
 70
   64
 10
294.659929
 20
37.376095
  0
LINE
  8
OSA
 10
218.409929
 20
37.376095
 11
302.234681
 21
37.376095
  0
ARC
  8
OBRYS
 10
231.659929
 20
-39.623905
 40
3.000000
 50
270.000000
 51
360.000000
  0
LINE
  8
OBRYS
 10
224.659929
 20
-42.623905
 11
231.659929
 21
-42.623905
  0
LINE
  8
OBRYS
 10
224.659929
 20
117.376095
 11
224.659929
 21
-42.623905
  0
ARC
  8
OBRYS
 10
294.659929
 20
-8.623905
 40
3.000000
 50
90.000000
 51
180.000000
  0
ARC
  8
OBRYS
 10
294.659929
 20
83.376095
 40
3.000000
 50
180.000000
 51
270.000000
  0
LINE
  8
OBRYS
 10
294.659929
 20
72.376095
 11
294.659929
 21
37.376095
  0
LINE
  8
OBRYS
 10
294.659929
 20
2.376095
 11
294.659929
 21
37.376095
  0
LINE
  8
OBRYS
 10
291.659929
 20
91.376030
 11
291.659929
 21
37.376095
  0
ARC
  8
OBRYS
 10
281.659929
 20
91.376030
 40
10.000000
 50
0.000000
 51
90.000000
  0
LINE
  8
OBRYS
 10
291.659929
 20
37.376095
 11
291.659929
 21
-16.623841
  0
ARC
  8
OBRYS
 10
281.659929
 20
-16.623841
 40
10.000000
 50
270.000000
 51
360.000000
  0
LINE
  8
OBRYS
 10
236.659929
 20
101.376030
 11
281.659929
 21
101.376030
  0
ARC
  8
OBRYS
 10
236.659929
 20
103.376030
 40
2.000000
 50
180.000000
 51
270.000000
  0
LINE
  8
OBRYS
 10
236.659929
 20
-26.623841
 11
281.659929
 21
-26.623841
  0
ARC
  8
OBRYS
 10
236.659929
 20
-28.623841
 40
2.000000
 50
90.000000
 51
180.000000
  0
LINE
  8
OBRYS
 10
224.659929
 20
117.376095
 11
231.659929
 21
117.376095
  0
LINE
  8
OBRYS
 10
234.659929
 20
114.376095
 11
234.659929
 21
-39.623905
  0
ARC
  8
OBRYS
 10
231.659929
 20
114.376095
 40
3.000000
 50
0.000000
 51
90.000000
  0
LINE
  8
OBRYS
 10
251.659929
 20
101.376030
 11
251.659929
 21
-26.623841
  0
LINE
  8
OBRYS
 10
243.659929
 20
84.292374
 11
281.724370
 21
84.292374
  0
LINE
  8
OBRYS
 10
243.659929
 20
45.373972
 11
281.724370
 21
45.373972
  0
ARC
  8
OBRYS
 10
244.659929
 20
98.376030
 40
3.000000
 50
90.000000
 51
180.000000
  0
LINE
  8
OBRYS
 10
241.659929
 20
98.376030
 11
241.659929
 21
-23.623841
  0
ARC
  8
OBRYS
 10
244.659929
 20
-23.623841
 40
3.000000
 50
180.000000
 51
270.000000
  0
LINE
  8
OBRYS
 10
243.659929
 20
-9.540184
 11
281.724370
 21
-9.540184
  0
LINE
  8
OBRYS
 10
243.659929
 20
29.378218
 11
281.724370
 21
29.378218
  0
ENDBLK
  8
OBRYS
  0
BLOCK
  8
OBRYS
  2
_4
 70
   64
 10
294.659929
 20
565.485278
  0
LINE
  8
OSA
 10
218.409929
 20
565.485278
 11
302.234681
 21
565.485278
  0
ARC
  8
OBRYS
 10
231.659929
 20
488.485278
 40
3.000000
 50
270.000000
 51
360.000000
  0
LINE
  8
OBRYS
 10
224.659929
 20
485.485278
 11
231.659929
 21
485.485278
  0
LINE
  8
OBRYS
 10
224.659929
 20
645.485278
 11
224.659929
 21
485.485278
  0
ARC
  8
OBRYS
 10
294.659929
 20
519.485278
 40
3.000000
 50
90.000000
 51
180.000000
  0
ARC
  8
OBRYS
 10
294.659929
 20
611.485278
 40
3.000000
 50
180.000000
 51
270.000000
  0
LINE
  8
OBRYS
 10
294.659929
 20
600.485278
 11
294.659929
 21
565.485278
  0
LINE
  8
OBRYS
 10
294.659929
 20
530.485278
 11
294.659929
 21
565.485278
  0
LINE
  8
OBRYS
 10
291.659929
 20
619.485213
 11
291.659929
 21
565.485278
  0
ARC
  8
OBRYS
 10
281.659929
 20
619.485213
 40
10.000000
 50
0.000000
 51
90.000000
  0
LINE
  8
OBRYS
 10
291.659929
 20
565.485278
 11
291.659929
 21
511.485342
  0
ARC
  8
OBRYS
 10
281.659929
 20
511.485342
 40
10.000000
 50
270.000000
 51
360.000000
  0
LINE
  8
OBRYS
 10
236.659929
 20
629.485213
 11
281.659929
 21
629.485213
  0
ARC
  8
OBRYS
 10
236.659929
 20
631.485213
 40
2.000000
 50
180.000000
 51
270.000000
  0
LINE
  8
OBRYS
 10
236.659929
 20
501.485342
 11
281.659929
 21
501.485342
  0
ARC
  8
OBRYS
 10
236.659929
 20
499.485342
 40
2.000000
 50
90.000000
 51
180.000000
  0
LINE
  8
OBRYS
 10
224.659929
 20
645.485278
 11
231.659929
 21
645.485278
  0
LINE
  8
OBRYS
 10
234.659929
 20
642.485278
 11
234.659929
 21
488.485278
  0
ARC
  8
OBRYS
 10
231.659929
 20
642.485278
 40
3.000000
 50
0.000000
 51
90.000000
  0
LINE
  8
OBRYS
 10
251.659929
 20
629.485213
 11
251.659929
 21
501.485342
  0
LINE
  8
OBRYS
 10
281.659929
 20
619.928165
 11
234.659929
 21
619.928165
  0
LINE
  8
OBRYS
 10
257.659929
 20
618.318681
 11
257.659929
 21
512.585025
  0
LINE
  8
OBRYS
 10
281.659929
 20
511.042390
 11
234.659929
 21
511.042390
  0
ENDBLK
  8
OBRYS
  0
BLOCK
  8
OBRYS
  2
_5
 70
   64
 10
294.659929
 20
357.009109
  0
ARC
  8
OBRYS
 10
274.673692
 20
424.009109
 40
3.000000
 50
50.000000
 51
90.000000
  0
LINE
  8
OBRYS
 10
288.087805
 20
416.669553
 11
276.602055
 21
426.307242
  0
LINE
  8
OBRYS
 10
251.659929
 20
427.009109
 11
274.673692
 21
427.009109
  0
ARC
  8
OBRYS
 10
281.659929
 20
409.009109
 40
10.000000
 50
0.000000
 51
50.000000
  0
LINE
  8
OSA
 10
246.659929
 20
357.009109
 11
304.659929
 21
357.009109
  0
ARC
  8
OBRYS
 10
294.659929
 20
306.213392
 40
3.000000
 50
90.000000
 51
180.000000
  0
ARC
  8
OBRYS
 10
294.659929
 20
407.804825
 40
3.000000
 50
180.000000
 51
270.000000
  0
ARC
  8
OBRYS
 10
281.659929
 20
259.009109
 40
10.000000
 50
270.000000
 51
360.000000
  0
LINE
  8
OBRYS
 10
251.659929
 20
249.009109
 11
281.659929
 21
249.009109
  0
LINE
  8
OBRYS
 10
251.659929
 20
427.009109
 11
251.659929
 21
249.009109
  0
LINE
  8
OSA
 10
246.705669
 20
291.009109
 11
296.659929
 21
291.009109
  0
LINE
  8
OBRYS
 10
294.659929
 20
396.495424
 11
294.659929
 21
357.009109
  0
LINE
  8
OBRYS
 10
294.659929
 20
317.522793
 11
294.659929
 21
357.009109
  0
LINE
  8
OBRYS
 10
291.659929
 20
410.329617
 11
291.659929
 21
357.009109
  0
LINE
  8
OBRYS
 10
291.659929
 20
357.009109
 11
291.659929
 21
259.009109
  0
LINE
  8
OBRYS
 10
251.659929
 20
422.009109
 11
282.344930
 21
422.009109
  0
LINE
  8
OBRYS
 10
258.659929
 20
379.384441
 11
281.724370
 21
379.384441
  0
LINE
  8
OBRYS
 10
258.659929
 20
334.633776
 11
281.724370
 21
334.633776
  0
LINE
  8
OBRYS
 10
256.659929
 20
377.384441
 11
256.659929
 21
336.633776
  0
LINE
  8
OBRYS
 10
258.659929
 20
319.555510
 11
281.724370
 21
319.555510
  0
LINE
  8
OBRYS
 10
256.659929
 20
317.555510
 11
256.659929
 21
249.009109
  0
LINE
  8
OBRYS
 10
256.659929
 20
409.195905
 11
281.724370
 21
409.195905
  0
LINE
  8
OBRYS
 10
234.659929
 20
371.009109
 11
234.659929
 21
214.009109
  0
LINE
  8
OBRYS
 10
224.659929
 20
371.009109
 11
224.659929
 21
211.009109
  0
LINE
  8
OBRYS
 10
224.659929
 20
211.009109
 11
231.659929
 21
211.009109
  0
ARC
  8
OBRYS
 10
231.659929
 20
214.009109
 40
3.000000
 50
270.000000
 51
360.000000
  0
ARC
  8
OBRYS
 10
237.659929
 20
246.009109
 40
3.000000
 50
90.000000
 51
180.000000
  0
LINE
  8
OBRYS
 10
237.659929
 20
249.009109
 11
251.659929
 21
249.009109
  0
LINE
  8
OBRYS
 10
251.659929
 20
427.009109
 11
251.659929
 21
249.009109
  0
LINE
  8
OBRYS
 10
243.659929
 20
427.009109
 11
251.659929
 21
427.009109
  0
ARC
  8
OBRYS
 10
243.659929
 20
425.009109
 40
2.000000
 50
90.000000
 51
180.000000
  0
LINE
  8
OBRYS
 10
241.659929
 20
425.009109
 11
241.659929
 21
384.420651
  0
ARC
  8
OBRYS
 10
238.659929
 20
384.420651
 40
3.000000
 50
330.000000
 51
360.000000
  0
LINE
  8
OBRYS
 10
224.659929
 20
371.009109
 11
232.648822
 21
371.009109
  0
LINE
  8
OBRYS
 10
241.258005
 20
382.920651
 11
235.246898
 21
372.509109
  0
ARC
  8
OBRYS
 10
232.648822
 20
374.009109
 40
3.000000
 50
270.000000
 51
330.000000
  0
LINE
  8
OSA
 10
218.409929
 20
291.009109
 11
257.909929
 21
291.009109
  0
LINE
  8
OBRYS
 10
251.659929
 20
422.009109
 11
241.659929
 21
422.009109
  0
LINE
  8
OBRYS
 10
251.659929
 20
409.195905
 11
244.442145
 21
409.195905
  0
LINE
  8
OBRYS
 10
251.659929
 20
379.384441
 11
242.855572
 21
379.384441
  0
LINE
  8
OBRYS
 10
251.659929
 20
334.633776
 11
237.156537
 21
334.633776
  0
LINE
  8
OBRYS
 10
251.659929
 20
319.555510
 11
237.156537
 21
319.555510
  0
ENDBLK
  8
OBRYS
  0
BLOCK
  8
OBRYS
  2
_6
 70
   64
 10
56.183760
 20
277.009109
  0
LINE
  8
OBRYS
 10
31.183760
 20
262.619011
 11
44.183760
 21
262.619011
  0
LINE
  8
OBRYS
 10
31.183760
 20
291.399206
 11
44.183760
 21
291.399206
  0
LINE
  8
OBRYS
 10
44.183760
 20
262.619011
 11
44.183760
 21
291.399206
  0
LINE
  8
OBRYS
 10
44.183760
 20
282.209109
 11
44.183760
 21
271.809109
  0
LINE
  8
OBRYS
 10
44.183760
 20
282.882448
 11
44.183760
 21
291.399206
  0
POLYLINE
  8
OBRYS
 66
    1
  0
VERTEX
  8
OBRYS
 10
49.127594
 20
281.433075
  0
VERTEX
  8
OBRYS
 10
49.057648
 20
281.452759
  0
VERTEX
  8
OBRYS
 10
49.002838
 20
281.533875
  0
VERTEX
  8
OBRYS
 10
48.964691
 20
281.551117
  0
VERTEX
  8
OBRYS
 10
48.481903
 20
281.866791
  0
VERTEX
  8
OBRYS
 10
47.683746
 20
282.119629
  0
VERTEX
  8
OBRYS
 10
44.183746
 20
282.882446
  0
SEQEND
  8
OBRYS
  0
LINE
  8
OBRYS
 10
44.183760
 20
262.619011
 11
44.183760
 21
271.135769
  0
POLYLINE
  8
OBRYS
 66
    1
  0
VERTEX
  8
OBRYS
 10
44.183746
 20
271.135773
  0
VERTEX
  8
OBRYS
 10
47.683746
 20
271.898590
  0
VERTEX
  8
OBRYS
 10
48.481903
 20
272.151428
  0
VERTEX
  8
OBRYS
 10
48.964691
 20
272.467102
  0
VERTEX
  8
OBRYS
 10
49.002838
 20
272.484344
  0
VERTEX
  8
OBRYS
 10
49.057648
 20
272.565491
  0
VERTEX
  8
OBRYS
 10
49.127594
 20
272.585144
  0
SEQEND
  8
OBRYS
  0
LINE
  8
OBRYS
 10
44.183760
 20
271.135769
 11
44.183760
 21
282.882448
  0
LINE
  8
OBRYS
 10
49.183760
 20
272.537550
 11
49.127582
 21
272.585152
  0
LINE
  8
OBRYS
 10
49.127582
 20
281.433065
 11
49.183760
 21
281.480668
  0
LINE
  8
OBRYS
 10
49.183760
 20
281.480668
 11
49.183760
 21
272.537550
  0
LINE
  8
OBRYS
 10
49.183760
 20
281.551122
 11
48.964689
 21
281.551122
  0
LINE
  8
OBRYS
 10
48.964689
 20
272.467095
 11
49.183760
 21
272.467095
  0
LINE
  8
OBRYS
 10
31.183760
 20
277.009109
 11
31.183760
 21
222.009109
  0
LINE
  8
OBRYS
 10
31.183760
 20
332.009109
 11
34.683760
 21
332.009109
  0
LINE
  8
OBRYS
 10
31.183760
 20
277.009109
 11
31.183760
 21
332.009109
  0
LINE
  8
OBRYS
 10
49.183760
 20
331.118426
 11
48.964689
 21
331.118426
  0
ARC
  8
OBRYS
 10
51.183760
 20
365.009109
 40
2.000000
 50
90.000000
 51
180.000000
  0
LINE
  8
OBRYS
 10
34.683760
 20
333.338278
 11
34.683760
 21
322.103937
  0
LINE
  8
OBRYS
 10
49.183760
 20
331.945409
 11
49.183760
 21
338.269148
  0
LINE
  8
OBRYS
 10
49.183760
 20
359.172328
 11
49.183760
 21
359.612738
  0
POLYLINE
  8
OBRYS
 66
    1
  0
VERTEX
  8
OBRYS
 10
49.183746
 20
338.269165
  0
VERTEX
  8
OBRYS
 10
49.127594
 20
338.013519
  0
VERTEX
  8
OBRYS
 10
49.057648
 20
337.745667
  0
VERTEX
  8
OBRYS
 10
49.002838
 20
337.577545
  0
VERTEX
  8
OBRYS
 10
48.964691
 20
337.541809
  0
VERTEX
  8
OBRYS
 10
48.481903
 20
337.151733
  0
VERTEX
  8
OBRYS
 10
47.683746
 20
336.839355
  0
VERTEX
  8
OBRYS
 10
34.683746
 20
333.338287
  0
SEQEND
  8
OBRYS
  0
LINE
  8
OBRYS
 10
34.683760
 20
324.872877
 11
31.183760
 21
324.872877
  0
LINE
  8
OBRYS
 10
44.183760
 20
354.415463
 11
44.183760
 21
354.993936
  0
LINE
  8
OBRYS
 10
34.683760
 20
324.872877
 11
34.683760
 21
303.575022
  0
LINE
  8
OBRYS
 10
34.683760
 20
330.389846
 11
34.683760
 21
329.638841
  0
LINE
  8
OBRYS
 10
34.683760
 20
332.009109
 11
34.683760
 21
331.436930
  0
LINE
  8
OBRYS
 10
49.183760
 20
360.751151
 11
49.183760
 21
358.858419
  0
POLYLINE
  8
OBRYS
 66
    1
  0
VERTEX
  8
OBRYS
 10
44.183746
 20
335.896759
  0
VERTEX
  8
OBRYS
 10
34.683746
 20
333.338287
  0
VERTEX
  8
OBRYS
 10
34.683746
 20
331.436920
  0
SEQEND
  8
OBRYS
  0
LINE
  8
OBRYS
 10
34.683760
 20
330.389846
 11
34.683760
 21
329.155386
  0
LINE
  8
OBRYS
 10
44.183760
 20
335.896745
 11
44.183760
 21
354.415463
  0
POLYLINE
  8
OBRYS
 66
    1
  0
VERTEX
  8
OBRYS
 10
31.183746
 20
303.575012
  0
VERTEX
  8
OBRYS
 10
34.683746
 20
303.575012
  0
VERTEX
  8
OBRYS
 10
34.683746
 20
305.022308
  0
VERTEX
  8
OBRYS
 10
34.683746
 20
322.103943
  0
VERTEX
  8
OBRYS
 10
47.683746
 20
329.612000
  0
VERTEX
  8
OBRYS
 10
48.481903
 20
330.281921
  0
VERTEX
  8
OBRYS
 10
48.964691
 20
331.118439
  0
VERTEX
  8
OBRYS
 10
49.002838
 20
331.178558
  0
VERTEX
  8
OBRYS
 10
49.057648
 20
331.461426
  0
VERTEX
  8
OBRYS
 10
49.127594
 20
331.757111
  0
VERTEX
  8
OBRYS
 10
49.183746
 20
331.945404
  0
VERTEX
  8
OBRYS
 10
49.183746
 20
331.993744
  0
VERTEX
  8
OBRYS
 10
49.183746
 20
332.161896
  0
VERTEX
  8
OBRYS
 10
49.183746
 20
332.254913
  0
VERTEX
  8
OBRYS
 10
49.183746
 20
332.269043
  0
SEQEND
  8
OBRYS
  0
LINE
  8
OBRYS
 10
44.183760
 20
347.209109
 11
44.183760
 21
336.809109
  0
LINE
  8
OBRYS
 10
34.683760
 20
324.438444
 11
34.683760
 21
324.098335
  0
LINE
  8
OBRYS
 10
34.683760
 20
317.771049
 11
34.683760
 21
328.171049
  0
LINE
  8
OBRYS
 10
49.183760
 20
314.935563
 11
50.183760
 21
314.935563
  0
LINE
  8
OBRYS
 10
45.183760
 20
358.343351
 11
48.862353
 21
358.343351
  0
LINE
  8
OBRYS
 10
45.183760
 20
358.343351
 11
50.183760
 21
358.343351
  0
LINE
  8
OBRYS
 10
49.183760
 20
345.343351
 11
45.183760
 21
345.343351
  0
LINE
  8
OBRYS
 10
45.183760
 20
314.506467
 11
50.183760
 21
314.506467
  0
LINE
  8
OBRYS
 10
49.183760
 20
301.506467
 11
45.183760
 21
301.506467
  0
POLYLINE
  8
OBRYS
 66
    1
  0
VERTEX
  8
OBRYS
 10
49.183762
 20
303.473480
  0
VERTEX
  8
OBRYS
 10
49.336002
 20
303.766357
  0
VERTEX
  8
OBRYS
 10
49.769547
 20
304.014679
  0
VERTEX
  8
OBRYS
 10
50.183762
 20
304.120575
  0
VERTEX
  8
OBRYS
 10
50.183762
 20
311.293060
  0
VERTEX
  8
OBRYS
 10
50.177734
 20
311.330811
  0
VERTEX
  8
OBRYS
 10
50.183762
 20
311.368591
  0
VERTEX
  8
OBRYS
 10
50.183762
 20
317.978790
  0
SEQEND
  8
OBRYS
  0
POLYLINE
  8
OBRYS
 66
    1
  0
VERTEX
  8
OBRYS
 10
50.183762
 20
317.978790
  0
VERTEX
  8
OBRYS
 10
49.769547
 20
317.872864
  0
VERTEX
  8
OBRYS
 10
49.336002
 20
317.624573
  0
VERTEX
  8
OBRYS
 10
49.183762
 20
317.331665
  0
SEQEND
  8
OBRYS
  0
POLYLINE
  8
OBRYS
 66
    1
  0
VERTEX
  8
OBRYS
 10
49.183762
 20
360.498169
  0
VERTEX
  8
OBRYS
 10
49.336002
 20
361.205292
  0
VERTEX
  8
OBRYS
 10
49.769547
 20
361.804749
  0
VERTEX
  8
OBRYS
 10
50.183762
 20
362.060455
  0
SEQEND
  8
OBRYS
  0
LINE
  8
OBRYS
 10
45.183760
 20
301.506467
 11
45.183760
 21
314.506467
  0
LINE
  8
OBRYS
 10
45.183760
 20
305.022315
 11
34.683760
 21
305.022315
  0
LINE
  8
OBRYS
 10
45.183760
 20
345.343351
 11
45.183760
 21
358.343351
  0
POLYLINE
  8
OBRYS
 66
    1
  0
VERTEX
  8
OBRYS
 10
50.183762
 20
362.060455
  0
VERTEX
  8
OBRYS
 10
50.183762
 20
359.884705
  0
VERTEX
  8
OBRYS
 10
50.177734
 20
359.869049
  0
VERTEX
  8
OBRYS
 10
50.183762
 20
359.853394
  0
VERTEX
  8
OBRYS
 10
50.183762
 20
356.320190
  0
VERTEX
  8
OBRYS
 10
49.769547
 20
356.064484
  0
VERTEX
  8
OBRYS
 10
49.336002
 20
355.465027
  0
VERTEX
  8
OBRYS
 10
49.183762
 20
354.757935
  0
SEQEND
  8
OBRYS
  0
LINE
  8
OBRYS
 10
44.183746
 20
354.415466
 11
45.183762
 21
355.014282
  0
LINE
  8
OBRYS
 10
44.183760
 20
354.993936
 11
45.183760
 21
355.571286
  0
LINE
  8
OBRYS
 10
49.183760
 20
365.009109
 11
49.183760
 21
358.343351
  0
LINE
  8
OBRYS
 10
49.183760
 20
354.757925
 11
49.183760
 21
314.506467
  0
LINE
  8
OBRYS
 10
49.183760
 20
303.473471
 11
49.183760
 21
277.009109
  0
LINE
  8
OBRYS
 10
49.183760
 20
250.544746
 11
49.183760
 21
277.009109
  0
LINE
  8
OBRYS
 10
49.183760
 20
199.260292
 11
49.183760
 21
239.511751
  0
LINE
  8
OBRYS
 10
49.183760
 20
189.009109
 11
49.183760
 21
195.674867
  0
LINE
  8
OBRYS
 10
44.183760
 20
199.024281
 11
45.183760
 21
198.446931
  0
LINE
  8
OBRYS
 10
44.183746
 20
199.602753
 11
45.183762
 21
199.003937
  0
POLYLINE
  8
OBRYS
 66
    1
  0
VERTEX
  8
OBRYS
 10
50.183762
 20
191.957779
  0
VERTEX
  8
OBRYS
 10
50.183762
 20
194.133514
  0
VERTEX
  8
OBRYS
 10
50.177734
 20
194.149170
  0
VERTEX
  8
OBRYS
 10
50.183762
 20
194.164810
  0
VERTEX
  8
OBRYS
 10
50.183762
 20
197.698029
  0
VERTEX
  8
OBRYS
 10
49.769547
 20
197.953735
  0
VERTEX
  8
OBRYS
 10
49.336002
 20
198.553192
  0
VERTEX
  8
OBRYS
 10
49.183762
 20
199.260284
  0
SEQEND
  8
OBRYS
  0
LINE
  8
OBRYS
 10
45.183760
 20
208.674867
 11
45.183760
 21
195.674867
  0
LINE
  8
OBRYS
 10
45.183760
 20
248.995902
 11
34.683760
 21
248.995902
  0
LINE
  8
OBRYS
 10
45.183760
 20
252.511751
 11
45.183760
 21
239.511751
  0
POLYLINE
  8
OBRYS
 66
    1
  0
VERTEX
  8
OBRYS
 10
49.183762
 20
193.520035
  0
VERTEX
  8
OBRYS
 10
49.336002
 20
192.812927
  0
VERTEX
  8
OBRYS
 10
49.769547
 20
192.213470
  0
VERTEX
  8
OBRYS
 10
50.183762
 20
191.957779
  0
SEQEND
  8
OBRYS
  0
POLYLINE
  8
OBRYS
 66
    1
  0
VERTEX
  8
OBRYS
 10
50.183762
 20
236.039444
  0
VERTEX
  8
OBRYS
 10
49.769547
 20
236.145355
  0
VERTEX
  8
OBRYS
 10
49.336002
 20
236.393661
  0
VERTEX
  8
OBRYS
 10
49.183762
 20
236.686554
  0
SEQEND
  8
OBRYS
  0
POLYLINE
  8
OBRYS
 66
    1
  0
VERTEX
  8
OBRYS
 10
49.183762
 20
250.544739
  0
VERTEX
  8
OBRYS
 10
49.336002
 20
250.251846
  0
VERTEX
  8
OBRYS
 10
49.769547
 20
250.003555
  0
VERTEX
  8
OBRYS
 10
50.183762
 20
249.897629
  0
VERTEX
  8
OBRYS
 10
50.183762
 20
242.725174
  0
VERTEX
  8
OBRYS
 10
50.177734
 20
242.687393
  0
VERTEX
  8
OBRYS
 10
50.183762
 20
242.649628
  0
VERTEX
  8
OBRYS
 10
50.183762
 20
236.039444
  0
SEQEND
  8
OBRYS
  0
LINE
  8
OBRYS
 10
49.183760
 20
252.511751
 11
45.183760
 21
252.511751
  0
LINE
  8
OBRYS
 10
45.183760
 20
239.511751
 11
50.183760
 21
239.511751
  0
LINE
  8
OBRYS
 10
49.183760
 20
208.674867
 11
45.183760
 21
208.674867
  0
LINE
  8
OBRYS
 10
45.183760
 20
195.674867
 11
50.183760
 21
195.674867
  0
LINE
  8
OBRYS
 10
45.183760
 20
195.674867
 11
48.862353
 21
195.674867
  0
LINE
  8
OBRYS
 10
49.183760
 20
239.082654
 11
50.183760
 21
239.082654
  0
LINE
  8
OBRYS
 10
34.683760
 20
236.247168
 11
34.683760
 21
225.847168
  0
LINE
  8
OBRYS
 10
34.683760
 20
229.579773
 11
34.683760
 21
229.919883
  0
LINE
  8
OBRYS
 10
44.183760
 20
206.809109
 11
44.183760
 21
217.209109
  0
POLYLINE
  8
OBRYS
 66
    1
  0
VERTEX
  8
OBRYS
 10
31.183746
 20
250.443207
  0
VERTEX
  8
OBRYS
 10
34.683746
 20
250.443207
  0
VERTEX
  8
OBRYS
 10
34.683746
 20
248.995911
  0
VERTEX
  8
OBRYS
 10
34.683746
 20
231.914276
  0
VERTEX
  8
OBRYS
 10
47.683746
 20
224.406219
  0
VERTEX
  8
OBRYS
 10
48.481903
 20
223.736298
  0
VERTEX
  8
OBRYS
 10
48.964691
 20
222.899780
  0
VERTEX
  8
OBRYS
 10
49.002838
 20
222.839661
  0
VERTEX
  8
OBRYS
 10
49.057648
 20
222.556793
  0
VERTEX
  8
OBRYS
 10
49.127594
 20
222.261108
  0
VERTEX
  8
OBRYS
 10
49.183746
 20
222.072815
  0
VERTEX
  8
OBRYS
 10
49.183746
 20
222.024475
  0
VERTEX
  8
OBRYS
 10
49.183746
 20
221.856323
  0
VERTEX
  8
OBRYS
 10
49.183746
 20
221.763306
  0
VERTEX
  8
OBRYS
 10
49.183746
 20
221.749176
  0
SEQEND
  8
OBRYS
  0
LINE
  8
OBRYS
 10
44.183760
 20
218.121472
 11
44.183760
 21
199.602755
  0
LINE
  8
OBRYS
 10
34.683760
 20
223.628372
 11
34.683760
 21
224.862831
  0
POLYLINE
  8
OBRYS
 66
    1
  0
VERTEX
  8
OBRYS
 10
44.183746
 20
218.121460
  0
VERTEX
  8
OBRYS
 10
34.683746
 20
220.679932
  0
VERTEX
  8
OBRYS
 10
34.683746
 20
222.581299
  0
SEQEND
  8
OBRYS
  0
LINE
  8
OBRYS
 10
49.183760
 20
193.267066
 11
49.183760
 21
195.159798
  0
LINE
  8
OBRYS
 10
34.683760
 20
222.009109
 11
34.683760
 21
222.581287
  0
LINE
  8
OBRYS
 10
34.683760
 20
223.628372
 11
34.683760
 21
224.379376
  0
LINE
  8
OBRYS
 10
34.683760
 20
229.145340
 11
34.683760
 21
250.443195
  0
LINE
  8
OBRYS
 10
44.183760
 20
199.602755
 11
44.183760
 21
199.024281
  0
LINE
  8
OBRYS
 10
34.683760
 20
229.145340
 11
31.183760
 21
229.145340
  0
POLYLINE
  8
OBRYS
 66
    1
  0
VERTEX
  8
OBRYS
 10
49.183746
 20
215.749054
  0
VERTEX
  8
OBRYS
 10
49.127594
 20
216.004700
  0
VERTEX
  8
OBRYS
 10
49.057648
 20
216.272552
  0
VERTEX
  8
OBRYS
 10
49.002838
 20
216.440674
  0
VERTEX
  8
OBRYS
 10
48.964691
 20
216.476410
  0
VERTEX
  8
OBRYS
 10
48.481903
 20
216.866486
  0
VERTEX
  8
OBRYS
 10
47.683746
 20
217.178864
  0
VERTEX
  8
OBRYS
 10
34.683746
 20
220.679932
  0
SEQEND
  8
OBRYS
  0
LINE
  8
OBRYS
 10
49.183760
 20
194.845889
 11
49.183760
 21
194.405479
  0
LINE
  8
OBRYS
 10
49.183760
 20
222.072809
 11
49.183760
 21
215.749069
  0
LINE
  8
OBRYS
 10
34.683760
 20
220.679940
 11
34.683760
 21
231.914280
  0
ARC
  8
OBRYS
 10
51.183760
 20
189.009109
 40
2.000000
 50
180.000000
 51
270.000000
  0
LINE
  8
OBRYS
 10
49.183760
 20
222.899791
 11
48.964689
 21
222.899791
  0
LINE
  8
OBRYS
 10
31.183760
 20
222.009109
 11
34.683760
 21
222.009109
  0
LINE
  8
OBRYS
 10
51.183760
 20
187.009109
 11
56.183760
 21
187.009109
  0
LINE
  8
OBRYS
 10
51.183760
 20
367.009109
 11
56.183760
 21
367.009109
  0
ENDBLK
  8
OBRYS
  0
BLOCK
  8
OBRYS
  2
_7
 70
   64
 10
389.659929
 20
610.485278
  0
LINE
  8
OBRYS
 10
334.659929
 20
635.485278
 11
334.659929
 21
631.985278
  0
LINE
  8
OBRYS
 10
335.550611
 20
617.485278
 11
335.550611
 21
617.704349
  0
ARC
  8
OBRYS
 10
301.659929
 20
615.485278
 40
2.000000
 50
90.000000
 51
180.000000
  0
LINE
  8
OBRYS
 10
333.330760
 20
631.985278
 11
344.565100
 21
631.985278
  0
LINE
  8
OBRYS
 10
334.723629
 20
617.485278
 11
328.399889
 21
617.485278
  0
LINE
  8
OBRYS
 10
307.496709
 20
617.485278
 11
307.056299
 21
617.485278
  0
POLYLINE
  8
OBRYS
 66
    1
  0
VERTEX
  8
OBRYS
 10
328.399872
 20
617.485291
  0
VERTEX
  8
OBRYS
 10
328.655518
 20
617.541443
  0
VERTEX
  8
OBRYS
 10
328.923370
 20
617.611389
  0
VERTEX
  8
OBRYS
 10
329.091492
 20
617.666199
  0
VERTEX
  8
OBRYS
 10
329.127228
 20
617.704346
  0
VERTEX
  8
OBRYS
 10
329.517303
 20
618.187134
  0
VERTEX
  8
OBRYS
 10
329.829681
 20
618.985291
  0
VERTEX
  8
OBRYS
 10
333.330750
 20
631.985291
  0
SEQEND
  8
OBRYS
  0
LINE
  8
OBRYS
 10
341.796161
 20
631.985278
 11
341.796161
 21
635.485278
  0
LINE
  8
OBRYS
 10
312.253575
 20
622.485278
 11
311.675101
 21
622.485278
  0
LINE
  8
OBRYS
 10
341.796161
 20
631.985278
 11
363.094015
 21
631.985278
  0
LINE
  8
OBRYS
 10
336.279192
 20
631.985278
 11
337.030196
 21
631.985278
  0
LINE
  8
OBRYS
 10
334.659929
 20
631.985278
 11
335.232107
 21
631.985278
  0
LINE
  8
OBRYS
 10
305.917886
 20
617.485278
 11
307.810618
 21
617.485278
  0
POLYLINE
  8
OBRYS
 66
    1
  0
VERTEX
  8
OBRYS
 10
330.772278
 20
622.485291
  0
VERTEX
  8
OBRYS
 10
333.330750
 20
631.985291
  0
VERTEX
  8
OBRYS
 10
335.232117
 20
631.985291
  0
SEQEND
  8
OBRYS
  0
LINE
  8
OBRYS
 10
336.279192
 20
631.985278
 11
337.513652
 21
631.985278
  0
LINE
  8
OBRYS
 10
330.772293
 20
622.485278
 11
312.253575
 21
622.485278
  0
POLYLINE
  8
OBRYS
 66
    1
  0
VERTEX
  8
OBRYS
 10
363.094025
 20
635.485291
  0
VERTEX
  8
OBRYS
 10
363.094025
 20
631.985291
  0
VERTEX
  8
OBRYS
 10
361.646729
 20
631.985291
  0
VERTEX
  8
OBRYS
 10
344.565094
 20
631.985291
  0
VERTEX
  8
OBRYS
 10
337.057037
 20
618.985291
  0
VERTEX
  8
OBRYS
 10
336.387115
 20
618.187134
  0
VERTEX
  8
OBRYS
 10
335.550598
 20
617.704346
  0
VERTEX
  8
OBRYS
 10
335.490479
 20
617.666199
  0
VERTEX
  8
OBRYS
 10
335.207611
 20
617.611389
  0
VERTEX
  8
OBRYS
 10
334.911926
 20
617.541443
  0
VERTEX
  8
OBRYS
 10
334.723633
 20
617.485291
  0
VERTEX
  8
OBRYS
 10
334.675293
 20
617.485291
  0
VERTEX
  8
OBRYS
 10
334.507141
 20
617.485291
  0
VERTEX
  8
OBRYS
 10
334.414124
 20
617.485291
  0
VERTEX
  8
OBRYS
 10
334.399994
 20
617.485291
  0
SEQEND
  8
OBRYS
  0
LINE
  8
OBRYS
 10
319.459929
 20
622.485278
 11
329.859929
 21
622.485278
  0
LINE
  8
OBRYS
 10
342.230593
 20
631.985278
 11
342.570703
 21
631.985278
  0
LINE
  8
OBRYS
 10
348.897988
 20
631.985278
 11
338.497988
 21
631.985278
  0
LINE
  8
OBRYS
 10
351.733474
 20
617.485278
 11
351.733474
 21
616.485278
  0
LINE
  8
OBRYS
 10
308.325687
 20
621.485278
 11
308.325687
 21
617.806685
  0
LINE
  8
OBRYS
 10
308.325687
 20
621.485278
 11
308.325687
 21
616.485278
  0
LINE
  8
OBRYS
 10
321.325687
 20
617.485278
 11
321.325687
 21
621.485278
  0
LINE
  8
OBRYS
 10
352.162571
 20
621.485278
 11
352.162571
 21
616.485278
  0
LINE
  8
OBRYS
 10
365.162571
 20
617.485278
 11
365.162571
 21
621.485278
  0
POLYLINE
  8
OBRYS
 66
    1
  0
VERTEX
  8
OBRYS
 10
363.195557
 20
617.485291
  0
VERTEX
  8
OBRYS
 10
362.902679
 20
617.333008
  0
VERTEX
  8
OBRYS
 10
362.654358
 20
616.899475
  0
VERTEX
  8
OBRYS
 10
362.548462
 20
616.485291
  0
VERTEX
  8
OBRYS
 10
355.375977
 20
616.485291
  0
VERTEX
  8
OBRYS
 10
355.338226
 20
616.491333
  0
VERTEX
  8
OBRYS
 10
355.300446
 20
616.485291
  0
VERTEX
  8
OBRYS
 10
348.690277
 20
616.485291
  0
SEQEND
  8
OBRYS
  0
POLYLINE
  8
OBRYS
 66
    1
  0
VERTEX
  8
OBRYS
 10
348.690277
 20
616.485291
  0
VERTEX
  8
OBRYS
 10
348.796173
 20
616.899475
  0
VERTEX
  8
OBRYS
 10
349.044495
 20
617.333008
  0
VERTEX
  8
OBRYS
 10
349.337372
 20
617.485291
  0
SEQEND
  8
OBRYS
  0
POLYLINE
  8
OBRYS
 66
    1
  0
VERTEX
  8
OBRYS
 10
306.170868
 20
617.485291
  0
VERTEX
  8
OBRYS
 10
305.463745
 20
617.333008
  0
VERTEX
  8
OBRYS
 10
304.864288
 20
616.899475
  0
VERTEX
  8
OBRYS
 10
304.608612
 20
616.485291
  0
SEQEND
  8
OBRYS
  0
LINE
  8
OBRYS
 10
365.162571
 20
621.485278
 11
352.162571
 21
621.485278
  0
LINE
  8
OBRYS
 10
361.646722
 20
621.485278
 11
361.646722
 21
631.985278
  0
LINE
  8
OBRYS
 10
321.325687
 20
621.485278
 11
308.325687
 21
621.485278
  0
POLYLINE
  8
OBRYS
 66
    1
  0
VERTEX
  8
OBRYS
 10
304.608612
 20
616.485291
  0
VERTEX
  8
OBRYS
 10
306.784332
 20
616.485291
  0
VERTEX
  8
OBRYS
 10
306.799988
 20
616.491333
  0
VERTEX
  8
OBRYS
 10
306.815643
 20
616.485291
  0
VERTEX
  8
OBRYS
 10
310.348846
 20
616.485291
  0
VERTEX
  8
OBRYS
 10
310.604553
 20
616.899475
  0
VERTEX
  8
OBRYS
 10
311.204010
 20
617.333008
  0
VERTEX
  8
OBRYS
 10
311.911102
 20
617.485291
  0
SEQEND
  8
OBRYS
  0
LINE
  8
OBRYS
 10
312.253571
 20
622.485291
 11
311.654755
 21
621.485291
  0
LINE
  8
OBRYS
 10
311.675101
 20
622.485278
 11
311.097751
 21
621.485278
  0
LINE
  8
OBRYS
 10
301.659929
 20
617.485278
 11
308.325687
 21
617.485278
  0
LINE
  8
OBRYS
 10
311.911112
 20
617.485278
 11
352.162571
 21
617.485278
  0
LINE
  8
OBRYS
 10
363.195566
 20
617.485278
 11
389.659929
 21
617.485278
  0
LINE
  8
OBRYS
 10
416.124292
 20
617.485278
 11
389.659929
 21
617.485278
  0
LINE
  8
OBRYS
 10
467.408746
 20
617.485278
 11
427.157287
 21
617.485278
  0
LINE
  8
OBRYS
 10
477.659929
 20
617.485278
 11
470.994171
 21
617.485278
  0
LINE
  8
OBRYS
 10
467.644756
 20
622.485278
 11
468.222107
 21
621.485278
  0
LINE
  8
OBRYS
 10
467.066284
 20
622.485291
 11
467.665100
 21
621.485291
  0
POLYLINE
  8
OBRYS
 66
    1
  0
VERTEX
  8
OBRYS
 10
474.711273
 20
616.485291
  0
VERTEX
  8
OBRYS
 10
472.535522
 20
616.485291
  0
VERTEX
  8
OBRYS
 10
472.519867
 20
616.491333
  0
VERTEX
  8
OBRYS
 10
472.504211
 20
616.485291
  0
VERTEX
  8
OBRYS
 10
468.971008
 20
616.485291
  0
VERTEX
  8
OBRYS
 10
468.715302
 20
616.899475
  0
VERTEX
  8
OBRYS
 10
468.115845
 20
617.333008
  0
VERTEX
  8
OBRYS
 10
467.408752
 20
617.485291
  0
SEQEND
  8
OBRYS
  0
LINE
  8
OBRYS
 10
457.994171
 20
621.485278
 11
470.994171
 21
621.485278
  0
LINE
  8
OBRYS
 10
417.673135
 20
621.485278
 11
417.673135
 21
631.985278
  0
LINE
  8
OBRYS
 10
414.157287
 20
621.485278
 11
427.157287
 21
621.485278
  0
POLYLINE
  8
OBRYS
 66
    1
  0
VERTEX
  8
OBRYS
 10
473.148987
 20
617.485291
  0
VERTEX
  8
OBRYS
 10
473.856110
 20
617.333008
  0
VERTEX
  8
OBRYS
 10
474.455566
 20
616.899475
  0
VERTEX
  8
OBRYS
 10
474.711273
 20
616.485291
  0
SEQEND
  8
OBRYS
  0
POLYLINE
  8
OBRYS
 66
    1
  0
VERTEX
  8
OBRYS
 10
430.629608
 20
616.485291
  0
VERTEX
  8
OBRYS
 10
430.523682
 20
616.899475
  0
VERTEX
  8
OBRYS
 10
430.275391
 20
617.333008
  0
VERTEX
  8
OBRYS
 10
429.982483
 20
617.485291
  0
SEQEND
  8
OBRYS
  0
POLYLINE
  8
OBRYS
 66
    1
  0
VERTEX
  8
OBRYS
 10
416.124298
 20
617.485291
  0
VERTEX
  8
OBRYS
 10
416.417175
 20
617.333008
  0
VERTEX
  8
OBRYS
 10
416.665497
 20
616.899475
  0
VERTEX
  8
OBRYS
 10
416.771393
 20
616.485291
  0
VERTEX
  8
OBRYS
 10
423.943878
 20
616.485291
  0
VERTEX
  8
OBRYS
 10
423.981628
 20
616.491333
  0
VERTEX
  8
OBRYS
 10
424.019409
 20
616.485291
  0
VERTEX
  8
OBRYS
 10
430.629608
 20
616.485291
  0
SEQEND
  8
OBRYS
  0
LINE
  8
OBRYS
 10
414.157287
 20
617.485278
 11
414.157287
 21
621.485278
  0
LINE
  8
OBRYS
 10
427.157287
 20
621.485278
 11
427.157287
 21
616.485278
  0
LINE
  8
OBRYS
 10
457.994171
 20
617.485278
 11
457.994171
 21
621.485278
  0
LINE
  8
OBRYS
 10
470.994171
 20
621.485278
 11
470.994171
 21
616.485278
  0
LINE
  8
OBRYS
 10
470.994171
 20
621.485278
 11
470.994171
 21
617.806685
  0
LINE
  8
OBRYS
 10
427.586384
 20
617.485278
 11
427.586384
 21
616.485278
  0
LINE
  8
OBRYS
 10
430.421870
 20
631.985278
 11
440.821870
 21
631.985278
  0
LINE
  8
OBRYS
 10
437.089264
 20
631.985278
 11
436.749155
 21
631.985278
  0
LINE
  8
OBRYS
 10
459.859929
 20
622.485278
 11
449.459929
 21
622.485278
  0
POLYLINE
  8
OBRYS
 66
    1
  0
VERTEX
  8
OBRYS
 10
416.225830
 20
635.485291
  0
VERTEX
  8
OBRYS
 10
416.225830
 20
631.985291
  0
VERTEX
  8
OBRYS
 10
417.673126
 20
631.985291
  0
VERTEX
  8
OBRYS
 10
434.754761
 20
631.985291
  0
VERTEX
  8
OBRYS
 10
442.262817
 20
618.985291
  0
VERTEX
  8
OBRYS
 10
442.932739
 20
618.187134
  0
VERTEX
  8
OBRYS
 10
443.769257
 20
617.704346
  0
VERTEX
  8
OBRYS
 10
443.829376
 20
617.666199
  0
VERTEX
  8
OBRYS
 10
444.112244
 20
617.611389
  0
VERTEX
  8
OBRYS
 10
444.407928
 20
617.541443
  0
VERTEX
  8
OBRYS
 10
444.596222
 20
617.485291
  0
VERTEX
  8
OBRYS
 10
444.644562
 20
617.485291
  0
VERTEX
  8
OBRYS
 10
444.812714
 20
617.485291
  0
VERTEX
  8
OBRYS
 10
444.905731
 20
617.485291
  0
VERTEX
  8
OBRYS
 10
444.919861
 20
617.485291
  0
SEQEND
  8
OBRYS
  0
LINE
  8
OBRYS
 10
448.547565
 20
622.485278
 11
467.066283
 21
622.485278
  0
LINE
  8
OBRYS
 10
443.040666
 20
631.985278
 11
441.806206
 21
631.985278
  0
POLYLINE
  8
OBRYS
 66
    1
  0
VERTEX
  8
OBRYS
 10
448.547577
 20
622.485291
  0
VERTEX
  8
OBRYS
 10
445.989105
 20
631.985291
  0
VERTEX
  8
OBRYS
 10
444.087738
 20
631.985291
  0
SEQEND
  8
OBRYS
  0
LINE
  8
OBRYS
 10
473.401971
 20
617.485278
 11
471.509239
 21
617.485278
  0
LINE
  8
OBRYS
 10
444.659929
 20
631.985278
 11
444.087750
 21
631.985278
  0
LINE
  8
OBRYS
 10
443.040666
 20
631.985278
 11
442.289662
 21
631.985278
  0
LINE
  8
OBRYS
 10
437.523697
 20
631.985278
 11
416.225842
 21
631.985278
  0
LINE
  8
OBRYS
 10
467.066283
 20
622.485278
 11
467.644756
 21
622.485278
  0
LINE
  8
OBRYS
 10
437.523697
 20
631.985278
 11
437.523697
 21
635.485278
  0
POLYLINE
  8
OBRYS
 66
    1
  0
VERTEX
  8
OBRYS
 10
450.919983
 20
617.485291
  0
VERTEX
  8
OBRYS
 10
450.664337
 20
617.541443
  0
VERTEX
  8
OBRYS
 10
450.396484
 20
617.611389
  0
VERTEX
  8
OBRYS
 10
450.228363
 20
617.666199
  0
VERTEX
  8
OBRYS
 10
450.192627
 20
617.704346
  0
VERTEX
  8
OBRYS
 10
449.802551
 20
618.187134
  0
VERTEX
  8
OBRYS
 10
449.490173
 20
618.985291
  0
VERTEX
  8
OBRYS
 10
445.989105
 20
631.985291
  0
SEQEND
  8
OBRYS
  0
LINE
  8
OBRYS
 10
471.823148
 20
617.485278
 11
472.263559
 21
617.485278
  0
LINE
  8
OBRYS
 10
444.596229
 20
617.485278
 11
450.919968
 21
617.485278
  0
LINE
  8
OBRYS
 10
445.989098
 20
631.985278
 11
434.754757
 21
631.985278
  0
ARC
  8
OBRYS
 10
477.659929
 20
615.485278
 40
2.000000
 50
0.000000
 51
90.000000
  0
LINE
  8
OBRYS
 10
443.769247
 20
617.485278
 11
443.769247
 21
617.704349
  0
LINE
  8
OBRYS
 10
479.659929
 20
615.485278
 11
479.659929
 21
603.485278
  0
LINE
  8
OBRYS
 10
389.659929
 20
635.485278
 11
444.659929
 21
635.485278
  0
LINE
  8
OBRYS
 10
444.659929
 20
635.485278
 11
444.659929
 21
631.985278
  0
LINE
  8
OBRYS
 10
389.659929
 20
635.485278
 11
334.659929
 21
635.485278
  0
LINE
  8
OBRYS
 10
299.659929
 20
615.485278
 11
299.659929
 21
603.485278
  0
LINE
  8
OBRYS
 10
385.117916
 20
617.704349
 11
385.117916
 21
617.485278
  0
LINE
  8
OBRYS
 10
394.201942
 20
617.485278
 11
394.201942
 21
617.704349
  0
LINE
  8
OBRYS
 10
394.131488
 20
617.485278
 11
385.188370
 21
617.485278
  0
LINE
  8
OBRYS
 10
394.083886
 20
617.541455
 11
394.131488
 21
617.485278
  0
LINE
  8
OBRYS
 10
385.188370
 20
617.485278
 11
385.235972
 21
617.541455
  0
LINE
  8
OBRYS
 10
383.786589
 20
622.485278
 11
395.533269
 21
622.485278
  0
POLYLINE
  8
OBRYS
 66
    1
  0
VERTEX
  8
OBRYS
 10
383.786591
 20
622.485291
  0
VERTEX
  8
OBRYS
 10
384.549408
 20
618.985291
  0
VERTEX
  8
OBRYS
 10
384.802246
 20
618.187134
  0
VERTEX
  8
OBRYS
 10
385.117920
 20
617.704346
  0
VERTEX
  8
OBRYS
 10
385.135162
 20
617.666199
  0
VERTEX
  8
OBRYS
 10
385.216309
 20
617.611389
  0
VERTEX
  8
OBRYS
 10
385.235962
 20
617.541443
  0
SEQEND
  8
OBRYS
  0
LINE
  8
OBRYS
 10
375.269831
 20
622.485278
 11
383.786589
 21
622.485278
  0
POLYLINE
  8
OBRYS
 66
    1
  0
VERTEX
  8
OBRYS
 10
394.083893
 20
617.541443
  0
VERTEX
  8
OBRYS
 10
394.103577
 20
617.611389
  0
VERTEX
  8
OBRYS
 10
394.184692
 20
617.666199
  0
VERTEX
  8
OBRYS
 10
394.201935
 20
617.704346
  0
VERTEX
  8
OBRYS
 10
394.517609
 20
618.187134
  0
VERTEX
  8
OBRYS
 10
394.770447
 20
618.985291
  0
VERTEX
  8
OBRYS
 10
395.533264
 20
622.485291
  0
SEQEND
  8
OBRYS
  0
LINE
  8
OBRYS
 10
395.533269
 20
622.485278
 11
404.050027
 21
622.485278
  0
LINE
  8
OBRYS
 10
394.859929
 20
622.485278
 11
384.459929
 21
622.485278
  0
LINE
  8
OBRYS
 10
375.269831
 20
622.485278
 11
404.050027
 21
622.485278
  0
LINE
  8
OBRYS
 10
404.050027
 20
635.485278
 11
404.050027
 21
622.485278
  0
LINE
  8
OBRYS
 10
375.269831
 20
635.485278
 11
375.269831
 21
622.485278
  0
ENDBLK
  8
OBRYS
  0
BLOCK
  8
OSA
  2
M10x1_8
 70
   66
 10
474.159929
 20
1074.900472
  0
LINE
  8
OSA
 10
464.831027
 20
565.485278
 11
478.605277
 21
565.485278
  0
LINE
  8
OSA
 62
     2
  6
CONTINUOUS
 10
474.159929
 20
558.485278
 11
474.159929
 21
572.485278
  0
LINE
  8
OSA
 62
     2
  6
CONTINUOUS
 10
474.159929
 20
572.485278
 11
476.159929
 21
572.485278
  0
LINE
  8
OSA
 62
     2
  6
CONTINUOUS
 10
474.159929
 20
558.485278
 11
476.159929
 21
558.485278
  0
ARC
  8
OSA
 62
     2
  6
CONTINUOUS
 10
476.159929
 20
571.485278
 40
1.000000
 50
0.000000
 51
90.000000
  0
LINE
  8
OSA
 62
     2
  6
CONTINUOUS
 10
477.159929
 20
559.485278
 11
477.159929
 21
571.485278
  0
ARC
  8
OSA
 62
     2
  6
CONTINUOUS
 10
476.159929
 20
559.485278
 40
1.000000
 50
270.000000
 51
360.000000
  0
ENDBLK
  8
OSA
  0
BLOCK
  8
OSA
  2
Sroub_M10x16_9
 70
   66
 10
389.659929
 20
565.485278
  0
LINE
  8
OSA
 62
     2
  6
CONTINUOUS
 10
393.659929
 20
563.175862
 11
393.659929
 21
567.794693
  0
LINE
  8
OSA
 62
     2
  6
CONTINUOUS
 10
393.659929
 20
567.794693
 11
389.659929
 21
570.104109
  0
LINE
  8
OSA
 62
     2
  6
CONTINUOUS
 10
389.659929
 20
570.104109
 11
385.659929
 21
567.794693
  0
LINE
  8
OSA
 62
     2
  6
CONTINUOUS
 10
385.659929
 20
567.794693
 11
385.659929
 21
563.175862
  0
LINE
  8
OSA
 62
     2
  6
CONTINUOUS
 10
385.659929
 20
563.175862
 11
389.659929
 21
560.866447
  0
LINE
  8
OSA
 62
     2
  6
CONTINUOUS
 10
389.659929
 20
560.866447
 11
393.659929
 21
563.175862
  0
CIRCLE
  8
OSA
 62
     2
  6
CONTINUOUS
 10
389.659929
 20
565.485278
 40
4.618831
  0
CIRCLE
  8
OSA
 62
     2
  6
CONTINUOUS
 10
389.659929
 20
565.485278
 40
8.000000
  0
ENDBLK
  8
OSA
  0
BLOCK
  8
OSA
  2
Sroub_M10x16_10
 70
   66
 10
101.183760
 20
277.009109
  0
LINE
  8
OSA
 62
     2
  6
CONTINUOUS
 10
103.493175
 20
281.009109
 11
98.874344
 21
281.009109
  0
LINE
  8
OSA
 62
     2
  6
CONTINUOUS
 10
98.874344
 20
281.009109
 11
96.564929
 21
277.009109
  0
LINE
  8
OSA
 62
     2
  6
CONTINUOUS
 10
96.564929
 20
277.009109
 11
98.874344
 21
273.009109
  0
LINE
  8
OSA
 62
     2
  6
CONTINUOUS
 10
98.874344
 20
273.009109
 11
103.493175
 21
273.009109
  0
LINE
  8
OSA
 62
     2
  6
CONTINUOUS
 10
103.493175
 20
273.009109
 11
105.802591
 21
277.009109
  0
LINE
  8
OSA
 62
     2
  6
CONTINUOUS
 10
105.802591
 20
277.009109
 11
103.493175
 21
281.009109
  0
CIRCLE
  8
OSA
 62
     2
  6
CONTINUOUS
 10
101.183760
 20
277.009109
 40
4.618831
  0
CIRCLE
  8
OSA
 62
     2
  6
CONTINUOUS
 10
101.183760
 20
277.009109
 40
8.000000
  0
ENDBLK
  8
OSA
  0
BLOCK
  8
OSA
  2
M10x1_11
 70
   66
 10
168.720903
 20
192.509109
  0
LINE
  8
OSA
 10
678.136098
 20
201.838011
 11
678.136098
 21
188.063761
  0
LINE
  8
OSA
 62
     2
  6
CONTINUOUS
 10
685.136098
 20
192.509109
 11
671.136098
 21
192.509109
  0
LINE
  8
OSA
 62
     2
  6
CONTINUOUS
 10
671.136098
 20
192.509109
 11
671.136098
 21
190.509109
  0
LINE
  8
OSA
 62
     2
  6
CONTINUOUS
 10
685.136098
 20
192.509109
 11
685.136098
 21
190.509109
  0
ARC
  8
OSA
 62
     2
  6
CONTINUOUS
 10
672.136098
 20
190.509109
 40
1.000000
 50
180.000000
 51
270.000000
  0
LINE
  8
OSA
 62
     2
  6
CONTINUOUS
 10
684.136098
 20
189.509109
 11
672.136098
 21
189.509109
  0
ARC
  8
OSA
 62
     2
  6
CONTINUOUS
 10
684.136098
 20
190.509109
 40
1.000000
 50
270.000000
 51
360.000000
  0
ENDBLK
  8
OSA
  0
BLOCK
  8
OSA
  2
M10x1_12
 70
   66
 10
-408.231435
 20
192.509109
  0
LINE
  8
OSA
 10
101.183760
 20
201.838011
 11
101.183760
 21
188.063761
  0
LINE
  8
OSA
 62
     2
  6
CONTINUOUS
 10
108.183760
 20
192.509109
 11
94.183760
 21
192.509109
  0
LINE
  8
OSA
 62
     2
  6
CONTINUOUS
 10
94.183760
 20
192.509109
 11
94.183760
 21
190.509109
  0
LINE
  8
OSA
 62
     2
  6
CONTINUOUS
 10
108.183760
 20
192.509109
 11
108.183760
 21
190.509109
  0
ARC
  8
OSA
 62
     2
  6
CONTINUOUS
 10
95.183760
 20
190.509109
 40
1.000000
 50
180.000000
 51
270.000000
  0
LINE
  8
OSA
 62
     2
  6
CONTINUOUS
 10
107.183760
 20
189.509109
 11
95.183760
 21
189.509109
  0
ARC
  8
OSA
 62
     2
  6
CONTINUOUS
 10
107.183760
 20
190.509109
 40
1.000000
 50
270.000000
 51
360.000000
  0
ENDBLK
  8
OSA
  0
BLOCK
  8
KOTA
  2
Vnitrni_metricky_zavit_M1_13
 70
   66
 10
881.445884
 20
231.047168
  0
CIRCLE
  8
KOTA
 62
     2
 10
881.445884
 20
231.047168
 40
4.188200
  0
ARC
  8
KOTA
 62
     7
 10
881.445884
 20
231.047168
 40
5.000000
 50
40.000000
 51
320.000000
  0
ENDBLK
  8
KOTA
  0
BLOCK
  8
KOTA
  2
Vnitrni_metricky_zavit_M1_14
 70
   66
 10
881.445884
 20
322.971049
  0
CIRCLE
  8
KOTA
 62
     2
 10
881.445884
 20
322.971049
 40
4.188200
  0
ARC
  8
KOTA
 62
     7
 10
881.445884
 20
322.971049
 40
5.000000
 50
40.000000
 51
320.000000
  0
ENDBLK
  8
KOTA
  0
BLOCK
  8
KOTA
  2
Vnitrni_metricky_zavit_M1_15
 70
   66
 10
973.369766
 20
322.971049
  0
CIRCLE
  8
KOTA
 62
     2
 10
973.369766
 20
322.971049
 40
4.188200
  0
ARC
  8
KOTA
 62
     7
 10
973.369766
 20
322.971049
 40
5.000000
 50
40.000000
 51
320.000000
  0
ENDBLK
  8
KOTA
  0
BLOCK
  8
KOTA
  2
Vnitrni_metricky_zavit_M1_16
 70
   66
 10
973.369766
 20
231.047168
  0
CIRCLE
  8
KOTA
 62
     2
 10
973.369766
 20
231.047168
 40
4.188200
  0
ARC
  8
KOTA
 62
     7
 10
973.369766
 20
231.047168
 40
5.000000
 50
40.000000
 51
320.000000
  0
ENDBLK
  8
KOTA
  0
BLOCK
  8
KOTA
  2
Vnitrni_metricky_zavit_M1_17
 70
   66
 10
927.407825
 20
212.009109
  0
CIRCLE
  8
KOTA
 62
     2
 10
927.407825
 20
212.009109
 40
4.188200
  0
ARC
  8
KOTA
 62
     7
 10
927.407825
 20
212.009109
 40
5.000000
 50
355.000000
 51
275.000000
  0
ENDBLK
  8
KOTA
  0
BLOCK
  8
KOTA
  2
Vnitrni_metricky_zavit_M1_18
 70
   66
 10
992.407825
 20
277.009109
  0
CIRCLE
  8
KOTA
 62
     2
 10
992.407825
 20
277.009109
 40
4.188200
  0
ARC
  8
KOTA
 62
     7
 10
992.407825
 20
277.009109
 40
5.000000
 50
355.000000
 51
275.000000
  0
ENDBLK
  8
KOTA
  0
BLOCK
  8
KOTA
  2
Vnitrni_metricky_zavit_M1_19
 70
   66
 10
927.407825
 20
342.009109
  0
CIRCLE
  8
KOTA
 62
     2
 10
927.407825
 20
342.009109
 40
4.188200
  0
ARC
  8
KOTA
 62
     7
 10
927.407825
 20
342.009109
 40
5.000000
 50
355.000000
 51
275.000000
  0
ENDBLK
  8
KOTA
  0
BLOCK
  8
KOTA
  2
Vnitrni_metricky_zavit_M1_20
 70
   66
 10
862.407825
 20
277.009109
  0
CIRCLE
  8
KOTA
 62
     2
 10
862.407825
 20
277.009109
 40
4.188200
  0
ARC
  8
KOTA
 62
     7
 10
862.407825
 20
277.009109
 40
5.000000
 50
355.000000
 51
275.000000
  0
ENDBLK
  8
KOTA
  0
BLOCK
  8
OBRYS
  2
Srouby_s_valcovou_hlavou__21
 70
   66
 10
358.662571
 20
351.843351
  0
LINE
  8
OBRYS
 10
355.662571
 20
350.111289
 11
355.662571
 21
353.575412
  0
LINE
  8
OBRYS
 10
355.662571
 20
353.575412
 11
358.662571
 21
355.307474
  0
LINE
  8
OBRYS
 10
358.662571
 20
355.307474
 11
361.662571
 21
353.575412
  0
LINE
  8
OBRYS
 10
361.662571
 20
353.575412
 11
361.662571
 21
350.111289
  0
LINE
  8
OBRYS
 10
361.662571
 20
350.111289
 11
358.662571
 21
348.379228
  0
LINE
  8
OBRYS
 10
358.662571
 20
348.379228
 11
355.662571
 21
350.111289
  0
CIRCLE
  8
OBRYS
 10
358.662571
 20
351.843351
 40
3.464123
  0
CIRCLE
  8
OBRYS
 10
358.662571
 20
351.843351
 40
6.500000
  0
ENDBLK
  8
OBRYS
  0
BLOCK
  8
OBRYS
  2
Srouby_s_valcovou_hlavou__22
 70
   66
 10
420.657287
 20
351.843351
  0
LINE
  8
OBRYS
 10
417.657287
 20
350.111289
 11
417.657287
 21
353.575412
  0
LINE
  8
OBRYS
 10
417.657287
 20
353.575412
 11
420.657287
 21
355.307474
  0
LINE
  8
OBRYS
 10
420.657287
 20
355.307474
 11
423.657287
 21
353.575412
  0
LINE
  8
OBRYS
 10
423.657287
 20
353.575412
 11
423.657287
 21
350.111289
  0
LINE
  8
OBRYS
 10
423.657287
 20
350.111289
 11
420.657287
 21
348.379228
  0
LINE
  8
OBRYS
 10
420.657287
 20
348.379228
 11
417.657287
 21
350.111289
  0
CIRCLE
  8
OBRYS
 10
420.657287
 20
351.843351
 40
3.464123
  0
CIRCLE
  8
OBRYS
 10
420.657287
 20
351.843351
 40
6.500000
  0
ENDBLK
  8
OBRYS
  0
BLOCK
  8
OBRYS
  2
Srouby_s_valcovou_hlavou__23
 70
   66
 10
464.494171
 20
308.006467
  0
LINE
  8
OBRYS
 10
461.494171
 20
306.274405
 11
461.494171
 21
309.738528
  0
LINE
  8
OBRYS
 10
461.494171
 20
309.738528
 11
464.494171
 21
311.470590
  0
LINE
  8
OBRYS
 10
464.494171
 20
311.470590
 11
467.494171
 21
309.738528
  0
LINE
  8
OBRYS
 10
467.494171
 20
309.738528
 11
467.494171
 21
306.274405
  0
LINE
  8
OBRYS
 10
467.494171
 20
306.274405
 11
464.494171
 21
304.542343
  0
LINE
  8
OBRYS
 10
464.494171
 20
304.542343
 11
461.494171
 21
306.274405
  0
CIRCLE
  8
OBRYS
 10
464.494171
 20
308.006467
 40
3.464123
  0
CIRCLE
  8
OBRYS
 10
464.494171
 20
308.006467
 40
6.500000
  0
ENDBLK
  8
OBRYS
  0
BLOCK
  8
OBRYS
  2
Srouby_s_valcovou_hlavou__24
 70
   66
 10
464.494171
 20
246.011751
  0
LINE
  8
OBRYS
 10
461.494171
 20
244.279689
 11
461.494171
 21
247.743812
  0
LINE
  8
OBRYS
 10
461.494171
 20
247.743812
 11
464.494171
 21
249.475874
  0
LINE
  8
OBRYS
 10
464.494171
 20
249.475874
 11
467.494171
 21
247.743812
  0
LINE
  8
OBRYS
 10
467.494171
 20
247.743812
 11
467.494171
 21
244.279689
  0
LINE
  8
OBRYS
 10
467.494171
 20
244.279689
 11
464.494171
 21
242.547627
  0
LINE
  8
OBRYS
 10
464.494171
 20
242.547627
 11
461.494171
 21
244.279689
  0
CIRCLE
  8
OBRYS
 10
464.494171
 20
246.011751
 40
3.464123
  0
CIRCLE
  8
OBRYS
 10
464.494171
 20
246.011751
 40
6.500000
  0
ENDBLK
  8
OBRYS
  0
BLOCK
  8
OBRYS
  2
Srouby_s_valcovou_hlavou__25
 70
   66
 10
420.657287
 20
202.174866
  0
LINE
  8
OBRYS
 10
417.657287
 20
200.442805
 11
417.657287
 21
203.906928
  0
LINE
  8
OBRYS
 10
417.657287
 20
203.906928
 11
420.657287
 21
205.638990
  0
LINE
  8
OBRYS
 10
420.657287
 20
205.638990
 11
423.657287
 21
203.906928
  0
LINE
  8
OBRYS
 10
423.657287
 20
203.906928
 11
423.657287
 21
200.442805
  0
LINE
  8
OBRYS
 10
423.657287
 20
200.442805
 11
420.657287
 21
198.710743
  0
LINE
  8
OBRYS
 10
420.657287
 20
198.710743
 11
417.657287
 21
200.442805
  0
CIRCLE
  8
OBRYS
 10
420.657287
 20
202.174866
 40
3.464123
  0
CIRCLE
  8
OBRYS
 10
420.657287
 20
202.174866
 40
6.500000
  0
ENDBLK
  8
OBRYS
  0
BLOCK
  8
OBRYS
  2
Srouby_s_valcovou_hlavou__26
 70
   66
 10
358.662571
 20
202.174866
  0
LINE
  8
OBRYS
 10
355.662571
 20
200.442805
 11
355.662571
 21
203.906928
  0
LINE
  8
OBRYS
 10
355.662571
 20
203.906928
 11
358.662571
 21
205.638990
  0
LINE
  8
OBRYS
 10
358.662571
 20
205.638990
 11
361.662571
 21
203.906928
  0
LINE
  8
OBRYS
 10
361.662571
 20
203.906928
 11
361.662571
 21
200.442805
  0
LINE
  8
OBRYS
 10
361.662571
 20
200.442805
 11
358.662571
 21
198.710743
  0
LINE
  8
OBRYS
 10
358.662571
 20
198.710743
 11
355.662571
 21
200.442805
  0
CIRCLE
  8
OBRYS
 10
358.662571
 20
202.174866
 40
3.464123
  0
CIRCLE
  8
OBRYS
 10
358.662571
 20
202.174866
 40
6.500000
  0
ENDBLK
  8
OBRYS
  0
BLOCK
  8
OBRYS
  2
Srouby_s_valcovou_hlavou__27
 70
   66
 10
314.825687
 20
246.011751
  0
LINE
  8
OBRYS
 10
311.825687
 20
244.279689
 11
311.825687
 21
247.743812
  0
LINE
  8
OBRYS
 10
311.825687
 20
247.743812
 11
314.825687
 21
249.475874
  0
LINE
  8
OBRYS
 10
314.825687
 20
249.475874
 11
317.825687
 21
247.743812
  0
LINE
  8
OBRYS
 10
317.825687
 20
247.743812
 11
317.825687
 21
244.279689
  0
LINE
  8
OBRYS
 10
317.825687
 20
244.279689
 11
314.825687
 21
242.547627
  0
LINE
  8
OBRYS
 10
314.825687
 20
242.547627
 11
311.825687
 21
244.279689
  0
CIRCLE
  8
OBRYS
 10
314.825687
 20
246.011751
 40
3.464123
  0
CIRCLE
  8
OBRYS
 10
314.825687
 20
246.011751
 40
6.500000
  0
ENDBLK
  8
OBRYS
  0
BLOCK
  8
OBRYS
  2
Srouby_s_valcovou_hlavou__28
 70
   66
 10
314.825687
 20
308.006467
  0
LINE
  8
OBRYS
 10
311.825687
 20
306.274405
 11
311.825687
 21
309.738528
  0
LINE
  8
OBRYS
 10
311.825687
 20
309.738528
 11
314.825687
 21
311.470590
  0
LINE
  8
OBRYS
 10
314.825687
 20
311.470590
 11
317.825687
 21
309.738528
  0
LINE
  8
OBRYS
 10
317.825687
 20
309.738528
 11
317.825687
 21
306.274405
  0
LINE
  8
OBRYS
 10
317.825687
 20
306.274405
 11
314.825687
 21
304.542343
  0
LINE
  8
OBRYS
 10
314.825687
 20
304.542343
 11
311.825687
 21
306.274405
  0
CIRCLE
  8
OBRYS
 10
314.825687
 20
308.006467
 40
3.464123
  0
CIRCLE
  8
OBRYS
 10
314.825687
 20
308.006467
 40
6.500000
  0
ENDBLK
  8
OBRYS
  0
BLOCK
  8
KOTA
  2
Vnitrni_metricky_zavit_M1_29
 70
   66
 10
435.621870
 20
231.047168
  0
CIRCLE
  8
KOTA
 62
     2
 10
435.621870
 20
231.047168
 40
4.188200
  0
ARC
  8
KOTA
 62
     7
 10
435.621870
 20
231.047168
 40
5.000000
 50
220.000000
 51
140.000000
  0
ENDBLK
  8
KOTA
  0
BLOCK
  8
KOTA
  2
Vnitrni_metricky_zavit_M1_30
 70
   66
 10
435.621870
 20
322.971049
  0
CIRCLE
  8
KOTA
 62
     2
 10
435.621870
 20
322.971049
 40
4.188200
  0
ARC
  8
KOTA
 62
     7
 10
435.621870
 20
322.971049
 40
5.000000
 50
220.000000
 51
140.000000
  0
ENDBLK
  8
KOTA
  0
BLOCK
  8
KOTA
  2
Vnitrni_metricky_zavit_M1_31
 70
   66
 10
343.697988
 20
322.971049
  0
CIRCLE
  8
KOTA
 62
     2
 10
343.697988
 20
322.971049
 40
4.188200
  0
ARC
  8
KOTA
 62
     7
 10
343.697988
 20
322.971049
 40
5.000000
 50
220.000000
 51
140.000000
  0
ENDBLK
  8
KOTA
  0
BLOCK
  8
KOTA
  2
Vnitrni_metricky_zavit_M1_32
 70
   66
 10
343.697988
 20
231.047168
  0
CIRCLE
  8
KOTA
 62
     2
 10
343.697988
 20
231.047168
 40
4.188200
  0
ARC
  8
KOTA
 62
     7
 10
343.697988
 20
231.047168
 40
5.000000
 50
220.000000
 51
140.000000
  0
ENDBLK
  8
KOTA
  0
BLOCK
  8
KOTA
  2
Vnitrni_metricky_zavit_M1_33
 70
   66
 10
389.659929
 20
212.009109
  0
CIRCLE
  8
KOTA
 62
     2
 10
389.659929
 20
212.009109
 40
4.188200
  0
ARC
  8
KOTA
 62
     7
 10
389.659929
 20
212.009109
 40
5.000000
 50
265.000000
 51
185.000000
  0
ENDBLK
  8
KOTA
  0
BLOCK
  8
KOTA
  2
Vnitrni_metricky_zavit_M1_34
 70
   66
 10
324.659929
 20
277.009109
  0
CIRCLE
  8
KOTA
 62
     2
 10
324.659929
 20
277.009109
 40
4.188200
  0
ARC
  8
KOTA
 62
     7
 10
324.659929
 20
277.009109
 40
5.000000
 50
265.000000
 51
185.000000
  0
ENDBLK
  8
KOTA
  0
BLOCK
  8
KOTA
  2
Vnitrni_metricky_zavit_M1_35
 70
   66
 10
389.659929
 20
342.009109
  0
CIRCLE
  8
KOTA
 62
     2
 10
389.659929
 20
342.009109
 40
4.188200
  0
ARC
  8
KOTA
 62
     7
 10
389.659929
 20
342.009109
 40
5.000000
 50
265.000000
 51
185.000000
  0
ENDBLK
  8
KOTA
  0
BLOCK
  8
KOTA
  2
Vnitrni_metricky_zavit_M1_36
 70
   66
 10
454.659929
 20
277.009109
  0
CIRCLE
  8
KOTA
 62
     2
 10
454.659929
 20
277.009109
 40
4.188200
  0
ARC
  8
KOTA
 62
     7
 10
454.659929
 20
277.009109
 40
5.000000
 50
265.000000
 51
185.000000
  0
ENDBLK
  8
KOTA
  0
ENDSEC
  0
SECTION
  2
ENTITIES
  0
ARC
  8
OBRYS
 10
101.183760
 20
291.009109
 40
80.000000
 50
140.899556
 51
208.955024
  0
ARC
  8
OBRYS
 10
101.183760
 20
291.009109
 40
80.000000
 50
331.044976
 51
39.100444
  0
ARC
  8
OBRYS
 10
101.183760
 20
357.009109
 40
64.000000
 50
339.940297
 51
19.389830
  0
ARC
  8
OBRYS
 10
101.183760
 20
357.009109
 40
64.000000
 50
160.610170
 51
200.059685
  0
ARC
  8
OBRYS
 10
90.398802
 20
422.173522
 40
3.000000
 50
285.275412
 51
348.652160
  0
ARC
  8
OBRYS
 10
101.183760
 20
420.009109
 40
8.000000
 50
11.347840
 51
168.652160
  0
LINE
  8
OBRYS
 10
91.189179
 20
419.279510
 11
56.339546
 21
409.761803
  0
ARC
  8
OBRYS
 10
111.968717
 20
422.173522
 40
3.000000
 50
191.347840
 51
254.724588
  0
LINE
  8
OBRYS
 10
111.178340
 20
419.279510
 11
146.027973
 21
409.761803
  0
ARC
  8
OBRYS
 10
156.583760
 20
387.009109
 40
8.000000
 50
315.160000
 51
40.607302
  0
ARC
  8
OBRYS
 10
164.383627
 20
379.252687
 40
3.000000
 50
135.160016
 51
199.389830
  0
LINE
  8
0
 62
     2
 10
162.657267
 20
392.216076
 11
149.498078
 21
407.565205
  0
ARC
  8
OBRYS
 10
144.183760
 20
403.009109
 40
7.000000
 50
40.607300
 51
74.724588
  0
ARC
  8
OBRYS
 10
58.183760
 20
403.009109
 40
7.000000
 50
105.275412
 51
139.392700
  0
ARC
  8
OBRYS
 10
45.783760
 20
387.009109
 40
8.000000
 50
139.392698
 51
224.839984
  0
LINE
  8
0
 62
     2
 10
39.710253
 20
392.216076
 11
52.869441
 21
407.565205
  0
ARC
  8
OBRYS
 10
37.983893
 20
379.252687
 40
3.000000
 50
340.610170
 51
44.839984
  0
INSERT
  8
OBRYS
  2
_0
 62
     7
 10
723.136098
 20
277.009109
  0
LINE
  8
0
 62
     2
 10
611.636098
 20
229.145340
 11
611.636098
 21
246.537207
  0
LINE
  8
OBRYS
 10
723.136098
 20
187.009109
 11
723.136098
 21
224.865326
  0
LINE
  8
OBRYS
 10
714.136098
 20
219.566824
 11
714.136098
 21
189.009109
  0
LINE
  8
0
 62
     2
 10
608.136098
 20
252.279275
 11
608.136098
 21
236.956019
  0
LINE
  8
0
 62
     2
 10
626.136098
 20
230.214372
 11
626.136098
 21
189.009109
  0
LINE
  8
OBRYS
 10
642.136098
 20
219.566824
 11
642.136098
 21
189.009109
  0
INSERT
  8
OBRYS
  2
_1
 62
     7
 10
678.136098
 20
357.009109
  0
INSERT
  8
OBRYS
  2
_2
 62
     7
 10
1022.407825
 20
357.009109
  0
INSERT
  8
OBRYS
  2
_3
 62
     7
 10
294.659929
 20
37.376095
  0
INSERT
  8
OBRYS
  2
_4
 62
     7
 10
294.659929
 20
565.485278
  0
INSERT
  8
OBRYS
  2
_5
 62
     7
 10
294.659929
 20
357.009109
  0
TEXT
  8
NEVIDITELNA
 62
     2
  6
CONTINUOUS
 10
291.732391
 20
772.708862
 40
15.000000
  1
MRP 80A - FT
 50
0.00
 51
0.00
 41
0.80
  0
LINE
  8
OSA
 10
274.659929
 20
565.485278
 11
309.323433
 21
565.485278
  0
LINE
  8
OBRYS
 10
716.136098
 20
187.009109
 11
723.136098
 21
187.009109
  0
INSERT
  8
OBRYS
  2
_6
 62
     7
 10
56.183760
 20
277.009109
  0
LINE
  8
OBRYS
 10
56.183760
 20
187.009109
 11
63.183760
 21
187.009109
  0
INSERT
  8
OBRYS
  2
_7
 62
     7
 10
389.659929
 20
610.485278
  0
LINE
  8
0
 62
     2
 10
477.159929
 20
571.485278
 11
484.659929
 21
571.485278
  0
LINE
  8
0
 62
     2
 10
477.159929
 20
559.485278
 11
484.659929
 21
559.485278
  0
LINE
  8
0
 62
     2
 10
294.659929
 20
525.669598
 11
294.659929
 21
532.554824
  0
LINE
  8
0
 62
     2
 10
294.659929
 20
562.035278
 11
294.659929
 21
568.935278
  0
LINE
  8
0
 62
     2
 10
294.659929
 20
525.669598
 11
294.659929
 21
532.554824
  0
LINE
  8
0
 62
     2
 10
294.659929
 20
605.300958
 11
294.659929
 21
598.415731
  0
LINE
  8
0
 62
     2
 10
294.659929
 20
605.300958
 11
294.659929
 21
598.415731
  0
LINE
  8
0
 62
     2
 10
294.659929
 20
568.935278
 11
294.659929
 21
562.035278
  0
LINE
  8
0
 62
     2
 10
294.659929
 20
529.485278
 11
294.659929
 21
601.485278
  0
LINE
  8
0
 62
     2
 10
484.659929
 20
529.485278
 11
484.659929
 21
601.485278
  0
LINE
  8
0
 62
     2
 10
484.659929
 20
528.485278
 11
484.659929
 21
522.485278
  0
LINE
  8
0
 62
     2
 10
294.659929
 20
522.485278
 11
294.659929
 21
528.485278
  0
LINE
  8
0
 62
     2
 10
484.659929
 20
571.485278
 11
484.659929
 21
559.485278
  0
LINE
  8
0
 62
     2
 10
294.659929
 20
559.485278
 11
294.659929
 21
571.485278
  0
LINE
  8
0
 62
     2
 10
484.659929
 20
608.485278
 11
484.659929
 21
602.485278
  0
LINE
  8
0
 62
     2
 10
294.659929
 20
602.485278
 11
294.659929
 21
608.485278
  0
LINE
  8
0
 62
     2
 10
484.659929
 20
522.485278
 11
479.659929
 21
522.485278
  0
LINE
  8
0
 62
     2
 10
299.659929
 20
522.485278
 11
294.659929
 21
522.485278
  0
LINE
  8
0
 62
     2
 10
479.350911
 20
528.485278
 11
484.659929
 21
528.485278
  0
LINE
  8
0
 62
     2
 10
294.659929
 20
528.485278
 11
299.968947
 21
528.485278
  0
LINE
  8
0
 62
     2
 10
484.659929
 20
559.485278
 11
484.659929
 21
528.485278
  0
LINE
  8
0
 62
     2
 10
294.659929
 20
559.485278
 11
308.159929
 21
559.485278
  0
LINE
  8
0
 62
     2
 10
294.659929
 20
528.485278
 11
294.659929
 21
559.485278
  0
LINE
  8
0
 62
     2
 10
294.659929
 20
571.485278
 11
308.159929
 21
571.485278
  0
LINE
  8
0
 62
     2
 10
484.659929
 20
602.485278
 11
484.659929
 21
571.485278
  0
LINE
  8
0
 62
     2
 10
479.350911
 20
602.485278
 11
484.659929
 21
602.485278
  0
LINE
  8
0
 62
     2
 10
294.659929
 20
602.485278
 11
299.968947
 21
602.485278
  0
LINE
  8
0
 62
     2
 10
294.659929
 20
571.485278
 11
294.659929
 21
602.485278
  0
LINE
  8
0
 62
     2
 10
479.659929
 20
608.485278
 11
484.659929
 21
608.485278
  0
LINE
  8
0
 62
     2
 10
294.659929
 20
608.485278
 11
299.659929
 21
608.485278
  0
LINE
  8
0
 62
     2
 10
308.325687
 20
-18.623905
 11
308.325687
 21
-13.623905
  0
LINE
  8
0
 62
     2
 10
308.325687
 20
-14.623905
 11
301.659929
 21
-14.623905
  0
LINE
  8
0
 62
     2
 10
352.162571
 20
-14.623905
 11
311.911095
 21
-14.623905
  0
LINE
  8
0
 62
     2
 10
311.675101
 20
-19.623905
 11
311.097751
 21
-18.623905
  0
LINE
  8
0
 62
     2
 10
312.253571
 20
-19.623917
 11
311.654755
 21
-18.623905
  0
LINE
  8
0
 62
     2
 10
468.971008
 20
-13.623905
 11
472.504226
 21
-13.623905
  0
LINE
  8
0
 62
     2
 10
468.971006
 20
-13.623909
 11
472.504239
 21
-13.623909
  0
LINE
  8
0
 62
     2
 10
472.504239
 20
-13.623909
 11
472.519864
 21
-13.629937
  0
LINE
  8
0
 62
     2
 10
472.519864
 20
-13.629937
 11
472.535520
 21
-13.623909
  0
LINE
  8
0
 62
     2
 10
472.535520
 20
-13.623909
 11
474.711271
 21
-13.623909
  0
LINE
  8
0
 62
     2
 10
467.408750
 20
-14.623909
 11
468.115842
 21
-14.471657
  0
LINE
  8
0
 62
     2
 10
468.115842
 20
-14.471657
 11
468.715299
 21
-14.038125
  0
LINE
  8
0
 62
     2
 10
468.715299
 20
-14.038125
 11
468.971008
 21
-13.623905
  0
LINE
  8
0
 62
     2
 10
467.408770
 20
-14.623905
 11
427.157287
 21
-14.623905
  0
LINE
  8
0
 62
     2
 10
477.659929
 20
-14.623905
 11
470.994171
 21
-14.623905
  0
LINE
  8
0
 62
     2
 10
467.066284
 20
-19.623917
 11
467.665100
 21
-18.623905
  0
LINE
  8
0
 62
     2
 10
467.644756
 20
-19.623905
 11
468.222107
 21
-18.623905
  0
LINE
  8
0
 62
     2
 10
416.124304
 20
-14.623905
 11
363.195546
 21
-14.623905
  0
LINE
  8
0
 62
     2
 10
361.646722
 20
-18.623905
 11
361.646722
 21
-29.123905
  0
LINE
  8
0
 62
     2
 10
417.673135
 20
-18.623905
 11
417.673135
 21
-29.123905
  0
LINE
  8
0
 62
     2
 10
473.148997
 20
-14.623905
 11
470.994171
 21
-14.623905
  0
LINE
  8
0
 62
     2
 10
472.535517
 20
-13.623905
 11
474.711261
 21
-13.623905
  0
LINE
  8
0
 62
     2
 10
306.170861
 20
-14.623905
 11
308.325687
 21
-14.623905
  0
LINE
  8
0
 62
     2
 10
310.348848
 20
-13.623905
 11
306.815632
 21
-13.623905
  0
LINE
  8
0
 62
     2
 10
306.784341
 20
-13.623905
 11
304.608597
 21
-13.623905
  0
LINE
  8
0
 62
     2
 10
348.690262
 20
-13.623905
 11
351.733474
 21
-13.623905
  0
LINE
  8
0
 62
     2
 10
351.733474
 20
-13.623905
 11
351.733474
 21
-14.623905
  0
LINE
  8
0
 62
     2
 10
351.733474
 20
-14.623905
 11
351.402475
 21
-14.623905
  0
LINE
  8
0
 62
     2
 10
351.402475
 20
-14.623905
 11
349.337373
 21
-14.623905
  0
LINE
  8
0
 62
     2
 10
427.586383
 20
-13.623905
 11
427.586383
 21
-14.623905
  0
LINE
  8
0
 62
     2
 10
429.982485
 20
-14.623905
 11
427.917383
 21
-14.623905
  0
LINE
  8
0
 62
     2
 10
427.917383
 20
-14.623905
 11
427.586383
 21
-14.623905
  0
LINE
  8
0
 62
     2
 10
427.586383
 20
-13.623905
 11
430.629596
 21
-13.623905
  0
LINE
  8
0
 62
     2
 10
468.971009
 20
-13.623905
 11
470.994171
 21
-13.623905
  0
LINE
  8
0
 62
     2
 10
468.971009
 20
-13.623905
 11
470.994171
 21
-13.623905
  0
LINE
  8
0
 62
     2
 10
416.771403
 20
-13.623905
 11
423.943870
 21
-13.623905
  0
LINE
  8
0
 62
     2
 10
424.019412
 20
-13.623905
 11
427.157287
 21
-13.623905
  0
LINE
  8
0
 62
     2
 10
423.943870
 20
-13.623905
 11
416.734146
 21
-13.623905
  0
LINE
  8
0
 62
     2
 10
424.657287
 20
-13.623905
 11
423.983165
 21
-13.623905
  0
LINE
  8
0
 62
     2
 10
355.375988
 20
-13.623905
 11
362.548455
 21
-13.623905
  0
LINE
  8
0
 62
     2
 10
352.162571
 20
-13.623905
 11
355.300446
 21
-13.623905
  0
LINE
  8
0
 62
     2
 10
362.548455
 20
-13.623905
 11
355.336692
 21
-13.623905
  0
LINE
  8
0
 62
     2
 10
355.300446
 20
-13.623905
 11
354.662571
 21
-13.623905
  0
POLYLINE
  8
0
 62
     2
 66
    1
  0
VERTEX
  8
0
 62
     2
 10
416.124298
 20
-14.623909
  0
VERTEX
  8
0
 62
     2
 10
416.417175
 20
-14.471657
  0
VERTEX
  8
0
 62
     2
 10
416.665497
 20
-14.038124
  0
VERTEX
  8
0
 62
     2
 10
416.771393
 20
-13.623909
  0
VERTEX
  8
0
 62
     2
 10
423.943878
 20
-13.623909
  0
VERTEX
  8
0
 62
     2
 10
423.981628
 20
-13.629936
  0
VERTEX
  8
0
 62
     2
 10
424.019409
 20
-13.623909
  0
VERTEX
  8
0
 62
     2
 10
430.629608
 20
-13.623909
  0
SEQEND
  8
0
  0
POLYLINE
  8
0
 62
     2
 66
    1
  0
VERTEX
  8
0
 62
     2
 10
348.690277
 20
-13.623909
  0
VERTEX
  8
0
 62
     2
 10
355.300446
 20
-13.623909
  0
VERTEX
  8
0
 62
     2
 10
355.338226
 20
-13.629936
  0
VERTEX
  8
0
 62
     2
 10
355.375977
 20
-13.623909
  0
VERTEX
  8
0
 62
     2
 10
362.548462
 20
-13.623909
  0
VERTEX
  8
0
 62
     2
 10
362.654358
 20
-14.038124
  0
VERTEX
  8
0
 62
     2
 10
362.902679
 20
-14.471657
  0
VERTEX
  8
0
 62
     2
 10
363.195557
 20
-14.623909
  0
SEQEND
  8
0
  0
POLYLINE
  8
0
 62
     2
 66
    1
  0
VERTEX
  8
0
 62
     2
 10
311.911102
 20
-14.623909
  0
VERTEX
  8
0
 62
     2
 10
311.204010
 20
-14.471657
  0
VERTEX
  8
0
 62
     2
 10
310.604553
 20
-14.038124
  0
VERTEX
  8
0
 62
     2
 10
310.348846
 20
-13.623909
  0
VERTEX
  8
0
 62
     2
 10
306.815613
 20
-13.623909
  0
VERTEX
  8
0
 62
     2
 10
306.799988
 20
-13.629936
  0
VERTEX
  8
0
 62
     2
 10
306.784332
 20
-13.623909
  0
VERTEX
  8
0
 62
     2
 10
304.608582
 20
-13.623909
  0
SEQEND
  8
0
  0
LINE
  8
0
 62
     2
 10
426.157287
 20
-13.623905
 11
424.546374
 21
-13.623905
  0
LINE
  8
0
 62
     2
 10
423.712923
 20
-13.623905
 11
416.768200
 21
-13.623905
  0
LINE
  8
0
 62
     2
 10
355.375988
 20
-13.623905
 11
362.548455
 21
-13.623905
  0
LINE
  8
0
 62
     2
 10
353.162571
 20
-13.623905
 11
355.300446
 21
-13.623905
  0
POLYLINE
  8
0
 62
     2
 66
    1
  0
VERTEX
  8
0
 62
     2
 10
474.711273
 20
-13.623909
  0
VERTEX
  8
0
 62
     2
 10
474.455566
 20
-14.038124
  0
VERTEX
  8
0
 62
     2
 10
473.856110
 20
-14.471657
  0
VERTEX
  8
0
 62
     2
 10
473.148987
 20
-14.623909
  0
SEQEND
  8
0
  0
POLYLINE
  8
0
 62
     2
 66
    1
  0
VERTEX
  8
0
 62
     2
 10
304.608582
 20
-13.623909
  0
VERTEX
  8
0
 62
     2
 10
304.864288
 20
-14.038124
  0
VERTEX
  8
0
 62
     2
 10
305.463745
 20
-14.471657
  0
VERTEX
  8
0
 62
     2
 10
306.170868
 20
-14.623909
  0
SEQEND
  8
0
  0
LINE
  8
0
 62
     2
 10
355.375988
 20
-13.623905
 11
362.548455
 21
-13.623905
  0
LINE
  8
0
 62
     2
 10
351.733474
 20
-13.623905
 11
355.300446
 21
-13.623905
  0
LINE
  8
0
 62
     2
 10
352.162571
 20
-14.623905
 11
351.733474
 21
-14.623905
  0
POLYLINE
  8
0
 62
     2
 66
    1
  0
VERTEX
  8
0
 62
     2
 10
349.337372
 20
-14.623909
  0
VERTEX
  8
0
 62
     2
 10
349.044495
 20
-14.471657
  0
VERTEX
  8
0
 62
     2
 10
348.796173
 20
-14.038124
  0
VERTEX
  8
0
 62
     2
 10
348.690277
 20
-13.623909
  0
SEQEND
  8
0
  0
LINE
  8
0
 62
     2
 10
427.586383
 20
-14.623905
 11
427.157287
 21
-14.623905
  0
LINE
  8
0
 62
     2
 10
424.019412
 20
-13.623905
 11
427.586383
 21
-13.623905
  0
LINE
  8
0
 62
     2
 10
416.771403
 20
-13.623905
 11
423.943870
 21
-13.623905
  0
POLYLINE
  8
0
 62
     2
 66
    1
  0
VERTEX
  8
0
 62
     2
 10
430.629608
 20
-13.623909
  0
VERTEX
  8
0
 62
     2
 10
430.523682
 20
-14.038124
  0
VERTEX
  8
0
 62
     2
 10
430.275391
 20
-14.471657
  0
VERTEX
  8
0
 62
     2
 10
429.982483
 20
-14.623909
  0
SEQEND
  8
0
  0
LINE
  8
0
 62
     2
 10
470.994171
 20
-13.623905
 11
470.994171
 21
-18.623905
  0
LINE
  8
0
 62
     2
 10
457.994171
 20
-18.623905
 11
457.994171
 21
-14.623905
  0
LINE
  8
0
 62
     2
 10
427.157287
 20
-13.623905
 11
427.157287
 21
-18.623905
  0
LINE
  8
0
 62
     2
 10
414.157287
 20
-18.623905
 11
414.157287
 21
-14.623905
  0
LINE
  8
0
 62
     2
 10
365.162571
 20
-14.623905
 11
365.162571
 21
-18.623905
  0
LINE
  8
0
 62
     2
 10
352.162571
 20
-18.623905
 11
352.162571
 21
-13.623905
  0
LINE
  8
0
 62
     2
 10
321.325687
 20
-14.623905
 11
321.325687
 21
-18.623905
  0
LINE
  8
0
 62
     2
 10
470.994171
 20
-18.623905
 11
457.994171
 21
-18.623905
  0
LINE
  8
0
 62
     2
 10
427.157287
 20
-18.623905
 11
414.157287
 21
-18.623905
  0
LINE
  8
0
 62
     2
 10
365.162571
 20
-18.623905
 11
352.162571
 21
-18.623905
  0
LINE
  8
0
 62
     2
 10
321.325687
 20
-18.623905
 11
308.325687
 21
-18.623905
  0
LINE
  8
OBRYS
 10
294.659929
 20
37.376095
 11
294.659929
 21
80.376095
  0
LINE
  8
OBRYS
 10
294.659929
 20
37.376095
 11
294.659929
 21
-5.623905
  0
LINE
  8
OBRYS
 10
479.659929
 20
-12.623905
 11
479.659929
 21
-5.623905
  0
LINE
  8
OBRYS
 10
299.659929
 20
-12.623905
 11
299.659929
 21
-5.623905
  0
LINE
  8
OBRYS
 10
479.659929
 20
87.376095
 11
479.659929
 21
80.376095
  0
LINE
  8
OBRYS
 10
299.659929
 20
87.376095
 11
299.659929
 21
80.376095
  0
LINE
  8
0
 62
     2
 10
294.659929
 20
70.306549
 11
294.659929
 21
77.191775
  0
LINE
  8
0
 62
     2
 10
294.659929
 20
33.926095
 11
294.659929
 21
40.826095
  0
LINE
  8
0
 62
     2
 10
294.659929
 20
70.306549
 11
294.659929
 21
77.191775
  0
LINE
  8
0
 62
     2
 10
294.659929
 20
4.445641
 11
294.659929
 21
-2.439585
  0
LINE
  8
0
 62
     2
 10
294.659929
 20
4.445641
 11
294.659929
 21
-2.439585
  0
LINE
  8
0
 62
     2
 10
294.659929
 20
40.826095
 11
294.659929
 21
33.926095
  0
LINE
  8
0
 62
     2
 10
294.659929
 20
1.376095
 11
294.659929
 21
73.376095
  0
LINE
  8
0
 62
     2
 10
484.659929
 20
1.376095
 11
484.659929
 21
73.376095
  0
LINE
  8
0
 62
     2
 10
450.459929
 20
74.376095
 11
458.859929
 21
74.376095
  0
LINE
  8
0
 62
     2
 10
320.459929
 20
74.376095
 11
328.859929
 21
74.376095
  0
POLYLINE
  8
0
 62
     2
 66
    1
  0
VERTEX
  8
0
 62
     2
 10
334.659943
 20
-5.623905
  0
VERTEX
  8
0
 62
     2
 10
333.817505
 20
-5.623905
  0
VERTEX
  8
0
 62
     2
 10
331.117065
 20
-5.623905
  0
VERTEX
  8
0
 62
     2
 10
331.076019
 20
-5.623905
  0
VERTEX
  8
0
 62
     2
 10
330.126587
 20
-5.361675
  0
VERTEX
  8
0
 62
     2
 10
329.683441
 20
-4.586452
  0
VERTEX
  8
0
 62
     2
 10
329.765930
 20
-3.332111
  0
VERTEX
  8
0
 62
     2
 10
330.221252
 20
-2.067726
  0
VERTEX
  8
0
 62
     2
 10
330.249725
 20
-1.653472
  0
VERTEX
  8
0
 62
     2
 10
330.886230
 20
0.376095
  0
VERTEX
  8
0
 62
     2
 10
333.143066
 20
5.897912
  0
VERTEX
  8
0
 62
     2
 10
334.567657
 20
13.435314
  0
VERTEX
  8
0
 62
     2
 10
334.288879
 20
20.778713
  0
VERTEX
  8
0
 62
     2
 10
332.250031
 20
28.517063
  0
VERTEX
  8
0
 62
     2
 10
330.880951
 20
31.376095
  0
VERTEX
  8
0
 62
     2
 10
330.086304
 20
33.667892
  0
VERTEX
  8
0
 62
     2
 10
329.806396
 20
36.121754
  0
VERTEX
  8
0
 62
     2
 10
329.929962
 20
37.376095
  0
VERTEX
  8
0
 62
     2
 10
329.806396
 20
38.630436
  0
VERTEX
  8
0
 62
     2
 10
330.086304
 20
41.084297
  0
VERTEX
  8
0
 62
     2
 10
330.880951
 20
43.376095
  0
VERTEX
  8
0
 62
     2
 10
332.250031
 20
46.235126
  0
VERTEX
  8
0
 62
     2
 10
334.288879
 20
53.973476
  0
VERTEX
  8
0
 62
     2
 10
334.567657
 20
61.316875
  0
VERTEX
  8
0
 62
     2
 10
333.143066
 20
68.854279
  0
VERTEX
  8
0
 62
     2
 10
330.886230
 20
74.376099
  0
VERTEX
  8
0
 62
     2
 10
330.249725
 20
76.405663
  0
VERTEX
  8
0
 62
     2
 10
330.221252
 20
76.819916
  0
VERTEX
  8
0
 62
     2
 10
329.765930
 20
78.084297
  0
VERTEX
  8
0
 62
     2
 10
329.683441
 20
79.338638
  0
VERTEX
  8
0
 62
     2
 10
330.126587
 20
80.113869
  0
VERTEX
  8
0
 62
     2
 10
331.076019
 20
80.376099
  0
VERTEX
  8
0
 62
     2
 10
331.117065
 20
80.376099
  0
VERTEX
  8
0
 62
     2
 10
333.817505
 20
80.376099
  0
VERTEX
  8
0
 62
     2
 10
334.659943
 20
80.376099
  0
SEQEND
  8
0
  0
LINE
  8
0
 62
     2
 10
444.659929
 20
80.376095
 11
444.659929
 21
-5.623905
  0
POLYLINE
  8
0
 62
     2
 66
    1
  0
VERTEX
  8
0
 62
     2
 10
444.659943
 20
-5.623905
  0
VERTEX
  8
0
 62
     2
 10
445.502350
 20
-5.623905
  0
VERTEX
  8
0
 62
     2
 10
448.202789
 20
-5.623905
  0
VERTEX
  8
0
 62
     2
 10
448.243835
 20
-5.623905
  0
VERTEX
  8
0
 62
     2
 10
449.193268
 20
-5.361675
  0
VERTEX
  8
0
 62
     2
 10
449.636414
 20
-4.586452
  0
VERTEX
  8
0
 62
     2
 10
449.553925
 20
-3.332111
  0
VERTEX
  8
0
 62
     2
 10
449.098602
 20
-2.067726
  0
VERTEX
  8
0
 62
     2
 10
449.070129
 20
-1.653472
  0
VERTEX
  8
0
 62
     2
 10
448.433624
 20
0.376095
  0
VERTEX
  8
0
 62
     2
 10
446.176819
 20
5.897912
  0
VERTEX
  8
0
 62
     2
 10
444.752197
 20
13.435314
  0
VERTEX
  8
0
 62
     2
 10
445.030975
 20
20.778713
  0
VERTEX
  8
0
 62
     2
 10
447.069824
 20
28.517063
  0
VERTEX
  8
0
 62
     2
 10
448.438904
 20
31.376095
  0
VERTEX
  8
0
 62
     2
 10
449.233551
 20
33.667892
  0
VERTEX
  8
0
 62
     2
 10
449.513458
 20
36.121754
  0
VERTEX
  8
0
 62
     2
 10
449.389923
 20
37.376095
  0
VERTEX
  8
0
 62
     2
 10
449.513458
 20
38.630436
  0
VERTEX
  8
0
 62
     2
 10
449.233551
 20
41.084297
  0
VERTEX
  8
0
 62
     2
 10
448.438904
 20
43.376095
  0
VERTEX
  8
0
 62
     2
 10
447.069824
 20
46.235126
  0
VERTEX
  8
0
 62
     2
 10
445.030975
 20
53.973476
  0
VERTEX
  8
0
 62
     2
 10
444.752197
 20
61.316875
  0
VERTEX
  8
0
 62
     2
 10
446.176819
 20
68.854279
  0
VERTEX
  8
0
 62
     2
 10
448.433624
 20
74.376099
  0
VERTEX
  8
0
 62
     2
 10
449.070129
 20
76.405663
  0
VERTEX
  8
0
 62
     2
 10
449.098602
 20
76.819916
  0
VERTEX
  8
0
 62
     2
 10
449.553925
 20
78.084297
  0
VERTEX
  8
0
 62
     2
 10
449.636414
 20
79.338638
  0
VERTEX
  8
0
 62
     2
 10
449.193268
 20
80.113869
  0
VERTEX
  8
0
 62
     2
 10
448.243835
 20
80.376099
  0
VERTEX
  8
0
 62
     2
 10
448.202789
 20
80.376099
  0
VERTEX
  8
0
 62
     2
 10
445.502350
 20
80.376099
  0
VERTEX
  8
0
 62
     2
 10
444.659943
 20
80.376099
  0
SEQEND
  8
0
  0
POLYLINE
  8
0
 62
     2
 66
    1
  0
VERTEX
  8
0
 62
     2
 10
429.993103
 20
-5.623905
  0
VERTEX
  8
0
 62
     2
 10
424.101440
 20
-5.313739
  0
VERTEX
  8
0
 62
     2
 10
407.218048
 20
-4.809314
  0
VERTEX
  8
0
 62
     2
 10
406.017853
 20
-4.797672
  0
VERTEX
  8
0
 62
     2
 10
389.659943
 20
-4.308944
  0
VERTEX
  8
0
 62
     2
 10
373.302002
 20
-4.797672
  0
VERTEX
  8
0
 62
     2
 10
372.101807
 20
-4.809314
  0
VERTEX
  8
0
 62
     2
 10
355.218414
 20
-5.313739
  0
VERTEX
  8
0
 62
     2
 10
349.326752
 20
-5.623905
  0
SEQEND
  8
0
  0
POLYLINE
  8
0
 62
     2
 66
    1
  0
VERTEX
  8
0
 62
     2
 10
349.326752
 20
80.376099
  0
VERTEX
  8
0
 62
     2
 10
355.218414
 20
80.065933
  0
VERTEX
  8
0
 62
     2
 10
372.101807
 20
79.561508
  0
VERTEX
  8
0
 62
     2
 10
373.302002
 20
79.549866
  0
VERTEX
  8
0
 62
     2
 10
389.659943
 20
79.061134
  0
VERTEX
  8
0
 62
     2
 10
406.017853
 20
79.549866
  0
VERTEX
  8
0
 62
     2
 10
407.218048
 20
79.561508
  0
VERTEX
  8
0
 62
     2
 10
424.101440
 20
80.065933
  0
VERTEX
  8
0
 62
     2
 10
429.993103
 20
80.376099
  0
SEQEND
  8
0
  0
LINE
  8
0
 62
     2
 10
334.659929
 20
80.376095
 11
334.659929
 21
-5.623905
  0
LINE
  8
0
 62
     2
 10
484.659929
 20
43.376095
 11
484.659929
 21
31.376095
  0
LINE
  8
0
 62
     2
 10
294.659929
 20
43.376095
 11
294.659929
 21
31.376095
  0
LINE
  8
0
 62
     2
 10
484.659929
 20
80.376095
 11
484.659929
 21
74.376095
  0
LINE
  8
0
 62
     2
 10
294.659929
 20
80.376095
 11
294.659929
 21
74.376095
  0
LINE
  8
0
 62
     2
 10
484.659929
 20
0.376095
 11
484.659929
 21
-5.623905
  0
LINE
  8
0
 62
     2
 10
294.659929
 20
0.376095
 11
294.659929
 21
-5.623905
  0
LINE
  8
0
 62
     2
 10
446.042368
 20
80.376095
 11
454.561307
 21
80.376095
  0
LINE
  8
0
 62
     2
 10
324.758551
 20
80.376095
 11
333.277490
 21
80.376095
  0
LINE
  8
0
 62
     2
 10
454.561307
 20
-5.623905
 11
446.042368
 21
-5.623905
  0
LINE
  8
0
 62
     2
 10
333.277490
 20
-5.623905
 11
324.758551
 21
-5.623905
  0
LINE
  8
0
 62
     2
 10
325.412221
 20
0.376095
 11
320.459929
 21
0.376095
  0
LINE
  8
0
 62
     2
 10
458.859929
 20
0.376095
 11
453.907637
 21
0.376095
  0
LINE
  8
0
 62
     2
 10
318.825687
 20
0.376095
 11
330.886224
 21
0.376095
  0
LINE
  8
0
 62
     2
 10
448.433633
 20
0.376095
 11
460.494171
 21
0.376095
  0
LINE
  8
0
 62
     2
 10
444.659929
 20
73.376095
 11
444.659929
 21
70.376095
  0
LINE
  8
0
 62
     2
 10
334.659929
 20
73.376095
 11
334.659929
 21
70.376095
  0
LINE
  8
0
 62
     2
 10
349.326760
 20
-5.623905
 11
334.659929
 21
-5.623905
  0
LINE
  8
0
 62
     2
 10
444.659929
 20
-5.623905
 11
429.993098
 21
-5.623905
  0
LINE
  8
0
 62
     2
 10
429.993098
 20
80.376095
 11
444.659929
 21
80.376095
  0
LINE
  8
0
 62
     2
 10
334.659929
 20
80.376095
 11
349.326760
 21
80.376095
  0
LINE
  8
0
 62
     2
 10
484.659929
 20
31.376095
 11
484.659929
 21
0.376095
  0
LINE
  8
0
 62
     2
 10
448.438899
 20
31.376095
 11
484.659929
 21
31.376095
  0
LINE
  8
0
 62
     2
 10
294.659929
 20
31.376095
 11
294.659929
 21
0.376095
  0
LINE
  8
0
 62
     2
 10
330.880959
 20
31.376095
 11
294.659929
 21
31.376095
  0
LINE
  8
0
 62
     2
 10
448.438899
 20
43.376095
 11
484.659929
 21
43.376095
  0
LINE
  8
0
 62
     2
 10
330.880959
 20
43.376095
 11
294.659929
 21
43.376095
  0
LINE
  8
0
 62
     2
 10
484.659929
 20
74.376095
 11
484.659929
 21
43.376095
  0
LINE
  8
0
 62
     2
 10
448.433633
 20
74.376095
 11
484.659929
 21
74.376095
  0
LINE
  8
0
 62
     2
 10
294.659929
 20
74.376095
 11
294.659929
 21
43.376095
  0
LINE
  8
0
 62
     2
 10
330.886224
 20
74.376095
 11
294.659929
 21
74.376095
  0
LINE
  8
0
 62
     2
 10
448.243850
 20
80.376095
 11
484.659929
 21
80.376095
  0
LINE
  8
0
 62
     2
 10
331.076008
 20
80.376095
 11
294.659929
 21
80.376095
  0
LINE
  8
0
 62
     2
 10
484.659929
 20
-5.623905
 11
448.243850
 21
-5.623905
  0
LINE
  8
0
 62
     2
 10
294.659929
 20
-5.623905
 11
331.076008
 21
-5.623905
  0
LINE
  8
0
 62
     2
 10
448.433633
 20
0.376095
 11
484.659929
 21
0.376095
  0
LINE
  8
0
 62
     2
 10
330.886224
 20
0.376095
 11
294.659929
 21
0.376095
  0
LINE
  8
0
 62
     2
 10
444.659929
 20
4.376095
 11
444.659929
 21
1.376095
  0
LINE
  8
0
 62
     2
 10
334.659929
 20
1.376095
 11
334.659929
 21
4.376095
  0
LINE
  8
0
 62
     2
 10
404.050027
 20
-32.623905
 11
404.050027
 21
-19.623905
  0
LINE
  8
0
 62
     2
 10
375.269831
 20
-19.623905
 11
404.050027
 21
-19.623905
  0
LINE
  8
0
 62
     2
 10
375.269831
 20
-19.623905
 11
375.269831
 21
-32.623905
  0
LINE
  8
0
 62
     2
 10
348.897988
 20
-29.123905
 11
338.497988
 21
-29.123905
  0
LINE
  8
0
 62
     2
 10
342.230593
 20
-29.123905
 11
342.570703
 21
-29.123905
  0
LINE
  8
0
 62
     2
 10
319.459929
 20
-19.623905
 11
329.859929
 21
-19.623905
  0
LINE
  8
0
 62
     2
 10
394.859929
 20
-19.623905
 11
384.459929
 21
-19.623905
  0
LINE
  8
0
 62
     2
 10
395.533269
 20
-19.623905
 11
404.050027
 21
-19.623905
  0
POLYLINE
  8
0
 62
     2
 66
    1
  0
VERTEX
  8
0
 62
     2
 10
394.083893
 20
-14.680080
  0
VERTEX
  8
0
 62
     2
 10
394.103577
 20
-14.750011
  0
VERTEX
  8
0
 62
     2
 10
394.184692
 20
-14.804836
  0
VERTEX
  8
0
 62
     2
 10
394.201935
 20
-14.842983
  0
VERTEX
  8
0
 62
     2
 10
394.517609
 20
-15.325775
  0
VERTEX
  8
0
 62
     2
 10
394.770447
 20
-16.123917
  0
VERTEX
  8
0
 62
     2
 10
395.533264
 20
-19.623917
  0
SEQEND
  8
0
  0
LINE
  8
0
 62
     2
 10
375.269831
 20
-19.623905
 11
383.786589
 21
-19.623905
  0
POLYLINE
  8
0
 62
     2
 66
    1
  0
VERTEX
  8
0
 62
     2
 10
363.094025
 20
-32.623917
  0
VERTEX
  8
0
 62
     2
 10
363.094025
 20
-29.123917
  0
VERTEX
  8
0
 62
     2
 10
361.646729
 20
-29.123917
  0
VERTEX
  8
0
 62
     2
 10
344.565094
 20
-29.123917
  0
VERTEX
  8
0
 62
     2
 10
337.057037
 20
-16.123917
  0
VERTEX
  8
0
 62
     2
 10
336.387115
 20
-15.325775
  0
VERTEX
  8
0
 62
     2
 10
335.550598
 20
-14.842983
  0
VERTEX
  8
0
 62
     2
 10
335.490479
 20
-14.804836
  0
VERTEX
  8
0
 62
     2
 10
335.207611
 20
-14.750011
  0
VERTEX
  8
0
 62
     2
 10
334.911926
 20
-14.680080
  0
VERTEX
  8
0
 62
     2
 10
334.723633
 20
-14.623913
  0
VERTEX
  8
0
 62
     2
 10
334.675293
 20
-14.623913
  0
VERTEX
  8
0
 62
     2
 10
334.507141
 20
-14.623913
  0
VERTEX
  8
0
 62
     2
 10
334.414124
 20
-14.623913
  0
VERTEX
  8
0
 62
     2
 10
334.399994
 20
-14.623913
  0
SEQEND
  8
0
  0
POLYLINE
  8
0
 62
     2
 66
    1
  0
VERTEX
  8
0
 62
     2
 10
383.786591
 20
-19.623917
  0
VERTEX
  8
0
 62
     2
 10
384.549408
 20
-16.123917
  0
VERTEX
  8
0
 62
     2
 10
384.802246
 20
-15.325775
  0
VERTEX
  8
0
 62
     2
 10
385.117920
 20
-14.842983
  0
VERTEX
  8
0
 62
     2
 10
385.135162
 20
-14.804836
  0
VERTEX
  8
0
 62
     2
 10
385.216309
 20
-14.750011
  0
VERTEX
  8
0
 62
     2
 10
385.235962
 20
-14.680080
  0
SEQEND
  8
0
  0
LINE
  8
0
 62
     2
 10
330.772293
 20
-19.623905
 11
312.253575
 21
-19.623905
  0
LINE
  8
0
 62
     2
 10
336.279192
 20
-29.123905
 11
337.513652
 21
-29.123905
  0
POLYLINE
  8
0
 62
     2
 66
    1
  0
VERTEX
  8
0
 62
     2
 10
330.772278
 20
-19.623917
  0
VERTEX
  8
0
 62
     2
 10
333.330750
 20
-29.123917
  0
VERTEX
  8
0
 62
     2
 10
335.232117
 20
-29.123917
  0
SEQEND
  8
0
  0
LINE
  8
0
 62
     2
 10
305.917886
 20
-14.623905
 11
307.810618
 21
-14.623905
  0
LINE
  8
0
 62
     2
 10
334.659929
 20
-29.123905
 11
335.232107
 21
-29.123905
  0
LINE
  8
0
 62
     2
 10
336.279192
 20
-29.123905
 11
337.030196
 21
-29.123905
  0
LINE
  8
0
 62
     2
 10
341.796161
 20
-29.123905
 11
363.094015
 21
-29.123905
  0
LINE
  8
0
 62
     2
 10
312.253575
 20
-19.623905
 11
311.675101
 21
-19.623905
  0
LINE
  8
0
 62
     2
 10
383.786589
 20
-19.623905
 11
395.533269
 21
-19.623905
  0
LINE
  8
0
 62
     2
 10
341.796161
 20
-29.123905
 11
341.796161
 21
-32.623905
  0
POLYLINE
  8
0
 62
     2
 66
    1
  0
VERTEX
  8
0
 62
     2
 10
328.399872
 20
-14.623913
  0
VERTEX
  8
0
 62
     2
 10
328.655518
 20
-14.680080
  0
VERTEX
  8
0
 62
     2
 10
328.923370
 20
-14.750011
  0
VERTEX
  8
0
 62
     2
 10
329.091492
 20
-14.804836
  0
VERTEX
  8
0
 62
     2
 10
329.127228
 20
-14.842983
  0
VERTEX
  8
0
 62
     2
 10
329.517303
 20
-15.325775
  0
VERTEX
  8
0
 62
     2
 10
329.829681
 20
-16.123917
  0
VERTEX
  8
0
 62
     2
 10
333.330750
 20
-29.123917
  0
SEQEND
  8
0
  0
LINE
  8
0
 62
     2
 10
385.188370
 20
-14.623905
 11
385.235972
 21
-14.680083
  0
LINE
  8
0
 62
     2
 10
394.083886
 20
-14.680083
 11
394.131488
 21
-14.623905
  0
LINE
  8
0
 62
     2
 10
334.723629
 20
-14.623905
 11
328.399889
 21
-14.623905
  0
LINE
  8
0
 62
     2
 10
394.131488
 20
-14.623905
 11
385.188370
 21
-14.623905
  0
LINE
  8
0
 62
     2
 10
333.330760
 20
-29.123905
 11
344.565100
 21
-29.123905
  0
ARC
  8
0
 62
     2
 10
301.659929
 20
-12.623905
 40
2.000000
 50
180.000000
 51
270.000000
  0
LINE
  8
0
 62
     2
 10
394.201942
 20
-14.623905
 11
394.201942
 21
-14.842976
  0
LINE
  8
0
 62
     2
 10
335.550611
 20
-14.623905
 11
335.550611
 21
-14.842976
  0
LINE
  8
0
 62
     2
 10
385.117916
 20
-14.842976
 11
385.117916
 21
-14.623905
  0
LINE
  8
0
 62
     2
 10
311.675101
 20
94.376095
 11
309.654375
 21
90.876095
  0
LINE
  8
0
 62
     2
 10
308.595785
 20
89.376095
 11
308.595785
 21
89.595166
  0
LINE
  8
0
 62
     2
 10
385.117916
 20
89.595166
 11
385.117916
 21
89.376095
  0
LINE
  8
0
 62
     2
 10
361.646722
 20
89.376095
 11
361.646722
 21
103.876095
  0
LINE
  8
0
 62
     2
 10
335.550611
 20
89.376095
 11
335.550611
 21
89.595166
  0
LINE
  8
0
 62
     2
 10
394.201942
 20
89.376095
 11
394.201942
 21
89.595166
  0
ARC
  8
0
 62
     2
 10
301.659929
 20
87.376095
 40
2.000000
 50
90.000000
 51
180.000000
  0
POLYLINE
  8
0
 62
     2
 66
    1
  0
VERTEX
  8
0
 62
     2
 10
307.056305
 20
89.376106
  0
VERTEX
  8
0
 62
     2
 10
308.082367
 20
89.557030
  0
VERTEX
  8
0
 62
     2
 10
308.984650
 20
90.077965
  0
VERTEX
  8
0
 62
     2
 10
309.654358
 20
90.876106
  0
SEQEND
  8
0
  0
LINE
  8
0
 62
     2
 10
477.659929
 20
89.376095
 11
301.659929
 21
89.376095
  0
LINE
  8
0
 62
     2
 10
333.330760
 20
103.876095
 11
344.565100
 21
103.876095
  0
LINE
  8
0
 62
     2
 10
394.131488
 20
89.376095
 11
385.188370
 21
89.376095
  0
LINE
  8
0
 62
     2
 10
334.723629
 20
89.376095
 11
328.399889
 21
89.376095
  0
LINE
  8
0
 62
     2
 10
307.496709
 20
89.376095
 11
307.056299
 21
89.376095
  0
LINE
  8
0
 62
     2
 10
394.083886
 20
89.432272
 11
394.131488
 21
89.376095
  0
LINE
  8
0
 62
     2
 10
385.188370
 20
89.376095
 11
385.235972
 21
89.432272
  0
POLYLINE
  8
0
 62
     2
 66
    1
  0
VERTEX
  8
0
 62
     2
 10
328.399872
 20
89.376106
  0
VERTEX
  8
0
 62
     2
 10
328.655518
 20
89.432274
  0
VERTEX
  8
0
 62
     2
 10
328.923370
 20
89.502205
  0
VERTEX
  8
0
 62
     2
 10
329.091492
 20
89.557030
  0
VERTEX
  8
0
 62
     2
 10
329.127228
 20
89.595177
  0
VERTEX
  8
0
 62
     2
 10
329.517303
 20
90.077965
  0
VERTEX
  8
0
 62
     2
 10
329.829681
 20
90.876106
  0
VERTEX
  8
0
 62
     2
 10
333.330750
 20
103.876091
  0
SEQEND
  8
0
  0
LINE
  8
0
 62
     2
 10
341.796161
 20
103.876095
 11
341.796161
 21
107.376095
  0
LINE
  8
0
 62
     2
 10
309.654375
 20
90.876095
 11
310.157717
 21
90.876095
  0
LINE
  8
0
 62
     2
 10
383.786589
 20
94.376095
 11
395.533269
 21
94.376095
  0
LINE
  8
0
 62
     2
 10
312.253575
 20
94.376095
 11
311.675101
 21
94.376095
  0
LINE
  8
0
 62
     2
 10
341.796161
 20
103.876095
 11
363.094015
 21
103.876095
  0
LINE
  8
0
 62
     2
 10
336.279192
 20
103.876095
 11
337.030196
 21
103.876095
  0
LINE
  8
0
 62
     2
 10
334.659929
 20
103.876095
 11
335.457608
 21
103.876095
  0
LINE
  8
0
 62
     2
 10
305.917886
 20
89.376095
 11
307.810618
 21
89.376095
  0
POLYLINE
  8
0
 62
     2
 66
    1
  0
VERTEX
  8
0
 62
     2
 10
330.772278
 20
94.376091
  0
VERTEX
  8
0
 62
     2
 10
333.330750
 20
103.876091
  0
VERTEX
  8
0
 62
     2
 10
335.457611
 20
103.876091
  0
SEQEND
  8
0
  0
LINE
  8
0
 62
     2
 10
336.279192
 20
103.876095
 11
337.513652
 21
103.876095
  0
POLYLINE
  8
0
 62
     2
 66
    1
  0
VERTEX
  8
0
 62
     2
 10
312.253571
 20
94.376091
  0
VERTEX
  8
0
 62
     2
 10
310.157715
 20
90.876106
  0
VERTEX
  8
0
 62
     2
 10
309.463104
 20
90.077965
  0
VERTEX
  8
0
 62
     2
 10
308.595764
 20
89.595177
  0
VERTEX
  8
0
 62
     2
 10
308.528015
 20
89.557030
  0
VERTEX
  8
0
 62
     2
 10
308.209106
 20
89.502205
  0
VERTEX
  8
0
 62
     2
 10
307.810638
 20
89.432274
  0
VERTEX
  8
0
 62
     2
 10
307.496704
 20
89.376106
  0
VERTEX
  8
0
 62
     2
 10
307.416138
 20
89.376106
  0
VERTEX
  8
0
 62
     2
 10
307.041412
 20
89.376106
  0
VERTEX
  8
0
 62
     2
 10
306.701294
 20
89.376106
  0
VERTEX
  8
0
 62
     2
 10
306.409332
 20
89.376106
  0
VERTEX
  8
0
 62
     2
 10
306.177185
 20
89.376106
  0
VERTEX
  8
0
 62
     2
 10
306.014069
 20
89.376106
  0
VERTEX
  8
0
 62
     2
 10
305.926483
 20
89.376106
  0
VERTEX
  8
0
 62
     2
 10
305.917908
 20
89.376106
  0
SEQEND
  8
0
  0
LINE
  8
0
 62
     2
 10
330.772293
 20
94.376095
 11
312.253575
 21
94.376095
  0
POLYLINE
  8
0
 62
     2
 66
    1
  0
VERTEX
  8
0
 62
     2
 10
383.786591
 20
94.376091
  0
VERTEX
  8
0
 62
     2
 10
384.549408
 20
90.876106
  0
VERTEX
  8
0
 62
     2
 10
384.802246
 20
90.077965
  0
VERTEX
  8
0
 62
     2
 10
385.117920
 20
89.595177
  0
VERTEX
  8
0
 62
     2
 10
385.135162
 20
89.557030
  0
VERTEX
  8
0
 62
     2
 10
385.216309
 20
89.502205
  0
VERTEX
  8
0
 62
     2
 10
385.235962
 20
89.432274
  0
SEQEND
  8
0
  0
POLYLINE
  8
0
 62
     2
 66
    1
  0
VERTEX
  8
0
 62
     2
 10
363.094025
 20
107.376091
  0
VERTEX
  8
0
 62
     2
 10
363.094025
 20
103.876091
  0
VERTEX
  8
0
 62
     2
 10
361.646729
 20
103.876091
  0
VERTEX
  8
0
 62
     2
 10
344.565094
 20
103.876091
  0
VERTEX
  8
0
 62
     2
 10
337.057037
 20
90.876106
  0
VERTEX
  8
0
 62
     2
 10
336.387115
 20
90.077965
  0
VERTEX
  8
0
 62
     2
 10
335.550598
 20
89.595177
  0
VERTEX
  8
0
 62
     2
 10
335.490479
 20
89.557030
  0
VERTEX
  8
0
 62
     2
 10
335.207611
 20
89.502205
  0
VERTEX
  8
0
 62
     2
 10
334.911926
 20
89.432274
  0
VERTEX
  8
0
 62
     2
 10
334.723633
 20
89.376106
  0
VERTEX
  8
0
 62
     2
 10
334.675293
 20
89.376106
  0
VERTEX
  8
0
 62
     2
 10
334.507141
 20
89.376106
  0
VERTEX
  8
0
 62
     2
 10
334.414124
 20
89.376106
  0
VERTEX
  8
0
 62
     2
 10
334.399994
 20
89.376106
  0
SEQEND
  8
0
  0
LINE
  8
0
 62
     2
 10
375.269831
 20
94.376095
 11
383.786589
 21
94.376095
  0
POLYLINE
  8
0
 62
     2
 66
    1
  0
VERTEX
  8
0
 62
     2
 10
394.083893
 20
89.432274
  0
VERTEX
  8
0
 62
     2
 10
394.103577
 20
89.502205
  0
VERTEX
  8
0
 62
     2
 10
394.184692
 20
89.557030
  0
VERTEX
  8
0
 62
     2
 10
394.201935
 20
89.595177
  0
VERTEX
  8
0
 62
     2
 10
394.517609
 20
90.077965
  0
VERTEX
  8
0
 62
     2
 10
394.770447
 20
90.876106
  0
VERTEX
  8
0
 62
     2
 10
395.533264
 20
94.376091
  0
SEQEND
  8
0
  0
LINE
  8
0
 62
     2
 10
395.533269
 20
94.376095
 11
404.050027
 21
94.376095
  0
LINE
  8
0
 62
     2
 10
394.859929
 20
94.376095
 11
384.459929
 21
94.376095
  0
LINE
  8
0
 62
     2
 10
319.459929
 20
94.376095
 11
329.859929
 21
94.376095
  0
LINE
  8
0
 62
     2
 10
342.230593
 20
103.876095
 11
342.570703
 21
103.876095
  0
LINE
  8
0
 62
     2
 10
348.897988
 20
103.876095
 11
338.497988
 21
103.876095
  0
LINE
  8
0
 62
     2
 10
375.269831
 20
94.376095
 11
375.269831
 21
107.376095
  0
LINE
  8
0
 62
     2
 10
375.269831
 20
94.376095
 11
404.050027
 21
94.376095
  0
LINE
  8
0
 62
     2
 10
404.050027
 20
107.376095
 11
404.050027
 21
94.376095
  0
LINE
  8
OBRYS
 62
     7
  6
DASHDOT
 10
389.659929
 20
-32.623905
 11
389.659929
 21
107.376095
  0
LINE
  8
OBRYS
 62
     7
  6
DASHDOT
 10
490.786226
 20
37.376095
 11
297.659929
 21
37.376095
  0
LINE
  8
0
 62
     2
 10
389.659929
 20
107.376095
 11
334.659929
 21
107.376095
  0
LINE
  8
0
 62
     2
 10
334.659929
 20
107.376095
 11
334.659929
 21
103.876095
  0
LINE
  8
0
 62
     2
 10
389.659929
 20
-32.623905
 11
334.659929
 21
-32.623905
  0
LINE
  8
0
 62
     2
 10
334.659929
 20
-32.623905
 11
334.659929
 21
-29.123905
  0
LINE
  8
0
 62
     2
 10
444.659929
 20
-32.623905
 11
444.659929
 21
-29.123905
  0
LINE
  8
0
 62
     2
 10
389.659929
 20
-32.623905
 11
444.659929
 21
-32.623905
  0
LINE
  8
0
 62
     2
 10
444.659929
 20
107.376095
 11
444.659929
 21
103.876095
  0
LINE
  8
0
 62
     2
 10
389.659929
 20
107.376095
 11
444.659929
 21
107.376095
  0
LINE
  8
0
 62
     2
 10
430.421870
 20
103.876095
 11
440.821870
 21
103.876095
  0
LINE
  8
0
 62
     2
 10
437.089264
 20
103.876095
 11
436.749155
 21
103.876095
  0
LINE
  8
0
 62
     2
 10
459.859929
 20
94.376095
 11
449.459929
 21
94.376095
  0
POLYLINE
  8
0
 62
     2
 66
    1
  0
VERTEX
  8
0
 62
     2
 10
416.225830
 20
107.376091
  0
VERTEX
  8
0
 62
     2
 10
416.225830
 20
103.876091
  0
VERTEX
  8
0
 62
     2
 10
417.673126
 20
103.876091
  0
VERTEX
  8
0
 62
     2
 10
434.754761
 20
103.876091
  0
VERTEX
  8
0
 62
     2
 10
442.262817
 20
90.876106
  0
VERTEX
  8
0
 62
     2
 10
442.932739
 20
90.077965
  0
VERTEX
  8
0
 62
     2
 10
443.769257
 20
89.595177
  0
VERTEX
  8
0
 62
     2
 10
443.829376
 20
89.557030
  0
VERTEX
  8
0
 62
     2
 10
444.112244
 20
89.502205
  0
VERTEX
  8
0
 62
     2
 10
444.407928
 20
89.432274
  0
VERTEX
  8
0
 62
     2
 10
444.596222
 20
89.376106
  0
VERTEX
  8
0
 62
     2
 10
444.644562
 20
89.376106
  0
VERTEX
  8
0
 62
     2
 10
444.812714
 20
89.376106
  0
VERTEX
  8
0
 62
     2
 10
444.905731
 20
89.376106
  0
VERTEX
  8
0
 62
     2
 10
444.919861
 20
89.376106
  0
SEQEND
  8
0
  0
LINE
  8
0
 62
     2
 10
448.547565
 20
94.376095
 11
467.066283
 21
94.376095
  0
POLYLINE
  8
0
 62
     2
 66
    1
  0
VERTEX
  8
0
 62
     2
 10
467.066284
 20
94.376091
  0
VERTEX
  8
0
 62
     2
 10
469.162140
 20
90.876106
  0
VERTEX
  8
0
 62
     2
 10
469.856750
 20
90.077965
  0
VERTEX
  8
0
 62
     2
 10
470.724091
 20
89.595177
  0
VERTEX
  8
0
 62
     2
 10
470.791840
 20
89.557030
  0
VERTEX
  8
0
 62
     2
 10
471.110748
 20
89.502205
  0
VERTEX
  8
0
 62
     2
 10
471.509247
 20
89.432274
  0
VERTEX
  8
0
 62
     2
 10
471.823151
 20
89.376106
  0
VERTEX
  8
0
 62
     2
 10
471.903717
 20
89.376106
  0
VERTEX
  8
0
 62
     2
 10
472.278473
 20
89.376106
  0
VERTEX
  8
0
 62
     2
 10
472.618591
 20
89.376106
  0
VERTEX
  8
0
 62
     2
 10
472.910522
 20
89.376106
  0
VERTEX
  8
0
 62
     2
 10
473.142670
 20
89.376106
  0
VERTEX
  8
0
 62
     2
 10
473.305786
 20
89.376106
  0
VERTEX
  8
0
 62
     2
 10
473.393402
 20
89.376106
  0
VERTEX
  8
0
 62
     2
 10
473.401978
 20
89.376106
  0
SEQEND
  8
0
  0
LINE
  8
0
 62
     2
 10
443.040666
 20
103.876095
 11
441.806206
 21
103.876095
  0
POLYLINE
  8
0
 62
     2
 66
    1
  0
VERTEX
  8
0
 62
     2
 10
448.547577
 20
94.376091
  0
VERTEX
  8
0
 62
     2
 10
445.989105
 20
103.876091
  0
VERTEX
  8
0
 62
     2
 10
443.862244
 20
103.876091
  0
SEQEND
  8
0
  0
LINE
  8
0
 62
     2
 10
473.401971
 20
89.376095
 11
471.509239
 21
89.376095
  0
LINE
  8
0
 62
     2
 10
444.659929
 20
103.876095
 11
443.862249
 21
103.876095
  0
LINE
  8
0
 62
     2
 10
443.040666
 20
103.876095
 11
442.289662
 21
103.876095
  0
LINE
  8
0
 62
     2
 10
437.523697
 20
103.876095
 11
416.225842
 21
103.876095
  0
LINE
  8
0
 62
     2
 10
467.066283
 20
94.376095
 11
467.644756
 21
94.376095
  0
LINE
  8
0
 62
     2
 10
469.665482
 20
90.876095
 11
469.162141
 21
90.876095
  0
LINE
  8
0
 62
     2
 10
437.523697
 20
103.876095
 11
437.523697
 21
107.376095
  0
POLYLINE
  8
0
 62
     2
 66
    1
  0
VERTEX
  8
0
 62
     2
 10
450.919983
 20
89.376106
  0
VERTEX
  8
0
 62
     2
 10
450.664337
 20
89.432274
  0
VERTEX
  8
0
 62
     2
 10
450.396484
 20
89.502205
  0
VERTEX
  8
0
 62
     2
 10
450.228363
 20
89.557030
  0
VERTEX
  8
0
 62
     2
 10
450.192627
 20
89.595177
  0
VERTEX
  8
0
 62
     2
 10
449.802551
 20
90.077965
  0
VERTEX
  8
0
 62
     2
 10
449.490173
 20
90.876106
  0
VERTEX
  8
0
 62
     2
 10
445.989105
 20
103.876091
  0
SEQEND
  8
0
  0
LINE
  8
0
 62
     2
 10
471.823148
 20
89.376095
 11
472.263559
 21
89.376095
  0
LINE
  8
0
 62
     2
 10
444.596229
 20
89.376095
 11
450.919968
 21
89.376095
  0
LINE
  8
0
 62
     2
 10
445.989098
 20
103.876095
 11
434.754757
 21
103.876095
  0
POLYLINE
  8
0
 62
     2
 66
    1
  0
VERTEX
  8
0
 62
     2
 10
472.263550
 20
89.376106
  0
VERTEX
  8
0
 62
     2
 10
471.237488
 20
89.557030
  0
VERTEX
  8
0
 62
     2
 10
470.335205
 20
90.077965
  0
VERTEX
  8
0
 62
     2
 10
469.665497
 20
90.876106
  0
SEQEND
  8
0
  0
ARC
  8
0
 62
     2
 10
477.659929
 20
87.376095
 40
2.000000
 50
0.000000
 51
90.000000
  0
LINE
  8
0
 62
     2
 10
443.769247
 20
89.376095
 11
443.769247
 21
89.595166
  0
LINE
  8
0
 62
     2
 10
417.673135
 20
89.376095
 11
417.673135
 21
103.876095
  0
LINE
  8
0
 62
     2
 10
470.724073
 20
89.376095
 11
470.724073
 21
89.595166
  0
LINE
  8
0
 62
     2
 10
467.644756
 20
94.376095
 11
469.665482
 21
90.876095
  0
LINE
  8
0
 62
     2
 10
443.769247
 20
-14.623905
 11
443.769247
 21
-14.842976
  0
ARC
  8
0
 62
     2
 10
477.659929
 20
-12.623905
 40
2.000000
 50
270.000000
 51
360.000000
  0
LINE
  8
0
 62
     2
 10
445.989098
 20
-29.123905
 11
434.754757
 21
-29.123905
  0
LINE
  8
0
 62
     2
 10
444.596229
 20
-14.623905
 11
450.919968
 21
-14.623905
  0
POLYLINE
  8
0
 62
     2
 66
    1
  0
VERTEX
  8
0
 62
     2
 10
450.919983
 20
-14.623913
  0
VERTEX
  8
0
 62
     2
 10
450.664337
 20
-14.680080
  0
VERTEX
  8
0
 62
     2
 10
450.396484
 20
-14.750011
  0
VERTEX
  8
0
 62
     2
 10
450.228363
 20
-14.804836
  0
VERTEX
  8
0
 62
     2
 10
450.192627
 20
-14.842983
  0
VERTEX
  8
0
 62
     2
 10
449.802551
 20
-15.325775
  0
VERTEX
  8
0
 62
     2
 10
449.490173
 20
-16.123917
  0
VERTEX
  8
0
 62
     2
 10
445.989105
 20
-29.123917
  0
SEQEND
  8
0
  0
LINE
  8
0
 62
     2
 10
437.523697
 20
-29.123905
 11
437.523697
 21
-32.623905
  0
LINE
  8
0
 62
     2
 10
467.066283
 20
-19.623905
 11
467.644756
 21
-19.623905
  0
LINE
  8
0
 62
     2
 10
437.523697
 20
-29.123905
 11
416.225842
 21
-29.123905
  0
LINE
  8
0
 62
     2
 10
443.040666
 20
-29.123905
 11
442.289662
 21
-29.123905
  0
LINE
  8
0
 62
     2
 10
444.659929
 20
-29.123905
 11
444.087750
 21
-29.123905
  0
LINE
  8
0
 62
     2
 10
473.401971
 20
-14.623905
 11
471.509239
 21
-14.623905
  0
POLYLINE
  8
0
 62
     2
 66
    1
  0
VERTEX
  8
0
 62
     2
 10
448.547577
 20
-19.623917
  0
VERTEX
  8
0
 62
     2
 10
445.989105
 20
-29.123917
  0
VERTEX
  8
0
 62
     2
 10
444.087738
 20
-29.123917
  0
SEQEND
  8
0
  0
LINE
  8
0
 62
     2
 10
443.040666
 20
-29.123905
 11
441.806206
 21
-29.123905
  0
LINE
  8
0
 62
     2
 10
448.547565
 20
-19.623905
 11
467.066283
 21
-19.623905
  0
POLYLINE
  8
0
 62
     2
 66
    1
  0
VERTEX
  8
0
 62
     2
 10
416.225830
 20
-32.623917
  0
VERTEX
  8
0
 62
     2
 10
416.225830
 20
-29.123917
  0
VERTEX
  8
0
 62
     2
 10
417.673126
 20
-29.123917
  0
VERTEX
  8
0
 62
     2
 10
434.754761
 20
-29.123917
  0
VERTEX
  8
0
 62
     2
 10
442.262817
 20
-16.123917
  0
VERTEX
  8
0
 62
     2
 10
442.932739
 20
-15.325775
  0
VERTEX
  8
0
 62
     2
 10
443.769257
 20
-14.842983
  0
VERTEX
  8
0
 62
     2
 10
443.829376
 20
-14.804836
  0
VERTEX
  8
0
 62
     2
 10
444.112244
 20
-14.750011
  0
VERTEX
  8
0
 62
     2
 10
444.407928
 20
-14.680080
  0
VERTEX
  8
0
 62
     2
 10
444.596222
 20
-14.623913
  0
VERTEX
  8
0
 62
     2
 10
444.644562
 20
-14.623913
  0
VERTEX
  8
0
 62
     2
 10
444.812714
 20
-14.623913
  0
VERTEX
  8
0
 62
     2
 10
444.905731
 20
-14.623913
  0
VERTEX
  8
0
 62
     2
 10
444.919861
 20
-14.623913
  0
SEQEND
  8
0
  0
LINE
  8
0
 62
     2
 10
459.859929
 20
-19.623905
 11
449.459929
 21
-19.623905
  0
LINE
  8
0
 62
     2
 10
437.089264
 20
-29.123905
 11
436.749155
 21
-29.123905
  0
LINE
  8
0
 62
     2
 10
430.421870
 20
-29.123905
 11
440.821870
 21
-29.123905
  0
LINE
  8
OBRYS
 10
299.659929
 20
-7.623905
 11
479.659929
 21
-7.623905
  0
INSERT
  8
OSA
 66
     1
  2
M10x1_8
  6
CONTINUOUS
 10
474.159929
 20
1074.900472
  0
ATTRIB
  8
OSA
 62
     2
  6
CONTINUOUS
 10
0.000000
 20
0.000000
 40
3.749998
  1
DIN 908
  2
norma roz.
 70
     1
  0
SEQEND
  8
OSA
  0
LINE
  8
OBRYS
 10
474.159929
 20
574.485345
 11
474.159929
 21
556.485211
  0
LINE
  8
OBRYS
 10
474.159929
 20
556.485211
 11
473.160065
 21
556.485279
  0
ARC
  8
OBRYS
 10
473.159929
 20
554.485279
 40
2.000000
 50
89.996087
 51
180.000000
  0
LINE
  8
OBRYS
 10
474.159929
 20
574.485345
 11
473.160065
 21
574.485277
  0
ARC
  8
OBRYS
 10
473.159929
 20
576.485277
 40
2.000000
 50
180.000000
 51
270.003913
  0
LINE
  8
OBRYS
 10
299.659929
 20
610.485278
 11
479.659929
 21
610.485278
  0
LINE
  8
OBRYS
 10
477.659929
 20
529.485278
 11
301.659929
 21
529.485278
  0
LINE
  8
OBRYS
 10
477.659929
 20
601.485278
 11
301.659929
 21
601.485278
  0
LINE
  8
0
 62
     2
 10
467.644756
 20
508.485278
 11
469.665482
 21
511.985278
  0
LINE
  8
0
 62
     2
 10
470.724073
 20
513.485278
 11
470.724073
 21
513.266207
  0
LINE
  8
0
 62
     2
 10
417.673135
 20
513.485278
 11
417.673135
 21
498.985278
  0
LINE
  8
0
 62
     2
 10
443.769247
 20
513.485278
 11
443.769247
 21
513.266207
  0
ARC
  8
0
 62
     2
 10
477.659929
 20
515.485278
 40
2.000000
 50
270.000000
 51
360.000000
  0
POLYLINE
  8
0
 62
     2
 66
    1
  0
VERTEX
  8
0
 62
     2
 10
472.263550
 20
513.485291
  0
VERTEX
  8
0
 62
     2
 10
471.237488
 20
513.304321
  0
VERTEX
  8
0
 62
     2
 10
470.335205
 20
512.783386
  0
VERTEX
  8
0
 62
     2
 10
469.665497
 20
511.985260
  0
SEQEND
  8
0
  0
LINE
  8
0
 62
     2
 10
445.989098
 20
498.985278
 11
434.754757
 21
498.985278
  0
LINE
  8
0
 62
     2
 10
444.596229
 20
513.485278
 11
450.919968
 21
513.485278
  0
LINE
  8
0
 62
     2
 10
471.823148
 20
513.485278
 11
472.263559
 21
513.485278
  0
POLYLINE
  8
0
 62
     2
 66
    1
  0
VERTEX
  8
0
 62
     2
 10
450.919983
 20
513.485291
  0
VERTEX
  8
0
 62
     2
 10
450.664337
 20
513.429077
  0
VERTEX
  8
0
 62
     2
 10
450.396484
 20
513.359192
  0
VERTEX
  8
0
 62
     2
 10
450.228363
 20
513.304321
  0
VERTEX
  8
0
 62
     2
 10
450.192627
 20
513.266174
  0
VERTEX
  8
0
 62
     2
 10
449.802551
 20
512.783386
  0
VERTEX
  8
0
 62
     2
 10
449.490173
 20
511.985260
  0
VERTEX
  8
0
 62
     2
 10
445.989105
 20
498.985291
  0
SEQEND
  8
0
  0
LINE
  8
0
 62
     2
 10
437.523697
 20
498.985278
 11
437.523697
 21
495.485278
  0
LINE
  8
0
 62
     2
 10
469.665482
 20
511.985278
 11
469.162141
 21
511.985278
  0
LINE
  8
0
 62
     2
 10
467.066283
 20
508.485278
 11
467.644756
 21
508.485278
  0
LINE
  8
0
 62
     2
 10
437.523697
 20
498.985278
 11
416.225842
 21
498.985278
  0
LINE
  8
0
 62
     2
 10
443.040666
 20
498.985278
 11
442.289662
 21
498.985278
  0
LINE
  8
0
 62
     2
 10
444.659929
 20
498.985278
 11
443.862249
 21
498.985278
  0
LINE
  8
0
 62
     2
 10
473.401971
 20
513.485278
 11
471.509239
 21
513.485278
  0
POLYLINE
  8
0
 62
     2
 66
    1
  0
VERTEX
  8
0
 62
     2
 10
448.547577
 20
508.485291
  0
VERTEX
  8
0
 62
     2
 10
445.989105
 20
498.985291
  0
VERTEX
  8
0
 62
     2
 10
443.862244
 20
498.985291
  0
SEQEND
  8
0
  0
LINE
  8
0
 62
     2
 10
443.040666
 20
498.985278
 11
441.806206
 21
498.985278
  0
POLYLINE
  8
0
 62
     2
 66
    1
  0
VERTEX
  8
0
 62
     2
 10
467.066284
 20
508.485291
  0
VERTEX
  8
0
 62
     2
 10
469.162140
 20
511.985260
  0
VERTEX
  8
0
 62
     2
 10
469.856750
 20
512.783386
  0
VERTEX
  8
0
 62
     2
 10
470.724091
 20
513.266174
  0
VERTEX
  8
0
 62
     2
 10
470.791840
 20
513.304321
  0
VERTEX
  8
0
 62
     2
 10
471.110748
 20
513.359192
  0
VERTEX
  8
0
 62
     2
 10
471.509247
 20
513.429077
  0
VERTEX
  8
0
 62
     2
 10
471.823151
 20
513.485291
  0
VERTEX
  8
0
 62
     2
 10
471.903717
 20
513.485291
  0
VERTEX
  8
0
 62
     2
 10
472.278473
 20
513.485291
  0
VERTEX
  8
0
 62
     2
 10
472.618591
 20
513.485291
  0
VERTEX
  8
0
 62
     2
 10
472.910522
 20
513.485291
  0
VERTEX
  8
0
 62
     2
 10
473.142670
 20
513.485291
  0
VERTEX
  8
0
 62
     2
 10
473.305786
 20
513.485291
  0
VERTEX
  8
0
 62
     2
 10
473.393402
 20
513.485291
  0
VERTEX
  8
0
 62
     2
 10
473.401978
 20
513.485291
  0
SEQEND
  8
0
  0
LINE
  8
0
 62
     2
 10
448.547565
 20
508.485278
 11
467.066283
 21
508.485278
  0
POLYLINE
  8
0
 62
     2
 66
    1
  0
VERTEX
  8
0
 62
     2
 10
416.225830
 20
495.485291
  0
VERTEX
  8
0
 62
     2
 10
416.225830
 20
498.985291
  0
VERTEX
  8
0
 62
     2
 10
417.673126
 20
498.985291
  0
VERTEX
  8
0
 62
     2
 10
434.754761
 20
498.985291
  0
VERTEX
  8
0
 62
     2
 10
442.262817
 20
511.985260
  0
VERTEX
  8
0
 62
     2
 10
442.932739
 20
512.783386
  0
VERTEX
  8
0
 62
     2
 10
443.769257
 20
513.266174
  0
VERTEX
  8
0
 62
     2
 10
443.829376
 20
513.304321
  0
VERTEX
  8
0
 62
     2
 10
444.112244
 20
513.359192
  0
VERTEX
  8
0
 62
     2
 10
444.407928
 20
513.429077
  0
VERTEX
  8
0
 62
     2
 10
444.596222
 20
513.485291
  0
VERTEX
  8
0
 62
     2
 10
444.644562
 20
513.485291
  0
VERTEX
  8
0
 62
     2
 10
444.812714
 20
513.485291
  0
VERTEX
  8
0
 62
     2
 10
444.905731
 20
513.485291
  0
VERTEX
  8
0
 62
     2
 10
444.919861
 20
513.485291
  0
SEQEND
  8
0
  0
LINE
  8
0
 62
     2
 10
459.859929
 20
508.485278
 11
449.459929
 21
508.485278
  0
LINE
  8
0
 62
     2
 10
437.089264
 20
498.985278
 11
436.749155
 21
498.985278
  0
LINE
  8
0
 62
     2
 10
430.421870
 20
498.985278
 11
440.821870
 21
498.985278
  0
LINE
  8
0
 62
     2
 10
417.923792
 20
585.094242
 11
419.232021
 21
584.826244
  0
LINE
  8
0
 62
     2
 10
415.967134
 20
586.440700
 11
417.923792
 21
585.094242
  0
LINE
  8
0
 62
     2
 10
415.414525
 20
586.828424
 11
415.967134
 21
586.440700
  0
LINE
  8
0
 62
     2
 10
413.763007
 20
589.423810
 11
415.414525
 21
586.828424
  0
LINE
  8
0
 62
     2
 10
413.183071
 20
592.485278
 11
413.763007
 21
589.423810
  0
LINE
  8
0
 62
     2
 10
413.183071
 20
599.485278
 11
413.183071
 21
592.485278
  0
LINE
  8
0
 62
     2
 10
413.227051
 20
600.250645
 11
413.183071
 21
599.485278
  0
LINE
  8
0
 62
     2
 10
413.266251
 20
600.453720
 11
413.227051
 21
600.250645
  0
LINE
  8
0
 62
     2
 10
413.408720
 20
600.899491
 11
413.266251
 21
600.453720
  0
LINE
  8
0
 62
     2
 10
413.719075
 20
601.333037
 11
413.408720
 21
600.899491
  0
LINE
  8
0
 62
     2
 10
414.005530
 20
601.452162
 11
413.719075
 21
601.333037
  0
LINE
  8
0
 62
     2
 10
414.119299
 20
601.485278
 11
414.005530
 21
601.452162
  0
POLYLINE
  8
0
 62
     2
 66
    1
  0
VERTEX
  8
0
 62
     2
 10
464.740509
 20
584.613342
  0
VERTEX
  8
0
 62
     2
 10
464.647186
 20
584.641296
  0
VERTEX
  8
0
 62
     2
 10
464.494171
 20
584.695251
  0
VERTEX
  8
0
 62
     2
 10
464.159760
 20
584.826233
  0
VERTEX
  8
0
 62
     2
 10
463.515320
 20
585.094238
  0
VERTEX
  8
0
 62
     2
 10
462.551453
 20
586.440674
  0
VERTEX
  8
0
 62
     2
 10
462.279236
 20
586.828430
  0
VERTEX
  8
0
 62
     2
 10
461.465668
 20
589.423828
  0
VERTEX
  8
0
 62
     2
 10
461.179993
 20
592.485291
  0
VERTEX
  8
0
 62
     2
 10
461.179993
 20
599.485291
  0
VERTEX
  8
0
 62
     2
 10
461.313599
 20
600.250671
  0
VERTEX
  8
0
 62
     2
 10
461.432709
 20
600.453735
  0
VERTEX
  8
0
 62
     2
 10
461.721924
 20
600.899475
  0
VERTEX
  8
0
 62
     2
 10
462.351929
 20
601.333008
  0
VERTEX
  8
0
 62
     2
 10
462.933441
 20
601.452148
  0
VERTEX
  8
0
 62
     2
 10
463.111908
 20
601.485291
  0
SEQEND
  8
0
  0
LINE
  8
OBRYS
 10
471.159929
 20
588.126117
 11
471.159929
 21
565.485278
  0
LINE
  8
0
 62
     2
 10
428.657287
 20
592.485278
 11
428.657287
 21
601.485278
  0
LINE
  8
0
 62
     2
 10
472.494171
 20
601.352850
 11
472.494171
 21
592.485278
  0
POLYLINE
  8
0
 62
     2
 66
    1
  0
VERTEX
  8
0
 62
     2
 10
419.232025
 20
584.826233
  0
VERTEX
  8
0
 62
     2
 10
419.910889
 20
584.695251
  0
VERTEX
  8
0
 62
     2
 10
420.221527
 20
584.641296
  0
VERTEX
  8
0
 62
     2
 10
420.410950
 20
584.613342
  0
VERTEX
  8
0
 62
     2
 10
420.547211
 20
584.597534
  0
SEQEND
  8
0
  0
ARC
  8
0
 62
     2
 10
420.814548
 20
587.249132
 40
2.668241
 50
264.805118
 51
277.765379
  0
POLYLINE
  8
0
 62
     2
 66
    1
  0
VERTEX
  8
0
 62
     2
 10
421.251984
 20
584.613342
  0
VERTEX
  8
0
 62
     2
 10
421.426575
 20
584.641296
  0
VERTEX
  8
0
 62
     2
 10
421.712860
 20
584.695251
  0
SEQEND
  8
0
  0
LINE
  8
0
 62
     2
 10
428.657287
 20
592.485278
 11
413.183071
 21
592.485278
  0
POLYLINE
  8
0
 62
     2
 66
    1
  0
VERTEX
  8
0
 62
     2
 10
423.718750
 20
585.094238
  0
VERTEX
  8
0
 62
     2
 10
426.314148
 20
586.828430
  0
VERTEX
  8
0
 62
     2
 10
428.048340
 20
589.423828
  0
VERTEX
  8
0
 62
     2
 10
428.657288
 20
592.485291
  0
SEQEND
  8
0
  0
LINE
  8
0
 62
     2
 10
421.712857
 20
584.695244
 11
423.718754
 21
585.094242
  0
POLYLINE
  8
0
 62
     2
 66
    1
  0
VERTEX
  8
0
 62
     2
 10
465.014160
 20
584.588684
  0
VERTEX
  8
0
 62
     2
 10
464.984558
 20
584.584717
  0
VERTEX
  8
0
 62
     2
 10
464.956116
 20
584.584717
  0
SEQEND
  8
0
  0
ARC
  8
0
 62
     2
 10
464.933008
 20
585.156458
 40
0.574217
 50
253.397780
 51
271.497555
  0
LINE
  8
0
 62
     2
 10
472.494171
 20
592.485278
 11
461.179994
 21
592.485278
  0
POLYLINE
  8
0
 62
     2
 66
    1
  0
VERTEX
  8
0
 62
     2
 10
467.555634
 20
585.094238
  0
VERTEX
  8
0
 62
     2
 10
470.151031
 20
586.828430
  0
VERTEX
  8
0
 62
     2
 10
471.885193
 20
589.423828
  0
VERTEX
  8
0
 62
     2
 10
472.494171
 20
592.485291
  0
SEQEND
  8
0
  0
LINE
  8
0
 62
     2
 10
467.555638
 20
585.094242
 11
465.014154
 21
584.588709
  0
POLYLINE
  8
0
 62
     2
 66
    1
  0
VERTEX
  8
0
 62
     2
 10
471.159943
 20
588.338379
  0
VERTEX
  8
0
 62
     2
 10
471.885193
 20
589.423828
  0
VERTEX
  8
0
 62
     2
 10
472.494171
 20
592.485291
  0
SEQEND
  8
0
  0
LINE
  8
0
 62
     2
 10
421.708179
 20
592.485278
 11
414.330528
 21
592.485278
  0
LINE
  8
OBRYS
 10
471.159929
 20
565.485278
 11
471.159929
 21
531.485278
  0
LINE
  8
OBRYS
 10
479.659929
 20
515.485278
 11
479.659929
 21
527.485278
  0
ARC
  8
OBRYS
 10
473.159929
 20
531.485278
 40
2.000000
 50
180.000000
 51
270.000000
  0
ARC
  8
OBRYS
 10
477.659929
 20
527.485278
 40
2.000000
 50
0.000000
 51
90.000000
  0
ARC
  8
OBRYS
 10
477.659929
 20
603.485278
 40
2.000000
 50
270.000000
 51
360.000000
  0
LINE
  8
0
 62
     2
 10
389.659929
 20
495.485278
 11
444.659929
 21
495.485278
  0
LINE
  8
0
 62
     2
 10
444.659929
 20
495.485278
 11
444.659929
 21
498.985278
  0
LINE
  8
0
 62
     2
 10
334.659929
 20
495.485278
 11
334.659929
 21
498.985278
  0
LINE
  8
0
 62
     2
 10
389.659929
 20
495.485278
 11
334.659929
 21
495.485278
  0
LINE
  8
OBRYS
 62
     7
  6
DASHDOT
 10
491.270788
 20
565.485278
 11
297.659929
 21
565.485278
  0
LINE
  8
OBRYS
 62
     7
  6
DASHDOT
 10
389.659929
 20
635.485278
 11
389.659929
 21
495.485278
  0
ARC
  8
OBRYS
 10
301.659929
 20
603.485278
 40
2.000000
 50
180.000000
 51
270.000000
  0
ARC
  8
OBRYS
 10
301.659929
 20
527.485278
 40
2.000000
 50
90.000000
 51
180.000000
  0
ARC
  8
OBRYS
 10
306.159929
 20
531.485278
 40
2.000000
 50
270.000000
 51
360.000000
  0
LINE
  8
OBRYS
 10
299.659929
 20
515.485278
 11
299.659929
 21
527.485278
  0
LINE
  8
OBRYS
 10
308.159929
 20
565.485278
 11
308.159929
 21
531.485278
  0
LINE
  8
0
 62
     2
 10
357.611679
 20
592.485278
 11
364.989330
 21
592.485278
  0
POLYLINE
  8
0
 62
     2
 66
    1
  0
VERTEX
  8
0
 62
     2
 10
308.159943
 20
588.338379
  0
VERTEX
  8
0
 62
     2
 10
307.434662
 20
589.423828
  0
VERTEX
  8
0
 62
     2
 10
306.825684
 20
592.485291
  0
SEQEND
  8
0
  0
LINE
  8
0
 62
     2
 10
311.764219
 20
585.094242
 11
314.305704
 21
584.588709
  0
POLYLINE
  8
0
 62
     2
 66
    1
  0
VERTEX
  8
0
 62
     2
 10
311.764221
 20
585.094238
  0
VERTEX
  8
0
 62
     2
 10
309.168823
 20
586.828430
  0
VERTEX
  8
0
 62
     2
 10
307.434662
 20
589.423828
  0
VERTEX
  8
0
 62
     2
 10
306.825684
 20
592.485291
  0
SEQEND
  8
0
  0
LINE
  8
0
 62
     2
 10
306.825687
 20
592.485278
 11
318.139864
 21
592.485278
  0
ARC
  8
0
 62
     2
 10
314.386849
 20
585.156458
 40
0.574217
 50
268.502445
 51
286.602220
  0
POLYLINE
  8
0
 62
     2
 66
    1
  0
VERTEX
  8
0
 62
     2
 10
314.305695
 20
584.588684
  0
VERTEX
  8
0
 62
     2
 10
314.335297
 20
584.584717
  0
VERTEX
  8
0
 62
     2
 10
314.363739
 20
584.584717
  0
SEQEND
  8
0
  0
LINE
  8
0
 62
     2
 10
357.607001
 20
584.695244
 11
355.601103
 21
585.094242
  0
POLYLINE
  8
0
 62
     2
 66
    1
  0
VERTEX
  8
0
 62
     2
 10
355.601105
 20
585.094238
  0
VERTEX
  8
0
 62
     2
 10
353.005707
 20
586.828430
  0
VERTEX
  8
0
 62
     2
 10
351.271545
 20
589.423828
  0
VERTEX
  8
0
 62
     2
 10
350.662567
 20
592.485291
  0
SEQEND
  8
0
  0
LINE
  8
0
 62
     2
 10
350.662571
 20
592.485278
 11
366.136787
 21
592.485278
  0
POLYLINE
  8
0
 62
     2
 66
    1
  0
VERTEX
  8
0
 62
     2
 10
358.067871
 20
584.613342
  0
VERTEX
  8
0
 62
     2
 10
357.893280
 20
584.641296
  0
VERTEX
  8
0
 62
     2
 10
357.606995
 20
584.695251
  0
SEQEND
  8
0
  0
ARC
  8
0
 62
     2
 10
358.505310
 20
587.249132
 40
2.668241
 50
262.234621
 51
275.194882
  0
POLYLINE
  8
0
 62
     2
 66
    1
  0
VERTEX
  8
0
 62
     2
 10
360.087830
 20
584.826233
  0
VERTEX
  8
0
 62
     2
 10
359.408966
 20
584.695251
  0
VERTEX
  8
0
 62
     2
 10
359.098328
 20
584.641296
  0
VERTEX
  8
0
 62
     2
 10
358.908905
 20
584.613342
  0
VERTEX
  8
0
 62
     2
 10
358.772644
 20
584.597534
  0
SEQEND
  8
0
  0
LINE
  8
0
 62
     2
 10
306.825687
 20
601.352850
 11
306.825687
 21
592.485278
  0
LINE
  8
0
 62
     2
 10
350.662571
 20
592.485278
 11
350.662571
 21
601.485278
  0
LINE
  8
OBRYS
 10
308.159929
 20
588.126117
 11
308.159929
 21
565.485278
  0
POLYLINE
  8
0
 62
     2
 66
    1
  0
VERTEX
  8
0
 62
     2
 10
314.579346
 20
584.613342
  0
VERTEX
  8
0
 62
     2
 10
314.672668
 20
584.641296
  0
VERTEX
  8
0
 62
     2
 10
314.825684
 20
584.695251
  0
VERTEX
  8
0
 62
     2
 10
315.160095
 20
584.826233
  0
VERTEX
  8
0
 62
     2
 10
315.804535
 20
585.094238
  0
VERTEX
  8
0
 62
     2
 10
316.768402
 20
586.440674
  0
VERTEX
  8
0
 62
     2
 10
317.040619
 20
586.828430
  0
VERTEX
  8
0
 62
     2
 10
317.854187
 20
589.423828
  0
VERTEX
  8
0
 62
     2
 10
318.139862
 20
592.485291
  0
VERTEX
  8
0
 62
     2
 10
318.139862
 20
599.485291
  0
VERTEX
  8
0
 62
     2
 10
318.006256
 20
600.250671
  0
VERTEX
  8
0
 62
     2
 10
317.887146
 20
600.453735
  0
VERTEX
  8
0
 62
     2
 10
317.597931
 20
600.899475
  0
VERTEX
  8
0
 62
     2
 10
316.967926
 20
601.333008
  0
VERTEX
  8
0
 62
     2
 10
316.386414
 20
601.452148
  0
VERTEX
  8
0
 62
     2
 10
316.207947
 20
601.485291
  0
SEQEND
  8
0
  0
LINE
  8
0
 62
     2
 10
365.200559
 20
601.485278
 11
365.314328
 21
601.452162
  0
LINE
  8
0
 62
     2
 10
365.314328
 20
601.452162
 11
365.600783
 21
601.333037
  0
LINE
  8
0
 62
     2
 10
365.600783
 20
601.333037
 11
365.911138
 21
600.899491
  0
LINE
  8
0
 62
     2
 10
365.911138
 20
600.899491
 11
366.053607
 21
600.453720
  0
LINE
  8
0
 62
     2
 10
366.053607
 20
600.453720
 11
366.092806
 21
600.250645
  0
LINE
  8
0
 62
     2
 10
366.092806
 20
600.250645
 11
366.136787
 21
599.485278
  0
LINE
  8
0
 62
     2
 10
366.136787
 20
599.485278
 11
366.136787
 21
592.485278
  0
LINE
  8
0
 62
     2
 10
366.136787
 20
592.485278
 11
365.556851
 21
589.423810
  0
LINE
  8
0
 62
     2
 10
365.556851
 20
589.423810
 11
363.905333
 21
586.828424
  0
LINE
  8
0
 62
     2
 10
363.905333
 20
586.828424
 11
363.352724
 21
586.440700
  0
LINE
  8
0
 62
     2
 10
363.352724
 20
586.440700
 11
361.396065
 21
585.094242
  0
LINE
  8
0
 62
     2
 10
361.396065
 20
585.094242
 11
360.087837
 21
584.826244
  0
LINE
  8
0
 62
     2
 10
404.050027
 20
495.485278
 11
404.050027
 21
508.485278
  0
LINE
  8
0
 62
     2
 10
375.269831
 20
508.485278
 11
404.050027
 21
508.485278
  0
LINE
  8
0
 62
     2
 10
375.269831
 20
508.485278
 11
375.269831
 21
495.485278
  0
LINE
  8
0
 62
     2
 10
348.897988
 20
498.985278
 11
338.497988
 21
498.985278
  0
LINE
  8
0
 62
     2
 10
342.230593
 20
498.985278
 11
342.570703
 21
498.985278
  0
LINE
  8
0
 62
     2
 10
319.459929
 20
508.485278
 11
329.859929
 21
508.485278
  0
LINE
  8
0
 62
     2
 10
394.859929
 20
508.485278
 11
384.459929
 21
508.485278
  0
LINE
  8
0
 62
     2
 10
395.533269
 20
508.485278
 11
404.050027
 21
508.485278
  0
POLYLINE
  8
0
 62
     2
 66
    1
  0
VERTEX
  8
0
 62
     2
 10
394.083893
 20
513.429077
  0
VERTEX
  8
0
 62
     2
 10
394.103577
 20
513.359192
  0
VERTEX
  8
0
 62
     2
 10
394.184692
 20
513.304321
  0
VERTEX
  8
0
 62
     2
 10
394.201935
 20
513.266174
  0
VERTEX
  8
0
 62
     2
 10
394.517609
 20
512.783386
  0
VERTEX
  8
0
 62
     2
 10
394.770447
 20
511.985260
  0
VERTEX
  8
0
 62
     2
 10
395.533264
 20
508.485291
  0
SEQEND
  8
0
  0
LINE
  8
0
 62
     2
 10
375.269831
 20
508.485278
 11
383.786589
 21
508.485278
  0
POLYLINE
  8
0
 62
     2
 66
    1
  0
VERTEX
  8
0
 62
     2
 10
363.094025
 20
495.485291
  0
VERTEX
  8
0
 62
     2
 10
363.094025
 20
498.985291
  0
VERTEX
  8
0
 62
     2
 10
361.646729
 20
498.985291
  0
VERTEX
  8
0
 62
     2
 10
344.565094
 20
498.985291
  0
VERTEX
  8
0
 62
     2
 10
337.057037
 20
511.985260
  0
VERTEX
  8
0
 62
     2
 10
336.387115
 20
512.783386
  0
VERTEX
  8
0
 62
     2
 10
335.550598
 20
513.266174
  0
VERTEX
  8
0
 62
     2
 10
335.490479
 20
513.304321
  0
VERTEX
  8
0
 62
     2
 10
335.207611
 20
513.359192
  0
VERTEX
  8
0
 62
     2
 10
334.911926
 20
513.429077
  0
VERTEX
  8
0
 62
     2
 10
334.723633
 20
513.485291
  0
VERTEX
  8
0
 62
     2
 10
334.675293
 20
513.485291
  0
VERTEX
  8
0
 62
     2
 10
334.507141
 20
513.485291
  0
VERTEX
  8
0
 62
     2
 10
334.414124
 20
513.485291
  0
VERTEX
  8
0
 62
     2
 10
334.399994
 20
513.485291
  0
SEQEND
  8
0
  0
POLYLINE
  8
0
 62
     2
 66
    1
  0
VERTEX
  8
0
 62
     2
 10
383.786591
 20
508.485291
  0
VERTEX
  8
0
 62
     2
 10
384.549408
 20
511.985260
  0
VERTEX
  8
0
 62
     2
 10
384.802246
 20
512.783386
  0
VERTEX
  8
0
 62
     2
 10
385.117920
 20
513.266174
  0
VERTEX
  8
0
 62
     2
 10
385.135162
 20
513.304321
  0
VERTEX
  8
0
 62
     2
 10
385.216309
 20
513.359192
  0
VERTEX
  8
0
 62
     2
 10
385.235962
 20
513.429077
  0
SEQEND
  8
0
  0
LINE
  8
0
 62
     2
 10
330.772293
 20
508.485278
 11
312.253575
 21
508.485278
  0
POLYLINE
  8
0
 62
     2
 66
    1
  0
VERTEX
  8
0
 62
     2
 10
312.253571
 20
508.485291
  0
VERTEX
  8
0
 62
     2
 10
310.157715
 20
511.985260
  0
VERTEX
  8
0
 62
     2
 10
309.463104
 20
512.783386
  0
VERTEX
  8
0
 62
     2
 10
308.595764
 20
513.266174
  0
VERTEX
  8
0
 62
     2
 10
308.528015
 20
513.304321
  0
VERTEX
  8
0
 62
     2
 10
308.209106
 20
513.359192
  0
VERTEX
  8
0
 62
     2
 10
307.810638
 20
513.429077
  0
VERTEX
  8
0
 62
     2
 10
307.496704
 20
513.485291
  0
VERTEX
  8
0
 62
     2
 10
307.416138
 20
513.485291
  0
VERTEX
  8
0
 62
     2
 10
307.041412
 20
513.485291
  0
VERTEX
  8
0
 62
     2
 10
306.701294
 20
513.485291
  0
VERTEX
  8
0
 62
     2
 10
306.409332
 20
513.485291
  0
VERTEX
  8
0
 62
     2
 10
306.177185
 20
513.485291
  0
VERTEX
  8
0
 62
     2
 10
306.014069
 20
513.485291
  0
VERTEX
  8
0
 62
     2
 10
305.926483
 20
513.485291
  0
VERTEX
  8
0
 62
     2
 10
305.917908
 20
513.485291
  0
SEQEND
  8
0
  0
LINE
  8
0
 62
     2
 10
336.279192
 20
498.985278
 11
337.513652
 21
498.985278
  0
POLYLINE
  8
0
 62
     2
 66
    1
  0
VERTEX
  8
0
 62
     2
 10
330.772278
 20
508.485291
  0
VERTEX
  8
0
 62
     2
 10
333.330750
 20
498.985291
  0
VERTEX
  8
0
 62
     2
 10
335.457611
 20
498.985291
  0
SEQEND
  8
0
  0
LINE
  8
0
 62
     2
 10
305.917886
 20
513.485278
 11
307.810618
 21
513.485278
  0
LINE
  8
0
 62
     2
 10
334.659929
 20
498.985278
 11
335.457608
 21
498.985278
  0
LINE
  8
0
 62
     2
 10
336.279192
 20
498.985278
 11
337.030196
 21
498.985278
  0
LINE
  8
0
 62
     2
 10
341.796161
 20
498.985278
 11
363.094015
 21
498.985278
  0
LINE
  8
0
 62
     2
 10
312.253575
 20
508.485278
 11
311.675101
 21
508.485278
  0
LINE
  8
0
 62
     2
 10
383.786589
 20
508.485278
 11
395.533269
 21
508.485278
  0
LINE
  8
0
 62
     2
 10
309.654375
 20
511.985278
 11
310.157717
 21
511.985278
  0
LINE
  8
0
 62
     2
 10
341.796161
 20
498.985278
 11
341.796161
 21
495.485278
  0
POLYLINE
  8
0
 62
     2
 66
    1
  0
VERTEX
  8
0
 62
     2
 10
328.399872
 20
513.485291
  0
VERTEX
  8
0
 62
     2
 10
328.655518
 20
513.429077
  0
VERTEX
  8
0
 62
     2
 10
328.923370
 20
513.359192
  0
VERTEX
  8
0
 62
     2
 10
329.091492
 20
513.304321
  0
VERTEX
  8
0
 62
     2
 10
329.127228
 20
513.266174
  0
VERTEX
  8
0
 62
     2
 10
329.517303
 20
512.783386
  0
VERTEX
  8
0
 62
     2
 10
329.829681
 20
511.985260
  0
VERTEX
  8
0
 62
     2
 10
333.330750
 20
498.985291
  0
SEQEND
  8
0
  0
LINE
  8
0
 62
     2
 10
385.188370
 20
513.485278
 11
385.235972
 21
513.429100
  0
LINE
  8
0
 62
     2
 10
394.083886
 20
513.429100
 11
394.131488
 21
513.485278
  0
LINE
  8
0
 62
     2
 10
307.496709
 20
513.485278
 11
307.056299
 21
513.485278
  0
LINE
  8
0
 62
     2
 10
334.723629
 20
513.485278
 11
328.399889
 21
513.485278
  0
LINE
  8
0
 62
     2
 10
394.131488
 20
513.485278
 11
385.188370
 21
513.485278
  0
LINE
  8
0
 62
     2
 10
333.330760
 20
498.985278
 11
344.565100
 21
498.985278
  0
LINE
  8
0
 62
     2
 10
477.659929
 20
513.485278
 11
301.659929
 21
513.485278
  0
POLYLINE
  8
0
 62
     2
 66
    1
  0
VERTEX
  8
0
 62
     2
 10
307.056305
 20
513.485291
  0
VERTEX
  8
0
 62
     2
 10
308.082367
 20
513.304321
  0
VERTEX
  8
0
 62
     2
 10
308.984650
 20
512.783386
  0
VERTEX
  8
0
 62
     2
 10
309.654358
 20
511.985260
  0
SEQEND
  8
0
  0
ARC
  8
0
 62
     2
 10
301.659929
 20
515.485278
 40
2.000000
 50
180.000000
 51
270.000000
  0
LINE
  8
0
 62
     2
 10
394.201942
 20
513.485278
 11
394.201942
 21
513.266207
  0
LINE
  8
0
 62
     2
 10
335.550611
 20
513.485278
 11
335.550611
 21
513.266207
  0
LINE
  8
0
 62
     2
 10
361.646722
 20
513.485278
 11
361.646722
 21
498.985278
  0
LINE
  8
0
 62
     2
 10
385.117916
 20
513.266207
 11
385.117916
 21
513.485278
  0
LINE
  8
0
 62
     2
 10
308.595785
 20
513.485278
 11
308.595785
 21
513.266207
  0
LINE
  8
0
 62
     2
 10
311.675101
 20
508.485278
 11
309.654375
 21
511.985278
  0
INSERT
  8
OSA
 66
     1
  2
Sroub_M10x16_9
  6
CONTINUOUS
 10
389.659929
 20
565.485278
  0
ATTRIB
  8
OSA
  6
CONTINUOUS
 10
0.000000
 20
0.000000
 40
2.500000
  1
DIN 912
  2
norma roz.
 70
     1
  0
ATTRIB
  8
OSA
  6
CONTINUOUS
 10
0.000000
 20
0.000000
 40
2.500000
  1
1.5
  2
roztec
 70
     1
  0
ATTRIB
  8
OSA
  6
CONTINUOUS
 10
0.000000
 20
0.000000
 40
2.500000
  1
*N
  2
puvod
 70
     1
  0
SEQEND
  8
OSA
  0
CIRCLE
  8
OSA
 62
     2
  6
CONTINUOUS
 10
389.659929
 20
565.485278
 40
9.000000
  0
CIRCLE
  8
OSA
 62
     2
  6
CONTINUOUS
 10
101.183760
 20
277.009109
 40
9.000000
  0
INSERT
  8
OSA
 66
     1
  2
Sroub_M10x16_10
  6
CONTINUOUS
 10
101.183760
 20
277.009109
  0
ATTRIB
  8
OSA
  6
CONTINUOUS
 10
0.000000
 20
0.000000
 40
2.500000
  1
DIN 912
  2
norma roz.
 70
     1
  0
ATTRIB
  8
OSA
  6
CONTINUOUS
 10
0.000000
 20
0.000000
 40
2.500000
  1
1.5
  2
roztec
 70
     1
  0
ATTRIB
  8
OSA
  6
CONTINUOUS
 10
0.000000
 20
0.000000
 40
2.500000
  1
*N
  2
puvod
 70
     1
  0
SEQEND
  8
OSA
  0
INSERT
  8
OSA
 66
     1
  2
M10x1_11
  6
CONTINUOUS
 10
168.720903
 20
192.509109
  0
ATTRIB
  8
OSA
 62
     2
  6
CONTINUOUS
 10
0.000000
 20
0.000000
 40
3.749998
  1
DIN 908
  2
norma roz.
 70
     1
  0
SEQEND
  8
OSA
  0
INSERT
  8
OSA
 66
     1
  2
M10x1_12
  6
CONTINUOUS
 10
-408.231435
 20
192.509109
  0
ATTRIB
  8
OSA
 62
     2
  6
CONTINUOUS
 10
0.000000
 20
0.000000
 40
3.749998
  1
DIN 908
  2
norma roz.
 70
     1
  0
SEQEND
  8
OSA
  0
ARC
  8
OBRYS
 10
876.677585
 20
251.019827
 40
3.000000
 50
335.000000
 51
27.126224
  0
ARC
  8
OBRYS
 10
927.407825
 20
277.009109
 40
54.000000
 50
197.873776
 51
207.126224
  0
LINE
  8
OBRYS
 10
866.875131
 20
222.899791
 11
879.396508
 21
249.751972
  0
ARC
  8
OBRYS
 10
873.158931
 20
259.514609
 40
3.000000
 50
17.873776
 51
70.000000
  0
LINE
  8
OBRYS
 10
846.343681
 20
272.467095
 11
874.184991
 21
262.333687
  0
ARC
  8
OBRYS
 10
873.158931
 20
294.503608
 40
3.000000
 50
290.000000
 51
342.126224
  0
ARC
  8
OBRYS
 10
927.407825
 20
277.009109
 40
54.000000
 50
152.873776
 51
162.126224
  0
LINE
  8
OBRYS
 10
846.343681
 20
281.551122
 11
874.184991
 21
291.684530
  0
ARC
  8
OBRYS
 10
876.677585
 20
302.998390
 40
3.000000
 50
332.873776
 51
25.000000
  0
LINE
  8
OBRYS
 10
866.875131
 20
331.118426
 11
879.396508
 21
304.266245
  0
ARC
  8
OBRYS
 10
901.418543
 20
327.739349
 40
3.000000
 50
245.000000
 51
297.126224
  0
ARC
  8
OBRYS
 10
927.407825
 20
277.009109
 40
54.000000
 50
107.873776
 51
117.126224
  0
LINE
  8
OBRYS
 10
873.298507
 20
337.541803
 11
900.150688
 21
325.020425
  0
ARC
  8
OBRYS
 10
909.913325
 20
331.258003
 40
3.000000
 50
287.873776
 51
340.000000
  0
ARC
  8
OBRYS
 10
944.902324
 20
331.258003
 40
3.000000
 50
200.000000
 51
252.126224
  0
ARC
  8
OBRYS
 10
927.407825
 20
277.009109
 40
54.000000
 50
62.873776
 51
72.126224
  0
LINE
  8
OBRYS
 10
931.949838
 20
358.073253
 11
942.083246
 21
330.231942
  0
ARC
  8
OBRYS
 10
953.397106
 20
327.739349
 40
3.000000
 50
242.873776
 51
295.000000
  0
LINE
  8
OBRYS
 10
981.517142
 20
337.541803
 11
954.664961
 21
325.020425
  0
ARC
  8
OBRYS
 10
978.138065
 20
302.998390
 40
3.000000
 50
155.000000
 51
207.126224
  0
ARC
  8
OBRYS
 10
927.407825
 20
277.009109
 40
54.000000
 50
17.873776
 51
27.126224
  0
LINE
  8
OBRYS
 10
987.940519
 20
331.118426
 11
975.419141
 21
304.266245
  0
ARC
  8
OBRYS
 10
981.656719
 20
294.503608
 40
3.000000
 50
197.873776
 51
250.000000
  0
LINE
  8
OBRYS
 10
1008.471969
 20
281.551122
 11
980.630658
 21
291.684530
  0
ARC
  8
OBRYS
 10
981.656719
 20
259.514609
 40
3.000000
 50
110.000000
 51
162.126224
  0
ARC
  8
OBRYS
 10
927.407825
 20
277.009109
 40
54.000000
 50
332.873776
 51
342.126224
  0
LINE
  8
OBRYS
 10
1008.471969
 20
272.467095
 11
980.630658
 21
262.333687
  0
ARC
  8
OBRYS
 10
978.138065
 20
251.019827
 40
3.000000
 50
152.873776
 51
205.000000
  0
LINE
  8
OBRYS
 10
975.419141
 20
249.751972
 11
987.940519
 21
222.899791
  0
ARC
  8
OBRYS
 10
953.397106
 20
226.278869
 40
3.000000
 50
65.000000
 51
117.126224
  0
ARC
  8
OBRYS
 10
927.407825
 20
277.009109
 40
54.000000
 50
287.873776
 51
297.126224
  0
LINE
  8
OBRYS
 10
981.517142
 20
216.476414
 11
954.664961
 21
228.997792
  0
ARC
  8
OBRYS
 10
944.902324
 20
222.760215
 40
3.000000
 50
107.873776
 51
160.000000
  0
LINE
  8
OBRYS
 10
931.949838
 20
195.944965
 11
942.083246
 21
223.786275
  0
ARC
  8
OBRYS
 10
909.913325
 20
222.760215
 40
3.000000
 50
20.000000
 51
72.126224
  0
ARC
  8
OBRYS
 10
927.407825
 20
277.009109
 40
54.000000
 50
242.873776
 51
252.126224
  0
LINE
  8
OBRYS
 10
922.865812
 20
195.944965
 11
912.732403
 21
223.786275
  0
ARC
  8
OBRYS
 10
901.418543
 20
226.278869
 40
3.000000
 50
62.873776
 51
115.000000
  0
LINE
  8
OBRYS
 10
873.298507
 20
216.476414
 11
900.150688
 21
228.997792
  0
ARC
  8
OBRYS
 10
927.407825
 20
277.009109
 40
72.500000
 50
38.813658
 51
51.186342
  0
ARC
  8
OBRYS
 10
927.407825
 20
277.009109
 40
72.500000
 50
128.813658
 51
141.186342
  0
ARC
  8
OBRYS
 10
927.407825
 20
277.009109
 40
72.500000
 50
218.813658
 51
231.186342
  0
ARC
  8
OBRYS
 10
927.407825
 20
277.009109
 40
72.500000
 50
308.813658
 51
321.186342
  0
ARC
  8
OBRYS
 10
927.407825
 20
277.009109
 40
77.984828
 50
175.779145
 51
184.220855
  0
ARC
  8
OBRYS
 10
927.407825
 20
277.009109
 40
77.984828
 50
265.779145
 51
274.220855
  0
ARC
  8
OBRYS
 10
927.407825
 20
277.009109
 40
77.984828
 50
355.779145
 51
4.220855
  0
ARC
  8
OBRYS
 10
927.407825
 20
277.009109
 40
77.984828
 50
85.779145
 51
94.220855
  0
LINE
  8
OBRYS
 10
1022.407825
 20
328.718944
 11
1001.069843
 21
328.718944
  0
LINE
  8
OBRYS
 10
1022.407825
 20
339.111250
 11
992.548626
 21
339.111250
  0
LINE
  8
OBRYS
 10
1022.407825
 20
403.197130
 11
985.595846
 21
403.197130
  0
LINE
  8
OBRYS
 10
1022.407825
 20
385.299273
 11
985.595846
 21
385.299273
  0
LINE
  8
OBRYS
 10
1022.407825
 20
374.906967
 11
985.595846
 21
374.906967
  0
ARC
  8
OBRYS
 10
996.561870
 20
394.248202
 40
14.154046
 50
140.783507
 51
219.216493
  0
ARC
  8
OBRYS
 10
978.203539
 20
380.103120
 40
9.035829
 50
324.896096
 51
35.103904
  0
ARC
  8
OBRYS
 10
1034.241981
 20
357.009109
 40
51.834157
 50
159.800451
 51
190.491535
  0
ARC
  8
OBRYS
 10
820.573668
 20
357.009109
 40
51.834157
 50
349.508465
 51
20.199549
  0
ARC
  8
OBRYS
 10
876.612110
 20
380.103120
 40
9.035829
 50
144.896096
 51
215.103904
  0
ARC
  8
OBRYS
 10
858.253779
 20
394.248202
 40
14.154046
 50
320.783507
 51
39.216493
  0
LINE
  8
OBRYS
 10
832.407825
 20
374.906967
 11
869.219803
 21
374.906967
  0
LINE
  8
OBRYS
 10
832.407825
 20
385.299273
 11
869.219803
 21
385.299273
  0
LINE
  8
OBRYS
 10
832.407825
 20
403.197130
 11
869.219803
 21
403.197130
  0
LINE
  8
OBRYS
 10
872.407825
 20
400.009109
 11
872.407825
 21
348.248143
  0
LINE
  8
OBRYS
 10
832.407825
 20
339.111250
 11
862.267023
 21
339.111250
  0
LINE
  8
OBRYS
 10
832.407825
 20
328.718944
 11
853.745807
 21
328.718944
  0
LINE
  8
OBRYS
 10
982.407825
 20
400.009109
 11
982.407825
 21
347.001865
  0
ARC
  8
OBRYS
 10
925.195697
 20
274.796981
 40
84.000000
 50
42.611985
 51
47.388015
  0
ARC
  8
OBRYS
 10
925.195697
 20
279.221236
 40
84.000000
 50
312.611985
 51
317.388015
  0
ARC
  8
OBRYS
 10
929.619953
 20
279.221236
 40
84.000000
 50
222.611985
 51
227.388015
  0
ARC
  8
OBRYS
 10
929.619953
 20
274.796981
 40
84.000000
 50
132.611985
 51
137.388015
  0
ARC
  8
OBRYS
 10
930.536246
 20
277.009109
 40
84.000000
 50
177.611985
 51
182.388015
  0
ARC
  8
OBRYS
 10
927.407825
 20
273.880688
 40
84.000000
 50
87.611985
 51
92.388015
  0
ARC
  8
OBRYS
 10
924.279404
 20
277.009109
 40
84.000000
 50
357.611985
 51
2.388015
  0
ARC
  8
OBRYS
 10
927.407825
 20
280.137530
 40
84.000000
 50
267.611985
 51
272.388015
  0
ARC
  8
OBRYS
 10
927.407825
 20
277.009109
 40
55.000000
 50
299.346422
 51
330.653578
  0
ARC
  8
OBRYS
 10
927.407825
 20
277.009109
 40
55.000000
 50
254.346422
 51
285.653578
  0
ARC
  8
OBRYS
 10
927.407825
 20
277.009109
 40
55.000000
 50
344.346422
 51
15.653578
  0
ARC
  8
OBRYS
 10
927.407825
 20
277.009109
 40
55.000000
 50
29.346422
 51
60.653578
  0
ARC
  8
OBRYS
 10
927.407825
 20
277.009109
 40
55.000000
 50
74.346422
 51
105.653578
  0
ARC
  8
OBRYS
 10
927.407825
 20
277.009109
 40
55.000000
 50
119.346422
 51
150.653578
  0
ARC
  8
OBRYS
 10
933.829223
 20
195.260924
 40
2.000000
 50
160.000000
 51
274.491416
  0
ARC
  8
OBRYS
 10
927.407825
 20
277.009109
 40
84.000000
 50
274.491416
 51
310.508584
  0
ARC
  8
OBRYS
 10
920.986426
 20
195.260924
 40
2.000000
 50
265.508584
 51
20.000000
  0
ARC
  8
OBRYS
 10
927.407825
 20
277.009109
 40
55.000000
 50
164.346422
 51
195.653578
  0
ARC
  8
OBRYS
 10
927.407825
 20
277.009109
 40
55.000000
 50
210.080175
 51
240.653578
  0
ARC
  8
OBRYS
 10
845.659640
 20
270.587710
 40
2.000000
 50
70.000000
 51
184.491416
  0
ARC
  8
OBRYS
 10
920.986426
 20
358.757293
 40
2.000000
 50
340.000000
 51
94.491416
  0
ARC
  8
OBRYS
 10
1009.156009
 20
283.430507
 40
2.000000
 50
250.000000
 51
4.491416
  0
ARC
  8
OBRYS
 10
845.659640
 20
283.430507
 40
2.000000
 50
175.508584
 51
290.000000
  0
ARC
  8
OBRYS
 10
933.829223
 20
358.757293
 40
2.000000
 50
85.508584
 51
200.000000
  0
ARC
  8
OBRYS
 10
1009.156009
 20
270.587710
 40
2.000000
 50
355.508584
 51
110.000000
  0
ARC
  8
OBRYS
 10
865.062515
 20
223.745027
 40
2.000000
 50
220.508584
 51
335.000000
  0
ARC
  8
OBRYS
 10
874.143744
 20
339.354418
 40
2.000000
 50
130.508584
 51
245.000000
  0
ARC
  8
OBRYS
 10
989.753135
 20
330.273190
 40
2.000000
 50
40.508584
 51
155.000000
  0
ARC
  8
OBRYS
 10
927.407825
 20
277.009109
 40
84.000000
 50
184.491416
 51
220.508584
  0
ARC
  8
OBRYS
 10
927.407825
 20
277.009109
 40
84.000000
 50
94.491416
 51
130.508584
  0
ARC
  8
OBRYS
 10
927.407825
 20
277.009109
 40
84.000000
 50
4.491416
 51
40.508584
  0
ARC
  8
OBRYS
 10
927.407825
 20
277.009109
 40
84.000000
 50
139.491416
 51
175.508584
  0
ARC
  8
OBRYS
 10
927.407825
 20
277.009109
 40
84.000000
 50
49.491416
 51
85.508584
  0
ARC
  8
OBRYS
 10
927.407825
 20
277.009109
 40
84.000000
 50
319.491416
 51
355.508584
  0
ARC
  8
OBRYS
 10
865.062515
 20
330.273190
 40
2.000000
 50
25.000000
 51
139.491416
  0
ARC
  8
OBRYS
 10
980.671906
 20
339.354418
 40
2.000000
 50
295.000000
 51
49.491416
  0
ARC
  8
OBRYS
 10
989.753135
 20
223.745027
 40
2.000000
 50
205.000000
 51
319.491416
  0
ARC
  8
OBRYS
 10
874.143744
 20
214.663799
 40
2.000000
 50
115.000000
 51
229.491416
  0
ARC
  8
OBRYS
 10
927.407825
 20
277.009109
 40
84.000000
 50
229.491416
 51
265.508584
  0
ARC
  8
OBRYS
 10
980.671906
 20
214.663799
 40
2.000000
 50
310.508584
 51
65.000000
  0
LINE
  8
OBRYS
 10
987.203541
 20
404.804825
 11
1022.407825
 21
404.804825
  0
LINE
  8
OBRYS
 10
832.407825
 20
404.804825
 11
867.612108
 21
404.804825
  0
LINE
  8
OBRYS
 10
982.407825
 20
400.009109
 11
987.203541
 21
404.804825
  0
LINE
  8
OBRYS
 10
872.407825
 20
400.009109
 11
982.407825
 21
400.009109
  0
LINE
  8
OBRYS
 10
872.407825
 20
400.009109
 11
867.612108
 21
404.804825
  0
LINE
  8
OBRYS
 10
1011.448792
 20
309.213392
 11
1022.407825
 21
309.213392
  0
LINE
  8
OBRYS
 10
832.407825
 20
309.213392
 11
843.366858
 21
309.213392
  0
LINE
  8
OBRYS
 10
1022.407825
 20
404.804825
 11
1022.407825
 21
309.213392
  0
LINE
  8
OBRYS
 10
832.407825
 20
404.804825
 11
832.407825
 21
309.213392
  0
INSERT
  8
KOTA
 66
     1
  2
Vnitrni_metricky_zavit_M1_13
 62
     7
 10
881.445884
 20
231.047168
  0
ATTRIB
  8
KOTA
 10
0.000000
 20
0.000000
 40
3.000000
  1
CSN 02 1034
  2
norma roz.
 70
     1
  0
ATTRIB
  8
KOTA
 10
0.000000
 20
0.000000
 40
3.000000
  1
1.5
  2
roztec
 70
     1
  0
ATTRIB
  8
KOTA
 10
0.000000
 20
0.000000
 40
3.000000
  1
*NB
  2
puvod
 70
     1
  0
ATTRIB
  8
KOTA
 10
0.000000
 20
0.000000
 40
3.000000
  1
02 1034
  2
tridici znak
 70
     1
  0
SEQEND
  8
KOTA
  0
INSERT
  8
KOTA
 66
     1
  2
Vnitrni_metricky_zavit_M1_14
 62
     7
 10
881.445884
 20
322.971049
  0
ATTRIB
  8
KOTA
 10
0.000000
 20
0.000000
 40
3.000000
  1
CSN 02 1034
  2
norma roz.
 70
     1
  0
ATTRIB
  8
KOTA
 10
0.000000
 20
0.000000
 40
3.000000
  1
1.5
  2
roztec
 70
     1
  0
ATTRIB
  8
KOTA
 10
0.000000
 20
0.000000
 40
3.000000
  1
*NB
  2
puvod
 70
     1
  0
ATTRIB
  8
KOTA
 10
0.000000
 20
0.000000
 40
3.000000
  1
02 1034
  2
tridici znak
 70
     1
  0
SEQEND
  8
KOTA
  0
INSERT
  8
KOTA
 66
     1
  2
Vnitrni_metricky_zavit_M1_15
 62
     7
 10
973.369766
 20
322.971049
  0
ATTRIB
  8
KOTA
 10
0.000000
 20
0.000000
 40
3.000000
  1
CSN 02 1034
  2
norma roz.
 70
     1
  0
ATTRIB
  8
KOTA
 10
0.000000
 20
0.000000
 40
3.000000
  1
1.5
  2
roztec
 70
     1
  0
ATTRIB
  8
KOTA
 10
0.000000
 20
0.000000
 40
3.000000
  1
*NB
  2
puvod
 70
     1
  0
ATTRIB
  8
KOTA
 10
0.000000
 20
0.000000
 40
3.000000
  1
02 1034
  2
tridici znak
 70
     1
  0
SEQEND
  8
KOTA
  0
INSERT
  8
KOTA
 66
     1
  2
Vnitrni_metricky_zavit_M1_16
 62
     7
 10
973.369766
 20
231.047168
  0
ATTRIB
  8
KOTA
 10
0.000000
 20
0.000000
 40
3.000000
  1
CSN 02 1034
  2
norma roz.
 70
     1
  0
ATTRIB
  8
KOTA
 10
0.000000
 20
0.000000
 40
3.000000
  1
1.5
  2
roztec
 70
     1
  0
ATTRIB
  8
KOTA
 10
0.000000
 20
0.000000
 40
3.000000
  1
*NB
  2
puvod
 70
     1
  0
ATTRIB
  8
KOTA
 10
0.000000
 20
0.000000
 40
3.000000
  1
02 1034
  2
tridici znak
 70
     1
  0
SEQEND
  8
KOTA
  0
INSERT
  8
KOTA
 66
     1
  2
Vnitrni_metricky_zavit_M1_17
 62
     7
 10
927.407825
 20
212.009109
  0
ATTRIB
  8
KOTA
 10
0.000000
 20
0.000000
 40
3.000000
  1
CSN 02 1034
  2
norma roz.
 70
     1
  0
ATTRIB
  8
KOTA
 10
0.000000
 20
0.000000
 40
3.000000
  1
1.5
  2
roztec
 70
     1
  0
ATTRIB
  8
KOTA
 10
0.000000
 20
0.000000
 40
3.000000
  1
*NB
  2
puvod
 70
     1
  0
ATTRIB
  8
KOTA
 10
0.000000
 20
0.000000
 40
3.000000
  1
02 1034
  2
tridici znak
 70
     1
  0
SEQEND
  8
KOTA
  0
INSERT
  8
KOTA
 66
     1
  2
Vnitrni_metricky_zavit_M1_18
 62
     7
 10
992.407825
 20
277.009109
  0
ATTRIB
  8
KOTA
 10
0.000000
 20
0.000000
 40
3.000000
  1
CSN 02 1034
  2
norma roz.
 70
     1
  0
ATTRIB
  8
KOTA
 10
0.000000
 20
0.000000
 40
3.000000
  1
1.5
  2
roztec
 70
     1
  0
ATTRIB
  8
KOTA
 10
0.000000
 20
0.000000
 40
3.000000
  1
*NB
  2
puvod
 70
     1
  0
ATTRIB
  8
KOTA
 10
0.000000
 20
0.000000
 40
3.000000
  1
02 1034
  2
tridici znak
 70
     1
  0
SEQEND
  8
KOTA
  0
INSERT
  8
KOTA
 66
     1
  2
Vnitrni_metricky_zavit_M1_19
 62
     7
 10
927.407825
 20
342.009109
  0
ATTRIB
  8
KOTA
 10
0.000000
 20
0.000000
 40
3.000000
  1
CSN 02 1034
  2
norma roz.
 70
     1
  0
ATTRIB
  8
KOTA
 10
0.000000
 20
0.000000
 40
3.000000
  1
1.5
  2
roztec
 70
     1
  0
ATTRIB
  8
KOTA
 10
0.000000
 20
0.000000
 40
3.000000
  1
*NB
  2
puvod
 70
     1
  0
ATTRIB
  8
KOTA
 10
0.000000
 20
0.000000
 40
3.000000
  1
02 1034
  2
tridici znak
 70
     1
  0
SEQEND
  8
KOTA
  0
INSERT
  8
KOTA
 66
     1
  2
Vnitrni_metricky_zavit_M1_20
 62
     7
 10
862.407825
 20
277.009109
  0
ATTRIB
  8
KOTA
 10
0.000000
 20
0.000000
 40
3.000000
  1
CSN 02 1034
  2
norma roz.
 70
     1
  0
ATTRIB
  8
KOTA
 10
0.000000
 20
0.000000
 40
3.000000
  1
1.5
  2
roztec
 70
     1
  0
ATTRIB
  8
KOTA
 10
0.000000
 20
0.000000
 40
3.000000
  1
*NB
  2
puvod
 70
     1
  0
ATTRIB
  8
KOTA
 10
0.000000
 20
0.000000
 40
3.000000
  1
02 1034
  2
tridici znak
 70
     1
  0
SEQEND
  8
KOTA
  0
CIRCLE
  8
OSA
 10
927.407825
 20
277.009109
 40
65.000000
  0
CIRCLE
  8
OBRYS
 10
927.407825
 20
277.009109
 40
90.000000
  0
CIRCLE
  8
OBRYS
 10
927.407825
 20
277.009109
 40
32.500000
  0
LINE
  8
OSA
 10
827.407825
 20
357.009109
 11
1027.407825
 21
357.009109
  0
LINE
  8
OSA
 10
927.407825
 20
404.509109
 11
927.407825
 21
182.009109
  0
LINE
  8
OSA
 10
832.407825
 20
277.009109
 11
1022.407825
 21
277.009109
  0
LINE
  8
OSA
 10
887.102738
 20
317.314195
 11
875.269928
 21
329.147006
  0
LINE
  8
OSA
 10
979.545722
 20
224.871212
 11
967.712911
 21
236.704022
  0
LINE
  8
OSA
 10
967.712911
 20
317.314195
 11
979.545722
 21
329.147006
  0
LINE
  8
OSA
 10
875.269928
 20
224.871212
 11
887.102738
 21
236.704022
  0
LINE
  8
OBRYS
 10
922.865812
 20
358.073253
 11
912.732403
 21
330.231942
  0
LINE
  8
OSA
 10
484.659929
 20
277.009109
 11
294.659929
 21
277.009109
  0
LINE
  8
OSA
 10
389.659929
 20
404.509109
 11
389.659929
 21
182.009109
  0
LINE
  8
OSA
 10
489.659929
 20
357.009109
 11
289.659929
 21
357.009109
  0
LINE
  8
OBRYS
 10
484.659929
 20
404.804825
 11
484.659929
 21
309.213392
  0
LINE
  8
OBRYS
 10
294.659929
 20
404.804825
 11
294.659929
 21
309.213392
  0
LINE
  8
OBRYS
 10
484.659929
 20
309.213392
 11
473.700896
 21
309.213392
  0
LINE
  8
OBRYS
 10
305.618962
 20
309.213392
 11
294.659929
 21
309.213392
  0
LINE
  8
OBRYS
 10
444.659929
 20
400.009109
 11
449.455646
 21
404.804825
  0
LINE
  8
OBRYS
 10
444.659929
 20
400.009109
 11
334.659929
 21
400.009109
  0
LINE
  8
OBRYS
 10
334.659929
 20
400.009109
 11
329.864212
 21
404.804825
  0
LINE
  8
OBRYS
 10
484.659929
 20
404.804825
 11
449.455646
 21
404.804825
  0
LINE
  8
OBRYS
 10
329.864212
 20
404.804825
 11
294.659929
 21
404.804825
  0
LINE
  8
OBRYS
 10
334.659929
 20
400.009109
 11
334.659929
 21
347.001865
  0
LINE
  8
OBRYS
 10
484.659929
 20
328.718944
 11
463.321947
 21
328.718944
  0
LINE
  8
OBRYS
 10
484.659929
 20
339.111250
 11
454.800730
 21
339.111250
  0
LINE
  8
OBRYS
 10
444.659929
 20
400.009109
 11
444.659929
 21
348.248143
  0
LINE
  8
OBRYS
 10
484.659929
 20
403.197130
 11
447.847950
 21
403.197130
  0
LINE
  8
OBRYS
 10
484.659929
 20
385.299273
 11
447.847950
 21
385.299273
  0
LINE
  8
OBRYS
 10
484.659929
 20
374.906967
 11
447.847950
 21
374.906967
  0
ARC
  8
OBRYS
 10
458.813974
 20
394.248202
 40
14.154046
 50
140.783507
 51
219.216493
  0
ARC
  8
OBRYS
 10
440.455643
 20
380.103120
 40
9.035829
 50
324.896096
 51
35.103904
  0
ARC
  8
OBRYS
 10
496.494085
 20
357.009109
 40
51.834157
 50
159.800451
 51
190.491535
  0
ARC
  8
OBRYS
 10
282.825772
 20
357.009109
 40
51.834157
 50
349.508465
 51
20.199549
  0
ARC
  8
OBRYS
 10
338.864214
 20
380.103120
 40
9.035829
 50
144.896096
 51
215.103904
  0
ARC
  8
OBRYS
 10
320.505883
 20
394.248202
 40
14.154046
 50
320.783507
 51
39.216493
  0
LINE
  8
OBRYS
 10
294.659929
 20
374.906967
 11
331.471907
 21
374.906967
  0
LINE
  8
OBRYS
 10
294.659929
 20
385.299273
 11
331.471907
 21
385.299273
  0
LINE
  8
OBRYS
 10
294.659929
 20
403.197130
 11
331.471907
 21
403.197130
  0
LINE
  8
OBRYS
 10
294.659929
 20
339.111250
 11
324.519128
 21
339.111250
  0
LINE
  8
OBRYS
 10
294.659929
 20
328.718944
 11
315.997911
 21
328.718944
  0
LINE
  8
OBRYS
 10
932.407825
 20
297.809109
 11
932.407825
 21
293.779619
  0
LINE
  8
OBRYS
 10
922.407825
 20
297.809109
 11
922.407825
 21
293.779619
  0
ARC
  8
OBRYS
 10
927.407825
 20
277.009109
 40
17.500000
 50
106.601550
 51
73.398450
  0
ARC
  8
OBRYS
 10
927.407825
 20
277.009109
 40
18.654701
 50
105.547012
 51
74.452988
  0
CIRCLE
  8
OBRYS
 10
927.407825
 20
277.009109
 40
25.000000
  0
LINE
  8
OBRYS
 10
922.407825
 20
297.809109
 11
932.407825
 21
297.809109
  0
LINE
  8
OBRYS
 10
384.659929
 20
297.809109
 11
394.659929
 21
297.809109
  0
CIRCLE
  8
OBRYS
 10
389.659929
 20
277.009109
 40
25.000000
  0
ARC
  8
OBRYS
 10
389.659929
 20
277.009109
 40
18.654701
 50
105.547012
 51
74.452988
  0
ARC
  8
OBRYS
 10
389.659929
 20
277.009109
 40
17.500000
 50
106.601550
 51
73.398450
  0
LINE
  8
OBRYS
 10
384.659929
 20
297.809109
 11
384.659929
 21
293.779619
  0
LINE
  8
OBRYS
 10
394.659929
 20
297.809109
 11
394.659929
 21
293.779619
  0
INSERT
  8
OBRYS
 66
     1
  2
Srouby_s_valcovou_hlavou__21
 62
     7
 10
358.662571
 20
351.843351
  0
ATTRIB
  8
OBRYS
 10
0.000000
 20
0.000000
 40
2.999999
  1
DIN 6912
  2
norma roz.
 70
     1
  0
ATTRIB
  8
OBRYS
 10
0.000000
 20
0.000000
 40
2.999999
  1
1.25
  2
roztec
 70
     1
  0
ATTRIB
  8
OBRYS
 10
0.000000
 20
0.000000
 40
2.999999
  1
*N
  2
puvod
 70
     1
  0
SEQEND
  8
OBRYS
  0
INSERT
  8
OBRYS
 66
     1
  2
Srouby_s_valcovou_hlavou__22
 62
     7
 10
420.657287
 20
351.843351
  0
ATTRIB
  8
OBRYS
 10
0.000000
 20
0.000000
 40
2.999999
  1
DIN 6912
  2
norma roz.
 70
     1
  0
ATTRIB
  8
OBRYS
 10
0.000000
 20
0.000000
 40
2.999999
  1
1.25
  2
roztec
 70
     1
  0
ATTRIB
  8
OBRYS
 10
0.000000
 20
0.000000
 40
2.999999
  1
*N
  2
puvod
 70
     1
  0
SEQEND
  8
OBRYS
  0
INSERT
  8
OBRYS
 66
     1
  2
Srouby_s_valcovou_hlavou__23
 62
     7
 10
464.494171
 20
308.006467
  0
ATTRIB
  8
OBRYS
 10
0.000000
 20
0.000000
 40
2.999999
  1
DIN 6912
  2
norma roz.
 70
     1
  0
ATTRIB
  8
OBRYS
 10
0.000000
 20
0.000000
 40
2.999999
  1
1.25
  2
roztec
 70
     1
  0
ATTRIB
  8
OBRYS
 10
0.000000
 20
0.000000
 40
2.999999
  1
*N
  2
puvod
 70
     1
  0
SEQEND
  8
OBRYS
  0
INSERT
  8
OBRYS
 66
     1
  2
Srouby_s_valcovou_hlavou__24
 62
     7
 10
464.494171
 20
246.011751
  0
ATTRIB
  8
OBRYS
 10
0.000000
 20
0.000000
 40
2.999999
  1
DIN 6912
  2
norma roz.
 70
     1
  0
ATTRIB
  8
OBRYS
 10
0.000000
 20
0.000000
 40
2.999999
  1
1.25
  2
roztec
 70
     1
  0
ATTRIB
  8
OBRYS
 10
0.000000
 20
0.000000
 40
2.999999
  1
*N
  2
puvod
 70
     1
  0
SEQEND
  8
OBRYS
  0
INSERT
  8
OBRYS
 66
     1
  2
Srouby_s_valcovou_hlavou__25
 62
     7
 10
420.657287
 20
202.174866
  0
ATTRIB
  8
OBRYS
 10
0.000000
 20
0.000000
 40
2.999999
  1
DIN 6912
  2
norma roz.
 70
     1
  0
ATTRIB
  8
OBRYS
 10
0.000000
 20
0.000000
 40
2.999999
  1
1.25
  2
roztec
 70
     1
  0
ATTRIB
  8
OBRYS
 10
0.000000
 20
0.000000
 40
2.999999
  1
*N
  2
puvod
 70
     1
  0
SEQEND
  8
OBRYS
  0
INSERT
  8
OBRYS
 66
     1
  2
Srouby_s_valcovou_hlavou__26
 62
     7
 10
358.662571
 20
202.174866
  0
ATTRIB
  8
OBRYS
 10
0.000000
 20
0.000000
 40
2.999999
  1
DIN 6912
  2
norma roz.
 70
     1
  0
ATTRIB
  8
OBRYS
 10
0.000000
 20
0.000000
 40
2.999999
  1
1.25
  2
roztec
 70
     1
  0
ATTRIB
  8
OBRYS
 10
0.000000
 20
0.000000
 40
2.999999
  1
*N
  2
puvod
 70
     1
  0
SEQEND
  8
OBRYS
  0
INSERT
  8
OBRYS
 66
     1
  2
Srouby_s_valcovou_hlavou__27
 62
     7
 10
314.825687
 20
246.011751
  0
ATTRIB
  8
OBRYS
 10
0.000000
 20
0.000000
 40
2.999999
  1
DIN 6912
  2
norma roz.
 70
     1
  0
ATTRIB
  8
OBRYS
 10
0.000000
 20
0.000000
 40
2.999999
  1
1.25
  2
roztec
 70
     1
  0
ATTRIB
  8
OBRYS
 10
0.000000
 20
0.000000
 40
2.999999
  1
*N
  2
puvod
 70
     1
  0
SEQEND
  8
OBRYS
  0
INSERT
  8
OBRYS
 66
     1
  2
Srouby_s_valcovou_hlavou__28
 62
     7
 10
314.825687
 20
308.006467
  0
ATTRIB
  8
OBRYS
 10
0.000000
 20
0.000000
 40
2.999999
  1
DIN 6912
  2
norma roz.
 70
     1
  0
ATTRIB
  8
OBRYS
 10
0.000000
 20
0.000000
 40
2.999999
  1
1.25
  2
roztec
 70
     1
  0
ATTRIB
  8
OBRYS
 10
0.000000
 20
0.000000
 40
2.999999
  1
*N
  2
puvod
 70
     1
  0
SEQEND
  8
OBRYS
  0
ARC
  8
OBRYS
 10
389.659929
 20
280.137530
 40
84.000000
 50
266.820385
 51
273.179615
  0
LINE
  8
OBRYS
 10
394.319096
 20
196.266843
 11
404.335350
 21
223.786275
  0
LINE
  8
OBRYS
 10
374.984507
 20
223.786275
 11
385.000762
 21
196.266843
  0
ARC
  8
OSA
 10
389.659929
 20
277.009109
 40
65.000000
 50
350.514041
 51
9.485959
  0
ARC
  8
OSA
 10
389.659929
 20
277.009109
 40
65.000000
 50
305.514041
 51
324.485959
  0
ARC
  8
OSA
 10
389.659929
 20
277.009109
 40
65.000000
 50
260.514041
 51
278.212537
  0
ARC
  8
OSA
 10
389.659929
 20
277.009109
 40
65.000000
 50
215.514041
 51
234.485959
  0
ARC
  8
OSA
 10
389.659929
 20
277.009109
 40
65.000000
 50
170.514041
 51
189.485959
  0
ARC
  8
OSA
 10
389.659929
 20
277.009109
 40
65.000000
 50
125.514041
 51
144.485959
  0
ARC
  8
OSA
 10
389.659929
 20
277.009109
 40
65.000000
 50
80.514041
 51
99.485959
  0
ARC
  8
OSA
 10
389.659929
 20
277.009109
 40
65.000000
 50
35.514041
 51
54.485959
  0
ARC
  8
OBRYS
 10
387.447801
 20
274.796981
 40
84.000000
 50
41.820385
 51
48.179615
  0
LINE
  8
OBRYS
 10
443.458804
 20
337.397041
 11
416.917065
 21
325.020425
  0
ARC
  8
OSA
 10
389.659929
 20
277.009109
 40
81.000000
 50
62.187225
 51
72.807062
  0
ARC
  8
OSA
 10
389.659929
 20
277.009109
 40
81.000000
 50
17.187225
 51
27.812775
  0
LINE
  8
OBRYS
 10
450.047861
 20
330.807984
 11
437.671245
 21
304.266245
  0
ARC
  8
OBRYS
 10
391.872057
 20
279.221236
 40
84.000000
 50
221.820385
 51
228.179615
  0
LINE
  8
OBRYS
 10
335.861054
 20
216.621176
 11
362.402792
 21
228.997792
  0
LINE
  8
OBRYS
 10
329.271996
 20
223.210233
 11
341.648612
 21
249.751972
  0
ARC
  8
OBRYS
 10
387.447801
 20
279.221236
 40
84.000000
 50
311.820385
 51
318.179615
  0
LINE
  8
OBRYS
 10
443.458804
 20
216.621176
 11
416.917065
 21
228.997792
  0
LINE
  8
OBRYS
 10
450.047861
 20
223.210233
 11
437.671245
 21
249.751972
  0
ARC
  8
OBRYS
 10
386.531508
 20
277.009109
 40
84.000000
 50
356.820385
 51
3.179615
  0
LINE
  8
OBRYS
 10
470.402195
 20
281.668276
 11
442.882762
 21
291.684530
  0
LINE
  8
OBRYS
 10
470.402195
 20
272.349941
 11
442.882762
 21
262.333687
  0
ARC
  8
OBRYS
 10
392.788350
 20
277.009109
 40
84.000000
 50
176.820385
 51
183.179615
  0
LINE
  8
OBRYS
 10
308.917663
 20
272.349941
 11
336.437095
 21
262.333687
  0
LINE
  8
OBRYS
 10
308.917663
 20
281.668276
 11
336.437095
 21
291.684530
  0
ARC
  8
OBRYS
 10
391.872057
 20
274.796981
 40
84.000000
 50
131.820385
 51
138.179615
  0
LINE
  8
OBRYS
 10
329.271996
 20
330.807984
 11
341.648612
 21
304.266245
  0
LINE
  8
OBRYS
 10
335.861054
 20
337.397041
 11
362.402792
 21
325.020425
  0
ARC
  8
OBRYS
 10
389.659929
 20
273.880688
 40
84.000000
 50
86.820385
 51
93.179615
  0
LINE
  8
OBRYS
 10
385.000762
 20
357.751375
 11
374.984507
 21
330.231942
  0
LINE
  8
OBRYS
 10
394.319096
 20
357.751375
 11
404.335350
 21
330.231942
  0
ARC
  8
OSA
 10
389.659929
 20
277.009109
 40
81.000000
 50
107.187225
 51
117.812775
  0
ARC
  8
OSA
 10
389.659929
 20
277.009109
 40
81.000000
 50
332.187225
 51
340.683508
  0
ARC
  8
OSA
 10
389.659929
 20
277.009109
 40
81.000000
 50
287.192938
 51
297.807062
  0
ARC
  8
OSA
 10
389.659929
 20
277.009109
 40
81.000000
 50
242.187225
 51
252.812775
  0
ARC
  8
OSA
 10
389.659929
 20
277.009109
 40
81.000000
 50
197.187225
 51
207.812775
  0
ARC
  8
OSA
 10
389.659929
 20
277.009109
 40
81.000000
 50
152.187225
 51
162.812775
  0
LINE
  8
OSA
 10
338.394687
 20
225.743867
 11
350.769056
 21
238.118236
  0
LINE
  8
OSA
 10
428.550802
 20
315.899982
 11
440.925170
 21
328.274350
  0
LINE
  8
OSA
 10
440.925170
 20
225.743867
 11
428.550802
 21
238.118236
  0
LINE
  8
OSA
 10
350.769056
 20
315.899982
 11
338.394687
 21
328.274350
  0
LINE
  8
OSA
 10
417.404478
 20
210.027843
 11
424.101438
 21
193.859951
  0
LINE
  8
OSA
 10
456.641195
 20
249.264560
 11
472.809087
 21
242.567600
  0
LINE
  8
OSA
 10
456.641195
 20
304.753657
 11
472.809087
 21
311.450618
  0
LINE
  8
OSA
 10
417.404478
 20
343.990375
 11
424.101438
 21
360.158267
  0
LINE
  8
OSA
 10
361.915380
 20
343.990375
 11
355.218420
 21
360.158267
  0
LINE
  8
OSA
 10
322.678663
 20
304.753657
 11
306.510771
 21
311.450618
  0
LINE
  8
OSA
 10
322.678663
 20
249.264560
 11
306.510771
 21
242.567600
  0
LINE
  8
OSA
 10
361.915380
 20
210.027843
 11
355.218420
 21
193.859951
  0
ARC
  8
OBRYS
 10
389.659929
 20
277.009109
 40
55.000000
 50
209.346422
 51
240.653578
  0
ARC
  8
OBRYS
 10
389.659929
 20
277.009109
 40
55.000000
 50
164.346422
 51
195.653578
  0
ARC
  8
OBRYS
 10
389.659929
 20
277.009109
 40
55.000000
 50
119.346422
 51
150.653578
  0
ARC
  8
OBRYS
 10
389.659929
 20
277.009109
 40
55.000000
 50
74.346422
 51
105.653578
  0
ARC
  8
OBRYS
 10
389.659929
 20
277.009109
 40
55.000000
 50
29.346422
 51
60.653578
  0
ARC
  8
OBRYS
 10
389.659929
 20
277.009109
 40
55.000000
 50
344.346422
 51
15.653578
  0
ARC
  8
OBRYS
 10
389.659929
 20
277.009109
 40
55.000000
 50
299.346422
 51
329.919825
  0
INSERT
  8
KOTA
 66
     1
  2
Vnitrni_metricky_zavit_M1_29
 62
     7
 10
435.621870
 20
231.047168
  0
ATTRIB
  8
KOTA
 10
0.000000
 20
0.000000
 40
3.000000
  1
CSN 02 1034
  2
norma roz.
 70
     1
  0
ATTRIB
  8
KOTA
 10
0.000000
 20
0.000000
 40
3.000000
  1
1.5
  2
roztec
 70
     1
  0
ATTRIB
  8
KOTA
 10
0.000000
 20
0.000000
 40
3.000000
  1
*NB
  2
puvod
 70
     1
  0
ATTRIB
  8
KOTA
 10
0.000000
 20
0.000000
 40
3.000000
  1
02 1034
  2
tridici znak
 70
     1
  0
SEQEND
  8
KOTA
  0
INSERT
  8
KOTA
 66
     1
  2
Vnitrni_metricky_zavit_M1_30
 62
     7
 10
435.621870
 20
322.971049
  0
ATTRIB
  8
KOTA
 10
0.000000
 20
0.000000
 40
3.000000
  1
CSN 02 1034
  2
norma roz.
 70
     1
  0
ATTRIB
  8
KOTA
 10
0.000000
 20
0.000000
 40
3.000000
  1
1.5
  2
roztec
 70
     1
  0
ATTRIB
  8
KOTA
 10
0.000000
 20
0.000000
 40
3.000000
  1
*NB
  2
puvod
 70
     1
  0
ATTRIB
  8
KOTA
 10
0.000000
 20
0.000000
 40
3.000000
  1
02 1034
  2
tridici znak
 70
     1
  0
SEQEND
  8
KOTA
  0
INSERT
  8
KOTA
 66
     1
  2
Vnitrni_metricky_zavit_M1_31
 62
     7
 10
343.697988
 20
322.971049
  0
ATTRIB
  8
KOTA
 10
0.000000
 20
0.000000
 40
3.000000
  1
CSN 02 1034
  2
norma roz.
 70
     1
  0
ATTRIB
  8
KOTA
 10
0.000000
 20
0.000000
 40
3.000000
  1
1.5
  2
roztec
 70
     1
  0
ATTRIB
  8
KOTA
 10
0.000000
 20
0.000000
 40
3.000000
  1
*NB
  2
puvod
 70
     1
  0
ATTRIB
  8
KOTA
 10
0.000000
 20
0.000000
 40
3.000000
  1
02 1034
  2
tridici znak
 70
     1
  0
SEQEND
  8
KOTA
  0
INSERT
  8
KOTA
 66
     1
  2
Vnitrni_metricky_zavit_M1_32
 62
     7
 10
343.697988
 20
231.047168
  0
ATTRIB
  8
KOTA
 10
0.000000
 20
0.000000
 40
3.000000
  1
CSN 02 1034
  2
norma roz.
 70
     1
  0
ATTRIB
  8
KOTA
 10
0.000000
 20
0.000000
 40
3.000000
  1
1.5
  2
roztec
 70
     1
  0
ATTRIB
  8
KOTA
 10
0.000000
 20
0.000000
 40
3.000000
  1
*NB
  2
puvod
 70
     1
  0
ATTRIB
  8
KOTA
 10
0.000000
 20
0.000000
 40
3.000000
  1
02 1034
  2
tridici znak
 70
     1
  0
SEQEND
  8
KOTA
  0
INSERT
  8
KOTA
 66
     1
  2
Vnitrni_metricky_zavit_M1_33
 62
     7
 10
389.659929
 20
212.009109
  0
ATTRIB
  8
KOTA
 10
0.000000
 20
0.000000
 40
3.000000
  1
CSN 02 1034
  2
norma roz.
 70
     1
  0
ATTRIB
  8
KOTA
 10
0.000000
 20
0.000000
 40
3.000000
  1
1.5
  2
roztec
 70
     1
  0
ATTRIB
  8
KOTA
 10
0.000000
 20
0.000000
 40
3.000000
  1
*NB
  2
puvod
 70
     1
  0
ATTRIB
  8
KOTA
 10
0.000000
 20
0.000000
 40
3.000000
  1
02 1034
  2
tridici znak
 70
     1
  0
SEQEND
  8
KOTA
  0
INSERT
  8
KOTA
 66
     1
  2
Vnitrni_metricky_zavit_M1_34
 62
     7
 10
324.659929
 20
277.009109
  0
ATTRIB
  8
KOTA
 10
0.000000
 20
0.000000
 40
3.000000
  1
CSN 02 1034
  2
norma roz.
 70
     1
  0
ATTRIB
  8
KOTA
 10
0.000000
 20
0.000000
 40
3.000000
  1
1.5
  2
roztec
 70
     1
  0
ATTRIB
  8
KOTA
 10
0.000000
 20
0.000000
 40
3.000000
  1
*NB
  2
puvod
 70
     1
  0
ATTRIB
  8
KOTA
 10
0.000000
 20
0.000000
 40
3.000000
  1
02 1034
  2
tridici znak
 70
     1
  0
SEQEND
  8
KOTA
  0
INSERT
  8
KOTA
 66
     1
  2
Vnitrni_metricky_zavit_M1_35
 62
     7
 10
389.659929
 20
342.009109
  0
ATTRIB
  8
KOTA
 10
0.000000
 20
0.000000
 40
3.000000
  1
CSN 02 1034
  2
norma roz.
 70
     1
  0
ATTRIB
  8
KOTA
 10
0.000000
 20
0.000000
 40
3.000000
  1
1.5
  2
roztec
 70
     1
  0
ATTRIB
  8
KOTA
 10
0.000000
 20
0.000000
 40
3.000000
  1
*NB
  2
puvod
 70
     1
  0
ATTRIB
  8
KOTA
 10
0.000000
 20
0.000000
 40
3.000000
  1
02 1034
  2
tridici znak
 70
     1
  0
SEQEND
  8
KOTA
  0
INSERT
  8
KOTA
 66
     1
  2
Vnitrni_metricky_zavit_M1_36
 62
     7
 10
454.659929
 20
277.009109
  0
ATTRIB
  8
KOTA
 10
0.000000
 20
0.000000
 40
3.000000
  1
CSN 02 1034
  2
norma roz.
 70
     1
  0
ATTRIB
  8
KOTA
 10
0.000000
 20
0.000000
 40
3.000000
  1
1.5
  2
roztec
 70
     1
  0
ATTRIB
  8
KOTA
 10
0.000000
 20
0.000000
 40
3.000000
  1
*NB
  2
puvod
 70
     1
  0
ATTRIB
  8
KOTA
 10
0.000000
 20
0.000000
 40
3.000000
  1
02 1034
  2
tridici znak
 70
     1
  0
SEQEND
  8
KOTA
  0
CIRCLE
  8
OBRYS
 10
389.659929
 20
277.009109
 40
90.000000
  0
CIRCLE
  8
OBRYS
 10
389.659929
 20
277.009109
 40
32.500000
  0
ARC
  8
OBRYS
 10
420.657287
 20
202.174867
 40
7.500000
 50
22.499997
 51
202.499997
  0
LINE
  8
OBRYS
 10
413.728190
 20
199.304741
 11
417.052544
 21
191.279040
  0
LINE
  8
OBRYS
 10
427.586384
 20
205.044991
 11
430.910737
 21
197.019292
  0
LINE
  8
OBRYS
 10
365.591667
 20
199.304740
 11
362.267313
 21
191.279040
  0
LINE
  8
OBRYS
 10
317.695812
 20
239.082654
 11
309.670112
 21
235.758300
  0
LINE
  8
OBRYS
 10
311.955560
 20
301.077371
 11
303.929861
 21
304.401724
  0
LINE
  8
OBRYS
 10
351.733474
 20
348.973226
 11
348.409120
 21
356.998925
  0
LINE
  8
OBRYS
 10
413.728191
 20
354.713477
 11
417.052544
 21
362.739177
  0
LINE
  8
OBRYS
 10
461.624046
 20
314.935563
 11
469.649746
 21
318.259917
  0
LINE
  8
OBRYS
 10
467.364298
 20
252.940847
 11
475.389997
 21
249.616493
  0
LINE
  8
OBRYS
 10
351.733474
 20
205.044992
 11
348.409120
 21
197.019292
  0
LINE
  8
OBRYS
 10
311.955561
 20
252.940847
 11
303.929861
 21
249.616493
  0
LINE
  8
OBRYS
 10
317.695812
 20
314.935563
 11
309.670112
 21
318.259917
  0
LINE
  8
OBRYS
 10
365.591667
 20
354.713477
 11
362.267313
 21
362.739177
  0
LINE
  8
OBRYS
 10
427.586383
 20
348.973225
 11
430.910737
 21
356.998925
  0
LINE
  8
OBRYS
 10
467.364297
 20
301.077370
 11
475.389997
 21
304.401724
  0
LINE
  8
OBRYS
 10
461.624045
 20
239.082654
 11
469.649746
 21
235.758300
  0
ARC
  8
OBRYS
 10
358.662571
 20
202.174867
 40
7.500000
 50
337.499997
 51
157.499997
  0
ARC
  8
OBRYS
 10
314.825687
 20
246.011751
 40
7.500000
 50
292.499997
 51
112.499997
  0
ARC
  8
OBRYS
 10
314.825687
 20
308.006467
 40
7.500000
 50
247.499997
 51
67.499997
  0
ARC
  8
OBRYS
 10
358.662571
 20
351.843351
 40
7.500000
 50
202.499997
 51
22.499997
  0
ARC
  8
OBRYS
 10
420.657287
 20
351.843351
 40
7.500000
 50
157.499997
 51
337.499997
  0
ARC
  8
OBRYS
 10
464.494171
 20
308.006467
 40
7.500000
 50
112.499997
 51
292.499997
  0
ARC
  8
OBRYS
 10
464.494171
 20
246.011751
 40
7.500000
 50
67.499997
 51
247.499997
  0
ARC
  8
OBRYS
 10
389.659929
 20
277.009109
 40
55.000000
 50
254.346422
 51
285.653578
  0
ARC
  8
OBRYS
 10
407.154428
 20
222.760215
 40
3.000000
 50
107.873776
 51
160.000000
  0
ARC
  8
OBRYS
 10
389.659929
 20
277.009109
 40
54.000000
 50
287.873776
 51
297.126224
  0
ARC
  8
OBRYS
 10
415.649211
 20
226.278869
 40
3.000000
 50
65.000000
 51
117.126224
  0
ARC
  8
OBRYS
 10
363.670647
 20
226.278869
 40
3.000000
 50
62.873776
 51
115.000000
  0
ARC
  8
OBRYS
 10
389.659929
 20
277.009109
 40
54.000000
 50
242.873776
 51
252.126224
  0
ARC
  8
OBRYS
 10
372.165430
 20
222.760215
 40
3.000000
 50
20.000000
 51
72.126224
  0
ARC
  8
OBRYS
 10
338.929689
 20
251.019827
 40
3.000000
 50
335.000000
 51
27.126224
  0
ARC
  8
OBRYS
 10
389.659929
 20
277.009109
 40
54.000000
 50
197.873776
 51
207.126224
  0
ARC
  8
OBRYS
 10
335.411035
 20
259.514609
 40
3.000000
 50
17.873776
 51
70.000000
  0
ARC
  8
OBRYS
 10
335.411035
 20
294.503608
 40
3.000000
 50
290.000000
 51
342.126224
  0
ARC
  8
OBRYS
 10
389.659929
 20
277.009109
 40
54.000000
 50
152.873776
 51
162.126224
  0
ARC
  8
OBRYS
 10
338.929689
 20
302.998390
 40
3.000000
 50
332.873776
 51
25.000000
  0
ARC
  8
OBRYS
 10
363.670647
 20
327.739349
 40
3.000000
 50
245.000000
 51
297.126224
  0
ARC
  8
OBRYS
 10
389.659929
 20
277.009109
 40
54.000000
 50
107.873776
 51
117.126224
  0
ARC
  8
OBRYS
 10
372.165430
 20
331.258003
 40
3.000000
 50
287.873776
 51
340.000000
  0
ARC
  8
OBRYS
 10
407.154428
 20
331.258003
 40
3.000000
 50
200.000000
 51
252.126224
  0
ARC
  8
OBRYS
 10
389.659929
 20
277.009109
 40
54.000000
 50
62.873776
 51
72.126224
  0
ARC
  8
OBRYS
 10
415.649211
 20
327.739349
 40
3.000000
 50
242.873776
 51
295.000000
  0
ARC
  8
OBRYS
 10
440.390169
 20
302.998390
 40
3.000000
 50
155.000000
 51
207.126224
  0
ARC
  8
OBRYS
 10
389.659929
 20
277.009109
 40
54.000000
 50
17.873776
 51
27.126224
  0
ARC
  8
OBRYS
 10
443.908823
 20
294.503608
 40
3.000000
 50
197.873776
 51
250.000000
  0
ARC
  8
OBRYS
 10
443.908823
 20
259.514609
 40
3.000000
 50
110.000000
 51
162.126224
  0
ARC
  8
OBRYS
 10
389.659929
 20
277.009109
 40
54.000000
 50
332.873776
 51
342.126224
  0
ARC
  8
OBRYS
 10
440.390169
 20
251.019827
 40
3.000000
 50
152.873776
 51
205.000000
  0
ARC
  8
OBRYS
 10
389.659929
 20
277.009109
 40
72.500000
 50
128.813658
 51
141.186342
  0
ARC
  8
OBRYS
 10
389.659929
 20
277.009109
 40
72.500000
 50
38.813658
 51
51.186342
  0
ARC
  8
OBRYS
 10
389.659929
 20
277.009109
 40
72.500000
 50
308.813658
 51
321.186342
  0
ARC
  8
OBRYS
 10
389.659929
 20
277.009109
 40
72.500000
 50
218.813658
 51
231.186342
  0
ARC
  8
OBRYS
 10
389.659929
 20
277.009109
 40
77.984828
 50
355.779145
 51
4.220855
  0
ARC
  8
OBRYS
 10
389.659929
 20
277.009109
 40
77.984828
 50
265.779145
 51
274.220855
  0
ARC
  8
OBRYS
 10
389.659929
 20
277.009109
 40
77.984828
 50
175.779145
 51
184.220855
  0
ARC
  8
OBRYS
 10
389.659929
 20
277.009109
 40
77.984828
 50
85.779145
 51
94.220855
  0
LINE
  8
0
 62
     2
 10
158.183760
 20
354.993936
 11
154.683760
 21
357.014662
  0
LINE
  8
0
 62
     2
 10
158.183760
 20
199.024281
 11
154.683760
 21
197.003555
  0
LINE
  8
0
 62
     2
 10
153.402831
 20
358.073253
 11
153.183760
 21
358.073253
  0
LINE
  8
0
 62
     2
 10
153.183760
 20
195.944965
 11
153.402831
 21
195.944965
  0
LINE
  8
0
 62
     2
 10
153.402831
 20
272.467095
 11
153.183760
 21
272.467095
  0
LINE
  8
0
 62
     2
 10
153.183760
 20
248.995902
 11
167.683760
 21
248.995902
  0
LINE
  8
0
 62
     2
 10
153.183760
 20
222.899791
 11
153.402831
 21
222.899791
  0
LINE
  8
0
 62
     2
 10
153.183760
 20
331.118426
 11
153.402831
 21
331.118426
  0
LINE
  8
0
 62
     2
 10
153.183760
 20
305.022315
 11
167.683760
 21
305.022315
  0
LINE
  8
0
 62
     2
 10
153.183760
 20
281.551122
 11
153.402831
 21
281.551122
  0
LINE
  8
0
 62
     2
 10
171.183760
 20
300.697186
 11
171.183760
 21
295.620711
  0
LINE
  8
0
 62
     2
 10
171.183760
 20
304.863341
 11
171.183760
 21
300.697186
  0
LINE
  8
0
 62
     2
 10
171.183760
 20
307.959073
 11
171.183760
 21
304.863341
  0
LINE
  8
0
 62
     2
 10
171.183760
 20
309.865416
 11
171.183760
 21
307.959073
  0
LINE
  8
0
 62
     2
 10
171.183760
 20
310.509109
 11
171.183760
 21
309.865416
  0
LINE
  8
0
 62
     2
 10
171.183760
 20
244.152802
 11
171.183760
 21
243.509109
  0
LINE
  8
0
 62
     2
 10
171.183760
 20
246.059144
 11
171.183760
 21
244.152802
  0
LINE
  8
0
 62
     2
 10
171.183760
 20
249.154877
 11
171.183760
 21
246.059144
  0
LINE
  8
0
 62
     2
 10
171.183760
 20
253.321031
 11
171.183760
 21
249.154877
  0
LINE
  8
0
 62
     2
 10
171.183760
 20
258.397506
 11
171.183760
 21
253.321031
  0
LINE
  8
0
 62
     2
 10
171.183760
 20
295.620711
 11
171.183760
 21
289.829004
  0
LINE
  8
0
 62
     2
 10
171.183760
 20
236.956019
 11
171.183760
 21
232.915458
  0
LINE
  8
0
 62
     2
 10
171.183760
 20
321.102759
 11
171.183760
 21
317.062198
  0
ARC
  8
0
 62
     2
 10
151.183760
 20
365.009109
 40
2.000000
 50
0.000000
 51
90.000000
  0
ARC
  8
0
 62
     2
 10
151.183760
 20
189.009109
 40
2.000000
 50
270.000000
 51
360.000000
  0
POLYLINE
  8
0
 62
     2
 66
    1
  0
VERTEX
  8
0
 62
     2
 10
154.683762
 20
357.014648
  0
VERTEX
  8
0
 62
     2
 10
153.885620
 20
357.684387
  0
VERTEX
  8
0
 62
     2
 10
153.364685
 20
358.586670
  0
VERTEX
  8
0
 62
     2
 10
153.183762
 20
359.612732
  0
SEQEND
  8
0
  0
POLYLINE
  8
0
 62
     2
 66
    1
  0
VERTEX
  8
0
 62
     2
 10
153.183762
 20
194.405487
  0
VERTEX
  8
0
 62
     2
 10
153.364685
 20
195.431549
  0
VERTEX
  8
0
 62
     2
 10
153.885620
 20
196.333847
  0
VERTEX
  8
0
 62
     2
 10
154.683762
 20
197.003555
  0
SEQEND
  8
0
  0
LINE
  8
0
 62
     2
 10
153.183760
 20
365.009109
 11
153.183760
 21
189.009109
  0
LINE
  8
0
 62
     2
 10
167.683760
 20
322.103937
 11
167.683760
 21
333.338278
  0
LINE
  8
0
 62
     2
 10
167.683760
 20
220.679940
 11
167.683760
 21
231.914280
  0
LINE
  8
0
 62
     2
 10
171.183760
 20
331.436930
 11
171.183760
 21
332.009109
  0
LINE
  8
0
 62
     2
 10
171.183760
 20
329.638841
 11
171.183760
 21
330.389846
  0
LINE
  8
0
 62
     2
 10
171.183760
 20
303.575022
 11
171.183760
 21
324.872877
  0
LINE
  8
0
 62
     2
 10
171.183760
 20
229.145340
 11
171.183760
 21
250.443195
  0
LINE
  8
0
 62
     2
 10
171.183760
 20
224.379376
 11
171.183760
 21
223.628372
  0
LINE
  8
0
 62
     2
 10
171.183760
 20
222.806788
 11
171.183760
 21
222.009109
  0
LINE
  8
0
 62
     2
 10
153.183760
 20
359.612738
 11
153.183760
 21
359.172328
  0
LINE
  8
0
 62
     2
 10
153.183760
 20
338.269148
 11
153.183760
 21
331.945409
  0
LINE
  8
0
 62
     2
 10
153.183760
 20
281.480668
 11
153.183760
 21
272.537550
  0
LINE
  8
0
 62
     2
 10
153.183760
 20
222.072809
 11
153.183760
 21
215.749069
  0
LINE
  8
0
 62
     2
 10
153.183760
 20
194.845889
 11
153.183760
 21
194.405479
  0
POLYLINE
  8
0
 62
     2
 66
    1
  0
VERTEX
  8
0
 62
     2
 10
167.683746
 20
333.338287
  0
VERTEX
  8
0
 62
     2
 10
154.683762
 20
336.839325
  0
VERTEX
  8
0
 62
     2
 10
153.885620
 20
337.151733
  0
VERTEX
  8
0
 62
     2
 10
153.402832
 20
337.541809
  0
VERTEX
  8
0
 62
     2
 10
153.364685
 20
337.577545
  0
VERTEX
  8
0
 62
     2
 10
153.309860
 20
337.745636
  0
VERTEX
  8
0
 62
     2
 10
153.239929
 20
338.013519
  0
VERTEX
  8
0
 62
     2
 10
153.183762
 20
338.269135
  0
SEQEND
  8
0
  0
LINE
  8
0
 62
     2
 10
171.183760
 20
324.872877
 11
167.683760
 21
324.872877
  0
LINE
  8
0
 62
     2
 10
153.239937
 20
281.433065
 11
153.183760
 21
281.480668
  0
LINE
  8
0
 62
     2
 10
153.183760
 20
272.537550
 11
153.239937
 21
272.585152
  0
POLYLINE
  8
0
 62
     2
 66
    1
  0
VERTEX
  8
0
 62
     2
 10
153.183762
 20
215.749069
  0
VERTEX
  8
0
 62
     2
 10
153.239929
 20
216.004700
  0
VERTEX
  8
0
 62
     2
 10
153.309860
 20
216.272568
  0
VERTEX
  8
0
 62
     2
 10
153.364685
 20
216.440689
  0
VERTEX
  8
0
 62
     2
 10
153.402832
 20
216.476410
  0
VERTEX
  8
0
 62
     2
 10
153.885620
 20
216.866486
  0
VERTEX
  8
0
 62
     2
 10
154.683762
 20
217.178879
  0
VERTEX
  8
0
 62
     2
 10
167.683746
 20
220.679947
  0
SEQEND
  8
0
  0
LINE
  8
0
 62
     2
 10
167.683760
 20
229.145340
 11
171.183760
 21
229.145340
  0
LINE
  8
0
 62
     2
 10
158.183760
 20
354.415463
 11
158.183760
 21
354.993936
  0
LINE
  8
0
 62
     2
 10
154.683760
 20
357.014662
 11
154.683760
 21
356.511321
  0
LINE
  8
0
 62
     2
 10
154.683760
 20
197.003555
 11
154.683760
 21
197.506896
  0
LINE
  8
0
 62
     2
 10
158.183760
 20
271.135769
 11
158.183760
 21
282.882448
  0
LINE
  8
0
 62
     2
 10
158.183760
 20
199.602755
 11
158.183760
 21
199.024281
  0
LINE
  8
0
 62
     2
 10
171.183760
 20
332.009109
 11
167.683760
 21
332.009109
  0
LINE
  8
0
 62
     2
 10
167.683760
 20
332.009109
 11
167.683760
 21
331.436930
  0
LINE
  8
0
 62
     2
 10
167.683760
 20
330.389846
 11
167.683760
 21
329.638841
  0
LINE
  8
0
 62
     2
 10
167.683760
 20
303.575022
 11
167.683760
 21
324.872877
  0
LINE
  8
0
 62
     2
 10
167.683760
 20
229.145340
 11
167.683760
 21
250.443195
  0
LINE
  8
0
 62
     2
 10
167.683760
 20
223.628372
 11
167.683760
 21
224.379376
  0
LINE
  8
0
 62
     2
 10
167.683760
 20
222.009109
 11
167.683760
 21
222.806788
  0
LINE
  8
0
 62
     2
 10
171.183760
 20
222.009109
 11
167.683760
 21
222.009109
  0
POLYLINE
  8
0
 62
     2
 66
    1
  0
VERTEX
  8
0
 62
     2
 10
158.183746
 20
354.415466
  0
VERTEX
  8
0
 62
     2
 10
154.683762
 20
356.511322
  0
VERTEX
  8
0
 62
     2
 10
153.885620
 20
357.205933
  0
VERTEX
  8
0
 62
     2
 10
153.402832
 20
358.073242
  0
VERTEX
  8
0
 62
     2
 10
153.364685
 20
358.141022
  0
VERTEX
  8
0
 62
     2
 10
153.309860
 20
358.459930
  0
VERTEX
  8
0
 62
     2
 10
153.239929
 20
358.858429
  0
VERTEX
  8
0
 62
     2
 10
153.183762
 20
359.172333
  0
VERTEX
  8
0
 62
     2
 10
153.183762
 20
359.252899
  0
VERTEX
  8
0
 62
     2
 10
153.183762
 20
359.627655
  0
VERTEX
  8
0
 62
     2
 10
153.183762
 20
359.967773
  0
VERTEX
  8
0
 62
     2
 10
153.183762
 20
360.259705
  0
VERTEX
  8
0
 62
     2
 10
153.183762
 20
360.491852
  0
VERTEX
  8
0
 62
     2
 10
153.183762
 20
360.654968
  0
VERTEX
  8
0
 62
     2
 10
153.183762
 20
360.742554
  0
VERTEX
  8
0
 62
     2
 10
153.183762
 20
360.751160
  0
SEQEND
  8
0
  0
LINE
  8
0
 62
     2
 10
158.183760
 20
335.896745
 11
158.183760
 21
354.415463
  0
LINE
  8
0
 62
     2
 10
171.183760
 20
329.638841
 11
171.183760
 21
324.438444
  0
LINE
  8
0
 62
     2
 10
153.183760
 20
359.172328
 11
153.183760
 21
360.751151
  0
LINE
  8
0
 62
     2
 10
167.683760
 20
333.338278
 11
158.183760
 21
335.896745
  0
LINE
  8
0
 62
     2
 10
171.183760
 20
324.438444
 11
171.183760
 21
324.872877
  0
LINE
  8
0
 62
     2
 10
153.183760
 20
193.267066
 11
153.183760
 21
195.159798
  0
POLYLINE
  8
0
 62
     2
 66
    1
  0
VERTEX
  8
0
 62
     2
 10
158.183746
 20
218.121475
  0
VERTEX
  8
0
 62
     2
 10
167.683746
 20
220.679947
  0
VERTEX
  8
0
 62
     2
 10
167.683746
 20
222.806793
  0
SEQEND
  8
0
  0
LINE
  8
0
 62
     2
 10
167.683760
 20
223.628372
 11
167.683760
 21
224.862831
  0
LINE
  8
0
 62
     2
 10
171.183760
 20
229.145340
 11
171.183760
 21
229.579773
  0
LINE
  8
0
 62
     2
 10
171.183760
 20
229.579773
 11
171.183760
 21
224.379376
  0
POLYLINE
  8
0
 62
     2
 66
    1
  0
VERTEX
  8
0
 62
     2
 10
158.183746
 20
199.602753
  0
VERTEX
  8
0
 62
     2
 10
154.683762
 20
197.506897
  0
VERTEX
  8
0
 62
     2
 10
153.885620
 20
196.812286
  0
VERTEX
  8
0
 62
     2
 10
153.402832
 20
195.944962
  0
VERTEX
  8
0
 62
     2
 10
153.364685
 20
195.877197
  0
VERTEX
  8
0
 62
     2
 10
153.309860
 20
195.558304
  0
VERTEX
  8
0
 62
     2
 10
153.239929
 20
195.159805
  0
VERTEX
  8
0
 62
     2
 10
153.183762
 20
194.845886
  0
VERTEX
  8
0
 62
     2
 10
153.183762
 20
194.765320
  0
VERTEX
  8
0
 62
     2
 10
153.183762
 20
194.390579
  0
VERTEX
  8
0
 62
     2
 10
153.183762
 20
194.050461
  0
VERTEX
  8
0
 62
     2
 10
153.183762
 20
193.758514
  0
VERTEX
  8
0
 62
     2
 10
153.183762
 20
193.526367
  0
VERTEX
  8
0
 62
     2
 10
153.183762
 20
193.363251
  0
VERTEX
  8
0
 62
     2
 10
153.183762
 20
193.275650
  0
VERTEX
  8
0
 62
     2
 10
153.183762
 20
193.267075
  0
SEQEND
  8
0
  0
LINE
  8
0
 62
     2
 10
158.183760
 20
218.121472
 11
158.183760
 21
199.602755
  0
POLYLINE
  8
0
 62
     2
 66
    1
  0
VERTEX
  8
0
 62
     2
 10
158.183746
 20
271.135773
  0
VERTEX
  8
0
 62
     2
 10
154.683762
 20
271.898590
  0
VERTEX
  8
0
 62
     2
 10
153.885620
 20
272.151428
  0
VERTEX
  8
0
 62
     2
 10
153.402832
 20
272.467102
  0
VERTEX
  8
0
 62
     2
 10
153.364685
 20
272.484344
  0
VERTEX
  8
0
 62
     2
 10
153.309860
 20
272.565491
  0
VERTEX
  8
0
 62
     2
 10
153.239929
 20
272.585144
  0
SEQEND
  8
0
  0
POLYLINE
  8
0
 62
     2
 66
    1
  0
VERTEX
  8
0
 62
     2
 10
171.183746
 20
250.443192
  0
VERTEX
  8
0
 62
     2
 10
167.683746
 20
250.443192
  0
VERTEX
  8
0
 62
     2
 10
167.683746
 20
248.995895
  0
VERTEX
  8
0
 62
     2
 10
167.683746
 20
231.914276
  0
VERTEX
  8
0
 62
     2
 10
154.683762
 20
224.406235
  0
VERTEX
  8
0
 62
     2
 10
153.885620
 20
223.736298
  0
VERTEX
  8
0
 62
     2
 10
153.402832
 20
222.899796
  0
VERTEX
  8
0
 62
     2
 10
153.364685
 20
222.839676
  0
VERTEX
  8
0
 62
     2
 10
153.309860
 20
222.556808
  0
VERTEX
  8
0
 62
     2
 10
153.239929
 20
222.261124
  0
VERTEX
  8
0
 62
     2
 10
153.183762
 20
222.072815
  0
VERTEX
  8
0
 62
     2
 10
153.183762
 20
222.024475
  0
VERTEX
  8
0
 62
     2
 10
153.183762
 20
221.856323
  0
VERTEX
  8
0
 62
     2
 10
153.183762
 20
221.763321
  0
VERTEX
  8
0
 62
     2
 10
153.183762
 20
221.749191
  0
SEQEND
  8
0
  0
LINE
  8
0
 62
     2
 10
158.183760
 20
262.619011
 11
158.183760
 21
271.135769
  0
LINE
  8
0
 62
     2
 10
171.183760
 20
261.949251
 11
171.183760
 21
250.443195
  0
POLYLINE
  8
0
 62
     2
 66
    1
  0
VERTEX
  8
0
 62
     2
 10
153.183762
 20
332.269043
  0
VERTEX
  8
0
 62
     2
 10
153.183762
 20
332.254913
  0
VERTEX
  8
0
 62
     2
 10
153.183762
 20
332.161896
  0
VERTEX
  8
0
 62
     2
 10
153.183762
 20
331.993744
  0
VERTEX
  8
0
 62
     2
 10
153.183762
 20
331.945404
  0
VERTEX
  8
0
 62
     2
 10
153.239929
 20
331.757111
  0
VERTEX
  8
0
 62
     2
 10
153.309860
 20
331.461395
  0
VERTEX
  8
0
 62
     2
 10
153.364685
 20
331.178558
  0
VERTEX
  8
0
 62
     2
 10
153.402832
 20
331.118439
  0
VERTEX
  8
0
 62
     2
 10
153.885620
 20
330.281921
  0
VERTEX
  8
0
 62
     2
 10
154.683762
 20
329.612000
  0
VERTEX
  8
0
 62
     2
 10
167.683746
 20
322.103943
  0
VERTEX
  8
0
 62
     2
 10
167.683746
 20
305.022308
  0
VERTEX
  8
0
 62
     2
 10
167.683746
 20
303.575012
  0
VERTEX
  8
0
 62
     2
 10
171.183746
 20
303.575012
  0
SEQEND
  8
0
  0
POLYLINE
  8
0
 62
     2
 66
    1
  0
VERTEX
  8
0
 62
     2
 10
153.239929
 20
281.433075
  0
VERTEX
  8
0
 62
     2
 10
153.309860
 20
281.452728
  0
VERTEX
  8
0
 62
     2
 10
153.364685
 20
281.533875
  0
VERTEX
  8
0
 62
     2
 10
153.402832
 20
281.551117
  0
VERTEX
  8
0
 62
     2
 10
153.885620
 20
281.866791
  0
VERTEX
  8
0
 62
     2
 10
154.683762
 20
282.119629
  0
VERTEX
  8
0
 62
     2
 10
158.183746
 20
282.882446
  0
SEQEND
  8
0
  0
LINE
  8
0
 62
     2
 10
171.183760
 20
303.575022
 11
171.183760
 21
292.068966
  0
LINE
  8
0
 62
     2
 10
158.183760
 20
282.882448
 11
158.183760
 21
291.399206
  0
LINE
  8
0
 62
     2
 10
171.183760
 20
331.436930
 11
171.183760
 21
330.389846
  0
LINE
  8
0
 62
     2
 10
171.183760
 20
222.806788
 11
171.183760
 21
223.628372
  0
LINE
  8
0
 62
     2
 10
171.183760
 20
324.098335
 11
171.183760
 21
280.009109
  0
LINE
  8
0
 62
     2
 10
171.183760
 20
274.009109
 11
171.183760
 21
229.919883
  0
LINE
  8
0
 62
     2
 10
171.183760
 20
232.915458
 11
171.183760
 21
229.919883
  0
LINE
  8
0
 62
     2
 10
171.183760
 20
324.098335
 11
171.183760
 21
321.102759
  0
LINE
  8
0
 62
     2
 10
158.183760
 20
347.209109
 11
158.183760
 21
336.809109
  0
LINE
  8
0
 62
     2
 10
158.183760
 20
282.209109
 11
158.183760
 21
271.809109
  0
LINE
  8
0
 62
     2
 10
158.183760
 20
206.809109
 11
158.183760
 21
217.209109
  0
LINE
  8
0
 62
     2
 10
167.683760
 20
324.098335
 11
167.683760
 21
324.438444
  0
LINE
  8
0
 62
     2
 10
167.683760
 20
229.579773
 11
167.683760
 21
229.919883
  0
LINE
  8
0
 62
     2
 10
167.683760
 20
236.247168
 11
167.683760
 21
225.847168
  0
LINE
  8
0
 62
     2
 10
167.683760
 20
328.171049
 11
167.683760
 21
317.771049
  0
LINE
  8
0
 62
     2
 10
171.183760
 20
317.062198
 11
171.183760
 21
277.009109
  0
LINE
  8
0
 62
     2
 10
171.183760
 20
277.009109
 11
171.183760
 21
236.956019
  0
LINE
  8
0
 62
     2
 10
158.183760
 20
262.619011
 11
171.183760
 21
262.619011
  0
LINE
  8
0
 62
     2
 10
158.183760
 20
262.619011
 11
158.183760
 21
291.399206
  0
LINE
  8
0
 62
     2
 10
171.183760
 20
291.399206
 11
158.183760
 21
291.399206
  0
LINE
  8
0
 62
     2
 10
65.216876
 20
301.354710
 11
65.183760
 21
301.468479
  0
LINE
  8
0
 62
     2
 10
65.336001
 20
301.068255
 11
65.216876
 21
301.354710
  0
LINE
  8
0
 62
     2
 10
65.769546
 20
300.757900
 11
65.336001
 21
301.068255
  0
LINE
  8
0
 62
     2
 10
66.215318
 20
300.615430
 11
65.769546
 21
300.757900
  0
LINE
  8
0
 62
     2
 10
66.418393
 20
300.576231
 11
66.215318
 21
300.615430
  0
LINE
  8
0
 62
     2
 10
67.183760
 20
300.532251
 11
66.418393
 21
300.576231
  0
LINE
  8
0
 62
     2
 10
74.183760
 20
300.532251
 11
67.183760
 21
300.532251
  0
LINE
  8
0
 62
     2
 10
77.245227
 20
301.112187
 11
74.183760
 21
300.532251
  0
LINE
  8
0
 62
     2
 10
79.840614
 20
302.763704
 11
77.245227
 21
301.112187
  0
LINE
  8
0
 62
     2
 10
80.228337
 20
303.316314
 11
79.840614
 21
302.763704
  0
LINE
  8
0
 62
     2
 10
81.574796
 20
305.272972
 11
80.228337
 21
303.316314
  0
LINE
  8
0
 62
     2
 10
81.842793
 20
306.581200
 11
81.574796
 21
305.272972
  0
LINE
  8
0
 62
     2
 10
81.973794
 20
307.260066
 11
81.842793
 21
306.581200
  0
LINE
  8
0
 62
     2
 10
82.027741
 20
307.570700
 11
81.973794
 21
307.260066
  0
LINE
  8
0
 62
     2
 10
82.055718
 20
307.760131
 11
82.027741
 21
307.570700
  0
LINE
  8
0
 62
     2
 10
82.071531
 20
307.896394
 11
82.055718
 21
307.760131
  0
LINE
  8
0
 62
     2
 10
82.080329
 20
308.006467
 11
82.071531
 21
307.896394
  0
LINE
  8
0
 62
     2
 10
81.574796
 20
248.745245
 11
81.842793
 21
247.437017
  0
LINE
  8
0
 62
     2
 10
80.228337
 20
250.701904
 11
81.574796
 21
248.745245
  0
LINE
  8
0
 62
     2
 10
79.840614
 20
251.254513
 11
80.228337
 21
250.701904
  0
LINE
  8
0
 62
     2
 10
77.245227
 20
252.906031
 11
79.840614
 21
251.254513
  0
LINE
  8
0
 62
     2
 10
74.183760
 20
253.485966
 11
77.245227
 21
252.906031
  0
LINE
  8
0
 62
     2
 10
67.183760
 20
253.485966
 11
74.183760
 21
253.485966
  0
LINE
  8
0
 62
     2
 10
66.418393
 20
253.441986
 11
67.183760
 21
253.485966
  0
LINE
  8
0
 62
     2
 10
66.215318
 20
253.402787
 11
66.418393
 21
253.441986
  0
LINE
  8
0
 62
     2
 10
65.769546
 20
253.260317
 11
66.215318
 21
253.402787
  0
LINE
  8
0
 62
     2
 10
65.336001
 20
252.949963
 11
65.769546
 21
253.260317
  0
LINE
  8
0
 62
     2
 10
65.216876
 20
252.663508
 11
65.336001
 21
252.949963
  0
LINE
  8
0
 62
     2
 10
65.183760
 20
252.549738
 11
65.216876
 21
252.663508
  0
POLYLINE
  8
0
 62
     2
 66
    1
  0
VERTEX
  8
0
 62
     2
 10
82.055717
 20
201.928528
  0
VERTEX
  8
0
 62
     2
 10
82.027748
 20
202.021851
  0
VERTEX
  8
0
 62
     2
 10
81.973793
 20
202.174866
  0
VERTEX
  8
0
 62
     2
 10
81.842796
 20
202.509277
  0
VERTEX
  8
0
 62
     2
 10
81.574791
 20
203.153717
  0
VERTEX
  8
0
 62
     2
 10
80.228340
 20
204.117584
  0
VERTEX
  8
0
 62
     2
 10
79.840614
 20
204.389816
  0
VERTEX
  8
0
 62
     2
 10
77.245232
 20
205.203354
  0
VERTEX
  8
0
 62
     2
 10
74.183754
 20
205.489044
  0
VERTEX
  8
0
 62
     2
 10
67.183754
 20
205.489044
  0
VERTEX
  8
0
 62
     2
 10
66.418388
 20
205.355423
  0
VERTEX
  8
0
 62
     2
 10
66.215324
 20
205.236328
  0
VERTEX
  8
0
 62
     2
 10
65.769554
 20
204.947113
  0
VERTEX
  8
0
 62
     2
 10
65.336006
 20
204.317093
  0
VERTEX
  8
0
 62
     2
 10
65.216881
 20
203.735580
  0
VERTEX
  8
0
 62
     2
 10
65.183754
 20
203.557114
  0
SEQEND
  8
0
  0
LINE
  8
OBRYS
 10
78.542921
 20
195.509109
 11
101.183760
 21
195.509109
  0
LINE
  8
0
 62
     2
 10
65.183760
 20
316.006467
 11
74.183760
 21
316.006467
  0
LINE
  8
0
 62
     2
 10
74.183760
 20
238.011751
 11
65.183760
 21
238.011751
  0
LINE
  8
0
 62
     2
 10
65.316187
 20
194.174867
 11
74.183760
 21
194.174867
  0
ARC
  8
0
 62
     2
 10
73.592211
 20
307.334382
 40
8.554676
 50
4.910716
 51
12.696518
  0
POLYLINE
  8
0
 62
     2
 66
    1
  0
VERTEX
  8
0
 62
     2
 10
82.080330
 20
308.374146
  0
VERTEX
  8
0
 62
     2
 10
82.084312
 20
308.284241
  0
VERTEX
  8
0
 62
     2
 10
82.084312
 20
308.197815
  0
VERTEX
  8
0
 62
     2
 10
82.084312
 20
308.104004
  0
VERTEX
  8
0
 62
     2
 10
82.080330
 20
308.006470
  0
SEQEND
  8
0
  0
LINE
  8
0
 62
     2
 10
74.183760
 20
300.532251
 11
74.183760
 21
316.006467
  0
POLYLINE
  8
0
 62
     2
 66
    1
  0
VERTEX
  8
0
 62
     2
 10
74.183754
 20
316.006470
  0
VERTEX
  8
0
 62
     2
 10
77.245232
 20
315.397491
  0
VERTEX
  8
0
 62
     2
 10
79.840614
 20
313.663330
  0
VERTEX
  8
0
 62
     2
 10
81.574791
 20
311.067932
  0
VERTEX
  8
0
 62
     2
 10
81.973793
 20
309.062042
  0
SEQEND
  8
0
  0
POLYLINE
  8
0
 62
     2
 66
    1
  0
VERTEX
  8
0
 62
     2
 10
81.842796
 20
247.437012
  0
VERTEX
  8
0
 62
     2
 10
81.973793
 20
246.758148
  0
VERTEX
  8
0
 62
     2
 10
82.027748
 20
246.447510
  0
VERTEX
  8
0
 62
     2
 10
82.055717
 20
246.258087
  0
VERTEX
  8
0
 62
     2
 10
82.071526
 20
246.121826
  0
SEQEND
  8
0
  0
ARC
  8
0
 62
     2
 10
79.419906
 20
245.854489
 40
2.668241
 50
352.234621
 51
5.194882
  0
POLYLINE
  8
0
 62
     2
 66
    1
  0
VERTEX
  8
0
 62
     2
 10
82.055717
 20
245.417038
  0
VERTEX
  8
0
 62
     2
 10
82.027748
 20
245.242462
  0
VERTEX
  8
0
 62
     2
 10
81.973793
 20
244.956177
  0
SEQEND
  8
0
  0
LINE
  8
0
 62
     2
 10
74.183760
 20
238.011751
 11
74.183760
 21
253.485966
  0
POLYLINE
  8
0
 62
     2
 66
    1
  0
VERTEX
  8
0
 62
     2
 10
81.574791
 20
242.950287
  0
VERTEX
  8
0
 62
     2
 10
79.840614
 20
240.354889
  0
VERTEX
  8
0
 62
     2
 10
77.245232
 20
238.620712
  0
VERTEX
  8
0
 62
     2
 10
74.183754
 20
238.011749
  0
SEQEND
  8
0
  0
LINE
  8
0
 62
     2
 10
81.973794
 20
244.956180
 11
81.574796
 21
242.950283
  0
POLYLINE
  8
0
 62
     2
 66
    1
  0
VERTEX
  8
0
 62
     2
 10
82.080330
 20
201.654877
  0
VERTEX
  8
0
 62
     2
 10
82.084312
 20
201.684479
  0
VERTEX
  8
0
 62
     2
 10
82.084312
 20
201.712921
  0
SEQEND
  8
0
  0
ARC
  8
0
 62
     2
 10
81.512579
 20
201.736029
 40
0.574217
 50
358.502445
 51
16.602220
  0
LINE
  8
0
 62
     2
 10
74.183760
 20
194.174867
 11
74.183760
 21
205.489044
  0
POLYLINE
  8
0
 62
     2
 66
    1
  0
VERTEX
  8
0
 62
     2
 10
81.574791
 20
199.113403
  0
VERTEX
  8
0
 62
     2
 10
79.840614
 20
196.518005
  0
VERTEX
  8
0
 62
     2
 10
77.245232
 20
194.783829
  0
VERTEX
  8
0
 62
     2
 10
74.183754
 20
194.174866
  0
SEQEND
  8
0
  0
LINE
  8
0
 62
     2
 10
81.574796
 20
199.113399
 11
82.080329
 21
201.654884
  0
POLYLINE
  8
0
 62
     2
 66
    1
  0
VERTEX
  8
0
 62
     2
 10
78.330681
 20
195.509109
  0
VERTEX
  8
0
 62
     2
 10
77.245232
 20
194.783829
  0
VERTEX
  8
0
 62
     2
 10
74.183754
 20
194.174866
  0
SEQEND
  8
0
  0
LINE
  8
0
 62
     2
 10
74.183760
 20
244.960858
 11
74.183760
 21
252.338510
  0
LINE
  8
0
 62
     2
 10
74.183760
 20
301.679708
 11
74.183760
 21
309.057359
  0
LINE
  8
OBRYS
 10
56.183760
 20
367.009109
 11
56.183760
 21
277.009109
  0
LINE
  8
OBRYS
 10
65.183760
 20
328.141595
 11
65.183760
 21
189.009109
  0
LINE
  8
OBRYS
 10
56.183760
 20
187.009109
 11
56.183760
 21
277.009109
  0
LINE
  8
OBRYS
 10
101.183760
 20
195.509109
 11
135.183760
 21
195.509109
  0
LINE
  8
OBRYS
 10
137.183760
 20
328.141595
 11
137.183760
 21
189.009109
  0
LINE
  8
OBRYS
 10
92.183693
 20
192.509109
 11
110.183827
 21
192.509109
  0
LINE
  8
OBRYS
 10
110.183827
 20
192.509109
 11
110.183759
 21
193.508972
  0
ARC
  8
OBRYS
 10
112.183759
 20
193.509109
 40
2.000000
 50
90.000000
 51
180.003913
  0
LINE
  8
OBRYS
 10
92.183693
 20
192.509109
 11
92.183761
 21
193.508972
  0
ARC
  8
OBRYS
 10
90.183761
 20
193.509109
 40
2.000000
 50
359.996087
 51
90.000000
  0
ARC
  8
OBRYS
 10
146.183760
 20
369.009109
 40
2.000000
 50
180.000000
 51
270.000000
  0
LINE
  8
OBRYS
 10
151.183760
 20
367.009109
 11
146.183760
 21
367.009109
  0
LINE
  8
OBRYS
 10
151.183760
 20
187.009109
 11
139.183760
 21
187.009109
  0
ARC
  8
OBRYS
 10
135.183760
 20
193.509109
 40
2.000000
 50
0.000000
 51
90.000000
  0
ARC
  8
OBRYS
 10
139.183760
 20
189.009109
 40
2.000000
 50
180.000000
 51
270.000000
  0
ARC
  8
OBRYS
 10
63.183760
 20
189.009109
 40
2.000000
 50
270.000000
 51
360.000000
  0
ARC
  8
OBRYS
 10
56.183760
 20
369.009109
 40
2.000000
 50
270.000000
 51
360.000000
  0
LINE
  8
OBRYS
 62
     7
  6
DASHDOT
 10
31.183760
 20
277.009109
 11
171.183760
 21
277.009109
  0
LINE
  8
OBRYS
 62
     7
  6
DASHDOT
 10
31.183760
 20
357.009109
 11
171.183760
 21
357.009109
  0
LINE
  8
OBRYS
 62
     7
  6
DASHDOT
 10
101.183760
 20
411.136164
 11
101.183760
 21
185.009109
  0
CIRCLE
  8
OBRYS
 10
101.183760
 20
357.009109
 40
36.000000
  0
ARC
  8
OBRYS
 10
101.183760
 20
392.804825
 40
12.000000
 50
60.000000
 51
120.000000
  0
LINE
  8
OBRYS
 10
138.183760
 20
385.299272
 11
107.183760
 21
403.197130
  0
ARC
  8
OBRYS
 10
132.183760
 20
374.906967
 40
12.000000
 50
0.000000
 51
60.000000
  0
LINE
  8
OBRYS
 10
144.183760
 20
339.111250
 11
144.183760
 21
374.906967
  0
ARC
  8
OBRYS
 10
132.183760
 20
339.111250
 40
12.000000
 50
300.000000
 51
360.000000
  0
LINE
  8
OBRYS
 10
107.183760
 20
310.821087
 11
138.183760
 21
328.718945
  0
ARC
  8
OBRYS
 10
101.183760
 20
321.213392
 40
12.000000
 50
240.000000
 51
300.000000
  0
LINE
  8
OBRYS
 10
64.183760
 20
328.718945
 11
95.183760
 21
310.821087
  0
ARC
  8
OBRYS
 10
70.183760
 20
339.111250
 40
12.000000
 50
180.000000
 51
240.000000
  0
LINE
  8
OBRYS
 10
95.183760
 20
403.197130
 11
64.183760
 21
385.299272
  0
LINE
  8
OBRYS
 10
58.183760
 20
374.906967
 11
58.183760
 21
339.111250
  0
ARC
  8
OBRYS
 10
70.183760
 20
374.906967
 40
12.000000
 50
120.000000
 51
180.000000
  0
LINE
  8
OBRYS
 62
     7
  6
DASHDOT
 10
678.136098
 20
411.136164
 11
678.136098
 21
185.009109
  0
LINE
  8
OBRYS
 62
     7
  6
DASHDOT
 10
748.136098
 20
357.009109
 11
608.136098
 21
357.009109
  0
LINE
  8
OBRYS
 62
     7
  6
DASHDOT
 10
748.136098
 20
277.009109
 11
608.136098
 21
277.009109
  0
ARC
  8
OBRYS
 10
716.136098
 20
189.009109
 40
2.000000
 50
180.000000
 51
270.000000
  0
ARC
  8
OBRYS
 10
640.136098
 20
189.009109
 40
2.000000
 50
270.000000
 51
360.000000
  0
ARC
  8
OBRYS
 10
644.136098
 20
193.509109
 40
2.000000
 50
90.000000
 51
180.000000
  0
LINE
  8
OBRYS
 10
628.136098
 20
187.009109
 11
640.136098
 21
187.009109
  0
ARC
  8
OBRYS
 10
689.136097
 20
193.509109
 40
2.000000
 50
90.000000
 51
180.003913
  0
LINE
  8
OBRYS
 10
687.136165
 20
192.509109
 11
687.136097
 21
193.508972
  0
ARC
  8
OBRYS
 10
667.136099
 20
193.509109
 40
2.000000
 50
359.996087
 51
90.000000
  0
LINE
  8
OBRYS
 10
669.136031
 20
192.509109
 11
669.136099
 21
193.508972
  0
LINE
  8
OBRYS
 10
687.136165
 20
192.509109
 11
669.136031
 21
192.509109
  0
LINE
  8
OBRYS
 10
678.136098
 20
195.509109
 11
644.136098
 21
195.509109
  0
POLYLINE
  8
0
 62
     2
 66
    1
  0
VERTEX
  8
0
 62
     2
 10
700.989197
 20
195.509109
  0
VERTEX
  8
0
 62
     2
 10
702.074646
 20
194.783829
  0
VERTEX
  8
0
 62
     2
 10
705.136108
 20
194.174866
  0
SEQEND
  8
0
  0
LINE
  8
0
 62
     2
 10
697.745062
 20
199.113399
 11
697.239529
 21
201.654884
  0
POLYLINE
  8
0
 62
     2
 66
    1
  0
VERTEX
  8
0
 62
     2
 10
697.745056
 20
199.113403
  0
VERTEX
  8
0
 62
     2
 10
699.479248
 20
196.518005
  0
VERTEX
  8
0
 62
     2
 10
702.074646
 20
194.783829
  0
VERTEX
  8
0
 62
     2
 10
705.136108
 20
194.174866
  0
SEQEND
  8
0
  0
LINE
  8
0
 62
     2
 10
705.136098
 20
194.174867
 11
705.136098
 21
205.489044
  0
ARC
  8
0
 62
     2
 10
697.807278
 20
201.736029
 40
0.574217
 50
163.397780
 51
181.497555
  0
POLYLINE
  8
0
 62
     2
 66
    1
  0
VERTEX
  8
0
 62
     2
 10
697.239502
 20
201.654877
  0
VERTEX
  8
0
 62
     2
 10
697.235535
 20
201.684479
  0
VERTEX
  8
0
 62
     2
 10
697.235535
 20
201.712921
  0
SEQEND
  8
0
  0
LINE
  8
0
 62
     2
 10
714.003671
 20
194.174867
 11
705.136098
 21
194.174867
  0
LINE
  8
OBRYS
 10
700.776937
 20
195.509109
 11
678.136098
 21
195.509109
  0
POLYLINE
  8
0
 62
     2
 66
    1
  0
VERTEX
  8
0
 62
     2
 10
697.264160
 20
201.928528
  0
VERTEX
  8
0
 62
     2
 10
697.292114
 20
202.021851
  0
VERTEX
  8
0
 62
     2
 10
697.346069
 20
202.174866
  0
VERTEX
  8
0
 62
     2
 10
697.477051
 20
202.509277
  0
VERTEX
  8
0
 62
     2
 10
697.745056
 20
203.153717
  0
VERTEX
  8
0
 62
     2
 10
699.091492
 20
204.117584
  0
VERTEX
  8
0
 62
     2
 10
699.479248
 20
204.389816
  0
VERTEX
  8
0
 62
     2
 10
702.074646
 20
205.203354
  0
VERTEX
  8
0
 62
     2
 10
705.136108
 20
205.489044
  0
VERTEX
  8
0
 62
     2
 10
712.136108
 20
205.489044
  0
VERTEX
  8
0
 62
     2
 10
712.901489
 20
205.355423
  0
VERTEX
  8
0
 62
     2
 10
713.104553
 20
205.236328
  0
VERTEX
  8
0
 62
     2
 10
713.550293
 20
204.947113
  0
VERTEX
  8
0
 62
     2
 10
713.983826
 20
204.317093
  0
VERTEX
  8
0
 62
     2
 10
714.102966
 20
203.735580
  0
VERTEX
  8
0
 62
     2
 10
714.136108
 20
203.557114
  0
SEQEND
  8
0
  0
LINE
  8
0
 62
     2
 10
611.636098
 20
236.247168
 11
611.636098
 21
225.847168
  0
LINE
  8
0
 62
     2
 10
611.636098
 20
229.579773
 11
611.636098
 21
229.919883
  0
LINE
  8
0
 62
     2
 10
621.136098
 20
206.809109
 11
621.136098
 21
217.209109
  0
LINE
  8
0
 62
     2
 10
608.136098
 20
232.915458
 11
608.136098
 21
229.919883
  0
LINE
  8
0
 62
     2
 10
608.136098
 20
222.806788
 11
608.136098
 21
223.628372
  0
LINE
  8
0
 62
     2
 10
621.136098
 20
218.121472
 11
621.136098
 21
199.602755
  0
POLYLINE
  8
0
 62
     2
 66
    1
  0
VERTEX
  8
0
 62
     2
 10
621.136108
 20
199.602753
  0
VERTEX
  8
0
 62
     2
 10
624.636108
 20
197.506897
  0
VERTEX
  8
0
 62
     2
 10
625.434204
 20
196.812286
  0
VERTEX
  8
0
 62
     2
 10
625.916992
 20
195.944962
  0
VERTEX
  8
0
 62
     2
 10
625.955139
 20
195.877197
  0
VERTEX
  8
0
 62
     2
 10
626.010010
 20
195.558304
  0
VERTEX
  8
0
 62
     2
 10
626.079895
 20
195.159805
  0
VERTEX
  8
0
 62
     2
 10
626.136108
 20
194.845886
  0
VERTEX
  8
0
 62
     2
 10
626.136108
 20
194.765320
  0
VERTEX
  8
0
 62
     2
 10
626.136108
 20
194.390579
  0
VERTEX
  8
0
 62
     2
 10
626.136108
 20
194.050461
  0
VERTEX
  8
0
 62
     2
 10
626.136108
 20
193.758514
  0
VERTEX
  8
0
 62
     2
 10
626.136108
 20
193.526367
  0
VERTEX
  8
0
 62
     2
 10
626.136108
 20
193.363251
  0
VERTEX
  8
0
 62
     2
 10
626.136108
 20
193.275650
  0
VERTEX
  8
0
 62
     2
 10
626.136108
 20
193.267075
  0
SEQEND
  8
0
  0
LINE
  8
0
 62
     2
 10
608.136098
 20
229.579773
 11
608.136098
 21
224.379376
  0
LINE
  8
0
 62
     2
 10
608.136098
 20
229.145340
 11
608.136098
 21
229.579773
  0
LINE
  8
0
 62
     2
 10
611.636098
 20
223.628372
 11
611.636098
 21
224.862831
  0
POLYLINE
  8
0
 62
     2
 66
    1
  0
VERTEX
  8
0
 62
     2
 10
621.136108
 20
218.121475
  0
VERTEX
  8
0
 62
     2
 10
611.636108
 20
220.679947
  0
VERTEX
  8
0
 62
     2
 10
611.636108
 20
222.806793
  0
SEQEND
  8
0
  0
LINE
  8
0
 62
     2
 10
626.136098
 20
193.267066
 11
626.136098
 21
195.159798
  0
LINE
  8
0
 62
     2
 10
608.136098
 20
222.009109
 11
611.636098
 21
222.009109
  0
LINE
  8
0
 62
     2
 10
611.636098
 20
222.009109
 11
611.636098
 21
222.806788
  0
LINE
  8
0
 62
     2
 10
611.636098
 20
223.628372
 11
611.636098
 21
224.379376
  0
LINE
  8
0
 62
     2
 10
621.136098
 20
199.602755
 11
621.136098
 21
199.024281
  0
LINE
  8
0
 62
     2
 10
624.636098
 20
197.003555
 11
624.636098
 21
197.506896
  0
LINE
  8
0
 62
     2
 10
611.636098
 20
229.145340
 11
608.136098
 21
229.145340
  0
POLYLINE
  8
0
 62
     2
 66
    1
  0
VERTEX
  8
0
 62
     2
 10
626.136108
 20
215.749069
  0
VERTEX
  8
0
 62
     2
 10
626.079895
 20
216.004700
  0
VERTEX
  8
0
 62
     2
 10
626.010010
 20
216.272568
  0
VERTEX
  8
0
 62
     2
 10
625.955139
 20
216.440689
  0
VERTEX
  8
0
 62
     2
 10
625.916992
 20
216.476410
  0
VERTEX
  8
0
 62
     2
 10
625.434204
 20
216.866486
  0
VERTEX
  8
0
 62
     2
 10
624.636108
 20
217.178879
  0
VERTEX
  8
0
 62
     2
 10
611.636108
 20
220.679947
  0
SEQEND
  8
0
  0
LINE
  8
0
 62
     2
 10
626.136098
 20
194.845889
 11
626.136098
 21
194.405479
  0
LINE
  8
0
 62
     2
 10
626.136098
 20
222.072809
 11
626.136098
 21
215.749069
  0
LINE
  8
0
 62
     2
 10
608.136098
 20
222.806788
 11
608.136098
 21
222.009109
  0
LINE
  8
0
 62
     2
 10
608.136098
 20
224.379376
 11
608.136098
 21
223.628372
  0
LINE
  8
0
 62
     2
 10
608.136098
 20
229.145340
 11
608.136098
 21
250.443195
  0
LINE
  8
0
 62
     2
 10
611.636098
 20
220.679940
 11
611.636098
 21
231.914280
  0
POLYLINE
  8
0
 62
     2
 66
    1
  0
VERTEX
  8
0
 62
     2
 10
626.136108
 20
194.405487
  0
VERTEX
  8
0
 62
     2
 10
625.955139
 20
195.431549
  0
VERTEX
  8
0
 62
     2
 10
625.434204
 20
196.333847
  0
VERTEX
  8
0
 62
     2
 10
624.636108
 20
197.003555
  0
SEQEND
  8
0
  0
ARC
  8
0
 62
     2
 10
628.136098
 20
189.009109
 40
2.000000
 50
180.000000
 51
270.000000
  0
LINE
  8
0
 62
     2
 10
608.136098
 20
236.956019
 11
608.136098
 21
232.915458
  0
LINE
  8
0
 62
     2
 10
608.136098
 20
249.154877
 11
608.136098
 21
246.059144
  0
LINE
  8
0
 62
     2
 10
608.136098
 20
246.059144
 11
608.136098
 21
244.152802
  0
LINE
  8
0
 62
     2
 10
608.136098
 20
244.152802
 11
608.136098
 21
243.509109
  0
LINE
  8
0
 62
     2
 10
626.136098
 20
222.899791
 11
625.917027
 21
222.899791
  0
LINE
  8
0
 62
     2
 10
626.136098
 20
195.944965
 11
625.917027
 21
195.944965
  0
LINE
  8
0
 62
     2
 10
621.136098
 20
199.024281
 11
624.636098
 21
197.003555
  0
ENDSEC
  0
EOF

