  0
SECTION
  2
HEADER
  9
$ACADVER
  1
AC1009
  9
$INSBASE
 10
0.0
 20
0.0
 30
0.0
  9
$LIMMIN
 10
0.0
 20
0.0
  9
$LIMMAX
 10
430.0000
 20
307.0000
  9
$EXTMIN
 10
99999999999999998000000000000000000000.0000
 20
99999999999999998000000000000000000000.0000
  9
$EXTMAX
 10
99999999999999998000000000000000000000.0000
 20
99999999999999998000000000000000000000.0000
  9
$VIEWCTR
 10
589.4020
 20
464.3455
  9
$VIEWSIZE
 40
1199.2438
  9
$DIMLFAC
 40
0.6667
  9
$MEASUREMENT
 70
     1
  9
$DWGCODEPAGE
 3
ANSI_1250
  9
$CLAYER
  8
OBRYS
  9
$CELTYPE
  6
BYLAYER
  9
$CECOLOR
 62
  256
  9
$ORTHOMODE
 70
     0
  9
$REGENMODE
 70
     1
  9
$FILLMODE
 70
     1
  9
$QTEXTMODE
 70
     0
  9
$MIRRTEXT
 70
     1
  9
$DRAGMODE
 70
     2
  9
$LTSCALE
 40
1.0
  9
$OSMODE
 70
    37
  9
$ATTMODE
 70
     1
  9
$TEXTSIZE
 40
2.5
  9
$TRACEWID
 40
1.0
  9
$TEXTSTYLE
  7
STANDARD
  9
$CLAYER
  8
0
  9
$CELTYPE
  6
BYLAYER
  9
$CECOLOR
 62
   256
  9
$DIMSCALE
 40
1.0
  9
$DIMASZ
 40
2.5
  9
$DIMEXO
 40
0.625
  9
$DIMDLI
 40
3.75
  9
$DIMRND
 40
0.0
  9
$DIMDLE
 40
0.0
  9
$DIMEXE
 40
1.25
  9
$DIMTP
 40
0.0
  9
$DIMTM
 40
0.0
  9
$DIMTXT
 40
2.5
  9
$DIMCEN
 40
2.5
  9
$DIMTSZ
 40
0.0
  9
$DIMTOL
 70
     0
  9
$DIMLIM
 70
     0
  9
$DIMTIH
 70
     0
  9
$DIMTOH
 70
     0
  9
$DIMSE1
 70
     0
  9
$DIMSE2
 70
     0
  9
$DIMTAD
 70
     1
  9
$DIMZIN
 70
     8
  9
$DIMBLK
  1

  9
$DIMASO
 70
     1
  9
$DIMSHO
 70
     1
  9
$DIMPOST
  1

  9
$DIMAPOST
  1

  9
$DIMALT
 70
     0
  9
$DIMALTD
 70
     3
  9
$DIMALTF
 40
0.03937007874016
  9
$DIMTOFL
 70
     1
  9
$DIMTVP
 40
0.0
  9
$DIMTIX
 70
     0
  9
$DIMSOXD
 70
     0
  9
$DIMSAH
 70
     0
  9
$DIMBLK1
  1

  9
$DIMBLK2
  1

  9
$DIMSTYLE
  2
ISO-25
  9
$DIMCLRD
 70
     0
  9
$DIMCLRE
 70
     0
  9
$DIMCLRT
 70
     0
  9
$DIMTFAC
 40
1.0
  9
$DIMGAP
 40
0.625
  9
$LUNITS
 70
     2
  9
$LUPREC
 70
     4
  9
$SKETCHINC
 40
1.0
  9
$FILLETRAD
 40
10.0
  9
$AUNITS
 70
     0
  9
$AUPREC
 70
     0
  9
$MENU
  1
.
  9
$ELEVATION
 40
0.0
  9
$PELEVATION
 40
0.0
  9
$THICKNESS
 40
0.0
  9
$LIMCHECK
 70
     0
  9
$BLIPMODE
 70
     0
  9
$CHAMFERA
 40
10.0
  9
$CHAMFERB
 40
10.0
  9
$SKPOLY
 70
     0
  9
$TDCREATE
 40
2451579.5163292708
  9
$TDUPDATE
 40
2451579.6904035881
  9
$TDINDWG
 40
0.0082924769
  9
$TDUSRTIMER
 40
0.0082825116
  9
$USRTIMER
 70
     1
  9
$ANGBASE
 50
0.0
  9
$ANGDIR
 70
     0
  9
$PDMODE
 70
     0
  9
$PDSIZE
 40
0.0
  9
$PLINEWID
 40
0.0
  9
$COORDS
 70
     1
  9
$SPLFRAME
 70
     0
  9
$SPLINETYPE
 70
     6
  9
$SPLINESEGS
 70
     8
  9
$ATTDIA
 70
     0
  9
$ATTREQ
 70
     1
  9
$SURFTAB1
 70
     6
  9
$SURFTAB2
 70
     6
  9
$SURFTYPE
 70
     6
  9
$SURFU
 70
     6
  9
$SURFV
 70
     6
  9
$UCSNAME
  2

  9
$UCSORG
 10
0.0
 20
0.0
 30
0.0
  9
$UCSXDIR
 10
1.0
 20
0.0
 30
0.0
  9
$UCSYDIR
 10
0.0
 20
1.0
 30
0.0
  9
$PUCSNAME
  2

  9
$PUCSORG
 10
0.0
 20
0.0
 30
0.0
  9
$PUCSXDIR
 10
1.0
 20
0.0
 30
0.0
  9
$PUCSYDIR
 10
0.0
 20
1.0
 30
0.0
  9
$USERI1
 70
     0
  9
$USERI2
 70
     0
  9
$USERI3
 70
     0
  9
$USERI4
 70
     0
  9
$USERI5
 70
     0
  9
$USERR1
 40
0.0
  9
$USERR2
 40
0.0
  9
$USERR3
 40
0.0
  9
$USERR4
 40
0.0
  9
$USERR5
 40
0.0
  9
$WORLDVIEW
 70
     1
  9
$SHADEDGE
 70
     3
  9
$SHADEDIF
 70
    70
  9
$TILEMODE
 70
     1
  9
$MAXACTVP
 70
    64
  9
$PLIMCHECK
 70
     0
  9
$PEXTMIN
 10
1.0000000000000000E+020
 20
1.0000000000000000E+020
 30
1.0000000000000000E+020
  9
$PEXTMAX
 10
-1.0000000000000000E+020
 20
-1.0000000000000000E+020
 30
-1.0000000000000000E+020
  9
$PLIMMIN
 10
0.0
 20
0.0
  9
$PLIMMAX
 10
420.0
 20
297.0
  9
$UNITMODE
 70
     0
  9
$VISRETAIN
 70
     1
  9
$PLINEGEN
 70
     0
  9
$PSLTSCALE
 70
     1
  0
ENDSEC
  0
SECTION
  2
TABLES
  0
TABLE
  2
VPORT
 70
     2
  0
VPORT
  2
*ACTIVE
 70
     0
 10
0.0
 20
0.0
 11
1.0
 21
1.0
 12
589.4020
 22
464.3455
 13
0.0
 23
0.0
 14
10.0
 24
10.0
 15
10.0
 25
10.0
 16
0.0
 26
0.0
 36
1.0
 17
0.0
 27
0.0
 37
0.0
 40
1199.2438
 41
1.6916
 42
50.0
 43
0.0
 44
0.0
 50
0.0
 51
0.0
 71
     0
 72
   100
 73
     1
 74
     3
 75
     0
 76
     0
 77
     0
 78
     0
  0
ENDTAB
  0
TABLE
  2
LTYPE
 70
     7
  0
LTYPE
  2
CONTINUOUS
 70
     0
  3
Solid line
 72
    65
 73
     0
 40
0.0
  0
LTYPE
  2
HIDDEN2
 70
     0
  3
Hidden (.5x) _ _ _ _ _ _ _ _ _ _ _ _ _ _ _ _ _
 72
    65
 73
     2
 40
5.1
 49
3.5
 49
-1.6
  0
LTYPE
  2
DASHDOT
 70
     0
  3
Dash dot __ . __ . __ . __ . __ . __ . __ . __
 72
    65
 73
     4
 40
10.4
 49
6.2
 49
-2.1
 49
0.0
 49
-2.1
  0
LTYPE
  2
DOT
 70
     0
  3
Dot . . . . . . . . . . . . . . . . . . . . . .
 72
    65
 73
     2
 40
2.2
 49
1.1
 49
-1.1
  0
LTYPE
  2
DASHED
 70
     0
  3
Dashed __ __ __ __ __ __ __ __ __ __ __ __ __ _
 72
    65
 73
     2
 40
11.049999999999979
 49
8.699999999999999
 49
-2.3499999999999979
  0
LTYPE
  2
PHANTOM2
 70
     0
  3
Phantom (.5x) ___ _ _ ___ _ _ ___ _ _ ___ _ _
 72
    65
 73
     6
 40
18.3
 49
7.8
 49
-2.1
 49
2.1
 49
-2.1
 49
2.1
 49
-2.1
  0
LTYPE
  2
CENTER
 70
     0
  3
Center ____ _ ____ _ ____ _ ____ _ ____ _ ____
 72
    65
 73
     4
 40
14.1
 49
7.8
 49
-2.1
 49
2.1
 49
-2.1
  0
ENDTAB
  0
TABLE
  2
LAYER
 70
     7
  0
LAYER
  2
0
 70
    64
 62
     7
  6
CONTINUOUS
  0
LAYER
  2
OBRYS
 70
    64
 62
     2
  6
CONTINUOUS
  0
LAYER
  2
OSA
 70
    64
 62
     7
  6
DASHDOT
  0
LAYER
  2
KOTA
 70
    64
 62
     3
  6
CONTINUOUS
  0
LAYER
  2
SRAFY
 70
    64
 62
     7
  6
CONTINUOUS
  0
LAYER
  2
POMOC
 70
    64
 62
     1
  6
DOT
  0
LAYER
  2
NEVIDITELNA
 70
    64
 62
     4
  6
HIDDEN2
  0
ENDTAB
  0
TABLE
  2
STYLE
 70
     1
  0
STYLE
  2
STANDARD
 70
     0
 40
0.0
 41
1.0
 50
0.0
 71
     0
 42
2.5
  3
txt
  4

  0
ENDTAB
  0
TABLE
  2
VIEW
 70
     0
  0
ENDTAB
  0
TABLE
  2
UCS
 70
     0
  0
ENDTAB
  0
TABLE
  2
APPID
 70
     1
  0
APPID
  2
ACAD
 70
     0
  0
ENDTAB
  0
TABLE
  2
DIMSTYLE
 70
     1
  0
DIMSTYLE
  2
ISO-25
 70
     0
  3

  4

  5

  6

  7

 40
1.0
 41
2.5
 42
0.625
 43
3.75
 44
1.25
 45
0.0
 46
0.0
 47
0.0
 48
0.0
140
2.5
141
2.5
142
0.0
143
0.03937007874016
144
1.0
145
0.0
146
1.0
147
0.625
 71
     0
 72
     0
 73
     0
 74
     0
 75
     0
 76
     0
 77
     1
 78
     8
170
     0
171
     3
172
     1
173
     0
174
     0
175
     0
176
     0
177
     0
178
     0
  0
ENDTAB
  0
ENDSEC
  0
SECTION
  2
BLOCKS
  0
BLOCK
  8
0
  2
$MODEL_SPACE
 70
     0
 10
0.0
 20
0.0
 30
0.0
  3
$MODEL_SPACE
  1

  0
ENDBLK
  8
0
  0
BLOCK
 67
     1
  8
0
  2
$PAPER_SPACE
 70
     0
 10
0.0
 20
0.0
 30
0.0
  3
$PAPER_SPACE
  1

  0
ENDBLK
 67
     1
  8
0
  0
BLOCK
  8
OBRYS
  2
_0
 70
   64
 10
389.659929
 20
33.532939
  0
LINE
  8
OBRYS
 10
311.911112
 20
40.532939
 11
342.865192
 21
40.532939
  0
LINE
  8
OBRYS
 10
431.661675
 20
63.472263
 11
431.661675
 21
77.444150
  0
LINE
  8
OBRYS
 10
335.546351
 20
58.532939
 11
364.930095
 21
58.532939
  0
LINE
  8
OBRYS
 10
442.389762
 20
58.532939
 11
443.773506
 21
58.532939
  0
LINE
  8
OBRYS
 10
424.661675
 20
77.444150
 11
424.661675
 21
65.727024
  0
LINE
  8
OBRYS
 10
431.661675
 20
63.472263
 11
431.661675
 21
78.532939
  0
LINE
  8
OBRYS
 10
299.659929
 20
38.532939
 11
341.209949
 21
38.532939
  0
LINE
  8
OBRYS
 10
310.063354
 20
42.532939
 11
344.634511
 21
42.532939
  0
LINE
  8
OBRYS
 10
342.865192
 20
40.532939
 11
335.550611
 21
40.532939
  0
LINE
  8
OBRYS
 10
329.362409
 20
51.820142
 11
354.723951
 21
51.820142
  0
LINE
  8
OBRYS
 10
363.687830
 20
57.831073
 11
334.161788
 21
57.831073
  0
LINE
  8
OBRYS
 10
364.930095
 20
58.532939
 11
333.184069
 21
58.532939
  0
LINE
  8
OBRYS
 10
445.158069
 20
57.831073
 11
443.632028
 21
57.831073
  0
LINE
  8
OBRYS
 10
446.135788
 20
58.532939
 11
442.389762
 21
58.532939
  0
LINE
  8
OBRYS
 10
323.055654
 20
51.820142
 11
299.659929
 21
51.820142
  0
LINE
  8
OBRYS
 10
323.055654
 20
51.820142
 11
323.248347
 21
52.994488
  0
LINE
  8
OBRYS
 10
323.248347
 20
52.994488
 11
323.833552
 21
54.024761
  0
POLYLINE
  8
OBRYS
 66
    1
  0
VERTEX
  8
OBRYS
 10
299.784271
 20
51.820145
  0
VERTEX
  8
OBRYS
 10
300.044342
 20
52.994484
  0
VERTEX
  8
OBRYS
 10
300.833984
 20
54.024757
  0
SEQEND
  8
OBRYS
  0
POLYLINE
  8
OBRYS
 66
    1
  0
VERTEX
  8
OBRYS
 10
308.845032
 20
58.481949
  0
VERTEX
  8
OBRYS
 10
308.111572
 20
58.352013
  0
VERTEX
  8
OBRYS
 10
307.213531
 20
57.831070
  0
VERTEX
  8
OBRYS
 10
300.083710
 20
51.820137
  0
SEQEND
  8
OBRYS
  0
POLYLINE
  8
OBRYS
 66
    1
  0
VERTEX
  8
OBRYS
 10
329.160858
 20
51.820145
  0
VERTEX
  8
OBRYS
 10
329.335907
 20
52.994484
  0
VERTEX
  8
OBRYS
 10
329.867462
 20
54.024757
  0
SEQEND
  8
OBRYS
  0
POLYLINE
  8
OBRYS
 66
    1
  0
VERTEX
  8
OBRYS
 10
335.260010
 20
58.481949
  0
VERTEX
  8
OBRYS
 10
334.766296
 20
58.352013
  0
VERTEX
  8
OBRYS
 10
334.161804
 20
57.831070
  0
VERTEX
  8
OBRYS
 10
329.362427
 20
51.820137
  0
SEQEND
  8
OBRYS
  0
LINE
  8
OBRYS
 10
347.658183
 20
58.532939
 11
347.658183
 21
78.532939
  0
LINE
  8
OBRYS
 10
321.325687
 20
40.532939
 11
321.325687
 21
42.532939
  0
LINE
  8
OBRYS
 10
308.325687
 20
44.532939
 11
308.325687
 21
39.532939
  0
LINE
  8
OBRYS
 10
354.658183
 20
77.444150
 11
354.658183
 21
78.532939
  0
LINE
  8
OBRYS
 10
354.658183
 20
78.532939
 11
305.659929
 21
78.532939
  0
LINE
  8
OBRYS
 10
299.659929
 20
72.532939
 11
299.659929
 21
40.532939
  0
LINE
  8
OBRYS
 10
424.661675
 20
77.444150
 11
424.661675
 21
78.532939
  0
LINE
  8
OBRYS
 10
424.661675
 20
78.532939
 11
473.659929
 21
78.532939
  0
LINE
  8
OBRYS
 10
299.659929
 20
51.820142
 11
299.659930
 21
42.532939
  0
LINE
  8
OBRYS
 10
354.658183
 20
77.444150
 11
354.658183
 21
58.532939
  0
LINE
  8
OBRYS
 10
454.659929
 20
58.532939
 11
443.773506
 21
58.532939
  0
LINE
  8
OBRYS
 10
324.659929
 20
58.532939
 11
335.546351
 21
58.532939
  0
LINE
  8
OBRYS
 10
304.906481
 20
46.532939
 11
309.115999
 21
46.532939
  0
LINE
  8
OBRYS
 10
304.323103
 20
44.532939
 11
310.063354
 21
44.532939
  0
LINE
  8
OBRYS
 10
308.325687
 20
42.532939
 11
304.323103
 21
42.532939
  0
LINE
  8
OBRYS
 10
300.833977
 20
54.024760
 11
305.364940
 21
57.831073
  0
LINE
  8
OBRYS
 10
307.291082
 20
58.532939
 11
308.845012
 21
58.532939
  0
LINE
  8
OBRYS
 10
308.845012
 20
58.532939
 11
308.845012
 21
58.481954
  0
LINE
  8
OBRYS
 10
323.833543
 20
54.024760
 11
327.191310
 21
57.831073
  0
LINE
  8
OBRYS
 10
329.867449
 20
54.024760
 11
332.917431
 21
57.831073
  0
LINE
  8
OBRYS
 10
334.213998
 20
58.532939
 11
335.260013
 21
58.532939
  0
LINE
  8
OBRYS
 10
335.260013
 20
58.532939
 11
335.260013
 21
58.481954
  0
LINE
  8
OBRYS
 10
444.059845
 20
58.481954
 11
444.059845
 21
58.532939
  0
LINE
  8
OBRYS
 10
444.059845
 20
58.532939
 11
445.105860
 21
58.532939
  0
LINE
  8
OBRYS
 10
472.028776
 20
58.532939
 11
470.474846
 21
58.532939
  0
LINE
  8
OBRYS
 10
470.474846
 20
58.532939
 11
470.474846
 21
58.481954
  0
LINE
  8
OBRYS
 10
328.618720
 20
58.532939
 11
329.770292
 21
58.532939
  0
LINE
  8
OBRYS
 10
449.549565
 20
58.532939
 11
450.701138
 21
58.532939
  0
LINE
  8
OBRYS
 10
301.250896
 20
42.532939
 11
306.817283
 21
42.532939
  0
LINE
  8
OBRYS
 10
304.608597
 20
39.532939
 11
305.081938
 21
39.532939
  0
LINE
  8
OBRYS
 10
299.763574
 20
42.532939
 11
301.250896
 21
42.532939
  0
LINE
  8
OBRYS
 10
299.659929
 20
38.532939
 11
299.659929
 21
33.532939
  0
LINE
  8
OBRYS
 10
335.550611
 20
40.752011
 11
335.550611
 21
40.532939
  0
LINE
  8
OBRYS
 10
339.497988
 20
40.532939
 11
329.127235
 21
40.532939
  0
LINE
  8
OBRYS
 10
321.325687
 20
40.532939
 11
336.437095
 21
40.532939
  0
LINE
  8
OBRYS
 10
345.566279
 20
58.532939
 11
349.606839
 21
58.532939
  0
LINE
  8
OBRYS
 10
306.170861
 20
40.532939
 11
308.325687
 21
40.532939
  0
LINE
  8
OBRYS
 10
310.348848
 20
39.532939
 11
306.815632
 21
39.532939
  0
LINE
  8
OBRYS
 10
306.784341
 20
39.532939
 11
304.608597
 21
39.532939
  0
LINE
  8
OBRYS
 10
308.325687
 20
42.532939
 11
308.325687
 21
40.854347
  0
LINE
  8
OBRYS
 10
308.325687
 20
39.532939
 11
311.214480
 21
39.532939
  0
LINE
  8
OBRYS
 10
310.063354
 20
44.532939
 11
308.325687
 21
44.532939
  0
LINE
  8
OBRYS
 10
347.658183
 20
58.532939
 11
347.658183
 21
77.444150
  0
ARC
  8
OBRYS
 10
305.659929
 20
72.532939
 40
6.000000
 50
90.000000
 51
180.000000
  0
LINE
  8
OBRYS
 10
315.449780
 20
58.532939
 11
315.085100
 21
58.977303
  0
ARC
  8
OBRYS
 10
319.658183
 20
62.032939
 40
5.500000
 50
326.250000
 51
213.750000
  0
LINE
  8
OBRYS
 10
324.231266
 20
58.977303
 11
323.866586
 21
58.532939
  0
ARC
  8
OBRYS
 10
473.659929
 20
72.532939
 40
6.000000
 50
0.000000
 51
90.000000
  0
LINE
  8
OBRYS
 10
463.870078
 20
58.532939
 11
464.234758
 21
58.977303
  0
ARC
  8
OBRYS
 10
459.661675
 20
62.032939
 40
5.500000
 50
326.250000
 51
213.750000
  0
LINE
  8
OBRYS
 10
455.088592
 20
58.977303
 11
455.453272
 21
58.532939
  0
LINE
  8
OBRYS
 10
308.845012
 20
58.532939
 11
308.845012
 21
58.481954
  0
LINE
  8
OBRYS
 10
331.846236
 20
58.532939
 11
308.845012
 21
58.532939
  0
LINE
  8
OBRYS
 10
470.474846
 20
58.532939
 11
470.474846
 21
58.481954
  0
LINE
  8
OBRYS
 10
328.561241
 20
57.831073
 11
307.213521
 21
57.831073
  0
LINE
  8
OBRYS
 10
299.659930
 20
42.532939
 11
304.323103
 21
42.532939
  0
POLYLINE
  8
OBRYS
 66
    1
  0
VERTEX
  8
OBRYS
 10
304.906494
 20
46.532936
  0
VERTEX
  8
OBRYS
 10
306.510773
 20
46.532936
  0
VERTEX
  8
OBRYS
 10
309.115997
 20
46.532936
  0
VERTEX
  8
OBRYS
 10
309.300812
 20
46.494499
  0
VERTEX
  8
OBRYS
 10
309.478546
 20
46.380699
  0
VERTEX
  8
OBRYS
 10
309.642334
 20
46.195869
  0
VERTEX
  8
OBRYS
 10
309.785889
 20
45.947151
  0
VERTEX
  8
OBRYS
 10
309.903687
 20
45.644081
  0
VERTEX
  8
OBRYS
 10
309.991241
 20
45.298302
  0
VERTEX
  8
OBRYS
 10
310.045166
 20
44.923119
  0
VERTEX
  8
OBRYS
 10
310.063354
 20
44.532936
  0
VERTEX
  8
OBRYS
 10
310.063354
 20
42.532936
  0
SEQEND
  8
OBRYS
  0
LINE
  8
OBRYS
 10
299.659930
 20
42.532939
 11
299.659929
 21
33.532939
  0
LINE
  8
OBRYS
 10
299.659929
 20
39.532939
 11
299.968947
 21
39.532939
  0
LINE
  8
OBRYS
 10
305.081938
 20
39.532939
 11
306.796266
 21
39.532939
  0
LINE
  8
OBRYS
 10
306.815632
 20
39.532939
 11
312.333255
 21
39.532939
  0
LINE
  8
OBRYS
 10
299.763574
 20
42.468961
 11
300.083700
 21
42.532939
  0
LINE
  8
OBRYS
 10
300.083700
 20
42.532939
 11
299.659930
 21
42.532939
  0
LINE
  8
OBRYS
 10
308.325687
 20
42.532939
 11
307.342465
 21
42.532939
  0
LINE
  8
OBRYS
 10
308.325687
 20
42.532939
 11
305.505228
 21
42.532939
  0
LINE
  8
OBRYS
 10
310.063354
 20
44.532939
 11
307.814629
 21
44.532939
  0
LINE
  8
OBRYS
 10
463.659929
 20
58.532939
 11
454.659929
 21
58.532939
  0
LINE
  8
OBRYS
 10
324.659929
 20
58.532939
 11
315.659929
 21
58.532939
  0
LINE
  8
OBRYS
 10
308.325687
 20
42.532939
 11
305.825687
 21
42.532939
  0
LINE
  8
OBRYS
 10
310.063354
 20
44.532939
 11
305.825687
 21
44.532939
  0
LINE
  8
OBRYS
 10
307.825687
 20
46.532939
 11
309.115999
 21
46.532939
  0
POLYLINE
  8
OBRYS
 66
    1
  0
VERTEX
  8
OBRYS
 10
304.323120
 20
42.532936
  0
VERTEX
  8
OBRYS
 10
304.323120
 20
44.532936
  0
VERTEX
  8
OBRYS
 10
304.334320
 20
44.923119
  0
VERTEX
  8
OBRYS
 10
304.367523
 20
45.298302
  0
VERTEX
  8
OBRYS
 10
304.421417
 20
45.644081
  0
VERTEX
  8
OBRYS
 10
304.493988
 20
45.947151
  0
VERTEX
  8
OBRYS
 10
304.582367
 20
46.195869
  0
VERTEX
  8
OBRYS
 10
304.683228
 20
46.380699
  0
VERTEX
  8
OBRYS
 10
304.792664
 20
46.494499
  0
VERTEX
  8
OBRYS
 10
304.906494
 20
46.532936
  0
SEQEND
  8
OBRYS
  0
POLYLINE
  8
OBRYS
 66
    1
  0
VERTEX
  8
OBRYS
 10
305.364960
 20
57.831070
  0
VERTEX
  8
OBRYS
 10
306.266205
 20
58.352013
  0
VERTEX
  8
OBRYS
 10
307.291077
 20
58.532936
  0
SEQEND
  8
OBRYS
  0
POLYLINE
  8
OBRYS
 66
    1
  0
VERTEX
  8
OBRYS
 10
327.191315
 20
57.831070
  0
VERTEX
  8
OBRYS
 10
327.859222
 20
58.352013
  0
VERTEX
  8
OBRYS
 10
328.618713
 20
58.532936
  0
SEQEND
  8
OBRYS
  0
LINE
  8
OBRYS
 10
329.867449
 20
54.024760
 11
323.833543
 21
54.024760
  0
LINE
  8
OBRYS
 10
332.917431
 20
57.831073
 11
327.191310
 21
57.831073
  0
LINE
  8
OBRYS
 10
328.618720
 20
58.532939
 11
334.213998
 21
58.532939
  0
POLYLINE
  8
OBRYS
 66
    1
  0
VERTEX
  8
OBRYS
 10
332.917450
 20
57.831070
  0
VERTEX
  8
OBRYS
 10
333.524109
 20
58.352013
  0
VERTEX
  8
OBRYS
 10
334.213989
 20
58.532936
  0
SEQEND
  8
OBRYS
  0
POLYLINE
  8
OBRYS
 66
    1
  0
VERTEX
  8
OBRYS
 10
450.701141
 20
58.532936
  0
VERTEX
  8
OBRYS
 10
451.460663
 20
58.352013
  0
VERTEX
  8
OBRYS
 10
452.128540
 20
57.831070
  0
SEQEND
  8
OBRYS
  0
LINE
  8
OBRYS
 10
452.128547
 20
57.831073
 11
446.402427
 21
57.831073
  0
LINE
  8
OBRYS
 10
445.105860
 20
58.532939
 11
450.701138
 21
58.532939
  0
POLYLINE
  8
OBRYS
 66
    1
  0
VERTEX
  8
OBRYS
 10
445.105865
 20
58.532936
  0
VERTEX
  8
OBRYS
 10
445.795746
 20
58.352013
  0
VERTEX
  8
OBRYS
 10
446.402435
 20
57.831070
  0
SEQEND
  8
OBRYS
  0
LINE
  8
OBRYS
 10
329.770292
 20
58.532939
 11
331.846236
 21
58.532939
  0
LINE
  8
OBRYS
 10
333.184069
 20
58.532939
 11
335.260013
 21
58.532939
  0
LINE
  8
OBRYS
 10
444.059845
 20
58.532939
 11
446.135788
 21
58.532939
  0
LINE
  8
OBRYS
 10
447.473621
 20
58.532939
 11
449.549565
 21
58.532939
  0
POLYLINE
  8
OBRYS
 66
    1
  0
VERTEX
  8
OBRYS
 10
306.817291
 20
42.532936
  0
VERTEX
  8
OBRYS
 10
306.803802
 20
42.475288
  0
VERTEX
  8
OBRYS
 10
306.153198
 20
42.304573
  0
VERTEX
  8
OBRYS
 10
305.967346
 20
42.027351
  0
VERTEX
  8
OBRYS
 10
305.590210
 20
41.654259
  0
VERTEX
  8
OBRYS
 10
305.450684
 20
41.199654
  0
VERTEX
  8
OBRYS
 10
305.214050
 20
40.680996
  0
VERTEX
  8
OBRYS
 10
305.205078
 20
40.532940
  0
SEQEND
  8
OBRYS
  0
POLYLINE
  8
OBRYS
 66
    1
  0
VERTEX
  8
OBRYS
 10
300.770538
 20
40.297832
  0
VERTEX
  8
OBRYS
 10
300.755615
 20
40.680996
  0
VERTEX
  8
OBRYS
 10
300.628387
 20
41.654259
  0
VERTEX
  8
OBRYS
 10
300.437958
 20
42.304573
  0
VERTEX
  8
OBRYS
 10
300.408905
 20
42.334114
  0
VERTEX
  8
OBRYS
 10
299.763580
 20
42.468956
  0
SEQEND
  8
OBRYS
  0
POLYLINE
  8
OBRYS
 66
    1
  0
VERTEX
  8
OBRYS
 10
301.250916
 20
42.532936
  0
VERTEX
  8
OBRYS
 10
301.278992
 20
42.475288
  0
VERTEX
  8
OBRYS
 10
301.305969
 20
42.304573
  0
VERTEX
  8
OBRYS
 10
301.330872
 20
42.027351
  0
SEQEND
  8
OBRYS
  0
POLYLINE
  8
OBRYS
 66
    1
  0
VERTEX
  8
OBRYS
 10
301.330872
 20
42.027351
  0
VERTEX
  8
OBRYS
 10
301.352692
 20
41.654259
  0
VERTEX
  8
OBRYS
 10
301.370575
 20
41.199654
  0
VERTEX
  8
OBRYS
 10
301.383881
 20
40.680996
  0
VERTEX
  8
OBRYS
 10
301.386810
 20
40.478619
  0
SEQEND
  8
OBRYS
  0
LINE
  8
OBRYS
 10
306.170861
 20
40.532939
 11
301.659929
 21
40.532939
  0
LINE
  8
OBRYS
 10
443.862249
 20
58.532939
 11
444.434428
 21
58.532939
  0
LINE
  8
OBRYS
 10
442.320904
 20
58.532939
 11
443.040666
 21
58.532939
  0
LINE
  8
OBRYS
 10
362.999096
 20
58.532939
 11
341.846896
 21
58.532939
  0
LINE
  8
OBRYS
 10
336.998954
 20
58.532939
 11
336.279192
 21
58.532939
  0
LINE
  8
OBRYS
 10
335.457608
 20
58.532939
 11
334.885430
 21
58.532939
  0
ARC
  8
OBRYS
 10
301.659929
 20
38.532939
 40
2.000000
 50
90.000000
 51
180.000000
  0
POLYLINE
  8
OBRYS
 66
    1
  0
VERTEX
  8
OBRYS
 10
308.325684
 20
40.854351
  0
VERTEX
  8
OBRYS
 10
308.082367
 20
40.713863
  0
VERTEX
  8
OBRYS
 10
307.056305
 20
40.532940
  0
SEQEND
  8
OBRYS
  0
POLYLINE
  8
OBRYS
 66
    1
  0
VERTEX
  8
OBRYS
 10
311.911102
 20
40.532940
  0
VERTEX
  8
OBRYS
 10
311.204010
 20
40.380703
  0
VERTEX
  8
OBRYS
 10
310.604553
 20
39.947155
  0
VERTEX
  8
OBRYS
 10
310.348846
 20
39.532940
  0
VERTEX
  8
OBRYS
 10
306.815643
 20
39.532940
  0
VERTEX
  8
OBRYS
 10
306.799988
 20
39.538967
  0
VERTEX
  8
OBRYS
 10
306.784332
 20
39.532940
  0
VERTEX
  8
OBRYS
 10
304.608612
 20
39.532940
  0
SEQEND
  8
OBRYS
  0
LINE
  8
OBRYS
 10
328.399889
 20
40.532939
 11
334.723629
 21
40.532939
  0
LINE
  8
OBRYS
 10
307.056299
 20
40.532939
 11
307.496709
 21
40.532939
  0
POLYLINE
  8
OBRYS
 66
    1
  0
VERTEX
  8
OBRYS
 10
329.964355
 20
42.532936
  0
VERTEX
  8
OBRYS
 10
329.829712
 20
42.032936
  0
VERTEX
  8
OBRYS
 10
329.517303
 20
41.234795
  0
VERTEX
  8
OBRYS
 10
329.127228
 20
40.752010
  0
VERTEX
  8
OBRYS
 10
329.091522
 20
40.713863
  0
VERTEX
  8
OBRYS
 10
328.923401
 20
40.659039
  0
VERTEX
  8
OBRYS
 10
328.655518
 20
40.589123
  0
VERTEX
  8
OBRYS
 10
328.399902
 20
40.532940
  0
SEQEND
  8
OBRYS
  0
LINE
  8
OBRYS
 10
329.829699
 20
42.032939
 11
337.057052
 21
42.032939
  0
POLYLINE
  8
OBRYS
 66
    1
  0
VERTEX
  8
OBRYS
 10
334.723633
 20
40.532940
  0
VERTEX
  8
OBRYS
 10
334.911926
 20
40.589123
  0
VERTEX
  8
OBRYS
 10
335.207642
 20
40.659039
  0
VERTEX
  8
OBRYS
 10
335.490509
 20
40.713863
  0
VERTEX
  8
OBRYS
 10
335.550629
 20
40.752010
  0
VERTEX
  8
OBRYS
 10
336.387115
 20
41.234795
  0
VERTEX
  8
OBRYS
 10
337.057068
 20
42.032936
  0
VERTEX
  8
OBRYS
 10
337.345825
 20
42.532936
  0
SEQEND
  8
OBRYS
  0
LINE
  8
OBRYS
 10
335.550611
 20
40.532939
 11
334.723629
 21
40.532939
  0
LINE
  8
OBRYS
 10
341.846896
 20
58.532939
 11
341.921825
 21
58.532939
  0
LINE
  8
OBRYS
 10
329.127235
 20
40.532939
 11
328.859929
 21
40.532939
  0
LINE
  8
OBRYS
 10
336.998954
 20
58.532939
 11
341.921825
 21
58.532939
  0
LINE
  8
OBRYS
 10
307.496709
 20
40.532939
 11
308.325687
 21
40.679081
  0
LINE
  8
OBRYS
 10
339.497988
 20
40.532939
 11
336.437095
 21
40.532939
  0
LINE
  8
OBRYS
 10
308.325687
 20
40.532939
 11
307.496709
 21
40.532939
  0
LINE
  8
OBRYS
 10
443.862249
 20
58.532939
 11
443.040666
 21
58.532939
  0
LINE
  8
OBRYS
 10
335.457608
 20
58.532939
 11
336.279192
 21
58.532939
  0
LINE
  8
OBRYS
 10
342.570703
 20
58.532939
 11
345.566279
 21
58.532939
  0
LINE
  8
OBRYS
 10
309.325687
 20
39.532939
 11
310.936599
 21
39.532939
  0
LINE
  8
OBRYS
 10
310.825687
 20
38.532939
 11
310.325687
 21
38.532939
  0
LINE
  8
OBRYS
 10
319.325687
 20
38.532939
 11
318.825687
 21
38.532939
  0
LINE
  8
OBRYS
 10
309.325687
 20
39.532939
 11
310.936599
 21
39.532939
  0
LINE
  8
OBRYS
 10
319.325687
 20
38.532939
 11
318.825687
 21
38.532939
  0
LINE
  8
OBRYS
 10
310.825687
 20
38.532939
 11
310.325687
 21
38.532939
  0
LINE
  8
OBRYS
 10
322.325687
 20
40.532939
 11
321.325687
 21
40.532939
  0
POLYLINE
  8
OBRYS
 66
    1
  0
VERTEX
  8
OBRYS
 10
304.608612
 20
39.532940
  0
VERTEX
  8
OBRYS
 10
304.864288
 20
39.947155
  0
VERTEX
  8
OBRYS
 10
305.463745
 20
40.380703
  0
VERTEX
  8
OBRYS
 10
306.170868
 20
40.532940
  0
SEQEND
  8
OBRYS
  0
LINE
  8
OBRYS
 10
308.325687
 20
39.532939
 11
311.214480
 21
39.532939
  0
LINE
  8
OBRYS
 10
310.063354
 20
44.532939
 11
308.325687
 21
44.532939
  0
LINE
  8
OBRYS
 10
446.402427
 20
57.831073
 11
448.471359
 21
55.249088
  0
LINE
  8
OBRYS
 10
452.128547
 20
57.831073
 11
453.233650
 21
56.578346
  0
POLYLINE
  8
OBRYS
 66
    1
  0
VERTEX
  8
OBRYS
 10
447.478058
 20
54.925446
  0
VERTEX
  8
OBRYS
 10
445.158081
 20
57.831070
  0
VERTEX
  8
OBRYS
 10
444.553558
 20
58.352013
  0
VERTEX
  8
OBRYS
 10
444.059845
 20
58.481949
  0
SEQEND
  8
OBRYS
  0
LINE
  8
OBRYS
 10
470.474846
 20
58.532939
 11
469.659929
 21
58.532939
  0
LINE
  8
OBRYS
 10
469.659929
 20
58.532939
 11
447.473621
 21
58.532939
  0
LINE
  8
OBRYS
 10
472.313843
 20
58.482613
 11
472.028778
 21
58.532936
  0
LINE
  8
OBRYS
 10
479.659929
 20
72.532939
 11
479.659929
 21
51.746862
  0
POLYLINE
  8
OBRYS
 66
    1
  0
VERTEX
  8
OBRYS
 10
473.954895
 20
57.831070
  0
VERTEX
  8
OBRYS
 10
473.053650
 20
58.352013
  0
VERTEX
  8
OBRYS
 10
472.028778
 20
58.532936
  0
SEQEND
  8
OBRYS
  0
LINE
  8
OBRYS
 10
470.474846
 20
58.532939
 11
470.474846
 21
58.481954
  0
LINE
  8
OBRYS
 10
470.474846
 20
58.532939
 11
470.474846
 21
58.481954
  0
LINE
  8
OBRYS
 10
472.028776
 20
58.532939
 11
470.474846
 21
58.532939
  0
LINE
  8
OBRYS
 10
478.485881
 20
54.024760
 11
473.954918
 21
57.831073
  0
POLYLINE
  8
OBRYS
 66
    1
  0
VERTEX
  8
OBRYS
 10
470.474823
 20
58.481949
  0
VERTEX
  8
OBRYS
 10
471.208282
 20
58.352013
  0
VERTEX
  8
OBRYS
 10
472.106323
 20
57.831070
  0
VERTEX
  8
OBRYS
 10
479.236145
 20
51.820137
  0
SEQEND
  8
OBRYS
  0
POLYLINE
  8
OBRYS
 66
    1
  0
VERTEX
  8
OBRYS
 10
479.535583
 20
51.820145
  0
VERTEX
  8
OBRYS
 10
479.275513
 20
52.994484
  0
VERTEX
  8
OBRYS
 10
478.485870
 20
54.024757
  0
SEQEND
  8
OBRYS
  0
LINE
  8
OBRYS
 10
472.106322
 20
57.831073
 11
450.758617
 21
57.831073
  0
ENDBLK
  8
OBRYS
  0
BLOCK
  8
OBRYS
  2
_1
 70
   64
 10
389.659929
 20
-56.467061
  0
LINE
  8
OBRYS
 10
311.911112
 20
-63.467061
 11
342.865192
 21
-63.467061
  0
LINE
  8
OBRYS
 10
431.661675
 20
-86.406384
 11
431.661675
 21
-100.378271
  0
LINE
  8
OBRYS
 10
335.546351
 20
-81.467061
 11
364.930095
 21
-81.467061
  0
LINE
  8
OBRYS
 10
442.389762
 20
-81.467061
 11
443.773506
 21
-81.467061
  0
LINE
  8
OBRYS
 10
424.661675
 20
-100.378271
 11
424.661675
 21
-88.661145
  0
LINE
  8
OBRYS
 10
431.661675
 20
-86.406384
 11
431.661675
 21
-101.467061
  0
LINE
  8
OBRYS
 10
299.659929
 20
-61.467061
 11
341.209949
 21
-61.467061
  0
LINE
  8
OBRYS
 10
310.063354
 20
-65.467061
 11
344.634511
 21
-65.467061
  0
LINE
  8
OBRYS
 10
342.865192
 20
-63.467061
 11
335.550611
 21
-63.467061
  0
LINE
  8
OBRYS
 10
329.362409
 20
-74.754263
 11
354.723951
 21
-74.754263
  0
LINE
  8
OBRYS
 10
363.687830
 20
-80.765194
 11
334.161788
 21
-80.765194
  0
LINE
  8
OBRYS
 10
364.930095
 20
-81.467061
 11
333.184069
 21
-81.467061
  0
LINE
  8
OBRYS
 10
445.158069
 20
-80.765194
 11
443.632028
 21
-80.765194
  0
LINE
  8
OBRYS
 10
446.135788
 20
-81.467061
 11
442.389762
 21
-81.467061
  0
LINE
  8
OBRYS
 10
323.055654
 20
-74.754263
 11
299.659929
 21
-74.754263
  0
LINE
  8
OBRYS
 10
323.055654
 20
-74.754263
 11
323.248347
 21
-75.928609
  0
LINE
  8
OBRYS
 10
323.248347
 20
-75.928609
 11
323.833552
 21
-76.958882
  0
POLYLINE
  8
OBRYS
 66
    1
  0
VERTEX
  8
OBRYS
 10
299.784271
 20
-74.754265
  0
VERTEX
  8
OBRYS
 10
300.044342
 20
-75.928604
  0
VERTEX
  8
OBRYS
 10
300.833984
 20
-76.958878
  0
SEQEND
  8
OBRYS
  0
POLYLINE
  8
OBRYS
 66
    1
  0
VERTEX
  8
OBRYS
 10
308.845032
 20
-81.416069
  0
VERTEX
  8
OBRYS
 10
308.111572
 20
-81.286133
  0
VERTEX
  8
OBRYS
 10
307.213531
 20
-80.765190
  0
VERTEX
  8
OBRYS
 10
300.083710
 20
-74.754257
  0
SEQEND
  8
OBRYS
  0
POLYLINE
  8
OBRYS
 66
    1
  0
VERTEX
  8
OBRYS
 10
329.160858
 20
-74.754265
  0
VERTEX
  8
OBRYS
 10
329.335907
 20
-75.928604
  0
VERTEX
  8
OBRYS
 10
329.867462
 20
-76.958878
  0
SEQEND
  8
OBRYS
  0
POLYLINE
  8
OBRYS
 66
    1
  0
VERTEX
  8
OBRYS
 10
335.260010
 20
-81.416069
  0
VERTEX
  8
OBRYS
 10
334.766296
 20
-81.286133
  0
VERTEX
  8
OBRYS
 10
334.161804
 20
-80.765190
  0
VERTEX
  8
OBRYS
 10
329.362427
 20
-74.754257
  0
SEQEND
  8
OBRYS
  0
LINE
  8
OBRYS
 10
347.658183
 20
-81.467061
 11
347.658183
 21
-101.467061
  0
LINE
  8
OBRYS
 10
321.325687
 20
-63.467061
 11
321.325687
 21
-65.467061
  0
LINE
  8
OBRYS
 10
308.325687
 20
-67.467061
 11
308.325687
 21
-62.467061
  0
LINE
  8
OBRYS
 10
354.658183
 20
-100.378271
 11
354.658183
 21
-101.467061
  0
LINE
  8
OBRYS
 10
354.658183
 20
-101.467061
 11
305.659929
 21
-101.467061
  0
LINE
  8
OBRYS
 10
299.659929
 20
-95.467061
 11
299.659929
 21
-63.467061
  0
LINE
  8
OBRYS
 10
424.661675
 20
-100.378271
 11
424.661675
 21
-101.467061
  0
LINE
  8
OBRYS
 10
424.661675
 20
-101.467061
 11
473.659929
 21
-101.467061
  0
LINE
  8
OBRYS
 10
299.659929
 20
-74.754263
 11
299.659930
 21
-65.467061
  0
LINE
  8
OBRYS
 10
354.658183
 20
-100.378271
 11
354.658183
 21
-81.467061
  0
LINE
  8
OBRYS
 10
454.659929
 20
-81.467061
 11
443.773506
 21
-81.467061
  0
LINE
  8
OBRYS
 10
324.659929
 20
-81.467061
 11
335.546351
 21
-81.467061
  0
LINE
  8
OBRYS
 10
304.906481
 20
-69.467061
 11
309.115999
 21
-69.467061
  0
LINE
  8
OBRYS
 10
304.323103
 20
-67.467061
 11
310.063354
 21
-67.467061
  0
LINE
  8
OBRYS
 10
308.325687
 20
-65.467061
 11
304.323103
 21
-65.467061
  0
LINE
  8
OBRYS
 10
300.833977
 20
-76.958881
 11
305.364940
 21
-80.765194
  0
LINE
  8
OBRYS
 10
307.291082
 20
-81.467061
 11
308.845012
 21
-81.467061
  0
LINE
  8
OBRYS
 10
308.845012
 20
-81.467061
 11
308.845012
 21
-81.416075
  0
LINE
  8
OBRYS
 10
323.833543
 20
-76.958881
 11
327.191310
 21
-80.765194
  0
LINE
  8
OBRYS
 10
329.867449
 20
-76.958881
 11
332.917431
 21
-80.765194
  0
LINE
  8
OBRYS
 10
334.213998
 20
-81.467061
 11
335.260013
 21
-81.467061
  0
LINE
  8
OBRYS
 10
335.260013
 20
-81.467061
 11
335.260013
 21
-81.416075
  0
LINE
  8
OBRYS
 10
444.059845
 20
-81.416075
 11
444.059845
 21
-81.467061
  0
LINE
  8
OBRYS
 10
444.059845
 20
-81.467061
 11
445.105860
 21
-81.467061
  0
LINE
  8
OBRYS
 10
472.028776
 20
-81.467061
 11
470.474846
 21
-81.467061
  0
LINE
  8
OBRYS
 10
470.474846
 20
-81.467061
 11
470.474846
 21
-81.416075
  0
LINE
  8
OBRYS
 10
328.618720
 20
-81.467061
 11
329.770292
 21
-81.467061
  0
LINE
  8
OBRYS
 10
449.549565
 20
-81.467061
 11
450.701138
 21
-81.467061
  0
LINE
  8
OBRYS
 10
301.250896
 20
-65.467061
 11
306.817283
 21
-65.467061
  0
LINE
  8
OBRYS
 10
304.608597
 20
-62.467061
 11
305.081938
 21
-62.467061
  0
LINE
  8
OBRYS
 10
299.763574
 20
-65.467061
 11
301.250896
 21
-65.467061
  0
LINE
  8
OBRYS
 10
299.659929
 20
-61.467061
 11
299.659929
 21
-56.467061
  0
LINE
  8
OBRYS
 10
335.550611
 20
-63.686132
 11
335.550611
 21
-63.467061
  0
LINE
  8
OBRYS
 10
339.497988
 20
-63.467061
 11
329.127235
 21
-63.467061
  0
LINE
  8
OBRYS
 10
321.325687
 20
-63.467061
 11
336.437095
 21
-63.467061
  0
LINE
  8
OBRYS
 10
345.566279
 20
-81.467061
 11
349.606839
 21
-81.467061
  0
LINE
  8
OBRYS
 10
306.170861
 20
-63.467061
 11
308.325687
 21
-63.467061
  0
LINE
  8
OBRYS
 10
310.348848
 20
-62.467061
 11
306.815632
 21
-62.467061
  0
LINE
  8
OBRYS
 10
306.784341
 20
-62.467061
 11
304.608597
 21
-62.467061
  0
LINE
  8
OBRYS
 10
308.325687
 20
-65.467061
 11
308.325687
 21
-63.788468
  0
LINE
  8
OBRYS
 10
308.325687
 20
-62.467061
 11
311.214480
 21
-62.467061
  0
LINE
  8
OBRYS
 10
310.063354
 20
-67.467061
 11
308.325687
 21
-67.467061
  0
LINE
  8
OBRYS
 10
347.658183
 20
-81.467061
 11
347.658183
 21
-100.378271
  0
ARC
  8
OBRYS
 10
305.659929
 20
-95.467061
 40
6.000000
 50
180.000000
 51
270.000000
  0
LINE
  8
OBRYS
 10
315.449780
 20
-81.467061
 11
315.085100
 21
-81.911424
  0
ARC
  8
OBRYS
 10
319.658183
 20
-84.967061
 40
5.500000
 50
146.250000
 51
33.750000
  0
LINE
  8
OBRYS
 10
324.231266
 20
-81.911424
 11
323.866586
 21
-81.467061
  0
ARC
  8
OBRYS
 10
473.659929
 20
-95.467061
 40
6.000000
 50
270.000000
 51
360.000000
  0
LINE
  8
OBRYS
 10
463.870078
 20
-81.467061
 11
464.234758
 21
-81.911424
  0
ARC
  8
OBRYS
 10
459.661675
 20
-84.967061
 40
5.500000
 50
146.250000
 51
33.750000
  0
LINE
  8
OBRYS
 10
455.088592
 20
-81.911424
 11
455.453272
 21
-81.467061
  0
LINE
  8
OBRYS
 10
308.845012
 20
-81.467061
 11
308.845012
 21
-81.416075
  0
LINE
  8
OBRYS
 10
331.846236
 20
-81.467061
 11
308.845012
 21
-81.467061
  0
LINE
  8
OBRYS
 10
470.474846
 20
-81.467061
 11
470.474846
 21
-81.416075
  0
LINE
  8
OBRYS
 10
328.561241
 20
-80.765194
 11
307.213521
 21
-80.765194
  0
LINE
  8
OBRYS
 10
299.659930
 20
-65.467061
 11
304.323103
 21
-65.467061
  0
POLYLINE
  8
OBRYS
 66
    1
  0
VERTEX
  8
OBRYS
 10
304.906494
 20
-69.467056
  0
VERTEX
  8
OBRYS
 10
306.510773
 20
-69.467056
  0
VERTEX
  8
OBRYS
 10
309.115997
 20
-69.467056
  0
VERTEX
  8
OBRYS
 10
309.300812
 20
-69.428619
  0
VERTEX
  8
OBRYS
 10
309.478546
 20
-69.314819
  0
VERTEX
  8
OBRYS
 10
309.642334
 20
-69.129990
  0
VERTEX
  8
OBRYS
 10
309.785889
 20
-68.881271
  0
VERTEX
  8
OBRYS
 10
309.903687
 20
-68.578201
  0
VERTEX
  8
OBRYS
 10
309.991241
 20
-68.232422
  0
VERTEX
  8
OBRYS
 10
310.045166
 20
-67.857239
  0
VERTEX
  8
OBRYS
 10
310.063354
 20
-67.467056
  0
VERTEX
  8
OBRYS
 10
310.063354
 20
-65.467056
  0
SEQEND
  8
OBRYS
  0
LINE
  8
OBRYS
 10
299.659930
 20
-65.467061
 11
299.659929
 21
-56.467061
  0
LINE
  8
OBRYS
 10
299.659929
 20
-62.467061
 11
299.968947
 21
-62.467061
  0
LINE
  8
OBRYS
 10
305.081938
 20
-62.467061
 11
306.796266
 21
-62.467061
  0
LINE
  8
OBRYS
 10
306.815632
 20
-62.467061
 11
312.333255
 21
-62.467061
  0
LINE
  8
OBRYS
 10
299.763574
 20
-65.403082
 11
300.083700
 21
-65.467061
  0
LINE
  8
OBRYS
 10
300.083700
 20
-65.467061
 11
299.659930
 21
-65.467061
  0
LINE
  8
OBRYS
 10
308.325687
 20
-65.467061
 11
307.342465
 21
-65.467061
  0
LINE
  8
OBRYS
 10
308.325687
 20
-65.467061
 11
305.505228
 21
-65.467061
  0
LINE
  8
OBRYS
 10
310.063354
 20
-67.467061
 11
307.814629
 21
-67.467061
  0
LINE
  8
OBRYS
 10
463.659929
 20
-81.467061
 11
454.659929
 21
-81.467061
  0
LINE
  8
OBRYS
 10
324.659929
 20
-81.467061
 11
315.659929
 21
-81.467061
  0
LINE
  8
OBRYS
 10
308.325687
 20
-65.467061
 11
305.825687
 21
-65.467061
  0
LINE
  8
OBRYS
 10
310.063354
 20
-67.467061
 11
305.825687
 21
-67.467061
  0
LINE
  8
OBRYS
 10
307.825687
 20
-69.467061
 11
309.115999
 21
-69.467061
  0
POLYLINE
  8
OBRYS
 66
    1
  0
VERTEX
  8
OBRYS
 10
304.323120
 20
-65.467056
  0
VERTEX
  8
OBRYS
 10
304.323120
 20
-67.467056
  0
VERTEX
  8
OBRYS
 10
304.334320
 20
-67.857239
  0
VERTEX
  8
OBRYS
 10
304.367523
 20
-68.232422
  0
VERTEX
  8
OBRYS
 10
304.421417
 20
-68.578201
  0
VERTEX
  8
OBRYS
 10
304.493988
 20
-68.881271
  0
VERTEX
  8
OBRYS
 10
304.582367
 20
-69.129990
  0
VERTEX
  8
OBRYS
 10
304.683228
 20
-69.314819
  0
VERTEX
  8
OBRYS
 10
304.792664
 20
-69.428619
  0
VERTEX
  8
OBRYS
 10
304.906494
 20
-69.467056
  0
SEQEND
  8
OBRYS
  0
POLYLINE
  8
OBRYS
 66
    1
  0
VERTEX
  8
OBRYS
 10
305.364960
 20
-80.765190
  0
VERTEX
  8
OBRYS
 10
306.266205
 20
-81.286133
  0
VERTEX
  8
OBRYS
 10
307.291077
 20
-81.467056
  0
SEQEND
  8
OBRYS
  0
POLYLINE
  8
OBRYS
 66
    1
  0
VERTEX
  8
OBRYS
 10
327.191315
 20
-80.765190
  0
VERTEX
  8
OBRYS
 10
327.859222
 20
-81.286133
  0
VERTEX
  8
OBRYS
 10
328.618713
 20
-81.467056
  0
SEQEND
  8
OBRYS
  0
LINE
  8
OBRYS
 10
329.867449
 20
-76.958881
 11
323.833543
 21
-76.958881
  0
LINE
  8
OBRYS
 10
332.917431
 20
-80.765194
 11
327.191310
 21
-80.765194
  0
LINE
  8
OBRYS
 10
328.618720
 20
-81.467061
 11
334.213998
 21
-81.467061
  0
POLYLINE
  8
OBRYS
 66
    1
  0
VERTEX
  8
OBRYS
 10
332.917450
 20
-80.765190
  0
VERTEX
  8
OBRYS
 10
333.524109
 20
-81.286133
  0
VERTEX
  8
OBRYS
 10
334.213989
 20
-81.467056
  0
SEQEND
  8
OBRYS
  0
POLYLINE
  8
OBRYS
 66
    1
  0
VERTEX
  8
OBRYS
 10
450.701141
 20
-81.467056
  0
VERTEX
  8
OBRYS
 10
451.460663
 20
-81.286133
  0
VERTEX
  8
OBRYS
 10
452.128540
 20
-80.765190
  0
SEQEND
  8
OBRYS
  0
LINE
  8
OBRYS
 10
452.128547
 20
-80.765194
 11
446.402427
 21
-80.765194
  0
LINE
  8
OBRYS
 10
445.105860
 20
-81.467061
 11
450.701138
 21
-81.467061
  0
POLYLINE
  8
OBRYS
 66
    1
  0
VERTEX
  8
OBRYS
 10
445.105865
 20
-81.467056
  0
VERTEX
  8
OBRYS
 10
445.795746
 20
-81.286133
  0
VERTEX
  8
OBRYS
 10
446.402435
 20
-80.765190
  0
SEQEND
  8
OBRYS
  0
LINE
  8
OBRYS
 10
329.770292
 20
-81.467061
 11
331.846236
 21
-81.467061
  0
LINE
  8
OBRYS
 10
333.184069
 20
-81.467061
 11
335.260013
 21
-81.467061
  0
LINE
  8
OBRYS
 10
444.059845
 20
-81.467061
 11
446.135788
 21
-81.467061
  0
LINE
  8
OBRYS
 10
447.473621
 20
-81.467061
 11
449.549565
 21
-81.467061
  0
POLYLINE
  8
OBRYS
 66
    1
  0
VERTEX
  8
OBRYS
 10
306.817291
 20
-65.467056
  0
VERTEX
  8
OBRYS
 10
306.803802
 20
-65.409409
  0
VERTEX
  8
OBRYS
 10
306.153198
 20
-65.238693
  0
VERTEX
  8
OBRYS
 10
305.967346
 20
-64.961472
  0
VERTEX
  8
OBRYS
 10
305.590210
 20
-64.588379
  0
VERTEX
  8
OBRYS
 10
305.450684
 20
-64.133774
  0
VERTEX
  8
OBRYS
 10
305.214050
 20
-63.615116
  0
VERTEX
  8
OBRYS
 10
305.205078
 20
-63.467060
  0
SEQEND
  8
OBRYS
  0
POLYLINE
  8
OBRYS
 66
    1
  0
VERTEX
  8
OBRYS
 10
300.770538
 20
-63.231953
  0
VERTEX
  8
OBRYS
 10
300.755615
 20
-63.615116
  0
VERTEX
  8
OBRYS
 10
300.628387
 20
-64.588379
  0
VERTEX
  8
OBRYS
 10
300.437958
 20
-65.238693
  0
VERTEX
  8
OBRYS
 10
300.408905
 20
-65.268234
  0
VERTEX
  8
OBRYS
 10
299.763580
 20
-65.403076
  0
SEQEND
  8
OBRYS
  0
POLYLINE
  8
OBRYS
 66
    1
  0
VERTEX
  8
OBRYS
 10
301.250916
 20
-65.467056
  0
VERTEX
  8
OBRYS
 10
301.278992
 20
-65.409409
  0
VERTEX
  8
OBRYS
 10
301.305969
 20
-65.238693
  0
VERTEX
  8
OBRYS
 10
301.330872
 20
-64.961472
  0
SEQEND
  8
OBRYS
  0
POLYLINE
  8
OBRYS
 66
    1
  0
VERTEX
  8
OBRYS
 10
301.330872
 20
-64.961472
  0
VERTEX
  8
OBRYS
 10
301.352692
 20
-64.588379
  0
VERTEX
  8
OBRYS
 10
301.370575
 20
-64.133774
  0
VERTEX
  8
OBRYS
 10
301.383881
 20
-63.615116
  0
VERTEX
  8
OBRYS
 10
301.386810
 20
-63.412739
  0
SEQEND
  8
OBRYS
  0
LINE
  8
OBRYS
 10
306.170861
 20
-63.467061
 11
301.659929
 21
-63.467061
  0
LINE
  8
OBRYS
 10
443.862249
 20
-81.467061
 11
444.434428
 21
-81.467061
  0
LINE
  8
OBRYS
 10
442.320904
 20
-81.467061
 11
443.040666
 21
-81.467061
  0
LINE
  8
OBRYS
 10
362.999096
 20
-81.467061
 11
341.846896
 21
-81.467061
  0
LINE
  8
OBRYS
 10
336.998954
 20
-81.467061
 11
336.279192
 21
-81.467061
  0
LINE
  8
OBRYS
 10
335.457608
 20
-81.467061
 11
334.885430
 21
-81.467061
  0
ARC
  8
OBRYS
 10
301.659929
 20
-61.467061
 40
2.000000
 50
180.000000
 51
270.000000
  0
POLYLINE
  8
OBRYS
 66
    1
  0
VERTEX
  8
OBRYS
 10
308.325684
 20
-63.788471
  0
VERTEX
  8
OBRYS
 10
308.082367
 20
-63.647984
  0
VERTEX
  8
OBRYS
 10
307.056305
 20
-63.467060
  0
SEQEND
  8
OBRYS
  0
POLYLINE
  8
OBRYS
 66
    1
  0
VERTEX
  8
OBRYS
 10
311.911102
 20
-63.467060
  0
VERTEX
  8
OBRYS
 10
311.204010
 20
-63.314823
  0
VERTEX
  8
OBRYS
 10
310.604553
 20
-62.881275
  0
VERTEX
  8
OBRYS
 10
310.348846
 20
-62.467060
  0
VERTEX
  8
OBRYS
 10
306.815643
 20
-62.467060
  0
VERTEX
  8
OBRYS
 10
306.799988
 20
-62.473087
  0
VERTEX
  8
OBRYS
 10
306.784332
 20
-62.467060
  0
VERTEX
  8
OBRYS
 10
304.608612
 20
-62.467060
  0
SEQEND
  8
OBRYS
  0
LINE
  8
OBRYS
 10
328.399889
 20
-63.467061
 11
334.723629
 21
-63.467061
  0
LINE
  8
OBRYS
 10
307.056299
 20
-63.467061
 11
307.496709
 21
-63.467061
  0
POLYLINE
  8
OBRYS
 66
    1
  0
VERTEX
  8
OBRYS
 10
329.964355
 20
-65.467056
  0
VERTEX
  8
OBRYS
 10
329.829712
 20
-64.967056
  0
VERTEX
  8
OBRYS
 10
329.517303
 20
-64.168915
  0
VERTEX
  8
OBRYS
 10
329.127228
 20
-63.686131
  0
VERTEX
  8
OBRYS
 10
329.091522
 20
-63.647984
  0
VERTEX
  8
OBRYS
 10
328.923401
 20
-63.593159
  0
VERTEX
  8
OBRYS
 10
328.655518
 20
-63.523243
  0
VERTEX
  8
OBRYS
 10
328.399902
 20
-63.467060
  0
SEQEND
  8
OBRYS
  0
LINE
  8
OBRYS
 10
329.829699
 20
-64.967061
 11
337.057052
 21
-64.967061
  0
POLYLINE
  8
OBRYS
 66
    1
  0
VERTEX
  8
OBRYS
 10
334.723633
 20
-63.467060
  0
VERTEX
  8
OBRYS
 10
334.911926
 20
-63.523243
  0
VERTEX
  8
OBRYS
 10
335.207642
 20
-63.593159
  0
VERTEX
  8
OBRYS
 10
335.490509
 20
-63.647984
  0
VERTEX
  8
OBRYS
 10
335.550629
 20
-63.686131
  0
VERTEX
  8
OBRYS
 10
336.387115
 20
-64.168915
  0
VERTEX
  8
OBRYS
 10
337.057068
 20
-64.967056
  0
VERTEX
  8
OBRYS
 10
337.345825
 20
-65.467056
  0
SEQEND
  8
OBRYS
  0
LINE
  8
OBRYS
 10
335.550611
 20
-63.467061
 11
334.723629
 21
-63.467061
  0
LINE
  8
OBRYS
 10
341.846896
 20
-81.467061
 11
341.921825
 21
-81.467061
  0
LINE
  8
OBRYS
 10
329.127235
 20
-63.467061
 11
328.859929
 21
-63.467061
  0
LINE
  8
OBRYS
 10
336.998954
 20
-81.467061
 11
341.921825
 21
-81.467061
  0
LINE
  8
OBRYS
 10
307.496709
 20
-63.467061
 11
308.325687
 21
-63.613202
  0
LINE
  8
OBRYS
 10
339.497988
 20
-63.467061
 11
336.437095
 21
-63.467061
  0
LINE
  8
OBRYS
 10
308.325687
 20
-63.467061
 11
307.496709
 21
-63.467061
  0
LINE
  8
OBRYS
 10
443.862249
 20
-81.467061
 11
443.040666
 21
-81.467061
  0
LINE
  8
OBRYS
 10
335.457608
 20
-81.467061
 11
336.279192
 21
-81.467061
  0
LINE
  8
OBRYS
 10
342.570703
 20
-81.467061
 11
345.566279
 21
-81.467061
  0
LINE
  8
OBRYS
 10
309.325687
 20
-62.467061
 11
310.936599
 21
-62.467061
  0
LINE
  8
OBRYS
 10
310.825687
 20
-61.467061
 11
310.325687
 21
-61.467061
  0
LINE
  8
OBRYS
 10
319.325687
 20
-61.467061
 11
318.825687
 21
-61.467061
  0
LINE
  8
OBRYS
 10
309.325687
 20
-62.467061
 11
310.936599
 21
-62.467061
  0
LINE
  8
OBRYS
 10
319.325687
 20
-61.467061
 11
318.825687
 21
-61.467061
  0
LINE
  8
OBRYS
 10
310.825687
 20
-61.467061
 11
310.325687
 21
-61.467061
  0
LINE
  8
OBRYS
 10
322.325687
 20
-63.467061
 11
321.325687
 21
-63.467061
  0
POLYLINE
  8
OBRYS
 66
    1
  0
VERTEX
  8
OBRYS
 10
304.608612
 20
-62.467060
  0
VERTEX
  8
OBRYS
 10
304.864288
 20
-62.881275
  0
VERTEX
  8
OBRYS
 10
305.463745
 20
-63.314823
  0
VERTEX
  8
OBRYS
 10
306.170868
 20
-63.467060
  0
SEQEND
  8
OBRYS
  0
LINE
  8
OBRYS
 10
308.325687
 20
-62.467061
 11
311.214480
 21
-62.467061
  0
LINE
  8
OBRYS
 10
310.063354
 20
-67.467061
 11
308.325687
 21
-67.467061
  0
LINE
  8
OBRYS
 10
446.402427
 20
-80.765194
 11
448.471359
 21
-78.183209
  0
LINE
  8
OBRYS
 10
452.128547
 20
-80.765194
 11
453.233650
 21
-79.512467
  0
POLYLINE
  8
OBRYS
 66
    1
  0
VERTEX
  8
OBRYS
 10
447.478058
 20
-77.859566
  0
VERTEX
  8
OBRYS
 10
445.158081
 20
-80.765190
  0
VERTEX
  8
OBRYS
 10
444.553558
 20
-81.286133
  0
VERTEX
  8
OBRYS
 10
444.059845
 20
-81.416069
  0
SEQEND
  8
OBRYS
  0
LINE
  8
OBRYS
 10
470.474846
 20
-81.467061
 11
469.659929
 21
-81.467061
  0
LINE
  8
OBRYS
 10
469.659929
 20
-81.467061
 11
447.473621
 21
-81.467061
  0
LINE
  8
OBRYS
 10
472.313843
 20
-81.416733
 11
472.028778
 21
-81.467056
  0
LINE
  8
OBRYS
 10
479.659929
 20
-95.467061
 11
479.659929
 21
-74.680983
  0
POLYLINE
  8
OBRYS
 66
    1
  0
VERTEX
  8
OBRYS
 10
473.954895
 20
-80.765190
  0
VERTEX
  8
OBRYS
 10
473.053650
 20
-81.286133
  0
VERTEX
  8
OBRYS
 10
472.028778
 20
-81.467056
  0
SEQEND
  8
OBRYS
  0
LINE
  8
OBRYS
 10
470.474846
 20
-81.467061
 11
470.474846
 21
-81.416075
  0
LINE
  8
OBRYS
 10
470.474846
 20
-81.467061
 11
470.474846
 21
-81.416075
  0
LINE
  8
OBRYS
 10
472.028776
 20
-81.467061
 11
470.474846
 21
-81.467061
  0
LINE
  8
OBRYS
 10
478.485881
 20
-76.958881
 11
473.954918
 21
-80.765194
  0
POLYLINE
  8
OBRYS
 66
    1
  0
VERTEX
  8
OBRYS
 10
470.474823
 20
-81.416069
  0
VERTEX
  8
OBRYS
 10
471.208282
 20
-81.286133
  0
VERTEX
  8
OBRYS
 10
472.106323
 20
-80.765190
  0
VERTEX
  8
OBRYS
 10
479.236145
 20
-74.754257
  0
SEQEND
  8
OBRYS
  0
POLYLINE
  8
OBRYS
 66
    1
  0
VERTEX
  8
OBRYS
 10
479.535583
 20
-74.754265
  0
VERTEX
  8
OBRYS
 10
479.275513
 20
-75.928604
  0
VERTEX
  8
OBRYS
 10
478.485870
 20
-76.958878
  0
SEQEND
  8
OBRYS
  0
LINE
  8
OBRYS
 10
472.106322
 20
-80.765194
 11
450.758617
 21
-80.765194
  0
ENDBLK
  8
OBRYS
  0
BLOCK
  8
OBRYS
  2
_2
 70
   64
 10
469.659929
 20
-11.467061
  0
ARC
  8
OBRYS
 10
403.659929
 20
-11.467061
 40
92.000000
 50
315.920846
 51
44.079154
  0
ARC
  8
OBRYS
 10
403.659929
 20
-11.467061
 40
52.000000
 50
314.999997
 51
45.000047
  0
ARC
  8
OBRYS
 10
403.659929
 20
-11.467061
 40
32.000000
 50
314.999996
 51
45.000004
  0
ARC
  8
OBRYS
 10
433.358414
 20
18.231424
 40
10.000000
 50
45.000000
 51
225.000000
  0
ARC
  8
OBRYS
 10
433.358414
 20
-41.165545
 40
10.000000
 50
135.000000
 51
315.000000
  0
CIRCLE
  8
OBRYS
 10
499.659929
 20
-66.867061
 40
5.500000
  0
CIRCLE
  8
OBRYS
 10
532.659929
 20
-11.467061
 40
5.500000
  0
CIRCLE
  8
OBRYS
 10
499.659929
 20
43.932939
 40
5.500000
  0
CIRCLE
  8
OBRYS
 10
369.659929
 20
-11.467061
 40
5.500000
  0
CIRCLE
  8
OBRYS
 10
439.659929
 20
43.932939
 40
5.500000
  0
CIRCLE
  8
OBRYS
 10
439.659929
 20
-66.867061
 40
5.500000
  0
ARC
  8
OBRYS
 10
403.659929
 20
-11.467061
 40
74.000000
 50
243.573390
 51
287.140998
  0
ARC
  8
OBRYS
 10
403.659929
 20
-11.467061
 40
61.000000
 50
243.573390
 51
287.140998
  0
ARC
  8
OBRYS
 10
423.553810
 20
-75.968870
 40
6.500000
 50
287.141009
 51
107.141009
  0
ARC
  8
OBRYS
 10
423.553810
 20
53.034749
 40
6.500000
 50
252.858991
 51
72.858991
  0
ARC
  8
OBRYS
 10
403.659929
 20
-11.467061
 40
61.000000
 50
72.858989
 51
116.426677
  0
ARC
  8
OBRYS
 10
403.659929
 20
-11.467061
 40
74.000000
 50
72.858989
 51
116.426680
  0
ARC
  8
OBRYS
 10
403.659929
 20
-11.467061
 40
61.000000
 50
333.573333
 51
26.426645
  0
ARC
  8
OBRYS
 10
403.659929
 20
-11.467061
 40
74.000000
 50
333.573335
 51
26.426619
  0
ARC
  8
OBRYS
 10
403.659929
 20
-11.467061
 40
61.000000
 50
153.573355
 51
206.426659
  0
ARC
  8
OBRYS
 10
403.659929
 20
-11.467061
 40
74.000000
 50
153.573377
 51
206.426631
  0
ARC
  8
OBRYS
 10
464.106509
 20
-41.508049
 40
6.500000
 50
153.573499
 51
333.573499
  0
ARC
  8
OBRYS
 10
464.106509
 20
18.573928
 40
6.500000
 50
26.426501
 51
206.426501
  0
ARC
  8
OBRYS
 10
343.213349
 20
18.573928
 40
6.500000
 50
333.573499
 51
153.573499
  0
ARC
  8
OBRYS
 10
373.618941
 20
48.979519
 40
6.500000
 50
116.427008
 51
296.427008
  0
ARC
  8
OBRYS
 10
373.618941
 20
-71.913640
 40
6.500000
 50
63.572992
 51
243.572992
  0
ARC
  8
OBRYS
 10
343.213349
 20
-41.508049
 40
6.500000
 50
206.426501
 51
26.426501
  0
CIRCLE
  8
OBRYS
 10
403.659929
 20
-11.467061
 40
55.000000
  0
CIRCLE
  8
OBRYS
 10
403.659929
 20
-11.467061
 40
80.000000
  0
ARC
  8
OBRYS
 10
469.659929
 20
-11.467061
 40
64.000000
 50
255.942370
 51
289.389830
  0
ARC
  8
OBRYS
 10
469.659929
 20
-11.467061
 40
64.000000
 50
70.610170
 51
104.057630
  0
INSERT
  8
OBRYS
  2
Vnitrni_metricky_zavit_M8__1
 62
     7
 10
449.621870
 20
-57.429001
  0
INSERT
  8
OBRYS
  2
Vnitrni_metricky_zavit_M8__2
 62
     7
 10
449.621870
 20
34.494880
  0
LINE
  8
OSA
 10
442.020472
 20
26.893482
 11
457.223267
 21
42.096278
  0
LINE
  8
OSA
 10
442.020472
 20
-49.827603
 11
457.223267
 21
-65.030399
  0
CIRCLE
  8
OBRYS
 10
357.697988
 20
-57.429001
 40
4.500000
  0
LINE
  8
OSA
 10
365.299386
 20
-49.827603
 11
350.096590
 21
-65.030399
  0
LINE
  8
OSA
 10
365.299386
 20
26.893482
 11
350.096590
 21
42.096278
  0
CIRCLE
  8
OBRYS
 10
357.697988
 20
34.494880
 40
4.500000
  0
CIRCLE
  8
OSA
 10
403.659929
 20
-11.467061
 40
65.000000
  0
CIRCLE
  8
OBRYS
 10
380.659929
 20
13.532939
 40
3.000000
  0
LINE
  8
OSA
 10
380.659929
 20
13.532939
 11
380.659929
 21
5.532939
  0
LINE
  8
OSA
 10
380.659929
 20
13.532939
 11
388.659929
 21
13.532939
  0
LINE
  8
OSA
 10
380.659929
 20
13.532939
 11
372.659929
 21
13.532939
  0
LINE
  8
OSA
 10
380.659929
 20
13.532939
 11
380.659929
 21
23.675506
  0
CIRCLE
  8
OBRYS
 10
369.659929
 20
-11.467061
 40
3.200000
  0
LINE
  8
OSA
 10
369.659929
 20
-11.467061
 11
369.659929
 21
-19.467061
  0
LINE
  8
OSA
 10
369.659929
 20
-11.467061
 11
369.659929
 21
-3.467061
  0
CIRCLE
  8
OBRYS
 10
499.659929
 20
-66.867061
 40
3.200000
  0
CIRCLE
  8
OBRYS
 10
439.659929
 20
-66.867061
 40
3.200000
  0
CIRCLE
  8
OBRYS
 10
439.659929
 20
43.932939
 40
3.200000
  0
CIRCLE
  8
OBRYS
 10
499.659929
 20
43.932939
 40
3.200000
  0
CIRCLE
  8
OBRYS
 10
515.659929
 20
-54.467061
 40
3.000000
  0
LINE
  8
OSA
 10
515.659929
 20
-54.467061
 11
515.659929
 21
-66.467061
  0
LINE
  8
OSA
 10
515.659929
 20
-54.467061
 11
515.659929
 21
-42.467061
  0
LINE
  8
OSA
 10
515.659929
 20
-54.467061
 11
527.659929
 21
-54.467061
  0
LINE
  8
OSA
 10
515.659929
 20
-54.467061
 11
503.659929
 21
-54.467061
  0
LINE
  8
OSA
 10
499.659929
 20
51.932939
 11
499.659929
 21
35.932939
  0
LINE
  8
OSA
 10
439.659929
 20
51.932939
 11
439.659929
 21
35.932939
  0
LINE
  8
OSA
 10
507.067964
 20
43.932939
 11
430.767718
 21
43.932939
  0
LINE
  8
OSA
 10
507.067964
 20
-66.867061
 11
430.767718
 21
-66.867061
  0
LINE
  8
OSA
 10
439.659929
 20
-74.867061
 11
439.659929
 21
-58.867061
  0
LINE
  8
OSA
 10
499.659929
 20
-74.867061
 11
499.659929
 21
-58.867061
  0
ARC
  8
OBRYS
 10
534.824342
 20
-22.252018
 40
3.000000
 50
101.347840
 51
164.724588
  0
ARC
  8
OBRYS
 10
532.659929
 20
-11.467061
 40
8.000000
 50
281.347840
 51
78.652160
  0
LINE
  8
OBRYS
 10
531.930331
 20
-21.461641
 11
522.412623
 21
-56.311274
  0
ARC
  8
OBRYS
 10
534.824342
 20
-0.682103
 40
3.000000
 50
195.275412
 51
258.652160
  0
LINE
  8
OBRYS
 10
531.930331
 20
-1.472480
 11
522.412623
 21
33.377153
  0
ARC
  8
OBRYS
 10
499.659929
 20
43.932939
 40
8.000000
 50
49.392698
 51
134.840000
  0
ARC
  8
OBRYS
 10
491.903508
 20
51.732807
 40
3.000000
 50
250.610170
 51
314.839984
  0
LINE
  8
0
 62
     2
 10
504.866897
 20
50.006446
 11
520.216026
 21
36.847258
  0
ARC
  8
OBRYS
 10
515.659929
 20
31.532939
 40
7.000000
 50
15.275412
 51
49.392700
  0
ARC
  8
OBRYS
 10
515.659929
 20
-54.467061
 40
7.000000
 50
310.607300
 51
344.724588
  0
ARC
  8
OBRYS
 10
499.659929
 20
-66.867061
 40
8.000000
 50
225.160016
 51
310.607302
  0
LINE
  8
0
 62
     2
 10
504.866897
 20
-72.940567
 11
520.216026
 21
-59.781379
  0
ARC
  8
OBRYS
 10
491.903508
 20
-74.666928
 40
3.000000
 50
45.160016
 51
109.389830
  0
LINE
  8
OSA
 10
532.659929
 20
-20.917060
 11
532.659929
 21
-2.017061
  0
CIRCLE
  8
OBRYS
 10
532.659929
 20
-11.467061
 40
3.200000
  0
LINE
  8
OSA
 10
403.659929
 20
-11.467061
 11
542.957869
 21
-11.467061
  0
LINE
  8
OSA
 10
469.659929
 20
58.782939
 11
469.659929
 21
-81.717060
  0
CIRCLE
  8
OBRYS
 10
403.659929
 20
-11.467061
 40
23.500000
  0
LINE
  8
OSA
 10
403.659929
 20
-11.467061
 11
317.409929
 21
-11.467061
  0
LINE
  8
OSA
 10
403.659929
 20
-11.467061
 11
403.659929
 21
-97.717060
  0
LINE
  8
OSA
 10
403.659929
 20
-11.467061
 11
403.659929
 21
74.782939
  0
CIRCLE
  8
OBRYS
 10
403.659929
 20
-11.467061
 40
12.500000
  0
LINE
  8
OBRYS
 10
412.859929
 20
-8.967061
 11
412.859929
 21
-13.967061
  0
LINE
  8
OBRYS
 10
410.198277
 20
-13.967061
 11
412.859929
 21
-13.967061
  0
LINE
  8
OBRYS
 10
410.198277
 20
-8.967061
 11
412.859929
 21
-8.967061
  0
ARC
  8
OBRYS
 10
403.659929
 20
-11.467061
 40
7.000000
 50
20.924832
 51
339.075168
  0
ENDBLK
  8
OBRYS
  0
BLOCK
  8
OBRYS
  2
Vnitrni_metricky_zavit_M8__1
 70
   66
 10
449.621870
 20
-57.429001
  0
CIRCLE
  8
OBRYS
 10
449.621870
 20
-57.429001
 40
3.323500
  0
ARC
  8
OBRYS
 62
     7
 10
449.621870
 20
-57.429001
 40
4.000000
 50
175.000000
 51
95.000000
  0
ENDBLK
  8
OBRYS
  0
BLOCK
  8
OBRYS
  2
Vnitrni_metricky_zavit_M8__2
 70
   66
 10
449.621870
 20
34.494880
  0
CIRCLE
  8
OBRYS
 10
449.621870
 20
34.494880
 40
3.323500
  0
ARC
  8
OBRYS
 62
     7
 10
449.621870
 20
34.494880
 40
4.000000
 50
175.000000
 51
95.000000
  0
ENDBLK
  8
OBRYS
  0
BLOCK
  8
OBRYS
  2
_3
 70
   64
 10
113.727352
 20
372.009109
  0
LINE
  8
OSA
 10
113.727352
 20
448.259109
 11
113.727352
 21
364.434356
  0
ARC
  8
OBRYS
 10
36.727352
 20
435.009109
 40
3.000000
 50
180.000000
 51
270.000000
  0
LINE
  8
OBRYS
 10
33.727352
 20
442.009109
 11
33.727352
 21
435.009109
  0
LINE
  8
OBRYS
 10
193.727352
 20
442.009109
 11
33.727352
 21
442.009109
  0
ARC
  8
OBRYS
 10
67.727352
 20
372.009109
 40
3.000000
 50
0.000000
 51
90.000000
  0
ARC
  8
OBRYS
 10
159.727352
 20
372.009109
 40
3.000000
 50
90.000000
 51
180.000000
  0
LINE
  8
OBRYS
 10
148.727352
 20
372.009109
 11
113.727352
 21
372.009109
  0
LINE
  8
OBRYS
 10
78.727352
 20
372.009109
 11
113.727352
 21
372.009109
  0
LINE
  8
OBRYS
 10
167.727287
 20
375.009109
 11
113.727352
 21
375.009109
  0
ARC
  8
OBRYS
 10
167.727287
 20
385.009109
 40
10.000000
 50
270.000000
 51
360.000000
  0
LINE
  8
OBRYS
 10
113.727352
 20
375.009109
 11
59.727416
 21
375.009109
  0
ARC
  8
OBRYS
 10
59.727416
 20
385.009109
 40
10.000000
 50
180.000000
 51
270.000000
  0
LINE
  8
OBRYS
 10
177.727287
 20
430.009109
 11
177.727287
 21
385.009109
  0
ARC
  8
OBRYS
 10
179.727287
 20
430.009109
 40
2.000000
 50
90.000000
 51
180.000000
  0
LINE
  8
OBRYS
 10
49.727416
 20
430.009109
 11
49.727416
 21
385.009109
  0
ARC
  8
OBRYS
 10
47.727416
 20
430.009109
 40
2.000000
 50
0.000000
 51
90.000000
  0
LINE
  8
OBRYS
 10
193.727352
 20
442.009109
 11
193.727352
 21
435.009109
  0
LINE
  8
OBRYS
 10
190.727352
 20
432.009109
 11
36.727352
 21
432.009109
  0
ARC
  8
OBRYS
 10
190.727352
 20
435.009109
 40
3.000000
 50
270.000000
 51
360.000000
  0
LINE
  8
OBRYS
 10
177.727287
 20
415.009109
 11
49.727416
 21
415.009109
  0
LINE
  8
OBRYS
 10
160.643631
 20
423.009109
 11
160.643631
 21
384.944667
  0
LINE
  8
OBRYS
 10
121.725229
 20
423.009109
 11
121.725229
 21
384.944667
  0
ARC
  8
OBRYS
 10
174.727287
 20
422.009109
 40
3.000000
 50
0.000000
 51
90.000000
  0
LINE
  8
OBRYS
 10
174.727287
 20
425.009109
 11
52.727416
 21
425.009109
  0
ARC
  8
OBRYS
 10
52.727416
 20
422.009109
 40
3.000000
 50
90.000000
 51
180.000000
  0
LINE
  8
OBRYS
 10
66.811073
 20
423.009109
 11
66.811073
 21
384.944667
  0
LINE
  8
OBRYS
 10
105.729475
 20
423.009109
 11
105.729475
 21
384.944667
  0
ENDBLK
  8
OBRYS
  0
BLOCK
  8
OBRYS
  2
_4
 70
   64
 10
678.136098
 20
372.009109
  0
LINE
  8
OSA
 10
678.136098
 20
448.259109
 11
678.136098
 21
364.434356
  0
ARC
  8
OBRYS
 10
601.136098
 20
435.009109
 40
3.000000
 50
180.000000
 51
270.000000
  0
LINE
  8
OBRYS
 10
598.136098
 20
442.009109
 11
598.136098
 21
435.009109
  0
LINE
  8
OBRYS
 10
758.136098
 20
442.009109
 11
598.136098
 21
442.009109
  0
ARC
  8
OBRYS
 10
632.136098
 20
372.009109
 40
3.000000
 50
0.000000
 51
90.000000
  0
ARC
  8
OBRYS
 10
724.136098
 20
372.009109
 40
3.000000
 50
90.000000
 51
180.000000
  0
LINE
  8
OBRYS
 10
713.136098
 20
372.009109
 11
678.136098
 21
372.009109
  0
LINE
  8
OBRYS
 10
643.136098
 20
372.009109
 11
678.136098
 21
372.009109
  0
LINE
  8
OBRYS
 10
732.136033
 20
375.009109
 11
678.136098
 21
375.009109
  0
ARC
  8
OBRYS
 10
732.136033
 20
385.009109
 40
10.000000
 50
270.000000
 51
360.000000
  0
LINE
  8
OBRYS
 10
678.136098
 20
375.009109
 11
624.136163
 21
375.009109
  0
ARC
  8
OBRYS
 10
624.136163
 20
385.009109
 40
10.000000
 50
180.000000
 51
270.000000
  0
LINE
  8
OBRYS
 10
742.136033
 20
430.009109
 11
742.136033
 21
385.009109
  0
ARC
  8
OBRYS
 10
744.136033
 20
430.009109
 40
2.000000
 50
90.000000
 51
180.000000
  0
LINE
  8
OBRYS
 10
614.136163
 20
430.009109
 11
614.136163
 21
385.009109
  0
ARC
  8
OBRYS
 10
612.136163
 20
430.009109
 40
2.000000
 50
0.000000
 51
90.000000
  0
LINE
  8
OBRYS
 10
758.136098
 20
442.009109
 11
758.136098
 21
435.009109
  0
LINE
  8
OBRYS
 10
755.136098
 20
432.009109
 11
601.136098
 21
432.009109
  0
ARC
  8
OBRYS
 10
755.136098
 20
435.009109
 40
3.000000
 50
270.000000
 51
360.000000
  0
LINE
  8
OBRYS
 10
742.136033
 20
415.009109
 11
614.136163
 21
415.009109
  0
LINE
  8
OBRYS
 10
732.578986
 20
385.009109
 11
732.578986
 21
432.009109
  0
LINE
  8
OBRYS
 10
730.969501
 20
409.009109
 11
625.235845
 21
409.009109
  0
LINE
  8
OBRYS
 10
623.693210
 20
385.009109
 11
623.693210
 21
432.009109
  0
ENDBLK
  8
OBRYS
  0
BLOCK
  8
OBRYS
  2
_5
 70
   64
 10
920.586437
 20
372.009109
  0
ARC
  8
OBRYS
 10
853.586437
 20
391.995346
 40
3.000000
 50
180.000000
 51
220.000000
  0
LINE
  8
OBRYS
 10
860.925992
 20
378.581233
 11
851.288303
 21
390.066983
  0
LINE
  8
OBRYS
 10
850.586437
 20
415.009109
 11
850.586437
 21
391.995346
  0
ARC
  8
OBRYS
 10
868.586437
 20
385.009109
 40
10.000000
 50
220.000000
 51
270.000000
  0
LINE
  8
OSA
 10
920.586437
 20
420.009109
 11
920.586437
 21
362.009109
  0
ARC
  8
OBRYS
 10
971.382153
 20
372.009109
 40
3.000000
 50
90.000000
 51
180.000000
  0
ARC
  8
OBRYS
 10
869.790720
 20
372.009109
 40
3.000000
 50
0.000000
 51
90.000000
  0
ARC
  8
OBRYS
 10
1018.586437
 20
385.009109
 40
10.000000
 50
270.000000
 51
360.000000
  0
LINE
  8
OBRYS
 10
1028.586437
 20
415.009109
 11
1028.586437
 21
385.009109
  0
LINE
  8
OBRYS
 10
850.586437
 20
415.009109
 11
1028.586437
 21
415.009109
  0
LINE
  8
OSA
 10
986.586437
 20
419.963369
 11
986.586437
 21
370.009109
  0
LINE
  8
OBRYS
 10
881.100121
 20
372.009109
 11
920.586437
 21
372.009109
  0
LINE
  8
OBRYS
 10
960.072752
 20
372.009109
 11
920.586437
 21
372.009109
  0
LINE
  8
OBRYS
 10
867.265928
 20
375.009109
 11
920.586437
 21
375.009109
  0
LINE
  8
OBRYS
 10
920.586437
 20
375.009109
 11
1018.586437
 21
375.009109
  0
LINE
  8
OBRYS
 10
855.586437
 20
415.009109
 11
855.586437
 21
384.324108
  0
LINE
  8
OBRYS
 10
898.211104
 20
408.009109
 11
898.211104
 21
384.944667
  0
LINE
  8
OBRYS
 10
942.961769
 20
408.009109
 11
942.961769
 21
384.944667
  0
LINE
  8
OBRYS
 10
900.211104
 20
410.009109
 11
940.961769
 21
410.009109
  0
LINE
  8
OBRYS
 10
958.040036
 20
408.009109
 11
958.040036
 21
384.944667
  0
LINE
  8
OBRYS
 10
960.040036
 20
410.009109
 11
1028.586437
 21
410.009109
  0
LINE
  8
OBRYS
 10
868.399640
 20
410.009109
 11
868.399640
 21
384.944667
  0
LINE
  8
OBRYS
 10
906.586437
 20
432.009109
 11
1063.586437
 21
432.009109
  0
LINE
  8
OBRYS
 10
906.586437
 20
442.009109
 11
1066.586437
 21
442.009109
  0
LINE
  8
OBRYS
 10
1066.586437
 20
442.009109
 11
1066.586437
 21
435.009109
  0
ARC
  8
OBRYS
 10
1063.586437
 20
435.009109
 40
3.000000
 50
270.000000
 51
360.000000
  0
ARC
  8
OBRYS
 10
1031.586437
 20
429.009109
 40
3.000000
 50
90.000000
 51
180.000000
  0
LINE
  8
OBRYS
 10
1028.586437
 20
429.009109
 11
1028.586437
 21
415.009109
  0
LINE
  8
OBRYS
 10
850.586437
 20
415.009109
 11
1028.586437
 21
415.009109
  0
LINE
  8
OBRYS
 10
850.586437
 20
423.009109
 11
850.586437
 21
415.009109
  0
ARC
  8
OBRYS
 10
852.586437
 20
423.009109
 40
2.000000
 50
90.000000
 51
180.000000
  0
LINE
  8
OBRYS
 10
852.586437
 20
425.009109
 11
893.174894
 21
425.009109
  0
ARC
  8
OBRYS
 10
893.174894
 20
428.009109
 40
3.000000
 50
270.000000
 51
300.000000
  0
LINE
  8
OBRYS
 10
906.586437
 20
442.009109
 11
906.586437
 21
434.020216
  0
LINE
  8
OBRYS
 10
894.674894
 20
425.411032
 11
905.086437
 21
431.422139
  0
ARC
  8
OBRYS
 10
903.586437
 20
434.020216
 40
3.000000
 50
300.000000
 51
360.000000
  0
LINE
  8
OSA
 10
986.586437
 20
448.259109
 11
986.586437
 21
408.759109
  0
LINE
  8
OBRYS
 10
855.586437
 20
415.009109
 11
855.586437
 21
425.009109
  0
LINE
  8
OBRYS
 10
868.399640
 20
415.009109
 11
868.399640
 21
422.226892
  0
LINE
  8
OBRYS
 10
898.211104
 20
415.009109
 11
898.211104
 21
423.813466
  0
LINE
  8
OBRYS
 10
942.961769
 20
415.009109
 11
942.961769
 21
429.512501
  0
LINE
  8
OBRYS
 10
958.040036
 20
415.009109
 11
958.040036
 21
429.512501
  0
ENDBLK
  8
OBRYS
  0
BLOCK
  8
OBRYS
  2
_6
 70
   64
 10
469.659929
 20
372.009109
  0
ARC
  8
OBRYS
 10
536.659929
 20
391.995346
 40
3.000000
 50
320.000000
 51
360.000000
  0
LINE
  8
OBRYS
 10
529.320373
 20
378.581233
 11
538.958062
 21
390.066983
  0
LINE
  8
OBRYS
 10
539.659929
 20
415.009109
 11
539.659929
 21
391.995346
  0
ARC
  8
OBRYS
 10
521.659929
 20
385.009109
 40
10.000000
 50
270.000000
 51
320.000000
  0
LINE
  8
OSA
 10
469.659929
 20
420.009109
 11
469.659929
 21
362.009109
  0
ARC
  8
OBRYS
 10
418.864212
 20
372.009109
 40
3.000000
 50
0.000000
 51
90.000000
  0
ARC
  8
OBRYS
 10
520.455646
 20
372.009109
 40
3.000000
 50
90.000000
 51
180.000000
  0
ARC
  8
OBRYS
 10
371.659929
 20
385.009109
 40
10.000000
 50
180.000000
 51
270.000000
  0
LINE
  8
OBRYS
 10
361.659929
 20
415.009109
 11
361.659929
 21
385.009109
  0
LINE
  8
OBRYS
 10
539.659929
 20
415.009109
 11
361.659929
 21
415.009109
  0
LINE
  8
OSA
 10
403.659929
 20
419.963369
 11
403.659929
 21
370.009109
  0
LINE
  8
OBRYS
 10
509.146244
 20
372.009109
 11
469.659929
 21
372.009109
  0
LINE
  8
OBRYS
 10
430.173613
 20
372.009109
 11
469.659929
 21
372.009109
  0
LINE
  8
OBRYS
 10
522.980437
 20
375.009109
 11
469.659929
 21
375.009109
  0
LINE
  8
OBRYS
 10
469.659929
 20
375.009109
 11
371.659929
 21
375.009109
  0
LINE
  8
OBRYS
 10
534.659929
 20
415.009109
 11
534.659929
 21
384.324108
  0
LINE
  8
OBRYS
 10
492.035261
 20
408.009109
 11
492.035261
 21
384.944667
  0
LINE
  8
OBRYS
 10
447.284597
 20
408.009109
 11
447.284597
 21
384.944667
  0
LINE
  8
OBRYS
 10
490.035261
 20
410.009109
 11
449.284597
 21
410.009109
  0
LINE
  8
OBRYS
 10
432.206330
 20
408.009109
 11
432.206330
 21
384.944667
  0
LINE
  8
OBRYS
 10
430.206330
 20
410.009109
 11
361.659929
 21
410.009109
  0
LINE
  8
OBRYS
 10
521.846726
 20
410.009109
 11
521.846726
 21
384.944667
  0
LINE
  8
OBRYS
 10
483.659929
 20
432.009109
 11
326.659929
 21
432.009109
  0
LINE
  8
OBRYS
 10
483.659929
 20
442.009109
 11
323.659929
 21
442.009109
  0
LINE
  8
OBRYS
 10
323.659929
 20
442.009109
 11
323.659929
 21
435.009109
  0
ARC
  8
OBRYS
 10
326.659929
 20
435.009109
 40
3.000000
 50
180.000000
 51
270.000000
  0
ARC
  8
OBRYS
 10
358.659929
 20
429.009109
 40
3.000000
 50
0.000000
 51
90.000000
  0
LINE
  8
OBRYS
 10
361.659929
 20
429.009109
 11
361.659929
 21
415.009109
  0
LINE
  8
OBRYS
 10
539.659929
 20
415.009109
 11
361.659929
 21
415.009109
  0
LINE
  8
OBRYS
 10
539.659929
 20
423.009109
 11
539.659929
 21
415.009109
  0
ARC
  8
OBRYS
 10
537.659929
 20
423.009109
 40
2.000000
 50
0.000000
 51
90.000000
  0
LINE
  8
OBRYS
 10
537.659929
 20
425.009109
 11
497.071472
 21
425.009109
  0
ARC
  8
OBRYS
 10
497.071472
 20
428.009109
 40
3.000000
 50
240.000000
 51
270.000000
  0
LINE
  8
OBRYS
 10
483.659929
 20
442.009109
 11
483.659929
 21
434.020216
  0
LINE
  8
OBRYS
 10
495.571472
 20
425.411032
 11
485.159929
 21
431.422139
  0
ARC
  8
OBRYS
 10
486.659929
 20
434.020216
 40
3.000000
 50
180.000000
 51
240.000000
  0
LINE
  8
OSA
 10
403.659929
 20
448.259109
 11
403.659929
 21
408.759109
  0
LINE
  8
OBRYS
 10
534.659929
 20
415.009109
 11
534.659929
 21
425.009109
  0
LINE
  8
OBRYS
 10
521.846726
 20
415.009109
 11
521.846726
 21
422.226892
  0
LINE
  8
OBRYS
 10
492.035261
 20
415.009109
 11
492.035261
 21
423.813466
  0
LINE
  8
OBRYS
 10
447.284597
 20
415.009109
 11
447.284597
 21
429.512501
  0
LINE
  8
OBRYS
 10
432.206330
 20
415.009109
 11
432.206330
 21
429.512501
  0
ENDBLK
  8
OBRYS
  0
BLOCK
  8
OBRYS
  2
_7
 70
   64
 10
389.659929
 20
565.485278
  0
LINE
  8
OBRYS
 10
424.661675
 20
513.485278
 11
354.659929
 21
513.485278
  0
LINE
  8
OBRYS
 10
299.659929
 20
481.485278
 11
299.659929
 21
513.485278
  0
LINE
  8
OBRYS
 10
354.658183
 20
513.485278
 11
354.658183
 21
475.485278
  0
LINE
  8
OBRYS
 10
354.658183
 20
475.485278
 11
305.659929
 21
475.485278
  0
LINE
  8
OBRYS
 10
479.659929
 20
481.485278
 11
479.659929
 21
513.485278
  0
LINE
  8
OBRYS
 10
424.661675
 20
513.485278
 11
424.661675
 21
475.485278
  0
LINE
  8
OBRYS
 10
424.661675
 20
475.485278
 11
473.659929
 21
475.485278
  0
LINE
  8
OBRYS
 10
424.659929
 20
520.485278
 11
424.659929
 21
513.485278
  0
LINE
  8
OBRYS
 10
424.659929
 20
513.485278
 11
424.659929
 21
520.485278
  0
LINE
  8
OBRYS
 10
354.659929
 20
513.485278
 11
354.659929
 21
520.485278
  0
LINE
  8
OBRYS
 10
394.200666
 20
504.787612
 11
393.708908
 21
496.187144
  0
LINE
  8
OBRYS
 10
385.610950
 20
496.187144
 11
385.119192
 21
504.787612
  0
LINE
  8
OBRYS
 10
404.659929
 20
512.485278
 11
404.659929
 21
513.485278
  0
LINE
  8
OBRYS
 10
410.659929
 20
513.485278
 11
410.659929
 21
512.485278
  0
LINE
  8
OBRYS
 10
404.659929
 20
512.485278
 11
402.659929
 21
512.485278
  0
LINE
  8
OBRYS
 10
402.659929
 20
512.485278
 11
402.659929
 21
513.485278
  0
LINE
  8
OBRYS
 10
392.659929
 20
512.485278
 11
392.659929
 21
513.485278
  0
LINE
  8
OBRYS
 10
400.659929
 20
513.485278
 11
400.659929
 21
512.485278
  0
LINE
  8
OBRYS
 10
400.659929
 20
512.485278
 11
398.659929
 21
512.485278
  0
LINE
  8
OBRYS
 10
398.659929
 20
512.485278
 11
398.659929
 21
513.485278
  0
LINE
  8
OBRYS
 10
380.659929
 20
512.485278
 11
378.659929
 21
512.485278
  0
LINE
  8
OBRYS
 10
378.659929
 20
512.485278
 11
378.659929
 21
513.485278
  0
LINE
  8
OBRYS
 10
386.659929
 20
512.485278
 11
386.659929
 21
513.485278
  0
LINE
  8
OBRYS
 10
378.659929
 20
513.485278
 11
378.659929
 21
512.485278
  0
LINE
  8
OBRYS
 10
378.659929
 20
512.485278
 11
379.659929
 21
512.485278
  0
LINE
  8
OBRYS
 10
379.659929
 20
512.485278
 11
379.659929
 21
513.485278
  0
LINE
  8
OBRYS
 10
375.659929
 20
512.485278
 11
375.659929
 21
513.485278
  0
LINE
  8
OBRYS
 10
368.659929
 20
513.485278
 11
368.659929
 21
512.485278
  0
LINE
  8
OBRYS
 10
376.659929
 20
512.485278
 11
376.659929
 21
513.485278
  0
LINE
  8
OBRYS
 10
374.659929
 20
512.485278
 11
376.659929
 21
512.485278
  0
LINE
  8
OBRYS
 10
376.659929
 20
512.485278
 11
376.659929
 21
513.485278
  0
ARC
  8
OBRYS
 10
305.659929
 20
481.485278
 40
6.000000
 50
180.000000
 51
270.000000
  0
CIRCLE
  8
OBRYS
 10
319.658183
 20
491.985278
 40
5.500000
  0
ARC
  8
OBRYS
 10
473.659929
 20
481.485278
 40
6.000000
 50
270.000000
 51
360.000000
  0
CIRCLE
  8
OBRYS
 10
459.661675
 20
491.985278
 40
5.500000
  0
LINE
  8
OBRYS
 10
393.620114
 20
496.187144
 11
424.661675
 21
496.187144
  0
LINE
  8
OBRYS
 10
354.658183
 20
499.675927
 11
354.658183
 21
513.485278
  0
LINE
  8
OBRYS
 10
424.661675
 20
499.675927
 11
424.661675
 21
513.485278
  0
LINE
  8
OBRYS
 10
385.065163
 20
506.093019
 11
354.658183
 21
506.093019
  0
LINE
  8
OBRYS
 10
394.254694
 20
506.093019
 11
424.661675
 21
506.093019
  0
POLYLINE
  8
OBRYS
 66
    1
  0
VERTEX
  8
OBRYS
 10
393.708893
 20
496.187134
  0
VERTEX
  8
OBRYS
 10
393.665619
 20
495.666199
  0
VERTEX
  8
OBRYS
 10
393.616394
 20
495.485291
  0
SEQEND
  8
OBRYS
  0
POLYLINE
  8
OBRYS
 66
    1
  0
VERTEX
  8
OBRYS
 10
385.703461
 20
495.485291
  0
VERTEX
  8
OBRYS
 10
385.654236
 20
495.666199
  0
VERTEX
  8
OBRYS
 10
385.610962
 20
496.187134
  0
SEQEND
  8
OBRYS
  0
POLYLINE
  8
OBRYS
 66
    1
  0
VERTEX
  8
OBRYS
 10
394.431335
 20
512.485291
  0
VERTEX
  8
OBRYS
 10
394.351257
 20
508.426270
  0
VERTEX
  8
OBRYS
 10
394.200653
 20
504.787598
  0
SEQEND
  8
OBRYS
  0
POLYLINE
  8
OBRYS
 66
    1
  0
VERTEX
  8
OBRYS
 10
385.119202
 20
504.787598
  0
VERTEX
  8
OBRYS
 10
384.968597
 20
508.426270
  0
VERTEX
  8
OBRYS
 10
384.888550
 20
512.485291
  0
SEQEND
  8
OBRYS
  0
LINE
  8
OBRYS
 10
386.659929
 20
512.870834
 11
392.659929
 21
512.870834
  0
LINE
  8
OBRYS
 10
385.119192
 20
504.787612
 11
394.200666
 21
504.787612
  0
LINE
  8
OBRYS
 10
410.659929
 20
512.485278
 11
404.659929
 21
512.485278
  0
LINE
  8
OBRYS
 10
398.659929
 20
512.485278
 11
392.659929
 21
512.485278
  0
LINE
  8
OBRYS
 10
424.661675
 20
495.485278
 11
397.758905
 21
495.485278
  0
LINE
  8
OBRYS
 10
354.658183
 20
495.485278
 11
386.659929
 21
495.485278
  0
LINE
  8
OBRYS
 10
386.659929
 20
495.485278
 11
397.758905
 21
495.485278
  0
LINE
  8
OBRYS
 10
368.659929
 20
512.485278
 11
374.659929
 21
512.485278
  0
LINE
  8
OBRYS
 10
380.659929
 20
512.485278
 11
386.659929
 21
512.485278
  0
LINE
  8
OBRYS
 10
385.610950
 20
496.187144
 11
393.620114
 21
496.187144
  0
LINE
  8
OBRYS
 10
385.610950
 20
496.187144
 11
354.658183
 21
496.187144
  0
LINE
  8
OBRYS
 10
299.659929
 20
520.485278
 11
299.659929
 21
502.198075
  0
LINE
  8
OBRYS
 10
299.659929
 20
520.485278
 11
479.659929
 21
520.485278
  0
LINE
  8
OBRYS
 10
479.659929
 20
502.198075
 11
479.659929
 21
520.485278
  0
ENDBLK
  8
OBRYS
  0
BLOCK
  8
OBRYS
  2
_8
 70
   64
 10
389.659929
 20
565.485278
  0
LINE
  8
0
 62
     2
 10
354.658183
 20
634.783411
 11
385.610950
 21
634.783411
  0
LINE
  8
0
 62
     2
 10
385.610950
 20
634.783411
 11
393.620114
 21
634.783411
  0
LINE
  8
0
 62
     2
 10
380.659929
 20
618.485278
 11
386.659929
 21
618.485278
  0
LINE
  8
0
 62
     2
 10
368.659929
 20
618.485278
 11
374.659929
 21
618.485278
  0
LINE
  8
0
 62
     2
 10
354.658183
 20
635.485278
 11
362.999096
 21
635.485278
  0
LINE
  8
0
 62
     2
 10
424.661675
 20
635.485278
 11
422.159929
 21
635.485278
  0
LINE
  8
0
 62
     2
 10
422.159929
 20
635.485278
 11
362.999096
 21
635.485278
  0
LINE
  8
0
 62
     2
 10
398.659929
 20
618.485278
 11
392.659929
 21
618.485278
  0
LINE
  8
0
 62
     2
 10
410.659929
 20
618.485278
 11
404.659929
 21
618.485278
  0
LINE
  8
0
 62
     2
 10
385.119192
 20
626.182943
 11
394.200666
 21
626.182943
  0
LINE
  8
0
 62
     2
 10
386.659929
 20
618.099722
 11
392.659929
 21
618.099722
  0
POLYLINE
  8
0
 62
     2
 66
    1
  0
VERTEX
  8
0
 62
     2
 10
385.119202
 20
626.182922
  0
VERTEX
  8
0
 62
     2
 10
384.968597
 20
622.544250
  0
VERTEX
  8
0
 62
     2
 10
384.888550
 20
618.485291
  0
SEQEND
  8
0
  0
POLYLINE
  8
0
 62
     2
 66
    1
  0
VERTEX
  8
0
 62
     2
 10
394.431335
 20
618.485291
  0
VERTEX
  8
0
 62
     2
 10
394.351257
 20
622.544250
  0
VERTEX
  8
0
 62
     2
 10
394.200653
 20
626.182922
  0
SEQEND
  8
0
  0
POLYLINE
  8
0
 62
     2
 66
    1
  0
VERTEX
  8
0
 62
     2
 10
385.703461
 20
635.485291
  0
VERTEX
  8
0
 62
     2
 10
385.654236
 20
635.304382
  0
VERTEX
  8
0
 62
     2
 10
385.610962
 20
634.783386
  0
SEQEND
  8
0
  0
POLYLINE
  8
0
 62
     2
 66
    1
  0
VERTEX
  8
0
 62
     2
 10
393.708893
 20
634.783386
  0
VERTEX
  8
0
 62
     2
 10
393.665619
 20
635.304382
  0
VERTEX
  8
0
 62
     2
 10
393.616394
 20
635.485291
  0
SEQEND
  8
0
  0
LINE
  8
0
 62
     2
 10
394.254694
 20
624.877536
 11
424.661675
 21
624.877536
  0
LINE
  8
0
 62
     2
 10
354.658183
 20
624.877536
 11
385.065163
 21
624.877536
  0
LINE
  8
0
 62
     2
 10
354.658183
 20
617.485278
 11
354.658183
 21
631.294628
  0
LINE
  8
0
 62
     2
 10
393.620114
 20
634.783411
 11
424.661675
 21
634.783411
  0
CIRCLE
  8
0
 62
     2
 10
459.661675
 20
638.985278
 40
5.500000
  0
ARC
  8
0
 62
     2
 10
473.659929
 20
649.485278
 40
6.000000
 50
0.000000
 51
90.000000
  0
CIRCLE
  8
0
 62
     2
 10
319.658183
 20
638.985278
 40
5.500000
  0
ARC
  8
0
 62
     2
 10
305.659929
 20
649.485278
 40
6.000000
 50
90.000000
 51
180.000000
  0
LINE
  8
0
 62
     2
 10
376.659929
 20
618.485278
 11
376.659929
 21
617.485278
  0
LINE
  8
0
 62
     2
 10
374.659929
 20
618.485278
 11
376.659929
 21
618.485278
  0
LINE
  8
0
 62
     2
 10
376.659929
 20
618.485278
 11
376.659929
 21
617.485278
  0
LINE
  8
0
 62
     2
 10
368.659929
 20
617.485278
 11
368.659929
 21
618.485278
  0
LINE
  8
0
 62
     2
 10
375.659929
 20
618.485278
 11
375.659929
 21
617.485278
  0
LINE
  8
0
 62
     2
 10
379.659929
 20
618.485278
 11
379.659929
 21
617.485278
  0
LINE
  8
0
 62
     2
 10
378.659929
 20
618.485278
 11
379.659929
 21
618.485278
  0
LINE
  8
0
 62
     2
 10
378.659929
 20
617.485278
 11
378.659929
 21
618.485278
  0
LINE
  8
0
 62
     2
 10
386.659929
 20
618.485278
 11
386.659929
 21
617.485278
  0
LINE
  8
0
 62
     2
 10
378.659929
 20
618.485278
 11
378.659929
 21
617.485278
  0
LINE
  8
0
 62
     2
 10
380.659929
 20
618.485278
 11
378.659929
 21
618.485278
  0
LINE
  8
0
 62
     2
 10
398.659929
 20
618.485278
 11
398.659929
 21
617.485278
  0
LINE
  8
0
 62
     2
 10
400.659929
 20
618.485278
 11
398.659929
 21
618.485278
  0
LINE
  8
0
 62
     2
 10
400.659929
 20
617.485278
 11
400.659929
 21
618.485278
  0
LINE
  8
0
 62
     2
 10
392.659929
 20
618.485278
 11
392.659929
 21
617.485278
  0
LINE
  8
0
 62
     2
 10
402.659929
 20
618.485278
 11
402.659929
 21
617.485278
  0
LINE
  8
0
 62
     2
 10
404.659929
 20
618.485278
 11
402.659929
 21
618.485278
  0
LINE
  8
0
 62
     2
 10
410.659929
 20
617.485278
 11
410.659929
 21
618.485278
  0
LINE
  8
0
 62
     2
 10
404.659929
 20
618.485278
 11
404.659929
 21
617.485278
  0
LINE
  8
0
 62
     2
 10
385.610950
 20
634.783411
 11
385.119192
 21
626.182943
  0
LINE
  8
0
 62
     2
 10
394.200666
 20
626.182943
 11
393.708908
 21
634.783411
  0
LINE
  8
0
 62
     2
 10
354.659929
 20
617.485278
 11
354.659929
 21
610.485278
  0
LINE
  8
0
 62
     2
 10
299.659929
 20
610.485278
 11
299.659929
 21
617.485278
  0
LINE
  8
0
 62
     2
 10
354.659929
 20
610.485278
 11
354.659929
 21
617.485278
  0
LINE
  8
0
 62
     2
 10
424.659929
 20
617.485278
 11
424.659929
 21
610.485278
  0
LINE
  8
0
 62
     2
 10
479.659929
 20
617.485278
 11
479.659929
 21
610.485278
  0
LINE
  8
0
 62
     2
 10
424.659929
 20
610.485278
 11
424.659929
 21
617.485278
  0
LINE
  8
0
 62
     2
 10
424.661675
 20
655.485278
 11
473.659929
 21
655.485278
  0
LINE
  8
0
 62
     2
 10
424.661675
 20
617.485278
 11
424.661675
 21
655.485278
  0
LINE
  8
0
 62
     2
 10
479.659929
 20
649.485278
 11
479.659929
 21
617.485278
  0
LINE
  8
0
 62
     2
 10
354.658183
 20
655.485278
 11
305.659929
 21
655.485278
  0
LINE
  8
0
 62
     2
 10
354.658183
 20
617.485278
 11
354.658183
 21
655.485278
  0
LINE
  8
0
 62
     2
 10
299.659929
 20
649.485278
 11
299.659929
 21
617.485278
  0
LINE
  8
0
 62
     2
 10
424.661675
 20
617.485278
 11
354.659929
 21
617.485278
  0
ENDBLK
  8
OBRYS
  0
BLOCK
  8
OBRYS
  2
_9
 70
   64
 10
113.727352
 20
277.009109
  0
ARC
  8
OBRYS
 10
167.727352
 20
150.009109
 40
2.000000
 50
180.000000
 51
270.000000
  0
LINE
  8
OBRYS
 10
167.727352
 20
148.009109
 11
197.727352
 21
148.009109
  0
LINE
  8
OBRYS
 10
165.727352
 20
150.009109
 11
165.727352
 21
235.540597
  0
POLYLINE
  8
OBRYS
 66
    1
  0
VERTEX
  8
OBRYS
 10
179.219177
 20
272.742493
  0
VERTEX
  8
OBRYS
 10
178.188889
 20
272.704559
  0
VERTEX
  8
OBRYS
 10
176.657471
 20
272.688263
  0
SEQEND
  8
OBRYS
  0
LINE
  8
OBRYS
 10
177.014555
 20
337.306629
 11
177.014555
 21
277.009109
  0
LINE
  8
OBRYS
 10
165.727352
 20
235.540597
 11
165.930992
 21
235.603570
  0
LINE
  8
OBRYS
 10
165.930992
 20
235.603570
 11
169.871578
 21
239.482844
  0
LINE
  8
OBRYS
 10
169.871578
 20
239.482844
 11
170.003072
 21
239.729888
  0
LINE
  8
OBRYS
 10
170.003072
 20
239.729888
 11
173.119610
 21
249.238240
  0
LINE
  8
OBRYS
 10
173.119610
 20
249.238240
 11
175.535051
 21
259.106996
  0
LINE
  8
OBRYS
 10
175.535051
 20
259.106996
 11
177.014555
 21
277.009109
  0
LINE
  8
OBRYS
 10
167.727352
 20
277.009109
 11
177.014555
 21
277.009109
  0
POLYLINE
  8
OBRYS
 66
    1
  0
VERTEX
  8
OBRYS
 10
177.014557
 20
281.326141
  0
VERTEX
  8
OBRYS
 10
178.188889
 20
281.313660
  0
VERTEX
  8
OBRYS
 10
179.219177
 20
281.275726
  0
SEQEND
  8
OBRYS
  0
POLYLINE
  8
OBRYS
 66
    1
  0
VERTEX
  8
OBRYS
 10
179.219177
 20
365.835052
  0
VERTEX
  8
OBRYS
 10
178.188889
 20
366.624725
  0
VERTEX
  8
OBRYS
 10
177.014557
 20
367.009094
  0
SEQEND
  8
OBRYS
  0
POLYLINE
  8
OBRYS
 66
    1
  0
VERTEX
  8
OBRYS
 10
177.014557
 20
367.009094
  0
VERTEX
  8
OBRYS
 10
177.014557
 20
367.009094
  0
VERTEX
  8
OBRYS
 10
183.025482
 20
359.455505
  0
VERTEX
  8
OBRYS
 10
183.546432
 20
358.557465
  0
VERTEX
  8
OBRYS
 10
183.676361
 20
357.824036
  0
SEQEND
  8
OBRYS
  0
LINE
  8
OBRYS
 10
177.014555
 20
367.009109
 11
177.014555
 21
337.306629
  0
POLYLINE
  8
OBRYS
 66
    1
  0
VERTEX
  8
OBRYS
 10
179.219177
 20
336.801575
  0
VERTEX
  8
OBRYS
 10
178.188889
 20
337.333130
  0
VERTEX
  8
OBRYS
 10
177.014557
 20
337.508179
  0
SEQEND
  8
OBRYS
  0
POLYLINE
  8
OBRYS
 66
    1
  0
VERTEX
  8
OBRYS
 10
179.219177
 20
342.835480
  0
VERTEX
  8
OBRYS
 10
178.188889
 20
343.420685
  0
VERTEX
  8
OBRYS
 10
177.014557
 20
343.613403
  0
SEQEND
  8
OBRYS
  0
POLYLINE
  8
OBRYS
 66
    1
  0
VERTEX
  8
OBRYS
 10
177.014557
 20
337.306641
  0
VERTEX
  8
OBRYS
 10
177.014557
 20
337.306641
  0
VERTEX
  8
OBRYS
 10
183.025482
 20
332.507263
  0
VERTEX
  8
OBRYS
 10
183.546432
 20
331.902740
  0
VERTEX
  8
OBRYS
 10
183.676361
 20
331.409027
  0
SEQEND
  8
OBRYS
  0
LINE
  8
OBRYS
 10
167.774453
 20
356.698793
 11
166.727352
 21
357.303337
  0
LINE
  8
OBRYS
 10
165.727352
 20
331.118426
 11
165.818123
 21
331.118426
  0
LINE
  8
OBRYS
 10
165.727352
 20
304.266245
 11
170.016744
 21
304.266245
  0
LINE
  8
OBRYS
 10
165.727352
 20
301.630533
 11
167.727352
 21
301.630533
  0
LINE
  8
OBRYS
 10
165.727352
 20
293.582845
 11
167.727352
 21
293.582845
  0
LINE
  8
OBRYS
 10
165.727352
 20
291.684530
 11
167.727352
 21
291.684530
  0
LINE
  8
OBRYS
 10
165.727352
 20
281.551122
 11
165.818123
 21
281.551122
  0
LINE
  8
OBRYS
 10
165.818123
 20
358.073253
 11
165.727352
 21
358.073253
  0
LINE
  8
OBRYS
 10
165.727352
 20
272.467095
 11
165.818123
 21
272.467095
  0
LINE
  8
OBRYS
 10
165.727352
 20
262.333687
 11
167.727352
 21
262.333687
  0
LINE
  8
OBRYS
 10
165.727352
 20
260.435372
 11
167.727352
 21
260.435372
  0
LINE
  8
OBRYS
 10
165.727352
 20
252.387684
 11
167.727352
 21
252.387684
  0
LINE
  8
OBRYS
 10
165.727352
 20
249.751972
 11
167.673794
 21
249.751972
  0
LINE
  8
OBRYS
 10
165.727352
 20
135.009109
 11
203.727352
 21
135.009109
  0
LINE
  8
OBRYS
 10
197.727352
 20
135.009109
 11
165.727352
 21
135.009109
  0
LINE
  8
OBRYS
 10
158.727352
 20
247.292919
 11
158.727352
 21
135.009109
  0
LINE
  8
OBRYS
 10
158.727352
 20
135.009109
 11
165.727352
 21
135.009109
  0
LINE
  8
OBRYS
 10
158.727352
 20
137.009109
 11
158.727352
 21
135.009109
  0
LINE
  8
OBRYS
 10
167.727352
 20
367.009107
 11
177.014555
 21
367.009109
  0
LINE
  8
OBRYS
 10
202.638563
 20
148.009109
 11
182.232466
 21
191.770125
  0
LINE
  8
OBRYS
 10
171.727352
 20
361.762556
 11
171.727352
 21
357.553038
  0
LINE
  8
OBRYS
 10
169.727352
 20
362.345934
 11
169.727352
 21
356.605683
  0
LINE
  8
OBRYS
 10
167.727352
 20
356.945583
 11
167.727352
 21
362.345934
  0
LINE
  8
OBRYS
 10
169.727352
 20
318.097031
 11
169.727352
 21
314.976363
  0
LINE
  8
OBRYS
 10
167.727352
 20
315.860132
 11
167.727352
 21
318.097031
  0
LINE
  8
OBRYS
 10
183.676366
 20
357.824026
 11
183.727352
 21
357.824026
  0
LINE
  8
OBRYS
 10
183.727352
 20
357.824026
 11
183.727352
 21
359.377955
  0
LINE
  8
OBRYS
 10
183.025485
 20
361.304097
 11
179.219172
 21
365.835060
  0
LINE
  8
OBRYS
 10
179.219172
 20
342.835495
 11
183.025485
 21
339.477727
  0
LINE
  8
OBRYS
 10
183.676366
 20
331.409024
 11
183.727352
 21
331.409024
  0
LINE
  8
OBRYS
 10
183.025485
 20
333.751607
 11
179.219172
 21
336.801588
  0
LINE
  8
OBRYS
 10
179.219172
 20
281.275725
 11
183.025485
 21
281.058087
  0
LINE
  8
OBRYS
 10
183.025485
 20
272.960130
 11
179.219172
 21
272.742492
  0
LINE
  8
OBRYS
 10
183.025485
 20
214.540490
 11
174.425018
 21
206.953522
  0
LINE
  8
OBRYS
 10
167.418327
 20
210.898715
 11
166.341796
 21
210.036096
  0
LINE
  8
OBRYS
 10
174.425018
 20
213.375094
 11
183.025485
 21
220.266611
  0
LINE
  8
OBRYS
 10
183.727352
 20
222.609193
 11
183.676366
 21
222.609193
  0
LINE
  8
OBRYS
 10
182.232466
 20
191.770125
 11
183.025485
 21
192.714120
  0
LINE
  8
OBRYS
 10
183.727352
 20
194.640262
 11
183.727352
 21
196.194191
  0
LINE
  8
OBRYS
 10
183.727352
 20
196.194191
 11
183.676366
 21
196.194191
  0
ARC
  8
OBRYS
 10
163.727352
 20
365.009109
 40
2.000000
 50
0.000000
 51
90.000000
  0
POLYLINE
  8
OBRYS
 66
    1
  0
VERTEX
  8
OBRYS
 10
166.727356
 20
357.303345
  0
VERTEX
  8
OBRYS
 10
166.195267
 20
357.749817
  0
VERTEX
  8
OBRYS
 10
165.847961
 20
358.351349
  0
VERTEX
  8
OBRYS
 10
165.727356
 20
359.035400
  0
SEQEND
  8
OBRYS
  0
LINE
  8
OBRYS
 10
163.727352
 20
247.292919
 11
163.727352
 21
367.009109
  0
POLYLINE
  8
OBRYS
 66
    1
  0
VERTEX
  8
OBRYS
 10
167.727356
 20
336.704681
  0
VERTEX
  8
OBRYS
 10
166.727356
 20
336.973999
  0
VERTEX
  8
OBRYS
 10
166.195267
 20
337.182251
  0
VERTEX
  8
OBRYS
 10
165.847961
 20
337.462860
  0
VERTEX
  8
OBRYS
 10
165.818130
 20
337.541809
  0
VERTEX
  8
OBRYS
 10
165.751648
 20
337.745636
  0
VERTEX
  8
OBRYS
 10
165.727356
 20
337.838745
  0
SEQEND
  8
OBRYS
  0
LINE
  8
OBRYS
 10
166.727352
 20
357.303337
 11
166.727352
 21
356.810729
  0
LINE
  8
OBRYS
 10
166.727352
 20
336.973994
 11
166.727352
 21
329.900757
  0
LINE
  8
OBRYS
 10
166.727352
 20
272.007574
 11
166.727352
 21
282.010643
  0
POLYLINE
  8
OBRYS
 66
    1
  0
VERTEX
  8
OBRYS
 10
165.727356
 20
247.476578
  0
VERTEX
  8
OBRYS
 10
165.312622
 20
247.350632
  0
VERTEX
  8
OBRYS
 10
164.727356
 20
247.292923
  0
VERTEX
  8
OBRYS
 10
158.727356
 20
247.292923
  0
SEQEND
  8
OBRYS
  0
LINE
  8
OBRYS
 10
183.676366
 20
357.824026
 11
183.727352
 21
357.824026
  0
LINE
  8
OBRYS
 10
173.119610
 20
213.601701
 11
173.119610
 21
249.238240
  0
LINE
  8
OBRYS
 10
173.119610
 20
192.663028
 11
173.119610
 21
206.119961
  0
LINE
  8
OBRYS
 10
167.727352
 20
277.009109
 11
167.727352
 21
250.296377
  0
ARC
  8
OBRYS
 10
164.720887
 20
250.296339
 40
3.005930
 50
292.544540
 51
0.016442
  0
LINE
  8
OBRYS
 10
165.875402
 20
247.521543
 11
165.727352
 21
247.476581
  0
LINE
  8
OBRYS
 10
167.727352
 20
304.238838
 11
167.727352
 21
277.009109
  0
LINE
  8
OBRYS
 10
167.727352
 20
356.605683
 11
167.727352
 21
318.097031
  0
LINE
  8
OBRYS
 10
167.727352
 20
367.009107
 11
167.727352
 21
362.345934
  0
LINE
  8
OBRYS
 10
171.727352
 20
316.324654
 11
171.727352
 21
306.161979
  0
ARC
  8
OBRYS
 10
169.868171
 20
306.162849
 40
1.861409
 50
313.587887
 51
359.802478
  0
ARC
  8
OBRYS
 10
169.752400
 20
306.250854
 40
2.009658
 50
269.824477
 51
313.609869
  0
LINE
  8
OBRYS
 10
169.727352
 20
304.238838
 11
167.727352
 21
304.238838
  0
LINE
  8
OBRYS
 10
167.727352
 20
356.945583
 11
167.727352
 21
361.163809
  0
POLYLINE
  8
OBRYS
 66
    1
  0
VERTEX
  8
OBRYS
 10
167.727356
 20
362.345947
  0
VERTEX
  8
OBRYS
 10
169.727356
 20
362.345947
  0
VERTEX
  8
OBRYS
 10
170.117538
 20
362.334717
  0
VERTEX
  8
OBRYS
 10
170.492722
 20
362.301514
  0
VERTEX
  8
OBRYS
 10
170.838501
 20
362.247620
  0
VERTEX
  8
OBRYS
 10
171.141571
 20
362.175079
  0
VERTEX
  8
OBRYS
 10
171.390289
 20
362.086670
  0
VERTEX
  8
OBRYS
 10
171.575119
 20
361.985809
  0
VERTEX
  8
OBRYS
 10
171.688919
 20
361.876373
  0
VERTEX
  8
OBRYS
 10
171.727356
 20
361.762543
  0
SEQEND
  8
OBRYS
  0
LINE
  8
OBRYS
 10
167.792223
 20
356.605683
 11
167.727352
 21
356.945583
  0
POLYLINE
  8
OBRYS
 66
    1
  0
VERTEX
  8
OBRYS
 10
167.727356
 20
318.097046
  0
VERTEX
  8
OBRYS
 10
169.727356
 20
318.097046
  0
VERTEX
  8
OBRYS
 10
170.117538
 20
318.062988
  0
VERTEX
  8
OBRYS
 10
170.492722
 20
317.962128
  0
VERTEX
  8
OBRYS
 10
170.838501
 20
317.798340
  0
VERTEX
  8
OBRYS
 10
171.141571
 20
317.577911
  0
VERTEX
  8
OBRYS
 10
171.390289
 20
317.309326
  0
VERTEX
  8
OBRYS
 10
171.575119
 20
317.002899
  0
VERTEX
  8
OBRYS
 10
171.688919
 20
316.670441
  0
VERTEX
  8
OBRYS
 10
171.727356
 20
316.324646
  0
SEQEND
  8
OBRYS
  0
POLYLINE
  8
OBRYS
 66
    1
  0
VERTEX
  8
OBRYS
 10
170.688339
 20
304.485779
  0
VERTEX
  8
OBRYS
 10
170.727356
 20
306.561462
  0
VERTEX
  8
OBRYS
 10
170.727356
 20
308.686096
  0
VERTEX
  8
OBRYS
 10
170.620911
 20
314.348938
  0
VERTEX
  8
OBRYS
 10
170.606735
 20
314.386383
  0
VERTEX
  8
OBRYS
 10
170.492722
 20
314.515961
  0
VERTEX
  8
OBRYS
 10
170.259445
 20
314.733307
  0
VERTEX
  8
OBRYS
 10
170.117538
 20
314.817017
  0
VERTEX
  8
OBRYS
 10
169.727356
 20
314.976349
  0
VERTEX
  8
OBRYS
 10
168.727356
 20
315.197296
  0
VERTEX
  8
OBRYS
 10
168.195267
 20
315.368164
  0
VERTEX
  8
OBRYS
 10
167.847961
 20
315.598358
  0
VERTEX
  8
OBRYS
 10
167.727356
 20
315.860138
  0
SEQEND
  8
OBRYS
  0
POLYLINE
  8
OBRYS
 66
    1
  0
VERTEX
  8
OBRYS
 10
170.620911
 20
314.348938
  0
VERTEX
  8
OBRYS
 10
170.838501
 20
314.241486
  0
VERTEX
  8
OBRYS
 10
171.141571
 20
314.011688
  0
VERTEX
  8
OBRYS
 10
171.390289
 20
313.731689
  0
VERTEX
  8
OBRYS
 10
171.575119
 20
313.412231
  0
VERTEX
  8
OBRYS
 10
171.688919
 20
313.065613
  0
VERTEX
  8
OBRYS
 10
171.727356
 20
312.705109
  0
SEQEND
  8
OBRYS
  0
POLYLINE
  8
OBRYS
 66
    1
  0
VERTEX
  8
OBRYS
 10
183.727356
 20
359.377960
  0
VERTEX
  8
OBRYS
 10
183.546432
 20
360.402832
  0
VERTEX
  8
OBRYS
 10
183.025482
 20
361.304108
  0
SEQEND
  8
OBRYS
  0
POLYLINE
  8
OBRYS
 66
    1
  0
VERTEX
  8
OBRYS
 10
183.025482
 20
339.477722
  0
VERTEX
  8
OBRYS
 10
183.546432
 20
338.809814
  0
VERTEX
  8
OBRYS
 10
183.727356
 20
338.050323
  0
SEQEND
  8
OBRYS
  0
LINE
  8
OBRYS
 10
179.219172
 20
336.801588
 11
179.219172
 21
342.835495
  0
POLYLINE
  8
OBRYS
 66
    1
  0
VERTEX
  8
OBRYS
 10
183.727356
 20
332.455048
  0
VERTEX
  8
OBRYS
 10
183.546432
 20
333.144928
  0
VERTEX
  8
OBRYS
 10
183.025482
 20
333.751617
  0
SEQEND
  8
OBRYS
  0
POLYLINE
  8
OBRYS
 66
    1
  0
VERTEX
  8
OBRYS
 10
183.025482
 20
281.058075
  0
VERTEX
  8
OBRYS
 10
183.546432
 20
281.014801
  0
VERTEX
  8
OBRYS
 10
183.727356
 20
280.965576
  0
SEQEND
  8
OBRYS
  0
POLYLINE
  8
OBRYS
 66
    1
  0
VERTEX
  8
OBRYS
 10
183.727356
 20
273.052643
  0
VERTEX
  8
OBRYS
 10
183.546432
 20
273.003418
  0
VERTEX
  8
OBRYS
 10
183.025482
 20
272.960144
  0
SEQEND
  8
OBRYS
  0
LINE
  8
OBRYS
 10
179.219172
 20
272.742492
 11
179.219172
 21
281.275725
  0
POLYLINE
  8
OBRYS
 66
    1
  0
VERTEX
  8
OBRYS
 10
183.727356
 20
215.967896
  0
VERTEX
  8
OBRYS
 10
183.546432
 20
215.208389
  0
VERTEX
  8
OBRYS
 10
183.025482
 20
214.540497
  0
SEQEND
  8
OBRYS
  0
POLYLINE
  8
OBRYS
 66
    1
  0
VERTEX
  8
OBRYS
 10
174.425018
 20
206.953522
  0
VERTEX
  8
OBRYS
 10
170.786346
 20
204.630066
  0
VERTEX
  8
OBRYS
 10
166.341797
 20
203.277573
  0
SEQEND
  8
OBRYS
  0
LINE
  8
OBRYS
 10
166.341796
 20
203.277571
 11
166.341796
 21
210.036096
  0
LINE
  8
OBRYS
 10
174.425018
 20
206.953522
 11
174.425018
 21
213.375094
  0
POLYLINE
  8
OBRYS
 66
    1
  0
VERTEX
  8
OBRYS
 10
183.676361
 20
222.609192
  0
VERTEX
  8
OBRYS
 10
183.546432
 20
222.115479
  0
VERTEX
  8
OBRYS
 10
183.025482
 20
221.510971
  0
VERTEX
  8
OBRYS
 10
173.119614
 20
213.601700
  0
VERTEX
  8
OBRYS
 10
169.871582
 20
211.665146
  0
VERTEX
  8
OBRYS
 10
167.418335
 20
210.898712
  0
SEQEND
  8
OBRYS
  0
POLYLINE
  8
OBRYS
 66
    1
  0
VERTEX
  8
OBRYS
 10
166.341797
 20
210.036102
  0
VERTEX
  8
OBRYS
 10
170.786346
 20
211.264618
  0
VERTEX
  8
OBRYS
 10
174.425018
 20
213.375092
  0
SEQEND
  8
OBRYS
  0
POLYLINE
  8
OBRYS
 66
    1
  0
VERTEX
  8
OBRYS
 10
183.025482
 20
220.266617
  0
VERTEX
  8
OBRYS
 10
183.546432
 20
220.873291
  0
VERTEX
  8
OBRYS
 10
183.727356
 20
221.563171
  0
SEQEND
  8
OBRYS
  0
POLYLINE
  8
OBRYS
 66
    1
  0
VERTEX
  8
OBRYS
 10
183.676361
 20
196.194199
  0
VERTEX
  8
OBRYS
 10
183.546432
 20
195.460754
  0
VERTEX
  8
OBRYS
 10
183.025482
 20
194.562698
  0
VERTEX
  8
OBRYS
 10
181.676437
 20
192.962540
  0
SEQEND
  8
OBRYS
  0
POLYLINE
  8
OBRYS
 66
    1
  0
VERTEX
  8
OBRYS
 10
183.025482
 20
192.714127
  0
VERTEX
  8
OBRYS
 10
183.546432
 20
193.615387
  0
VERTEX
  8
OBRYS
 10
183.727356
 20
194.640259
  0
SEQEND
  8
OBRYS
  0
POLYLINE
  8
OBRYS
 66
    1
  0
VERTEX
  8
OBRYS
 10
165.727356
 20
272.572327
  0
VERTEX
  8
OBRYS
 10
165.751648
 20
272.565491
  0
VERTEX
  8
OBRYS
 10
165.818130
 20
272.467102
  0
VERTEX
  8
OBRYS
 10
165.847961
 20
272.403198
  0
VERTEX
  8
OBRYS
 10
166.195267
 20
272.176117
  0
VERTEX
  8
OBRYS
 10
166.727356
 20
272.007568
  0
VERTEX
  8
OBRYS
 10
167.727356
 20
271.789612
  0
SEQEND
  8
OBRYS
  0
POLYLINE
  8
OBRYS
 66
    1
  0
VERTEX
  8
OBRYS
 10
167.727356
 20
282.228607
  0
VERTEX
  8
OBRYS
 10
166.727356
 20
282.010651
  0
VERTEX
  8
OBRYS
 10
166.195267
 20
281.842102
  0
VERTEX
  8
OBRYS
 10
165.847961
 20
281.615021
  0
VERTEX
  8
OBRYS
 10
165.818130
 20
281.551117
  0
VERTEX
  8
OBRYS
 10
165.751648
 20
281.452728
  0
VERTEX
  8
OBRYS
 10
165.727356
 20
281.445892
  0
SEQEND
  8
OBRYS
  0
LINE
  8
OBRYS
 10
165.727352
 20
365.009109
 11
165.727352
 21
235.540597
  0
POLYLINE
  8
OBRYS
 66
    1
  0
VERTEX
  8
OBRYS
 10
165.727356
 20
187.294128
  0
VERTEX
  8
OBRYS
 10
165.931000
 20
187.327789
  0
VERTEX
  8
OBRYS
 10
169.871582
 20
189.401306
  0
VERTEX
  8
OBRYS
 10
173.119614
 20
192.663025
  0
VERTEX
  8
OBRYS
 10
178.464401
 20
199.850754
  0
SEQEND
  8
OBRYS
  0
POLYLINE
  8
OBRYS
 66
    1
  0
VERTEX
  8
OBRYS
 10
165.727356
 20
331.564178
  0
VERTEX
  8
OBRYS
 10
165.751648
 20
331.461395
  0
VERTEX
  8
OBRYS
 10
165.818130
 20
331.118439
  0
VERTEX
  8
OBRYS
 10
165.847961
 20
330.949127
  0
VERTEX
  8
OBRYS
 10
166.195267
 20
330.347382
  0
VERTEX
  8
OBRYS
 10
166.727356
 20
329.900757
  0
VERTEX
  8
OBRYS
 10
167.727356
 20
329.323212
  0
SEQEND
  8
OBRYS
  0
LINE
  8
OBRYS
 10
183.727352
 20
196.194191
 11
183.727352
 21
212.009109
  0
LINE
  8
OBRYS
 10
183.727352
 20
220.533249
 11
183.727352
 21
244.509109
  0
LINE
  8
OBRYS
 10
183.727352
 20
342.009109
 11
183.727352
 21
357.824026
  0
LINE
  8
OBRYS
 10
183.727352
 20
274.009109
 11
183.727352
 21
250.348276
  0
LINE
  8
OBRYS
 10
183.727352
 20
244.509109
 11
183.727352
 21
250.348276
  0
LINE
  8
OBRYS
 10
183.727352
 20
212.009109
 11
183.727352
 21
220.533249
  0
LINE
  8
OBRYS
 10
183.727352
 20
342.009109
 11
183.727352
 21
333.484968
  0
LINE
  8
OBRYS
 10
183.727352
 20
317.062198
 11
183.727352
 21
333.484968
  0
LINE
  8
OBRYS
 10
183.727352
 20
274.009109
 11
183.727352
 21
285.108085
  0
LINE
  8
OBRYS
 10
183.727352
 20
317.062198
 11
183.727352
 21
285.108085
  0
LINE
  8
OBRYS
 10
183.025485
 20
215.910421
 11
183.025485
 21
220.266611
  0
LINE
  8
OBRYS
 10
183.025485
 20
273.048924
 11
183.025485
 21
281.058087
  0
LINE
  8
OBRYS
 10
183.025485
 20
333.751607
 11
183.025485
 21
338.107796
  0
POLYLINE
  8
OBRYS
 66
    1
  0
VERTEX
  8
OBRYS
 10
171.727356
 20
360.158264
  0
VERTEX
  8
OBRYS
 10
171.727356
 20
357.553040
  0
VERTEX
  8
OBRYS
 10
171.688919
 20
357.368225
  0
VERTEX
  8
OBRYS
 10
171.575119
 20
357.190491
  0
VERTEX
  8
OBRYS
 10
171.390289
 20
357.026703
  0
VERTEX
  8
OBRYS
 10
171.141571
 20
356.883148
  0
VERTEX
  8
OBRYS
 10
170.838501
 20
356.765350
  0
VERTEX
  8
OBRYS
 10
170.492722
 20
356.677795
  0
VERTEX
  8
OBRYS
 10
170.117538
 20
356.623901
  0
VERTEX
  8
OBRYS
 10
169.727356
 20
356.605682
  0
VERTEX
  8
OBRYS
 10
167.727356
 20
356.605682
  0
SEQEND
  8
OBRYS
  0
POLYLINE
  8
OBRYS
 66
    1
  0
VERTEX
  8
OBRYS
 10
167.727356
 20
356.211914
  0
VERTEX
  8
OBRYS
 10
166.727356
 20
356.810730
  0
VERTEX
  8
OBRYS
 10
166.195267
 20
357.273804
  0
VERTEX
  8
OBRYS
 10
165.847961
 20
357.897705
  0
VERTEX
  8
OBRYS
 10
165.818130
 20
358.073242
  0
VERTEX
  8
OBRYS
 10
165.751648
 20
358.459930
  0
VERTEX
  8
OBRYS
 10
165.727356
 20
358.598389
  0
SEQEND
  8
OBRYS
  0
LINE
  8
OBRYS
 10
197.727352
 20
148.009109
 11
201.727352
 21
148.009109
  0
LINE
  8
OBRYS
 10
203.727352
 20
146.009109
 11
203.727352
 21
135.009109
  0
ARC
  8
OBRYS
 10
201.727352
 20
146.009109
 40
2.000000
 50
0.000000
 51
90.000000
  0
LINE
  8
OBRYS
 10
178.464406
 20
199.850754
 11
202.777457
 21
147.711248
  0
LINE
  8
OBRYS
 62
     4
  6
HIDDEN2
 10
181.727352
 20
148.009109
 11
181.727352
 21
135.009109
  0
LINE
  8
OBRYS
 62
     4
  6
HIDDEN2
 10
192.727352
 20
148.009109
 11
192.727352
 21
135.009109
  0
LINE
  8
OBRYS
 62
     7
  6
DASHDOT
 10
187.227352
 20
150.685302
 11
187.227352
 21
130.209109
  0
LINE
  8
OBRYS
 10
163.727352
 20
367.009109
 11
156.727352
 21
367.009109
  0
LINE
  8
OBRYS
 10
158.727352
 20
187.009109
 11
156.727352
 21
187.009109
  0
ENDBLK
  8
OBRYS
  0
BLOCK
  8
OBRYS
  2
_10
 70
   64
 10
68.727352
 20
277.009109
  0
LINE
  8
OBRYS
 10
24.677246
 20
147.711248
 11
45.222238
 21
191.770125
  0
ARC
  8
OBRYS
 10
25.727352
 20
146.009109
 40
2.000000
 50
90.000000
 51
180.000000
  0
LINE
  8
OBRYS
 10
23.727352
 20
135.009109
 11
23.727352
 21
146.009109
  0
LINE
  8
OBRYS
 10
29.727352
 20
148.009109
 11
25.727352
 21
148.009109
  0
POLYLINE
  8
OBRYS
 66
    1
  0
VERTEX
  8
OBRYS
 10
55.727352
 20
360.158264
  0
VERTEX
  8
OBRYS
 10
55.727352
 20
357.553040
  0
VERTEX
  8
OBRYS
 10
55.765781
 20
357.368225
  0
VERTEX
  8
OBRYS
 10
55.879593
 20
357.190491
  0
VERTEX
  8
OBRYS
 10
56.064411
 20
357.026703
  0
VERTEX
  8
OBRYS
 10
56.313137
 20
356.883148
  0
VERTEX
  8
OBRYS
 10
56.616211
 20
356.765350
  0
VERTEX
  8
OBRYS
 10
56.961983
 20
356.677795
  0
VERTEX
  8
OBRYS
 10
57.337170
 20
356.623901
  0
VERTEX
  8
OBRYS
 10
57.727352
 20
356.605682
  0
VERTEX
  8
OBRYS
 10
59.727352
 20
356.605682
  0
SEQEND
  8
OBRYS
  0
POLYLINE
  8
OBRYS
 66
    1
  0
VERTEX
  8
OBRYS
 10
62.727352
 20
356.320190
  0
VERTEX
  8
OBRYS
 10
62.313137
 20
356.064484
  0
VERTEX
  8
OBRYS
 10
61.879593
 20
355.465027
  0
VERTEX
  8
OBRYS
 10
61.727352
 20
354.757935
  0
SEQEND
  8
OBRYS
  0
POLYLINE
  8
OBRYS
 66
    1
  0
VERTEX
  8
OBRYS
 10
62.727352
 20
359.884705
  0
VERTEX
  8
OBRYS
 10
62.721325
 20
359.869049
  0
VERTEX
  8
OBRYS
 10
62.727352
 20
359.853394
  0
SEQEND
  8
OBRYS
  0
LINE
  8
OBRYS
 10
61.727352
 20
327.171049
 11
61.727352
 21
314.506467
  0
LINE
  8
OBRYS
 10
61.727352
 20
327.171049
 11
61.727352
 21
331.118426
  0
LINE
  8
OBRYS
 10
61.727352
 20
354.757925
 11
61.727352
 21
331.118426
  0
LINE
  8
OBRYS
 10
68.727352
 20
198.174867
 11
68.727352
 21
367.009109
  0
POLYLINE
  8
OBRYS
 66
    1
  0
VERTEX
  8
OBRYS
 10
61.727352
 20
360.498169
  0
VERTEX
  8
OBRYS
 10
61.879593
 20
361.205292
  0
VERTEX
  8
OBRYS
 10
62.313137
 20
361.804749
  0
VERTEX
  8
OBRYS
 10
62.727352
 20
362.060455
  0
SEQEND
  8
OBRYS
  0
POLYLINE
  8
OBRYS
 66
    1
  0
VERTEX
  8
OBRYS
 10
61.727352
 20
317.331665
  0
VERTEX
  8
OBRYS
 10
61.879593
 20
317.624573
  0
VERTEX
  8
OBRYS
 10
62.313137
 20
317.872864
  0
VERTEX
  8
OBRYS
 10
62.727352
 20
317.978790
  0
SEQEND
  8
OBRYS
  0
LINE
  8
OBRYS
 10
61.727352
 20
314.506467
 11
61.727352
 21
314.935563
  0
LINE
  8
OBRYS
 10
62.727352
 20
357.343351
 11
62.727352
 21
356.320189
  0
POLYLINE
  8
OBRYS
 66
    1
  0
VERTEX
  8
OBRYS
 10
61.671173
 20
272.585144
  0
VERTEX
  8
OBRYS
 10
61.601250
 20
272.565491
  0
VERTEX
  8
OBRYS
 10
61.546429
 20
272.484344
  0
VERTEX
  8
OBRYS
 10
61.508278
 20
272.467102
  0
VERTEX
  8
OBRYS
 10
61.025482
 20
272.151428
  0
VERTEX
  8
OBRYS
 10
60.227352
 20
271.898590
  0
VERTEX
  8
OBRYS
 10
59.727352
 20
271.789612
  0
SEQEND
  8
OBRYS
  0
POLYLINE
  8
OBRYS
 66
    1
  0
VERTEX
  8
OBRYS
 10
59.727352
 20
329.323212
  0
VERTEX
  8
OBRYS
 10
60.227352
 20
329.612000
  0
VERTEX
  8
OBRYS
 10
61.025482
 20
330.281921
  0
VERTEX
  8
OBRYS
 10
61.508278
 20
331.118439
  0
VERTEX
  8
OBRYS
 10
61.546429
 20
331.178558
  0
VERTEX
  8
OBRYS
 10
61.601250
 20
331.461395
  0
VERTEX
  8
OBRYS
 10
61.671173
 20
331.757111
  0
VERTEX
  8
OBRYS
 10
61.727352
 20
331.945404
  0
SEQEND
  8
OBRYS
  0
POLYLINE
  8
OBRYS
 66
    1
  0
VERTEX
  8
OBRYS
 10
59.727352
 20
282.228607
  0
VERTEX
  8
OBRYS
 10
60.227352
 20
282.119629
  0
VERTEX
  8
OBRYS
 10
61.025482
 20
281.866791
  0
VERTEX
  8
OBRYS
 10
61.508278
 20
281.551117
  0
VERTEX
  8
OBRYS
 10
61.546429
 20
281.533875
  0
VERTEX
  8
OBRYS
 10
61.601250
 20
281.452728
  0
VERTEX
  8
OBRYS
 10
61.671173
 20
281.433075
  0
SEQEND
  8
OBRYS
  0
LINE
  8
OBRYS
 10
61.581211
 20
358.343351
 11
61.727352
 21
359.172328
  0
LINE
  8
OBRYS
 10
60.227352
 20
329.611986
 11
60.227352
 21
336.839338
  0
LINE
  8
OBRYS
 10
60.227352
 20
271.898599
 11
60.227352
 21
282.119618
  0
POLYLINE
  8
OBRYS
 66
    1
  0
VERTEX
  8
OBRYS
 10
61.727352
 20
338.269135
  0
VERTEX
  8
OBRYS
 10
61.671173
 20
338.013519
  0
VERTEX
  8
OBRYS
 10
61.601250
 20
337.745636
  0
VERTEX
  8
OBRYS
 10
61.546429
 20
337.577545
  0
VERTEX
  8
OBRYS
 10
61.508278
 20
337.541809
  0
VERTEX
  8
OBRYS
 10
61.025482
 20
337.151733
  0
VERTEX
  8
OBRYS
 10
60.227352
 20
336.839325
  0
VERTEX
  8
OBRYS
 10
59.727352
 20
336.704681
  0
SEQEND
  8
OBRYS
  0
LINE
  8
OBRYS
 10
61.727352
 20
281.480668
 11
61.671174
 21
281.433065
  0
LINE
  8
OBRYS
 10
61.671174
 20
272.585152
 11
61.727352
 21
272.537550
  0
POLYLINE
  8
OBRYS
 66
    1
  0
VERTEX
  8
OBRYS
 10
62.727352
 20
317.978790
  0
VERTEX
  8
OBRYS
 10
62.727352
 20
311.368591
  0
VERTEX
  8
OBRYS
 10
62.721325
 20
311.330811
  0
VERTEX
  8
OBRYS
 10
62.727352
 20
311.293060
  0
VERTEX
  8
OBRYS
 10
62.727352
 20
304.120575
  0
VERTEX
  8
OBRYS
 10
62.313137
 20
304.014679
  0
VERTEX
  8
OBRYS
 10
61.879593
 20
303.766357
  0
VERTEX
  8
OBRYS
 10
61.727352
 20
303.473480
  0
SEQEND
  8
OBRYS
  0
POLYLINE
  8
OBRYS
 66
    1
  0
VERTEX
  8
OBRYS
 10
61.727352
 20
250.544739
  0
VERTEX
  8
OBRYS
 10
61.879593
 20
250.251846
  0
VERTEX
  8
OBRYS
 10
62.313137
 20
250.003555
  0
VERTEX
  8
OBRYS
 10
62.727352
 20
249.897629
  0
VERTEX
  8
OBRYS
 10
62.727352
 20
247.292923
  0
SEQEND
  8
OBRYS
  0
POLYLINE
  8
OBRYS
 66
    1
  0
VERTEX
  8
OBRYS
 10
61.727352
 20
359.612732
  0
VERTEX
  8
OBRYS
 10
61.546429
 20
358.586670
  0
VERTEX
  8
OBRYS
 10
61.405945
 20
358.343353
  0
SEQEND
  8
OBRYS
  0
ARC
  8
OBRYS
 10
63.727352
 20
365.009109
 40
2.000000
 50
90.000000
 51
180.000000
  0
LINE
  8
OBRYS
 10
63.727352
 20
367.009109
 11
63.727352
 21
247.292919
  0
LINE
  8
OBRYS
 10
61.727352
 20
365.009109
 11
61.727352
 21
360.498177
  0
LINE
  8
OBRYS
 10
61.727352
 20
303.473471
 11
61.727352
 21
250.544746
  0
POLYLINE
  8
OBRYS
 66
    1
  0
VERTEX
  8
OBRYS
 10
56.833797
 20
314.348938
  0
VERTEX
  8
OBRYS
 10
56.616211
 20
314.241486
  0
VERTEX
  8
OBRYS
 10
56.313137
 20
314.011688
  0
VERTEX
  8
OBRYS
 10
56.064411
 20
313.731689
  0
VERTEX
  8
OBRYS
 10
55.879593
 20
313.412231
  0
VERTEX
  8
OBRYS
 10
55.765781
 20
313.065613
  0
VERTEX
  8
OBRYS
 10
55.727352
 20
312.705109
  0
SEQEND
  8
OBRYS
  0
POLYLINE
  8
OBRYS
 66
    1
  0
VERTEX
  8
OBRYS
 10
56.766369
 20
304.485779
  0
VERTEX
  8
OBRYS
 10
56.727352
 20
306.561462
  0
VERTEX
  8
OBRYS
 10
56.727352
 20
308.686096
  0
VERTEX
  8
OBRYS
 10
56.833797
 20
314.348938
  0
VERTEX
  8
OBRYS
 10
56.847965
 20
314.386383
  0
VERTEX
  8
OBRYS
 10
56.961983
 20
314.515961
  0
VERTEX
  8
OBRYS
 10
57.195263
 20
314.733307
  0
VERTEX
  8
OBRYS
 10
57.337170
 20
314.817017
  0
VERTEX
  8
OBRYS
 10
57.727352
 20
314.976349
  0
VERTEX
  8
OBRYS
 10
58.727352
 20
315.197296
  0
VERTEX
  8
OBRYS
 10
59.259438
 20
315.368164
  0
VERTEX
  8
OBRYS
 10
59.606735
 20
315.598358
  0
VERTEX
  8
OBRYS
 10
59.727352
 20
315.860138
  0
SEQEND
  8
OBRYS
  0
POLYLINE
  8
OBRYS
 66
    1
  0
VERTEX
  8
OBRYS
 10
59.727352
 20
318.097046
  0
VERTEX
  8
OBRYS
 10
57.727352
 20
318.097046
  0
VERTEX
  8
OBRYS
 10
57.337170
 20
318.062988
  0
VERTEX
  8
OBRYS
 10
56.961983
 20
317.962128
  0
VERTEX
  8
OBRYS
 10
56.616211
 20
317.798340
  0
VERTEX
  8
OBRYS
 10
56.313137
 20
317.577911
  0
VERTEX
  8
OBRYS
 10
56.064411
 20
317.309326
  0
VERTEX
  8
OBRYS
 10
55.879593
 20
317.002899
  0
VERTEX
  8
OBRYS
 10
55.765781
 20
316.670441
  0
VERTEX
  8
OBRYS
 10
55.727352
 20
316.324646
  0
SEQEND
  8
OBRYS
  0
POLYLINE
  8
OBRYS
 66
    1
  0
VERTEX
  8
OBRYS
 10
59.727352
 20
362.345947
  0
VERTEX
  8
OBRYS
 10
57.727352
 20
362.345947
  0
VERTEX
  8
OBRYS
 10
57.337170
 20
362.334717
  0
VERTEX
  8
OBRYS
 10
56.961983
 20
362.301514
  0
VERTEX
  8
OBRYS
 10
56.616211
 20
362.247620
  0
VERTEX
  8
OBRYS
 10
56.313137
 20
362.175079
  0
VERTEX
  8
OBRYS
 10
56.064411
 20
362.086670
  0
VERTEX
  8
OBRYS
 10
55.879593
 20
361.985809
  0
VERTEX
  8
OBRYS
 10
55.765781
 20
361.876373
  0
VERTEX
  8
OBRYS
 10
55.727352
 20
361.762543
  0
SEQEND
  8
OBRYS
  0
LINE
  8
OBRYS
 10
57.727352
 20
304.238838
 11
59.727352
 21
304.238838
  0
ARC
  8
OBRYS
 10
57.702303
 20
306.250854
 40
2.009658
 50
226.390131
 51
270.175523
  0
ARC
  8
OBRYS
 10
57.586533
 20
306.162849
 40
1.861409
 50
180.197522
 51
226.412113
  0
LINE
  8
OBRYS
 10
55.727352
 20
316.324654
 11
55.727352
 21
306.161979
  0
LINE
  8
OBRYS
 10
59.727352
 20
367.009107
 11
59.727352
 21
362.345934
  0
LINE
  8
OBRYS
 10
59.727352
 20
356.605683
 11
59.727352
 21
318.097031
  0
LINE
  8
OBRYS
 10
59.727352
 20
304.238838
 11
59.727352
 21
277.009109
  0
LINE
  8
OBRYS
 10
61.579302
 20
247.521543
 11
61.727352
 21
247.476581
  0
ARC
  8
OBRYS
 10
62.733817
 20
250.296339
 40
3.005930
 50
179.983558
 51
247.455460
  0
LINE
  8
OBRYS
 10
59.727352
 20
277.009109
 11
59.727352
 21
250.296377
  0
POLYLINE
  8
OBRYS
 66
    1
  0
VERTEX
  8
OBRYS
 10
61.727352
 20
247.476578
  0
VERTEX
  8
OBRYS
 10
62.142078
 20
247.350632
  0
VERTEX
  8
OBRYS
 10
62.727352
 20
247.292923
  0
VERTEX
  8
OBRYS
 10
68.727356
 20
247.292923
  0
SEQEND
  8
OBRYS
  0
LINE
  8
OBRYS
 10
62.727352
 20
358.343351
 11
62.727352
 21
356.320189
  0
LINE
  8
OBRYS
 10
62.727352
 20
304.120582
 11
62.727352
 21
311.332345
  0
LINE
  8
OBRYS
 10
57.727352
 20
304.238838
 11
57.727352
 21
314.506467
  0
LINE
  8
OBRYS
 10
62.727352
 20
247.292919
 11
62.727352
 21
249.934892
  0
LINE
  8
OBRYS
 10
61.727352
 20
358.343351
 11
61.727352
 21
360.498177
  0
LINE
  8
OBRYS
 10
62.727352
 20
359.853406
 11
62.727352
 21
356.320189
  0
LINE
  8
OBRYS
 10
62.727352
 20
362.060441
 11
62.727352
 21
359.884697
  0
LINE
  8
OBRYS
 10
62.727352
 20
314.935563
 11
61.727352
 21
314.935563
  0
LINE
  8
OBRYS
 10
61.727352
 20
272.467095
 11
61.508281
 21
272.467095
  0
LINE
  8
OBRYS
 10
59.727352
 20
262.333687
 11
61.727352
 21
262.333687
  0
LINE
  8
OBRYS
 10
61.727352
 20
260.435372
 11
59.727352
 21
260.435372
  0
LINE
  8
OBRYS
 10
61.727352
 20
331.118426
 11
61.508281
 21
331.118426
  0
LINE
  8
OBRYS
 10
57.727352
 20
304.266245
 11
57.437960
 21
304.266245
  0
LINE
  8
OBRYS
 10
61.727352
 20
293.582845
 11
59.727352
 21
293.582845
  0
LINE
  8
OBRYS
 10
61.727352
 20
291.684530
 11
59.727352
 21
291.684530
  0
LINE
  8
OBRYS
 10
61.508281
 20
281.551122
 11
61.727352
 21
281.551122
  0
LINE
  8
OBRYS
 10
63.727352
 20
367.009109
 11
68.727352
 21
367.009109
  0
LINE
  8
OBRYS
 10
59.727352
 20
315.860132
 11
59.727352
 21
318.097031
  0
LINE
  8
OBRYS
 10
57.727352
 20
318.097031
 11
57.727352
 21
314.976363
  0
LINE
  8
OBRYS
 10
59.727352
 20
358.343351
 11
59.727352
 21
362.345934
  0
LINE
  8
OBRYS
 10
57.727352
 20
362.345934
 11
57.727352
 21
356.605683
  0
LINE
  8
OBRYS
 10
55.727352
 20
361.762556
 11
55.727352
 21
357.553038
  0
LINE
  8
OBRYS
 10
60.727352
 20
351.843351
 11
59.727352
 21
351.843351
  0
LINE
  8
OBRYS
 10
61.727352
 20
345.343351
 11
59.727352
 21
345.343351
  0
LINE
  8
OBRYS
 10
57.727352
 20
358.343351
 11
62.727352
 21
358.343351
  0
LINE
  8
OBRYS
 10
60.727352
 20
308.006467
 11
57.727352
 21
308.006467
  0
LINE
  8
OBRYS
 10
61.727352
 20
301.506467
 11
59.727352
 21
301.506467
  0
LINE
  8
OBRYS
 10
57.727352
 20
314.506467
 11
62.727352
 21
314.506467
  0
LINE
  8
OBRYS
 10
59.727352
 20
252.511751
 11
61.727352
 21
252.511751
  0
ARC
  8
OBRYS
 10
59.727352
 20
150.009109
 40
2.000000
 50
270.000000
 51
360.000000
  0
LINE
  8
OBRYS
 10
59.727352
 20
148.009109
 11
29.727352
 21
148.009109
  0
LINE
  8
OBRYS
 10
61.727352
 20
150.009109
 11
61.727352
 21
235.540597
  0
POLYLINE
  8
OBRYS
 66
    1
  0
VERTEX
  8
OBRYS
 10
48.235531
 20
272.742493
  0
VERTEX
  8
OBRYS
 10
49.265808
 20
272.704559
  0
VERTEX
  8
OBRYS
 10
50.797237
 20
272.688263
  0
SEQEND
  8
OBRYS
  0
LINE
  8
OBRYS
 10
50.440149
 20
337.306629
 11
50.440149
 21
277.009109
  0
LINE
  8
OBRYS
 10
61.727352
 20
235.540597
 11
61.523712
 21
235.603570
  0
LINE
  8
OBRYS
 10
61.523712
 20
235.603570
 11
57.583125
 21
239.482844
  0
LINE
  8
OBRYS
 10
57.583125
 20
239.482844
 11
57.451632
 21
239.729888
  0
LINE
  8
OBRYS
 10
57.451632
 20
239.729888
 11
54.335093
 21
249.238240
  0
LINE
  8
OBRYS
 10
54.335093
 20
249.238240
 11
51.919653
 21
259.106996
  0
LINE
  8
OBRYS
 10
51.919653
 20
259.106996
 11
50.440149
 21
277.009109
  0
LINE
  8
OBRYS
 10
59.727352
 20
277.009109
 11
50.440149
 21
277.009109
  0
POLYLINE
  8
OBRYS
 66
    1
  0
VERTEX
  8
OBRYS
 10
50.440147
 20
281.326141
  0
VERTEX
  8
OBRYS
 10
49.265808
 20
281.313660
  0
VERTEX
  8
OBRYS
 10
48.235531
 20
281.275726
  0
SEQEND
  8
OBRYS
  0
POLYLINE
  8
OBRYS
 66
    1
  0
VERTEX
  8
OBRYS
 10
48.235531
 20
365.835052
  0
VERTEX
  8
OBRYS
 10
49.265808
 20
366.624725
  0
VERTEX
  8
OBRYS
 10
50.440147
 20
367.009094
  0
SEQEND
  8
OBRYS
  0
POLYLINE
  8
OBRYS
 66
    1
  0
VERTEX
  8
OBRYS
 10
50.440147
 20
367.009094
  0
VERTEX
  8
OBRYS
 10
50.440147
 20
367.009094
  0
VERTEX
  8
OBRYS
 10
44.429218
 20
359.455505
  0
VERTEX
  8
OBRYS
 10
43.908272
 20
358.557465
  0
VERTEX
  8
OBRYS
 10
43.778336
 20
357.824036
  0
SEQEND
  8
OBRYS
  0
LINE
  8
OBRYS
 10
50.440149
 20
367.009109
 11
50.440149
 21
337.306629
  0
POLYLINE
  8
OBRYS
 66
    1
  0
VERTEX
  8
OBRYS
 10
48.235531
 20
336.801575
  0
VERTEX
  8
OBRYS
 10
49.265808
 20
337.333130
  0
VERTEX
  8
OBRYS
 10
50.440147
 20
337.508179
  0
SEQEND
  8
OBRYS
  0
POLYLINE
  8
OBRYS
 66
    1
  0
VERTEX
  8
OBRYS
 10
48.235531
 20
342.835480
  0
VERTEX
  8
OBRYS
 10
49.265808
 20
343.420685
  0
VERTEX
  8
OBRYS
 10
50.440147
 20
343.613403
  0
SEQEND
  8
OBRYS
  0
POLYLINE
  8
OBRYS
 66
    1
  0
VERTEX
  8
OBRYS
 10
50.440147
 20
337.306641
  0
VERTEX
  8
OBRYS
 10
50.440147
 20
337.306641
  0
VERTEX
  8
OBRYS
 10
44.429218
 20
332.507263
  0
VERTEX
  8
OBRYS
 10
43.908272
 20
331.902740
  0
VERTEX
  8
OBRYS
 10
43.778336
 20
331.409027
  0
SEQEND
  8
OBRYS
  0
LINE
  8
OBRYS
 10
61.727352
 20
135.009109
 11
23.727352
 21
135.009109
  0
LINE
  8
OBRYS
 10
29.727352
 20
135.009109
 11
61.727352
 21
135.009109
  0
LINE
  8
OBRYS
 10
68.727352
 20
247.292919
 11
68.727352
 21
135.009109
  0
LINE
  8
OBRYS
 10
68.727352
 20
135.009109
 11
61.727352
 21
135.009109
  0
LINE
  8
OBRYS
 10
68.727352
 20
137.009109
 11
68.727352
 21
135.009109
  0
LINE
  8
OBRYS
 10
59.727352
 20
367.009107
 11
50.440149
 21
367.009109
  0
LINE
  8
OBRYS
 10
48.990297
 20
199.850754
 11
24.816141
 21
148.009109
  0
LINE
  8
OBRYS
 10
43.778337
 20
357.824026
 11
43.727352
 21
357.824026
  0
LINE
  8
OBRYS
 10
43.727352
 20
357.824026
 11
43.727352
 21
359.377955
  0
LINE
  8
OBRYS
 10
44.429219
 20
361.304097
 11
48.235531
 21
365.835060
  0
LINE
  8
OBRYS
 10
48.235531
 20
342.835495
 11
44.429219
 21
339.477727
  0
LINE
  8
OBRYS
 10
43.778337
 20
331.409024
 11
43.727352
 21
331.409024
  0
LINE
  8
OBRYS
 10
44.429219
 20
333.751607
 11
48.235531
 21
336.801588
  0
LINE
  8
OBRYS
 10
48.235531
 20
281.275725
 11
44.429219
 21
281.058087
  0
LINE
  8
OBRYS
 10
44.429219
 20
272.960130
 11
48.235531
 21
272.742492
  0
LINE
  8
OBRYS
 10
44.429219
 20
214.540490
 11
53.029686
 21
206.953522
  0
LINE
  8
OBRYS
 10
60.036377
 20
210.898715
 11
61.112908
 21
210.036096
  0
LINE
  8
OBRYS
 10
53.029686
 20
213.375094
 11
44.429219
 21
220.266611
  0
LINE
  8
OBRYS
 10
43.727352
 20
222.609193
 11
43.778337
 21
222.609193
  0
LINE
  8
OBRYS
 10
45.222238
 20
191.770125
 11
44.429219
 21
192.714120
  0
LINE
  8
OBRYS
 10
43.727352
 20
194.640262
 11
43.727352
 21
196.194191
  0
LINE
  8
OBRYS
 10
43.727352
 20
196.194191
 11
43.778337
 21
196.194191
  0
LINE
  8
OBRYS
 10
43.778337
 20
357.824026
 11
43.727352
 21
357.824026
  0
LINE
  8
OBRYS
 10
54.335093
 20
213.601701
 11
54.335093
 21
249.238240
  0
LINE
  8
OBRYS
 10
54.335093
 20
192.663028
 11
54.335093
 21
206.119961
  0
POLYLINE
  8
OBRYS
 66
    1
  0
VERTEX
  8
OBRYS
 10
43.727352
 20
359.377960
  0
VERTEX
  8
OBRYS
 10
43.908272
 20
360.402832
  0
VERTEX
  8
OBRYS
 10
44.429218
 20
361.304108
  0
SEQEND
  8
OBRYS
  0
POLYLINE
  8
OBRYS
 66
    1
  0
VERTEX
  8
OBRYS
 10
44.429218
 20
339.477722
  0
VERTEX
  8
OBRYS
 10
43.908272
 20
338.809814
  0
VERTEX
  8
OBRYS
 10
43.727352
 20
338.050323
  0
SEQEND
  8
OBRYS
  0
LINE
  8
OBRYS
 10
48.235531
 20
336.801588
 11
48.235531
 21
342.835495
  0
POLYLINE
  8
OBRYS
 66
    1
  0
VERTEX
  8
OBRYS
 10
43.727352
 20
332.455048
  0
VERTEX
  8
OBRYS
 10
43.908272
 20
333.144928
  0
VERTEX
  8
OBRYS
 10
44.429218
 20
333.751617
  0
SEQEND
  8
OBRYS
  0
POLYLINE
  8
OBRYS
 66
    1
  0
VERTEX
  8
OBRYS
 10
44.429218
 20
281.058075
  0
VERTEX
  8
OBRYS
 10
43.908272
 20
281.014801
  0
VERTEX
  8
OBRYS
 10
43.727352
 20
280.965576
  0
SEQEND
  8
OBRYS
  0
POLYLINE
  8
OBRYS
 66
    1
  0
VERTEX
  8
OBRYS
 10
43.727352
 20
273.052643
  0
VERTEX
  8
OBRYS
 10
43.908272
 20
273.003418
  0
VERTEX
  8
OBRYS
 10
44.429218
 20
272.960144
  0
SEQEND
  8
OBRYS
  0
LINE
  8
OBRYS
 10
48.235531
 20
272.742492
 11
48.235531
 21
281.275725
  0
POLYLINE
  8
OBRYS
 66
    1
  0
VERTEX
  8
OBRYS
 10
43.727352
 20
215.967896
  0
VERTEX
  8
OBRYS
 10
43.908272
 20
215.208389
  0
VERTEX
  8
OBRYS
 10
44.429218
 20
214.540497
  0
SEQEND
  8
OBRYS
  0
POLYLINE
  8
OBRYS
 66
    1
  0
VERTEX
  8
OBRYS
 10
53.029686
 20
206.953522
  0
VERTEX
  8
OBRYS
 10
56.668358
 20
204.630066
  0
VERTEX
  8
OBRYS
 10
61.112907
 20
203.277573
  0
SEQEND
  8
OBRYS
  0
LINE
  8
OBRYS
 10
61.112908
 20
203.277571
 11
61.112908
 21
210.036096
  0
LINE
  8
OBRYS
 10
53.029686
 20
206.953522
 11
53.029686
 21
213.375094
  0
POLYLINE
  8
OBRYS
 66
    1
  0
VERTEX
  8
OBRYS
 10
43.778336
 20
222.609192
  0
VERTEX
  8
OBRYS
 10
43.908272
 20
222.115479
  0
VERTEX
  8
OBRYS
 10
44.429218
 20
221.510971
  0
VERTEX
  8
OBRYS
 10
54.335091
 20
213.601700
  0
VERTEX
  8
OBRYS
 10
57.583122
 20
211.665146
  0
VERTEX
  8
OBRYS
 10
60.036377
 20
210.898712
  0
SEQEND
  8
OBRYS
  0
POLYLINE
  8
OBRYS
 66
    1
  0
VERTEX
  8
OBRYS
 10
61.112907
 20
210.036102
  0
VERTEX
  8
OBRYS
 10
56.668358
 20
211.264618
  0
VERTEX
  8
OBRYS
 10
53.029686
 20
213.375092
  0
SEQEND
  8
OBRYS
  0
POLYLINE
  8
OBRYS
 66
    1
  0
VERTEX
  8
OBRYS
 10
44.429218
 20
220.266617
  0
VERTEX
  8
OBRYS
 10
43.908272
 20
220.873291
  0
VERTEX
  8
OBRYS
 10
43.727352
 20
221.563171
  0
SEQEND
  8
OBRYS
  0
POLYLINE
  8
OBRYS
 66
    1
  0
VERTEX
  8
OBRYS
 10
43.778336
 20
196.194199
  0
VERTEX
  8
OBRYS
 10
43.908272
 20
195.460754
  0
VERTEX
  8
OBRYS
 10
44.429218
 20
194.562698
  0
VERTEX
  8
OBRYS
 10
45.778267
 20
192.962540
  0
SEQEND
  8
OBRYS
  0
POLYLINE
  8
OBRYS
 66
    1
  0
VERTEX
  8
OBRYS
 10
44.429218
 20
192.714127
  0
VERTEX
  8
OBRYS
 10
43.908272
 20
193.615387
  0
VERTEX
  8
OBRYS
 10
43.727352
 20
194.640259
  0
SEQEND
  8
OBRYS
  0
POLYLINE
  8
OBRYS
 66
    1
  0
VERTEX
  8
OBRYS
 10
61.727352
 20
187.294128
  0
VERTEX
  8
OBRYS
 10
61.523708
 20
187.327789
  0
VERTEX
  8
OBRYS
 10
57.583122
 20
189.401306
  0
VERTEX
  8
OBRYS
 10
54.335091
 20
192.663025
  0
VERTEX
  8
OBRYS
 10
48.990295
 20
199.850754
  0
SEQEND
  8
OBRYS
  0
LINE
  8
OBRYS
 10
43.727352
 20
196.194191
 11
43.727352
 21
212.009109
  0
LINE
  8
OBRYS
 10
43.727352
 20
220.533249
 11
43.727352
 21
244.509109
  0
LINE
  8
OBRYS
 10
43.727352
 20
342.009109
 11
43.727352
 21
357.824026
  0
LINE
  8
OBRYS
 10
43.727352
 20
274.009109
 11
43.727352
 21
250.348276
  0
LINE
  8
OBRYS
 10
43.727352
 20
244.509109
 11
43.727352
 21
250.348276
  0
LINE
  8
OBRYS
 10
43.727352
 20
212.009109
 11
43.727352
 21
220.533249
  0
LINE
  8
OBRYS
 10
43.727352
 20
342.009109
 11
43.727352
 21
333.484968
  0
LINE
  8
OBRYS
 10
43.727352
 20
317.062198
 11
43.727352
 21
333.484968
  0
LINE
  8
OBRYS
 10
43.727352
 20
274.009109
 11
43.727352
 21
285.108085
  0
LINE
  8
OBRYS
 10
43.727352
 20
317.062198
 11
43.727352
 21
285.108085
  0
LINE
  8
OBRYS
 10
44.429219
 20
215.910421
 11
44.429219
 21
220.266611
  0
LINE
  8
OBRYS
 10
44.429219
 20
273.048924
 11
44.429219
 21
281.058087
  0
LINE
  8
OBRYS
 10
44.429219
 20
333.751607
 11
44.429219
 21
338.107796
  0
LINE
  8
OBRYS
 62
     7
  6
DASHDOT
 10
40.227352
 20
150.685302
 11
40.227352
 21
130.209109
  0
LINE
  8
OBRYS
 62
     4
  6
HIDDEN2
 10
34.727352
 20
148.009109
 11
34.727352
 21
135.009109
  0
LINE
  8
OBRYS
 62
     4
  6
HIDDEN2
 10
45.727352
 20
148.009109
 11
45.727352
 21
135.009109
  0
ENDBLK
  8
OBRYS
  0
BLOCK
  8
OBRYS
  2
_11
 70
   64
 10
678.136098
 20
277.009109
  0
LINE
  8
OSA
 10
604.636098
 20
150.685302
 11
604.636098
 21
130.209109
  0
LINE
  8
NEVIDITELNA
 10
599.136098
 20
148.009109
 11
599.136098
 21
135.009109
  0
LINE
  8
NEVIDITELNA
 10
610.136098
 20
148.009109
 11
610.136098
 21
135.009109
  0
LINE
  8
0
 62
     2
 10
613.399043
 20
199.850754
 11
589.085993
 21
147.711248
  0
ARC
  8
0
 62
     2
 10
590.136098
 20
146.009109
 40
2.000000
 50
90.000000
 51
180.000000
  0
LINE
  8
0
 62
     2
 10
588.136098
 20
146.009109
 11
588.136098
 21
135.009109
  0
LINE
  8
0
 62
     2
 10
594.136098
 20
148.009109
 11
590.136098
 21
148.009109
  0
LINE
  8
OBRYS
 10
633.136098
 20
187.009109
 11
640.136098
 21
187.009109
  0
POLYLINE
  8
0
 62
     2
 66
    1
  0
VERTEX
  8
0
 62
     2
 10
624.136108
 20
356.211914
  0
VERTEX
  8
0
 62
     2
 10
625.136108
 20
356.810730
  0
VERTEX
  8
0
 62
     2
 10
625.668213
 20
357.273804
  0
VERTEX
  8
0
 62
     2
 10
626.015503
 20
357.897705
  0
VERTEX
  8
0
 62
     2
 10
626.045349
 20
358.073242
  0
VERTEX
  8
0
 62
     2
 10
626.111816
 20
358.459930
  0
VERTEX
  8
0
 62
     2
 10
626.136108
 20
358.598389
  0
SEQEND
  8
0
  0
POLYLINE
  8
0
 62
     2
 66
    1
  0
VERTEX
  8
0
 62
     2
 10
620.136108
 20
360.158264
  0
VERTEX
  8
0
 62
     2
 10
620.136108
 20
357.553040
  0
VERTEX
  8
0
 62
     2
 10
620.174561
 20
357.368225
  0
VERTEX
  8
0
 62
     2
 10
620.288330
 20
357.190491
  0
VERTEX
  8
0
 62
     2
 10
620.473145
 20
357.026703
  0
VERTEX
  8
0
 62
     2
 10
620.721863
 20
356.883148
  0
VERTEX
  8
0
 62
     2
 10
621.024963
 20
356.765350
  0
VERTEX
  8
0
 62
     2
 10
621.370728
 20
356.677795
  0
VERTEX
  8
0
 62
     2
 10
621.745911
 20
356.623901
  0
VERTEX
  8
0
 62
     2
 10
622.136108
 20
356.605682
  0
VERTEX
  8
0
 62
     2
 10
624.136108
 20
356.605682
  0
SEQEND
  8
0
  0
LINE
  8
0
 62
     2
 10
608.837965
 20
333.751607
 11
608.837965
 21
338.107796
  0
LINE
  8
0
 62
     2
 10
608.837965
 20
273.048924
 11
608.837965
 21
281.058087
  0
LINE
  8
0
 62
     2
 10
608.837965
 20
215.910421
 11
608.837965
 21
220.266611
  0
LINE
  8
0
 62
     2
 10
608.136098
 20
317.062198
 11
608.136098
 21
285.108085
  0
LINE
  8
0
 62
     2
 10
608.136098
 20
274.009109
 11
608.136098
 21
285.108085
  0
LINE
  8
0
 62
     2
 10
608.136098
 20
317.062198
 11
608.136098
 21
333.484968
  0
LINE
  8
0
 62
     2
 10
608.136098
 20
342.009109
 11
608.136098
 21
333.484968
  0
LINE
  8
0
 62
     2
 10
608.136098
 20
212.009109
 11
608.136098
 21
220.533249
  0
LINE
  8
0
 62
     2
 10
608.136098
 20
244.509109
 11
608.136098
 21
250.348276
  0
LINE
  8
0
 62
     2
 10
608.136098
 20
274.009109
 11
608.136098
 21
250.348276
  0
LINE
  8
0
 62
     2
 10
608.136098
 20
342.009109
 11
608.136098
 21
357.824026
  0
LINE
  8
0
 62
     2
 10
608.136098
 20
220.533249
 11
608.136098
 21
244.509109
  0
LINE
  8
0
 62
     2
 10
608.136098
 20
196.194191
 11
608.136098
 21
212.009109
  0
POLYLINE
  8
0
 62
     2
 66
    1
  0
VERTEX
  8
0
 62
     2
 10
626.136108
 20
331.564178
  0
VERTEX
  8
0
 62
     2
 10
626.111816
 20
331.461395
  0
VERTEX
  8
0
 62
     2
 10
626.045349
 20
331.118439
  0
VERTEX
  8
0
 62
     2
 10
626.015503
 20
330.949127
  0
VERTEX
  8
0
 62
     2
 10
625.668213
 20
330.347382
  0
VERTEX
  8
0
 62
     2
 10
625.136108
 20
329.900757
  0
VERTEX
  8
0
 62
     2
 10
624.136108
 20
329.323212
  0
SEQEND
  8
0
  0
POLYLINE
  8
0
 62
     2
 66
    1
  0
VERTEX
  8
0
 62
     2
 10
626.136108
 20
187.294128
  0
VERTEX
  8
0
 62
     2
 10
625.932434
 20
187.327789
  0
VERTEX
  8
0
 62
     2
 10
621.991882
 20
189.401306
  0
VERTEX
  8
0
 62
     2
 10
618.743835
 20
192.663025
  0
VERTEX
  8
0
 62
     2
 10
613.399048
 20
199.850754
  0
SEQEND
  8
0
  0
LINE
  8
0
 62
     2
 10
626.136098
 20
365.009109
 11
626.136098
 21
235.540597
  0
POLYLINE
  8
0
 62
     2
 66
    1
  0
VERTEX
  8
0
 62
     2
 10
624.136108
 20
282.228607
  0
VERTEX
  8
0
 62
     2
 10
625.136108
 20
282.010651
  0
VERTEX
  8
0
 62
     2
 10
625.668213
 20
281.842102
  0
VERTEX
  8
0
 62
     2
 10
626.015503
 20
281.615021
  0
VERTEX
  8
0
 62
     2
 10
626.045349
 20
281.551117
  0
VERTEX
  8
0
 62
     2
 10
626.111816
 20
281.452728
  0
VERTEX
  8
0
 62
     2
 10
626.136108
 20
281.445892
  0
SEQEND
  8
0
  0
POLYLINE
  8
0
 62
     2
 66
    1
  0
VERTEX
  8
0
 62
     2
 10
626.136108
 20
272.572327
  0
VERTEX
  8
0
 62
     2
 10
626.111816
 20
272.565491
  0
VERTEX
  8
0
 62
     2
 10
626.045349
 20
272.467102
  0
VERTEX
  8
0
 62
     2
 10
626.015503
 20
272.403198
  0
VERTEX
  8
0
 62
     2
 10
625.668213
 20
272.176117
  0
VERTEX
  8
0
 62
     2
 10
625.136108
 20
272.007568
  0
VERTEX
  8
0
 62
     2
 10
624.136108
 20
271.789612
  0
SEQEND
  8
0
  0
POLYLINE
  8
0
 62
     2
 66
    1
  0
VERTEX
  8
0
 62
     2
 10
608.837952
 20
192.714127
  0
VERTEX
  8
0
 62
     2
 10
608.317017
 20
193.615387
  0
VERTEX
  8
0
 62
     2
 10
608.136108
 20
194.640259
  0
SEQEND
  8
0
  0
POLYLINE
  8
0
 62
     2
 66
    1
  0
VERTEX
  8
0
 62
     2
 10
608.187073
 20
196.194199
  0
VERTEX
  8
0
 62
     2
 10
608.317017
 20
195.460754
  0
VERTEX
  8
0
 62
     2
 10
608.837952
 20
194.562698
  0
VERTEX
  8
0
 62
     2
 10
610.187012
 20
192.962540
  0
SEQEND
  8
0
  0
POLYLINE
  8
0
 62
     2
 66
    1
  0
VERTEX
  8
0
 62
     2
 10
608.837952
 20
220.266617
  0
VERTEX
  8
0
 62
     2
 10
608.317017
 20
220.873291
  0
VERTEX
  8
0
 62
     2
 10
608.136108
 20
221.563171
  0
SEQEND
  8
0
  0
POLYLINE
  8
0
 62
     2
 66
    1
  0
VERTEX
  8
0
 62
     2
 10
625.521667
 20
210.036102
  0
VERTEX
  8
0
 62
     2
 10
621.077087
 20
211.264618
  0
VERTEX
  8
0
 62
     2
 10
617.438416
 20
213.375092
  0
SEQEND
  8
0
  0
POLYLINE
  8
0
 62
     2
 66
    1
  0
VERTEX
  8
0
 62
     2
 10
608.187073
 20
222.609192
  0
VERTEX
  8
0
 62
     2
 10
608.317017
 20
222.115479
  0
VERTEX
  8
0
 62
     2
 10
608.837952
 20
221.510971
  0
VERTEX
  8
0
 62
     2
 10
618.743835
 20
213.601700
  0
VERTEX
  8
0
 62
     2
 10
621.991882
 20
211.665146
  0
VERTEX
  8
0
 62
     2
 10
624.445129
 20
210.898712
  0
SEQEND
  8
0
  0
LINE
  8
0
 62
     2
 10
617.438432
 20
206.953522
 11
617.438432
 21
213.375094
  0
LINE
  8
0
 62
     2
 10
625.521654
 20
203.277571
 11
625.521654
 21
210.036096
  0
POLYLINE
  8
0
 62
     2
 66
    1
  0
VERTEX
  8
0
 62
     2
 10
617.438416
 20
206.953522
  0
VERTEX
  8
0
 62
     2
 10
621.077087
 20
204.630066
  0
VERTEX
  8
0
 62
     2
 10
625.521667
 20
203.277573
  0
SEQEND
  8
0
  0
POLYLINE
  8
0
 62
     2
 66
    1
  0
VERTEX
  8
0
 62
     2
 10
608.136108
 20
215.967896
  0
VERTEX
  8
0
 62
     2
 10
608.317017
 20
215.208389
  0
VERTEX
  8
0
 62
     2
 10
608.837952
 20
214.540497
  0
SEQEND
  8
0
  0
LINE
  8
0
 62
     2
 10
612.644277
 20
272.742492
 11
612.644277
 21
281.275725
  0
POLYLINE
  8
0
 62
     2
 66
    1
  0
VERTEX
  8
0
 62
     2
 10
608.136108
 20
273.052643
  0
VERTEX
  8
0
 62
     2
 10
608.317017
 20
273.003418
  0
VERTEX
  8
0
 62
     2
 10
608.837952
 20
272.960144
  0
SEQEND
  8
0
  0
POLYLINE
  8
0
 62
     2
 66
    1
  0
VERTEX
  8
0
 62
     2
 10
608.837952
 20
281.058075
  0
VERTEX
  8
0
 62
     2
 10
608.317017
 20
281.014801
  0
VERTEX
  8
0
 62
     2
 10
608.136108
 20
280.965576
  0
SEQEND
  8
0
  0
POLYLINE
  8
0
 62
     2
 66
    1
  0
VERTEX
  8
0
 62
     2
 10
608.136108
 20
332.455048
  0
VERTEX
  8
0
 62
     2
 10
608.317017
 20
333.144928
  0
VERTEX
  8
0
 62
     2
 10
608.837952
 20
333.751617
  0
SEQEND
  8
0
  0
LINE
  8
0
 62
     2
 10
612.644277
 20
336.801588
 11
612.644277
 21
342.835495
  0
POLYLINE
  8
0
 62
     2
 66
    1
  0
VERTEX
  8
0
 62
     2
 10
608.837952
 20
339.477722
  0
VERTEX
  8
0
 62
     2
 10
608.317017
 20
338.809814
  0
VERTEX
  8
0
 62
     2
 10
608.136108
 20
338.050323
  0
SEQEND
  8
0
  0
POLYLINE
  8
0
 62
     2
 66
    1
  0
VERTEX
  8
0
 62
     2
 10
608.136108
 20
359.377960
  0
VERTEX
  8
0
 62
     2
 10
608.317017
 20
360.402832
  0
VERTEX
  8
0
 62
     2
 10
608.837952
 20
361.304108
  0
SEQEND
  8
0
  0
POLYLINE
  8
0
 62
     2
 66
    1
  0
VERTEX
  8
0
 62
     2
 10
621.242554
 20
314.348938
  0
VERTEX
  8
0
 62
     2
 10
621.024963
 20
314.241486
  0
VERTEX
  8
0
 62
     2
 10
620.721863
 20
314.011688
  0
VERTEX
  8
0
 62
     2
 10
620.473145
 20
313.731689
  0
VERTEX
  8
0
 62
     2
 10
620.288330
 20
313.412231
  0
VERTEX
  8
0
 62
     2
 10
620.174561
 20
313.065613
  0
VERTEX
  8
0
 62
     2
 10
620.136108
 20
312.705109
  0
SEQEND
  8
0
  0
POLYLINE
  8
0
 62
     2
 66
    1
  0
VERTEX
  8
0
 62
     2
 10
621.175110
 20
304.485779
  0
VERTEX
  8
0
 62
     2
 10
621.136108
 20
306.561462
  0
VERTEX
  8
0
 62
     2
 10
621.136108
 20
308.686096
  0
VERTEX
  8
0
 62
     2
 10
621.242554
 20
314.348938
  0
VERTEX
  8
0
 62
     2
 10
621.256714
 20
314.386383
  0
VERTEX
  8
0
 62
     2
 10
621.370728
 20
314.515961
  0
VERTEX
  8
0
 62
     2
 10
621.604004
 20
314.733307
  0
VERTEX
  8
0
 62
     2
 10
621.745911
 20
314.817017
  0
VERTEX
  8
0
 62
     2
 10
622.136108
 20
314.976349
  0
VERTEX
  8
0
 62
     2
 10
623.136108
 20
315.197296
  0
VERTEX
  8
0
 62
     2
 10
623.668213
 20
315.368164
  0
VERTEX
  8
0
 62
     2
 10
624.015503
 20
315.598358
  0
VERTEX
  8
0
 62
     2
 10
624.136108
 20
315.860138
  0
SEQEND
  8
0
  0
POLYLINE
  8
0
 62
     2
 66
    1
  0
VERTEX
  8
0
 62
     2
 10
624.136108
 20
318.097046
  0
VERTEX
  8
0
 62
     2
 10
622.136108
 20
318.097046
  0
VERTEX
  8
0
 62
     2
 10
621.745911
 20
318.062988
  0
VERTEX
  8
0
 62
     2
 10
621.370728
 20
317.962128
  0
VERTEX
  8
0
 62
     2
 10
621.024963
 20
317.798340
  0
VERTEX
  8
0
 62
     2
 10
620.721863
 20
317.577911
  0
VERTEX
  8
0
 62
     2
 10
620.473145
 20
317.309326
  0
VERTEX
  8
0
 62
     2
 10
620.288330
 20
317.002899
  0
VERTEX
  8
0
 62
     2
 10
620.174561
 20
316.670441
  0
VERTEX
  8
0
 62
     2
 10
620.136108
 20
316.324646
  0
SEQEND
  8
0
  0
LINE
  8
0
 62
     2
 10
624.071226
 20
356.605683
 11
624.136098
 21
356.945583
  0
POLYLINE
  8
0
 62
     2
 66
    1
  0
VERTEX
  8
0
 62
     2
 10
624.136108
 20
362.345947
  0
VERTEX
  8
0
 62
     2
 10
622.136108
 20
362.345947
  0
VERTEX
  8
0
 62
     2
 10
621.745911
 20
362.334717
  0
VERTEX
  8
0
 62
     2
 10
621.370728
 20
362.301514
  0
VERTEX
  8
0
 62
     2
 10
621.024963
 20
362.247620
  0
VERTEX
  8
0
 62
     2
 10
620.721863
 20
362.175079
  0
VERTEX
  8
0
 62
     2
 10
620.473145
 20
362.086670
  0
VERTEX
  8
0
 62
     2
 10
620.288330
 20
361.985809
  0
VERTEX
  8
0
 62
     2
 10
620.174561
 20
361.876373
  0
VERTEX
  8
0
 62
     2
 10
620.136108
 20
361.762543
  0
SEQEND
  8
0
  0
LINE
  8
0
 62
     2
 10
624.136098
 20
356.945583
 11
624.136098
 21
361.163809
  0
LINE
  8
0
 62
     2
 10
622.136098
 20
304.238838
 11
624.136098
 21
304.238838
  0
ARC
  8
0
 62
     2
 10
622.111049
 20
306.250854
 40
2.009658
 50
226.390131
 51
270.175523
  0
ARC
  8
0
 62
     2
 10
621.995279
 20
306.162849
 40
1.861409
 50
180.197522
 51
226.412113
  0
LINE
  8
0
 62
     2
 10
620.136098
 20
316.324654
 11
620.136098
 21
306.161979
  0
LINE
  8
0
 62
     2
 10
624.136098
 20
367.009107
 11
624.136098
 21
362.345934
  0
LINE
  8
0
 62
     2
 10
624.136098
 20
356.605683
 11
624.136098
 21
318.097031
  0
LINE
  8
0
 62
     2
 10
624.136098
 20
304.238838
 11
624.136098
 21
277.009109
  0
LINE
  8
0
 62
     2
 10
625.988048
 20
247.521543
 11
626.136098
 21
247.476581
  0
ARC
  8
0
 62
     2
 10
627.142563
 20
250.296339
 40
3.005930
 50
179.983558
 51
247.455460
  0
LINE
  8
0
 62
     2
 10
624.136098
 20
277.009109
 11
624.136098
 21
250.296377
  0
LINE
  8
0
 62
     2
 10
618.743840
 20
192.663028
 11
618.743840
 21
206.119961
  0
LINE
  8
0
 62
     2
 10
618.743840
 20
213.601701
 11
618.743840
 21
249.238240
  0
LINE
  8
0
 62
     2
 10
608.187084
 20
357.824026
 11
608.136098
 21
357.824026
  0
POLYLINE
  8
0
 62
     2
 66
    1
  0
VERTEX
  8
0
 62
     2
 10
626.136108
 20
247.476578
  0
VERTEX
  8
0
 62
     2
 10
626.550842
 20
247.350632
  0
VERTEX
  8
0
 62
     2
 10
627.136108
 20
247.292923
  0
VERTEX
  8
0
 62
     2
 10
633.136108
 20
247.292923
  0
SEQEND
  8
0
  0
LINE
  8
0
 62
     2
 10
625.136098
 20
272.007574
 11
625.136098
 21
282.010643
  0
LINE
  8
0
 62
     2
 10
625.136098
 20
336.973994
 11
625.136098
 21
329.900757
  0
LINE
  8
0
 62
     2
 10
625.136098
 20
357.303337
 11
625.136098
 21
356.810729
  0
POLYLINE
  8
0
 62
     2
 66
    1
  0
VERTEX
  8
0
 62
     2
 10
624.136108
 20
336.704681
  0
VERTEX
  8
0
 62
     2
 10
625.136108
 20
336.973999
  0
VERTEX
  8
0
 62
     2
 10
625.668213
 20
337.182251
  0
VERTEX
  8
0
 62
     2
 10
626.015503
 20
337.462860
  0
VERTEX
  8
0
 62
     2
 10
626.045349
 20
337.541809
  0
VERTEX
  8
0
 62
     2
 10
626.111816
 20
337.745636
  0
VERTEX
  8
0
 62
     2
 10
626.136108
 20
337.838745
  0
SEQEND
  8
0
  0
LINE
  8
0
 62
     2
 10
628.136098
 20
247.292919
 11
628.136098
 21
367.009109
  0
POLYLINE
  8
0
 62
     2
 66
    1
  0
VERTEX
  8
0
 62
     2
 10
625.136108
 20
357.303345
  0
VERTEX
  8
0
 62
     2
 10
625.668213
 20
357.749817
  0
VERTEX
  8
0
 62
     2
 10
626.015503
 20
358.351349
  0
VERTEX
  8
0
 62
     2
 10
626.136108
 20
359.035400
  0
SEQEND
  8
0
  0
ARC
  8
0
 62
     2
 10
628.136098
 20
365.009109
 40
2.000000
 50
90.000000
 51
180.000000
  0
LINE
  8
0
 62
     2
 10
608.136098
 20
196.194191
 11
608.187084
 21
196.194191
  0
LINE
  8
0
 62
     2
 10
608.136098
 20
194.640262
 11
608.136098
 21
196.194191
  0
LINE
  8
0
 62
     2
 10
609.630984
 20
191.770125
 11
608.837965
 21
192.714120
  0
LINE
  8
0
 62
     2
 10
608.136098
 20
222.609193
 11
608.187084
 21
222.609193
  0
LINE
  8
0
 62
     2
 10
617.438432
 20
213.375094
 11
608.837965
 21
220.266611
  0
LINE
  8
0
 62
     2
 10
624.445123
 20
210.898715
 11
625.521654
 21
210.036096
  0
LINE
  8
0
 62
     2
 10
608.837965
 20
214.540490
 11
617.438432
 21
206.953522
  0
LINE
  8
0
 62
     2
 10
608.837965
 20
272.960130
 11
612.644277
 21
272.742492
  0
LINE
  8
0
 62
     2
 10
612.644277
 20
281.275725
 11
608.837965
 21
281.058087
  0
LINE
  8
0
 62
     2
 10
608.837965
 20
333.751607
 11
612.644277
 21
336.801588
  0
LINE
  8
0
 62
     2
 10
608.187084
 20
331.409024
 11
608.136098
 21
331.409024
  0
LINE
  8
0
 62
     2
 10
612.644277
 20
342.835495
 11
608.837965
 21
339.477727
  0
LINE
  8
0
 62
     2
 10
608.837965
 20
361.304097
 11
612.644277
 21
365.835060
  0
LINE
  8
0
 62
     2
 10
608.136098
 20
357.824026
 11
608.136098
 21
359.377955
  0
LINE
  8
0
 62
     2
 10
608.187084
 20
357.824026
 11
608.136098
 21
357.824026
  0
LINE
  8
0
 62
     2
 10
624.136098
 20
315.860132
 11
624.136098
 21
318.097031
  0
LINE
  8
0
 62
     2
 10
622.136098
 20
318.097031
 11
622.136098
 21
314.976363
  0
LINE
  8
0
 62
     2
 10
624.136098
 20
356.945583
 11
624.136098
 21
362.345934
  0
LINE
  8
0
 62
     2
 10
622.136098
 20
362.345934
 11
622.136098
 21
356.605683
  0
LINE
  8
0
 62
     2
 10
620.136098
 20
361.762556
 11
620.136098
 21
357.553038
  0
LINE
  8
0
 62
     2
 10
589.224887
 20
148.009109
 11
609.630984
 21
191.770125
  0
LINE
  8
0
 62
     2
 10
624.136098
 20
367.009107
 11
614.848895
 21
367.009109
  0
LINE
  8
0
 62
     2
 10
633.136098
 20
137.009109
 11
633.136098
 21
135.009109
  0
LINE
  8
0
 62
     2
 10
633.136098
 20
135.009109
 11
626.136098
 21
135.009109
  0
LINE
  8
0
 62
     2
 10
633.136098
 20
247.292919
 11
633.136098
 21
135.009109
  0
LINE
  8
0
 62
     2
 10
594.136098
 20
135.009109
 11
626.136098
 21
135.009109
  0
LINE
  8
0
 62
     2
 10
626.136098
 20
135.009109
 11
588.136098
 21
135.009109
  0
LINE
  8
0
 62
     2
 10
626.136098
 20
249.751972
 11
624.189656
 21
249.751972
  0
LINE
  8
0
 62
     2
 10
626.136098
 20
252.387684
 11
624.136098
 21
252.387684
  0
LINE
  8
0
 62
     2
 10
626.136098
 20
260.435372
 11
624.136098
 21
260.435372
  0
LINE
  8
0
 62
     2
 10
626.136098
 20
262.333687
 11
624.136098
 21
262.333687
  0
LINE
  8
0
 62
     2
 10
626.136098
 20
272.467095
 11
626.045327
 21
272.467095
  0
LINE
  8
0
 62
     2
 10
626.045327
 20
358.073253
 11
626.136098
 21
358.073253
  0
LINE
  8
0
 62
     2
 10
626.136098
 20
281.551122
 11
626.045327
 21
281.551122
  0
LINE
  8
0
 62
     2
 10
626.136098
 20
291.684530
 11
624.136098
 21
291.684530
  0
LINE
  8
0
 62
     2
 10
626.136098
 20
293.582845
 11
624.136098
 21
293.582845
  0
LINE
  8
0
 62
     2
 10
626.136098
 20
301.630533
 11
624.136098
 21
301.630533
  0
LINE
  8
0
 62
     2
 10
626.136098
 20
304.266245
 11
621.846706
 21
304.266245
  0
LINE
  8
0
 62
     2
 10
626.136098
 20
331.118426
 11
626.045327
 21
331.118426
  0
LINE
  8
0
 62
     2
 10
624.088997
 20
356.698793
 11
625.136098
 21
357.303337
  0
POLYLINE
  8
0
 62
     2
 66
    1
  0
VERTEX
  8
0
 62
     2
 10
614.848877
 20
337.306641
  0
VERTEX
  8
0
 62
     2
 10
614.848877
 20
337.306641
  0
VERTEX
  8
0
 62
     2
 10
608.837952
 20
332.507263
  0
VERTEX
  8
0
 62
     2
 10
608.317017
 20
331.902740
  0
VERTEX
  8
0
 62
     2
 10
608.187073
 20
331.409027
  0
SEQEND
  8
0
  0
POLYLINE
  8
0
 62
     2
 66
    1
  0
VERTEX
  8
0
 62
     2
 10
612.644287
 20
342.835480
  0
VERTEX
  8
0
 62
     2
 10
613.674561
 20
343.420685
  0
VERTEX
  8
0
 62
     2
 10
614.848877
 20
343.613403
  0
SEQEND
  8
0
  0
POLYLINE
  8
0
 62
     2
 66
    1
  0
VERTEX
  8
0
 62
     2
 10
612.644287
 20
336.801575
  0
VERTEX
  8
0
 62
     2
 10
613.674561
 20
337.333130
  0
VERTEX
  8
0
 62
     2
 10
614.848877
 20
337.508179
  0
SEQEND
  8
0
  0
LINE
  8
0
 62
     2
 10
614.848895
 20
367.009109
 11
614.848895
 21
337.306629
  0
POLYLINE
  8
0
 62
     2
 66
    1
  0
VERTEX
  8
0
 62
     2
 10
614.848877
 20
367.009094
  0
VERTEX
  8
0
 62
     2
 10
614.848877
 20
367.009094
  0
VERTEX
  8
0
 62
     2
 10
608.837952
 20
359.455505
  0
VERTEX
  8
0
 62
     2
 10
608.317017
 20
358.557465
  0
VERTEX
  8
0
 62
     2
 10
608.187073
 20
357.824036
  0
SEQEND
  8
0
  0
POLYLINE
  8
0
 62
     2
 66
    1
  0
VERTEX
  8
0
 62
     2
 10
612.644287
 20
365.835052
  0
VERTEX
  8
0
 62
     2
 10
613.674561
 20
366.624725
  0
VERTEX
  8
0
 62
     2
 10
614.848877
 20
367.009094
  0
SEQEND
  8
0
  0
POLYLINE
  8
0
 62
     2
 66
    1
  0
VERTEX
  8
0
 62
     2
 10
614.848877
 20
281.326141
  0
VERTEX
  8
0
 62
     2
 10
613.674561
 20
281.313660
  0
VERTEX
  8
0
 62
     2
 10
612.644287
 20
281.275726
  0
SEQEND
  8
0
  0
LINE
  8
0
 62
     2
 10
624.136098
 20
277.009109
 11
614.848895
 21
277.009109
  0
LINE
  8
0
 62
     2
 10
626.136098
 20
235.540597
 11
625.932458
 21
235.603570
  0
LINE
  8
0
 62
     2
 10
625.932458
 20
235.603570
 11
621.991872
 21
239.482844
  0
LINE
  8
0
 62
     2
 10
621.991872
 20
239.482844
 11
621.860378
 21
239.729888
  0
LINE
  8
0
 62
     2
 10
621.860378
 20
239.729888
 11
618.743840
 21
249.238240
  0
LINE
  8
0
 62
     2
 10
618.743840
 20
249.238240
 11
616.328399
 21
259.106996
  0
LINE
  8
0
 62
     2
 10
616.328399
 20
259.106996
 11
614.848895
 21
277.009109
  0
LINE
  8
0
 62
     2
 10
614.848895
 20
337.306629
 11
614.848895
 21
277.009109
  0
POLYLINE
  8
0
 62
     2
 66
    1
  0
VERTEX
  8
0
 62
     2
 10
612.644287
 20
272.742493
  0
VERTEX
  8
0
 62
     2
 10
613.674561
 20
272.704559
  0
VERTEX
  8
0
 62
     2
 10
615.205994
 20
272.688263
  0
SEQEND
  8
0
  0
LINE
  8
0
 62
     2
 10
626.136098
 20
150.009109
 11
626.136098
 21
235.540597
  0
LINE
  8
0
 62
     2
 10
624.136098
 20
148.009109
 11
594.136098
 21
148.009109
  0
ARC
  8
0
 62
     2
 10
624.136098
 20
150.009109
 40
2.000000
 50
270.000000
 51
360.000000
  0
LINE
  8
OBRYS
 10
628.136098
 20
367.009109
 11
633.136098
 21
367.009109
  0
ENDBLK
  8
OBRYS
  0
BLOCK
  8
OBRYS
  2
_12
 70
   64
 10
723.136098
 20
277.009109
  0
LINE
  8
OBRYS
 10
767.186203
 20
147.711248
 11
746.641212
 21
191.770125
  0
ARC
  8
OBRYS
 10
766.136098
 20
146.009109
 40
2.000000
 50
0.000000
 51
90.000000
  0
LINE
  8
OBRYS
 10
768.136098
 20
135.009109
 11
768.136098
 21
146.009109
  0
LINE
  8
OBRYS
 10
762.136098
 20
148.009109
 11
766.136098
 21
148.009109
  0
POLYLINE
  8
OBRYS
 66
    1
  0
VERTEX
  8
OBRYS
 10
736.136108
 20
360.158264
  0
VERTEX
  8
OBRYS
 10
736.136108
 20
357.553040
  0
VERTEX
  8
OBRYS
 10
736.097656
 20
357.368225
  0
VERTEX
  8
OBRYS
 10
735.983826
 20
357.190491
  0
VERTEX
  8
OBRYS
 10
735.799011
 20
357.026703
  0
VERTEX
  8
OBRYS
 10
735.550293
 20
356.883148
  0
VERTEX
  8
OBRYS
 10
735.247253
 20
356.765350
  0
VERTEX
  8
OBRYS
 10
734.901489
 20
356.677795
  0
VERTEX
  8
OBRYS
 10
734.526306
 20
356.623901
  0
VERTEX
  8
OBRYS
 10
734.136108
 20
356.605682
  0
VERTEX
  8
OBRYS
 10
732.136108
 20
356.605682
  0
SEQEND
  8
OBRYS
  0
POLYLINE
  8
OBRYS
 66
    1
  0
VERTEX
  8
OBRYS
 10
729.136108
 20
356.320190
  0
VERTEX
  8
OBRYS
 10
729.550293
 20
356.064484
  0
VERTEX
  8
OBRYS
 10
729.983826
 20
355.465027
  0
VERTEX
  8
OBRYS
 10
730.136108
 20
354.757935
  0
SEQEND
  8
OBRYS
  0
POLYLINE
  8
OBRYS
 66
    1
  0
VERTEX
  8
OBRYS
 10
729.136108
 20
359.884705
  0
VERTEX
  8
OBRYS
 10
729.142151
 20
359.869049
  0
VERTEX
  8
OBRYS
 10
729.136108
 20
359.853394
  0
SEQEND
  8
OBRYS
  0
LINE
  8
OBRYS
 10
730.136098
 20
327.171049
 11
730.136098
 21
314.506467
  0
LINE
  8
OBRYS
 10
730.136098
 20
327.171049
 11
730.136098
 21
331.118426
  0
LINE
  8
OBRYS
 10
730.136098
 20
354.757925
 11
730.136098
 21
331.118426
  0
LINE
  8
OBRYS
 10
723.136098
 20
198.174867
 11
723.136098
 21
367.009109
  0
POLYLINE
  8
OBRYS
 66
    1
  0
VERTEX
  8
OBRYS
 10
730.136108
 20
360.498169
  0
VERTEX
  8
OBRYS
 10
729.983826
 20
361.205292
  0
VERTEX
  8
OBRYS
 10
729.550293
 20
361.804749
  0
VERTEX
  8
OBRYS
 10
729.136108
 20
362.060455
  0
SEQEND
  8
OBRYS
  0
POLYLINE
  8
OBRYS
 66
    1
  0
VERTEX
  8
OBRYS
 10
730.136108
 20
317.331665
  0
VERTEX
  8
OBRYS
 10
729.983826
 20
317.624573
  0
VERTEX
  8
OBRYS
 10
729.550293
 20
317.872864
  0
VERTEX
  8
OBRYS
 10
729.136108
 20
317.978790
  0
SEQEND
  8
OBRYS
  0
LINE
  8
OBRYS
 10
730.136098
 20
314.506467
 11
730.136098
 21
314.935563
  0
LINE
  8
OBRYS
 10
729.136098
 20
357.343351
 11
729.136098
 21
356.320189
  0
POLYLINE
  8
OBRYS
 66
    1
  0
VERTEX
  8
OBRYS
 10
730.192261
 20
272.585144
  0
VERTEX
  8
OBRYS
 10
730.262207
 20
272.565491
  0
VERTEX
  8
OBRYS
 10
730.317017
 20
272.484344
  0
VERTEX
  8
OBRYS
 10
730.355164
 20
272.467102
  0
VERTEX
  8
OBRYS
 10
730.837952
 20
272.151428
  0
VERTEX
  8
OBRYS
 10
731.636108
 20
271.898590
  0
VERTEX
  8
OBRYS
 10
732.136108
 20
271.789612
  0
SEQEND
  8
OBRYS
  0
POLYLINE
  8
OBRYS
 66
    1
  0
VERTEX
  8
OBRYS
 10
732.136108
 20
329.323212
  0
VERTEX
  8
OBRYS
 10
731.636108
 20
329.612000
  0
VERTEX
  8
OBRYS
 10
730.837952
 20
330.281921
  0
VERTEX
  8
OBRYS
 10
730.355164
 20
331.118439
  0
VERTEX
  8
OBRYS
 10
730.317017
 20
331.178558
  0
VERTEX
  8
OBRYS
 10
730.262207
 20
331.461395
  0
VERTEX
  8
OBRYS
 10
730.192261
 20
331.757111
  0
VERTEX
  8
OBRYS
 10
730.136108
 20
331.945404
  0
SEQEND
  8
OBRYS
  0
POLYLINE
  8
OBRYS
 66
    1
  0
VERTEX
  8
OBRYS
 10
732.136108
 20
282.228607
  0
VERTEX
  8
OBRYS
 10
731.636108
 20
282.119629
  0
VERTEX
  8
OBRYS
 10
730.837952
 20
281.866791
  0
VERTEX
  8
OBRYS
 10
730.355164
 20
281.551117
  0
VERTEX
  8
OBRYS
 10
730.317017
 20
281.533875
  0
VERTEX
  8
OBRYS
 10
730.262207
 20
281.452728
  0
VERTEX
  8
OBRYS
 10
730.192261
 20
281.433075
  0
SEQEND
  8
OBRYS
  0
LINE
  8
OBRYS
 10
730.282239
 20
358.343351
 11
730.136098
 21
359.172328
  0
LINE
  8
OBRYS
 10
731.636098
 20
329.611986
 11
731.636098
 21
336.839338
  0
LINE
  8
OBRYS
 10
731.636098
 20
271.898599
 11
731.636098
 21
282.119618
  0
POLYLINE
  8
OBRYS
 66
    1
  0
VERTEX
  8
OBRYS
 10
730.136108
 20
338.269135
  0
VERTEX
  8
OBRYS
 10
730.192261
 20
338.013519
  0
VERTEX
  8
OBRYS
 10
730.262207
 20
337.745636
  0
VERTEX
  8
OBRYS
 10
730.317017
 20
337.577545
  0
VERTEX
  8
OBRYS
 10
730.355164
 20
337.541809
  0
VERTEX
  8
OBRYS
 10
730.837952
 20
337.151733
  0
VERTEX
  8
OBRYS
 10
731.636108
 20
336.839325
  0
VERTEX
  8
OBRYS
 10
732.136108
 20
336.704681
  0
SEQEND
  8
OBRYS
  0
LINE
  8
OBRYS
 10
730.136098
 20
281.480668
 11
730.192275
 21
281.433065
  0
LINE
  8
OBRYS
 10
730.192275
 20
272.585152
 11
730.136098
 21
272.537550
  0
POLYLINE
  8
OBRYS
 66
    1
  0
VERTEX
  8
OBRYS
 10
729.136108
 20
317.978790
  0
VERTEX
  8
OBRYS
 10
729.136108
 20
311.368591
  0
VERTEX
  8
OBRYS
 10
729.142151
 20
311.330811
  0
VERTEX
  8
OBRYS
 10
729.136108
 20
311.293060
  0
VERTEX
  8
OBRYS
 10
729.136108
 20
304.120575
  0
VERTEX
  8
OBRYS
 10
729.550293
 20
304.014679
  0
VERTEX
  8
OBRYS
 10
729.983826
 20
303.766357
  0
VERTEX
  8
OBRYS
 10
730.136108
 20
303.473480
  0
SEQEND
  8
OBRYS
  0
POLYLINE
  8
OBRYS
 66
    1
  0
VERTEX
  8
OBRYS
 10
730.136108
 20
250.544739
  0
VERTEX
  8
OBRYS
 10
729.983826
 20
250.251846
  0
VERTEX
  8
OBRYS
 10
729.550293
 20
250.003555
  0
VERTEX
  8
OBRYS
 10
729.136108
 20
249.897629
  0
VERTEX
  8
OBRYS
 10
729.136108
 20
247.292923
  0
SEQEND
  8
OBRYS
  0
POLYLINE
  8
OBRYS
 66
    1
  0
VERTEX
  8
OBRYS
 10
730.136108
 20
359.612732
  0
VERTEX
  8
OBRYS
 10
730.317017
 20
358.586670
  0
VERTEX
  8
OBRYS
 10
730.457520
 20
358.343353
  0
SEQEND
  8
OBRYS
  0
ARC
  8
OBRYS
 10
728.136098
 20
365.009109
 40
2.000000
 50
0.000000
 51
90.000000
  0
LINE
  8
OBRYS
 10
728.136098
 20
367.009109
 11
728.136098
 21
247.292919
  0
LINE
  8
OBRYS
 10
730.136098
 20
365.009109
 11
730.136098
 21
360.498177
  0
LINE
  8
OBRYS
 10
730.136098
 20
303.473471
 11
730.136098
 21
250.544746
  0
POLYLINE
  8
OBRYS
 66
    1
  0
VERTEX
  8
OBRYS
 10
735.029663
 20
314.348938
  0
VERTEX
  8
OBRYS
 10
735.247253
 20
314.241486
  0
VERTEX
  8
OBRYS
 10
735.550293
 20
314.011688
  0
VERTEX
  8
OBRYS
 10
735.799011
 20
313.731689
  0
VERTEX
  8
OBRYS
 10
735.983826
 20
313.412231
  0
VERTEX
  8
OBRYS
 10
736.097656
 20
313.065613
  0
VERTEX
  8
OBRYS
 10
736.136108
 20
312.705109
  0
SEQEND
  8
OBRYS
  0
POLYLINE
  8
OBRYS
 66
    1
  0
VERTEX
  8
OBRYS
 10
735.097107
 20
304.485779
  0
VERTEX
  8
OBRYS
 10
735.136108
 20
306.561462
  0
VERTEX
  8
OBRYS
 10
735.136108
 20
308.686096
  0
VERTEX
  8
OBRYS
 10
735.029663
 20
314.348938
  0
VERTEX
  8
OBRYS
 10
735.015503
 20
314.386383
  0
VERTEX
  8
OBRYS
 10
734.901489
 20
314.515961
  0
VERTEX
  8
OBRYS
 10
734.668213
 20
314.733307
  0
VERTEX
  8
OBRYS
 10
734.526306
 20
314.817017
  0
VERTEX
  8
OBRYS
 10
734.136108
 20
314.976349
  0
VERTEX
  8
OBRYS
 10
733.136108
 20
315.197296
  0
VERTEX
  8
OBRYS
 10
732.604004
 20
315.368164
  0
VERTEX
  8
OBRYS
 10
732.256714
 20
315.598358
  0
VERTEX
  8
OBRYS
 10
732.136108
 20
315.860138
  0
SEQEND
  8
OBRYS
  0
POLYLINE
  8
OBRYS
 66
    1
  0
VERTEX
  8
OBRYS
 10
732.136108
 20
318.097046
  0
VERTEX
  8
OBRYS
 10
734.136108
 20
318.097046
  0
VERTEX
  8
OBRYS
 10
734.526306
 20
318.062988
  0
VERTEX
  8
OBRYS
 10
734.901489
 20
317.962128
  0
VERTEX
  8
OBRYS
 10
735.247253
 20
317.798340
  0
VERTEX
  8
OBRYS
 10
735.550293
 20
317.577911
  0
VERTEX
  8
OBRYS
 10
735.799011
 20
317.309326
  0
VERTEX
  8
OBRYS
 10
735.983826
 20
317.002899
  0
VERTEX
  8
OBRYS
 10
736.097656
 20
316.670441
  0
VERTEX
  8
OBRYS
 10
736.136108
 20
316.324646
  0
SEQEND
  8
OBRYS
  0
POLYLINE
  8
OBRYS
 66
    1
  0
VERTEX
  8
OBRYS
 10
732.136108
 20
362.345947
  0
VERTEX
  8
OBRYS
 10
734.136108
 20
362.345947
  0
VERTEX
  8
OBRYS
 10
734.526306
 20
362.334717
  0
VERTEX
  8
OBRYS
 10
734.901489
 20
362.301514
  0
VERTEX
  8
OBRYS
 10
735.247253
 20
362.247620
  0
VERTEX
  8
OBRYS
 10
735.550293
 20
362.175079
  0
VERTEX
  8
OBRYS
 10
735.799011
 20
362.086670
  0
VERTEX
  8
OBRYS
 10
735.983826
 20
361.985809
  0
VERTEX
  8
OBRYS
 10
736.097656
 20
361.876373
  0
VERTEX
  8
OBRYS
 10
736.136108
 20
361.762543
  0
SEQEND
  8
OBRYS
  0
LINE
  8
OBRYS
 10
734.136098
 20
304.238838
 11
732.136098
 21
304.238838
  0
ARC
  8
OBRYS
 10
734.161147
 20
306.250854
 40
2.009658
 50
269.824477
 51
313.609869
  0
ARC
  8
OBRYS
 10
734.276917
 20
306.162849
 40
1.861409
 50
313.587887
 51
359.802478
  0
LINE
  8
OBRYS
 10
736.136098
 20
316.324654
 11
736.136098
 21
306.161979
  0
LINE
  8
OBRYS
 10
732.136098
 20
367.009107
 11
732.136098
 21
362.345934
  0
LINE
  8
OBRYS
 10
732.136098
 20
356.605683
 11
732.136098
 21
318.097031
  0
LINE
  8
OBRYS
 10
732.136098
 20
304.238838
 11
732.136098
 21
277.009109
  0
LINE
  8
OBRYS
 10
730.284148
 20
247.521543
 11
730.136098
 21
247.476581
  0
ARC
  8
OBRYS
 10
729.129633
 20
250.296339
 40
3.005930
 50
292.544540
 51
0.016442
  0
LINE
  8
OBRYS
 10
732.136098
 20
277.009109
 11
732.136098
 21
250.296377
  0
POLYLINE
  8
OBRYS
 66
    1
  0
VERTEX
  8
OBRYS
 10
730.136108
 20
247.476578
  0
VERTEX
  8
OBRYS
 10
729.721375
 20
247.350632
  0
VERTEX
  8
OBRYS
 10
729.136108
 20
247.292923
  0
VERTEX
  8
OBRYS
 10
723.136108
 20
247.292923
  0
SEQEND
  8
OBRYS
  0
LINE
  8
OBRYS
 10
729.136098
 20
358.343351
 11
729.136098
 21
356.320189
  0
LINE
  8
OBRYS
 10
729.136098
 20
304.120582
 11
729.136098
 21
311.332345
  0
LINE
  8
OBRYS
 10
734.136098
 20
304.238838
 11
734.136098
 21
314.506467
  0
LINE
  8
OBRYS
 10
729.136098
 20
247.292919
 11
729.136098
 21
249.934892
  0
LINE
  8
OBRYS
 10
730.136098
 20
358.343351
 11
730.136098
 21
360.498177
  0
LINE
  8
OBRYS
 10
729.136098
 20
359.853406
 11
729.136098
 21
356.320189
  0
LINE
  8
OBRYS
 10
729.136098
 20
362.060441
 11
729.136098
 21
359.884697
  0
LINE
  8
OBRYS
 10
729.136098
 20
314.935563
 11
730.136098
 21
314.935563
  0
LINE
  8
OBRYS
 10
730.136098
 20
272.467095
 11
730.355169
 21
272.467095
  0
LINE
  8
OBRYS
 10
732.136098
 20
262.333687
 11
730.136098
 21
262.333687
  0
LINE
  8
OBRYS
 10
730.136098
 20
260.435372
 11
732.136098
 21
260.435372
  0
LINE
  8
OBRYS
 10
730.136098
 20
331.118426
 11
730.355169
 21
331.118426
  0
LINE
  8
OBRYS
 10
734.136098
 20
304.266245
 11
734.425490
 21
304.266245
  0
LINE
  8
OBRYS
 10
730.136098
 20
293.582845
 11
732.136098
 21
293.582845
  0
LINE
  8
OBRYS
 10
730.136098
 20
291.684530
 11
732.136098
 21
291.684530
  0
LINE
  8
OBRYS
 10
730.355169
 20
281.551122
 11
730.136098
 21
281.551122
  0
LINE
  8
OBRYS
 10
728.136098
 20
367.009109
 11
723.136098
 21
367.009109
  0
LINE
  8
OBRYS
 10
732.136098
 20
315.860132
 11
732.136098
 21
318.097031
  0
LINE
  8
OBRYS
 10
734.136098
 20
318.097031
 11
734.136098
 21
314.976363
  0
LINE
  8
OBRYS
 10
732.136098
 20
358.343351
 11
732.136098
 21
362.345934
  0
LINE
  8
OBRYS
 10
734.136098
 20
362.345934
 11
734.136098
 21
356.605683
  0
LINE
  8
OBRYS
 10
736.136098
 20
361.762556
 11
736.136098
 21
357.553038
  0
LINE
  8
OBRYS
 10
731.136098
 20
351.843351
 11
732.136098
 21
351.843351
  0
LINE
  8
OBRYS
 10
730.136098
 20
345.343351
 11
732.136098
 21
345.343351
  0
LINE
  8
OBRYS
 10
734.136098
 20
358.343351
 11
729.136098
 21
358.343351
  0
LINE
  8
OBRYS
 10
731.136098
 20
308.006467
 11
734.136098
 21
308.006467
  0
LINE
  8
OBRYS
 10
730.136098
 20
301.506467
 11
732.136098
 21
301.506467
  0
LINE
  8
OBRYS
 10
734.136098
 20
314.506467
 11
729.136098
 21
314.506467
  0
LINE
  8
OBRYS
 10
732.136098
 20
252.511751
 11
730.136098
 21
252.511751
  0
ARC
  8
OBRYS
 10
732.136098
 20
150.009109
 40
2.000000
 50
180.000000
 51
270.000000
  0
LINE
  8
OBRYS
 10
732.136098
 20
148.009109
 11
762.136098
 21
148.009109
  0
LINE
  8
OBRYS
 10
730.136098
 20
150.009109
 11
730.136098
 21
235.540597
  0
POLYLINE
  8
OBRYS
 66
    1
  0
VERTEX
  8
OBRYS
 10
743.627930
 20
272.742493
  0
VERTEX
  8
OBRYS
 10
742.597656
 20
272.704559
  0
VERTEX
  8
OBRYS
 10
741.066223
 20
272.688263
  0
SEQEND
  8
OBRYS
  0
LINE
  8
OBRYS
 10
741.423301
 20
337.306629
 11
741.423301
 21
277.009109
  0
LINE
  8
OBRYS
 10
730.136098
 20
235.540597
 11
730.339738
 21
235.603570
  0
LINE
  8
OBRYS
 10
730.339738
 20
235.603570
 11
734.280324
 21
239.482844
  0
LINE
  8
OBRYS
 10
734.280324
 20
239.482844
 11
734.411818
 21
239.729888
  0
LINE
  8
OBRYS
 10
734.411818
 20
239.729888
 11
737.528356
 21
249.238240
  0
LINE
  8
OBRYS
 10
737.528356
 20
249.238240
 11
739.943797
 21
259.106996
  0
LINE
  8
OBRYS
 10
739.943797
 20
259.106996
 11
741.423301
 21
277.009109
  0
LINE
  8
OBRYS
 10
732.136098
 20
277.009109
 11
741.423301
 21
277.009109
  0
POLYLINE
  8
OBRYS
 66
    1
  0
VERTEX
  8
OBRYS
 10
741.423279
 20
281.326141
  0
VERTEX
  8
OBRYS
 10
742.597656
 20
281.313660
  0
VERTEX
  8
OBRYS
 10
743.627930
 20
281.275726
  0
SEQEND
  8
OBRYS
  0
POLYLINE
  8
OBRYS
 66
    1
  0
VERTEX
  8
OBRYS
 10
743.627930
 20
365.835052
  0
VERTEX
  8
OBRYS
 10
742.597656
 20
366.624725
  0
VERTEX
  8
OBRYS
 10
741.423279
 20
367.009094
  0
SEQEND
  8
OBRYS
  0
POLYLINE
  8
OBRYS
 66
    1
  0
VERTEX
  8
OBRYS
 10
741.423279
 20
367.009094
  0
VERTEX
  8
OBRYS
 10
741.423279
 20
367.009094
  0
VERTEX
  8
OBRYS
 10
747.434204
 20
359.455505
  0
VERTEX
  8
OBRYS
 10
747.955200
 20
358.557465
  0
VERTEX
  8
OBRYS
 10
748.085083
 20
357.824036
  0
SEQEND
  8
OBRYS
  0
LINE
  8
OBRYS
 10
741.423301
 20
367.009109
 11
741.423301
 21
337.306629
  0
POLYLINE
  8
OBRYS
 66
    1
  0
VERTEX
  8
OBRYS
 10
743.627930
 20
336.801575
  0
VERTEX
  8
OBRYS
 10
742.597656
 20
337.333130
  0
VERTEX
  8
OBRYS
 10
741.423279
 20
337.508179
  0
SEQEND
  8
OBRYS
  0
POLYLINE
  8
OBRYS
 66
    1
  0
VERTEX
  8
OBRYS
 10
743.627930
 20
342.835480
  0
VERTEX
  8
OBRYS
 10
742.597656
 20
343.420685
  0
VERTEX
  8
OBRYS
 10
741.423279
 20
343.613403
  0
SEQEND
  8
OBRYS
  0
POLYLINE
  8
OBRYS
 66
    1
  0
VERTEX
  8
OBRYS
 10
741.423279
 20
337.306641
  0
VERTEX
  8
OBRYS
 10
741.423279
 20
337.306641
  0
VERTEX
  8
OBRYS
 10
747.434204
 20
332.507263
  0
VERTEX
  8
OBRYS
 10
747.955200
 20
331.902740
  0
VERTEX
  8
OBRYS
 10
748.085083
 20
331.409027
  0
SEQEND
  8
OBRYS
  0
LINE
  8
OBRYS
 10
730.136098
 20
135.009109
 11
768.136098
 21
135.009109
  0
LINE
  8
OBRYS
 10
762.136098
 20
135.009109
 11
730.136098
 21
135.009109
  0
LINE
  8
OBRYS
 10
723.136098
 20
247.292919
 11
723.136098
 21
135.009109
  0
LINE
  8
OBRYS
 10
723.136098
 20
135.009109
 11
730.136098
 21
135.009109
  0
LINE
  8
OBRYS
 10
723.136098
 20
137.009109
 11
723.136098
 21
135.009109
  0
LINE
  8
OBRYS
 10
732.136098
 20
367.009107
 11
741.423301
 21
367.009109
  0
LINE
  8
OBRYS
 10
742.873153
 20
199.850754
 11
767.047309
 21
148.009109
  0
LINE
  8
OBRYS
 10
748.085112
 20
357.824026
 11
748.136098
 21
357.824026
  0
LINE
  8
OBRYS
 10
748.136098
 20
357.824026
 11
748.136098
 21
359.377955
  0
LINE
  8
OBRYS
 10
747.434231
 20
361.304097
 11
743.627919
 21
365.835060
  0
LINE
  8
OBRYS
 10
743.627919
 20
342.835495
 11
747.434231
 21
339.477727
  0
LINE
  8
OBRYS
 10
748.085112
 20
331.409024
 11
748.136098
 21
331.409024
  0
LINE
  8
OBRYS
 10
747.434231
 20
333.751607
 11
743.627919
 21
336.801588
  0
LINE
  8
OBRYS
 10
743.627919
 20
281.275725
 11
747.434231
 21
281.058087
  0
LINE
  8
OBRYS
 10
747.434231
 20
272.960130
 11
743.627919
 21
272.742492
  0
LINE
  8
OBRYS
 10
747.434231
 20
214.540490
 11
738.833764
 21
206.953522
  0
LINE
  8
OBRYS
 10
731.827073
 20
210.898715
 11
730.750542
 21
210.036096
  0
LINE
  8
OBRYS
 10
738.833764
 20
213.375094
 11
747.434231
 21
220.266611
  0
LINE
  8
OBRYS
 10
748.136098
 20
222.609193
 11
748.085112
 21
222.609193
  0
LINE
  8
OBRYS
 10
746.641212
 20
191.770125
 11
747.434231
 21
192.714120
  0
LINE
  8
OBRYS
 10
748.136098
 20
194.640262
 11
748.136098
 21
196.194191
  0
LINE
  8
OBRYS
 10
748.136098
 20
196.194191
 11
748.085112
 21
196.194191
  0
LINE
  8
OBRYS
 10
748.085112
 20
357.824026
 11
748.136098
 21
357.824026
  0
LINE
  8
OBRYS
 10
737.528356
 20
213.601701
 11
737.528356
 21
249.238240
  0
LINE
  8
OBRYS
 10
737.528356
 20
192.663028
 11
737.528356
 21
206.119961
  0
POLYLINE
  8
OBRYS
 66
    1
  0
VERTEX
  8
OBRYS
 10
748.136108
 20
359.377960
  0
VERTEX
  8
OBRYS
 10
747.955200
 20
360.402832
  0
VERTEX
  8
OBRYS
 10
747.434204
 20
361.304108
  0
SEQEND
  8
OBRYS
  0
POLYLINE
  8
OBRYS
 66
    1
  0
VERTEX
  8
OBRYS
 10
747.434204
 20
339.477722
  0
VERTEX
  8
OBRYS
 10
747.955200
 20
338.809814
  0
VERTEX
  8
OBRYS
 10
748.136108
 20
338.050323
  0
SEQEND
  8
OBRYS
  0
LINE
  8
OBRYS
 10
743.627919
 20
336.801588
 11
743.627919
 21
342.835495
  0
POLYLINE
  8
OBRYS
 66
    1
  0
VERTEX
  8
OBRYS
 10
748.136108
 20
332.455048
  0
VERTEX
  8
OBRYS
 10
747.955200
 20
333.144928
  0
VERTEX
  8
OBRYS
 10
747.434204
 20
333.751617
  0
SEQEND
  8
OBRYS
  0
POLYLINE
  8
OBRYS
 66
    1
  0
VERTEX
  8
OBRYS
 10
747.434204
 20
281.058075
  0
VERTEX
  8
OBRYS
 10
747.955200
 20
281.014801
  0
VERTEX
  8
OBRYS
 10
748.136108
 20
280.965576
  0
SEQEND
  8
OBRYS
  0
POLYLINE
  8
OBRYS
 66
    1
  0
VERTEX
  8
OBRYS
 10
748.136108
 20
273.052643
  0
VERTEX
  8
OBRYS
 10
747.955200
 20
273.003418
  0
VERTEX
  8
OBRYS
 10
747.434204
 20
272.960144
  0
SEQEND
  8
OBRYS
  0
LINE
  8
OBRYS
 10
743.627919
 20
272.742492
 11
743.627919
 21
281.275725
  0
POLYLINE
  8
OBRYS
 66
    1
  0
VERTEX
  8
OBRYS
 10
748.136108
 20
215.967896
  0
VERTEX
  8
OBRYS
 10
747.955200
 20
215.208389
  0
VERTEX
  8
OBRYS
 10
747.434204
 20
214.540497
  0
SEQEND
  8
OBRYS
  0
POLYLINE
  8
OBRYS
 66
    1
  0
VERTEX
  8
OBRYS
 10
738.833740
 20
206.953522
  0
VERTEX
  8
OBRYS
 10
735.195068
 20
204.630066
  0
VERTEX
  8
OBRYS
 10
730.750549
 20
203.277573
  0
SEQEND
  8
OBRYS
  0
LINE
  8
OBRYS
 10
730.750542
 20
203.277571
 11
730.750542
 21
210.036096
  0
LINE
  8
OBRYS
 10
738.833764
 20
206.953522
 11
738.833764
 21
213.375094
  0
POLYLINE
  8
OBRYS
 66
    1
  0
VERTEX
  8
OBRYS
 10
748.085083
 20
222.609192
  0
VERTEX
  8
OBRYS
 10
747.955200
 20
222.115479
  0
VERTEX
  8
OBRYS
 10
747.434204
 20
221.510971
  0
VERTEX
  8
OBRYS
 10
737.528381
 20
213.601700
  0
VERTEX
  8
OBRYS
 10
734.280334
 20
211.665146
  0
VERTEX
  8
OBRYS
 10
731.827087
 20
210.898712
  0
SEQEND
  8
OBRYS
  0
POLYLINE
  8
OBRYS
 66
    1
  0
VERTEX
  8
OBRYS
 10
730.750549
 20
210.036102
  0
VERTEX
  8
OBRYS
 10
735.195068
 20
211.264618
  0
VERTEX
  8
OBRYS
 10
738.833740
 20
213.375092
  0
SEQEND
  8
OBRYS
  0
POLYLINE
  8
OBRYS
 66
    1
  0
VERTEX
  8
OBRYS
 10
747.434204
 20
220.266617
  0
VERTEX
  8
OBRYS
 10
747.955200
 20
220.873291
  0
VERTEX
  8
OBRYS
 10
748.136108
 20
221.563171
  0
SEQEND
  8
OBRYS
  0
POLYLINE
  8
OBRYS
 66
    1
  0
VERTEX
  8
OBRYS
 10
748.085083
 20
196.194199
  0
VERTEX
  8
OBRYS
 10
747.955200
 20
195.460754
  0
VERTEX
  8
OBRYS
 10
747.434204
 20
194.562698
  0
VERTEX
  8
OBRYS
 10
746.085205
 20
192.962540
  0
SEQEND
  8
OBRYS
  0
POLYLINE
  8
OBRYS
 66
    1
  0
VERTEX
  8
OBRYS
 10
747.434204
 20
192.714127
  0
VERTEX
  8
OBRYS
 10
747.955200
 20
193.615387
  0
VERTEX
  8
OBRYS
 10
748.136108
 20
194.640259
  0
SEQEND
  8
OBRYS
  0
POLYLINE
  8
OBRYS
 66
    1
  0
VERTEX
  8
OBRYS
 10
730.136108
 20
187.294128
  0
VERTEX
  8
OBRYS
 10
730.339722
 20
187.327789
  0
VERTEX
  8
OBRYS
 10
734.280334
 20
189.401306
  0
VERTEX
  8
OBRYS
 10
737.528381
 20
192.663025
  0
VERTEX
  8
OBRYS
 10
742.873169
 20
199.850754
  0
SEQEND
  8
OBRYS
  0
LINE
  8
OBRYS
 10
748.136098
 20
196.194191
 11
748.136098
 21
212.009109
  0
LINE
  8
OBRYS
 10
748.136098
 20
220.533249
 11
748.136098
 21
244.509109
  0
LINE
  8
OBRYS
 10
748.136098
 20
342.009109
 11
748.136098
 21
357.824026
  0
LINE
  8
OBRYS
 10
748.136098
 20
274.009109
 11
748.136098
 21
250.348276
  0
LINE
  8
OBRYS
 10
748.136098
 20
244.509109
 11
748.136098
 21
250.348276
  0
LINE
  8
OBRYS
 10
748.136098
 20
212.009109
 11
748.136098
 21
220.533249
  0
LINE
  8
OBRYS
 10
748.136098
 20
342.009109
 11
748.136098
 21
333.484968
  0
LINE
  8
OBRYS
 10
748.136098
 20
317.062198
 11
748.136098
 21
333.484968
  0
LINE
  8
OBRYS
 10
748.136098
 20
274.009109
 11
748.136098
 21
285.108085
  0
LINE
  8
OBRYS
 10
748.136098
 20
317.062198
 11
748.136098
 21
285.108085
  0
LINE
  8
OBRYS
 10
747.434231
 20
215.910421
 11
747.434231
 21
220.266611
  0
LINE
  8
OBRYS
 10
747.434231
 20
273.048924
 11
747.434231
 21
281.058087
  0
LINE
  8
OBRYS
 10
747.434231
 20
333.751607
 11
747.434231
 21
338.107796
  0
LINE
  8
OBRYS
 62
     7
  6
DASHDOT
 10
751.636098
 20
150.685302
 11
751.636098
 21
130.209109
  0
LINE
  8
OBRYS
 62
     4
  6
HIDDEN2
 10
757.136098
 20
148.009109
 11
757.136098
 21
135.009109
  0
LINE
  8
OBRYS
 62
     4
  6
HIDDEN2
 10
746.136098
 20
148.009109
 11
746.136098
 21
135.009109
  0
ENDBLK
  8
OBRYS
  0
BLOCK
  8
OSA
  2
M10x1_13
 70
   66
 10
305.159929
 20
1074.900472
  0
LINE
  8
OSA
 10
314.488831
 20
565.485278
 11
300.714581
 21
565.485278
  0
LINE
  8
OSA
 62
     2
  6
CONTINUOUS
 10
305.159929
 20
558.485278
 11
305.159929
 21
572.485278
  0
LINE
  8
OSA
 62
     2
  6
CONTINUOUS
 10
305.159929
 20
572.485278
 11
303.159929
 21
572.485278
  0
LINE
  8
OSA
 62
     2
  6
CONTINUOUS
 10
305.159929
 20
558.485278
 11
303.159929
 21
558.485278
  0
ARC
  8
OSA
 62
     2
  6
CONTINUOUS
 10
303.159929
 20
571.485278
 40
1.000000
 50
90.000000
 51
180.000000
  0
LINE
  8
OSA
 62
     2
  6
CONTINUOUS
 10
302.159929
 20
559.485278
 11
302.159929
 21
571.485278
  0
ARC
  8
OSA
 62
     2
  6
CONTINUOUS
 10
303.159929
 20
559.485278
 40
1.000000
 50
180.000000
 51
270.000000
  0
ENDBLK
  8
OSA
  0
BLOCK
  8
OSA
  2
M10x1_14
 70
   66
 10
305.159929
 20
497.948134
  0
LINE
  8
OSA
 10
314.488831
 20
-11.467061
 11
300.714581
 21
-11.467061
  0
LINE
  8
OSA
 62
     2
  6
CONTINUOUS
 10
305.159929
 20
-18.467061
 11
305.159929
 21
-4.467061
  0
LINE
  8
OSA
 62
     2
  6
CONTINUOUS
 10
305.159929
 20
-4.467061
 11
303.159929
 21
-4.467061
  0
LINE
  8
OSA
 62
     2
  6
CONTINUOUS
 10
305.159929
 20
-18.467061
 11
303.159929
 21
-18.467061
  0
ARC
  8
OSA
 62
     2
  6
CONTINUOUS
 10
303.159929
 20
-5.467061
 40
1.000000
 50
90.000000
 51
180.000000
  0
LINE
  8
OSA
 62
     2
  6
CONTINUOUS
 10
302.159929
 20
-17.467061
 11
302.159929
 21
-5.467061
  0
ARC
  8
OSA
 62
     2
  6
CONTINUOUS
 10
303.159929
 20
-17.467061
 40
1.000000
 50
180.000000
 51
270.000000
  0
ENDBLK
  8
OSA
  0
BLOCK
  8
OSA
  2
Sroub_M10x16_15
 70
   66
 10
389.659929
 20
565.485278
  0
LINE
  8
OSA
 62
     2
  6
CONTINUOUS
 10
393.659929
 20
563.175862
 11
393.659929
 21
567.794693
  0
LINE
  8
OSA
 62
     2
  6
CONTINUOUS
 10
393.659929
 20
567.794693
 11
389.659929
 21
570.104109
  0
LINE
  8
OSA
 62
     2
  6
CONTINUOUS
 10
389.659929
 20
570.104109
 11
385.659929
 21
567.794693
  0
LINE
  8
OSA
 62
     2
  6
CONTINUOUS
 10
385.659929
 20
567.794693
 11
385.659929
 21
563.175862
  0
LINE
  8
OSA
 62
     2
  6
CONTINUOUS
 10
385.659929
 20
563.175862
 11
389.659929
 21
560.866447
  0
LINE
  8
OSA
 62
     2
  6
CONTINUOUS
 10
389.659929
 20
560.866447
 11
393.659929
 21
563.175862
  0
CIRCLE
  8
OSA
 62
     2
  6
CONTINUOUS
 10
389.659929
 20
565.485278
 40
4.618831
  0
CIRCLE
  8
OSA
 62
     2
  6
CONTINUOUS
 10
389.659929
 20
565.485278
 40
8.000000
  0
ENDBLK
  8
OSA
  0
BLOCK
  8
OSA
  2
Sroub_M10x16_16
 70
   66
 10
678.136098
 20
277.009109
  0
LINE
  8
OSA
 62
     2
  6
CONTINUOUS
 10
675.826683
 20
273.009109
 11
680.445514
 21
273.009109
  0
LINE
  8
OSA
 62
     2
  6
CONTINUOUS
 10
680.445514
 20
273.009109
 11
682.754929
 21
277.009109
  0
LINE
  8
OSA
 62
     2
  6
CONTINUOUS
 10
682.754929
 20
277.009109
 11
680.445514
 21
281.009109
  0
LINE
  8
OSA
 62
     2
  6
CONTINUOUS
 10
680.445514
 20
281.009109
 11
675.826683
 21
281.009109
  0
LINE
  8
OSA
 62
     2
  6
CONTINUOUS
 10
675.826683
 20
281.009109
 11
673.517267
 21
277.009109
  0
LINE
  8
OSA
 62
     2
  6
CONTINUOUS
 10
673.517267
 20
277.009109
 11
675.826683
 21
273.009109
  0
CIRCLE
  8
OSA
 62
     2
  6
CONTINUOUS
 10
678.136098
 20
277.009109
 40
4.618831
  0
CIRCLE
  8
OSA
 62
     2
  6
CONTINUOUS
 10
678.136098
 20
277.009109
 40
8.000000
  0
ENDBLK
  8
OSA
  0
BLOCK
  8
OSA
  2
M10x1_17
 70
   66
 10
1187.551293
 20
192.509109
  0
LINE
  8
OSA
 10
678.136098
 20
201.838011
 11
678.136098
 21
188.063761
  0
LINE
  8
OSA
 62
     2
  6
CONTINUOUS
 10
671.136098
 20
192.509109
 11
685.136098
 21
192.509109
  0
LINE
  8
OSA
 62
     2
  6
CONTINUOUS
 10
685.136098
 20
192.509109
 11
685.136098
 21
190.509109
  0
LINE
  8
OSA
 62
     2
  6
CONTINUOUS
 10
671.136098
 20
192.509109
 11
671.136098
 21
190.509109
  0
ARC
  8
OSA
 62
     2
  6
CONTINUOUS
 10
684.136098
 20
190.509109
 40
1.000000
 50
270.000000
 51
360.000000
  0
LINE
  8
OSA
 62
     2
  6
CONTINUOUS
 10
672.136098
 20
189.509109
 11
684.136098
 21
189.509109
  0
ARC
  8
OSA
 62
     2
  6
CONTINUOUS
 10
672.136098
 20
190.509109
 40
1.000000
 50
180.000000
 51
270.000000
  0
ENDBLK
  8
OSA
  0
BLOCK
  8
OBRYS
  2
_18
 70
   64
 10
1000.586437
 20
277.009109
  0
LINE
  8
NEVIDITELNA
 10
936.086437
 20
147.009109
 11
936.505486
 21
135.009109
  0
LINE
  8
NEVIDITELNA
 10
925.086437
 20
147.009109
 11
924.667387
 21
135.009109
  0
LINE
  8
NEVIDITELNA
 10
1076.086437
 20
147.009109
 11
1076.505486
 21
135.009109
  0
LINE
  8
NEVIDITELNA
 10
1065.086437
 20
147.009109
 11
1064.667387
 21
135.009109
  0
ARC
  8
OBRYS
 10
1000.586437
 20
277.009109
 40
85.247506
 50
241.870221
 51
245.164319
  0
ARC
  8
OBRYS
 10
1000.586437
 20
277.009109
 40
85.247506
 50
294.835681
 51
298.129779
  0
LINE
  8
OBRYS
 10
958.338121
 20
148.009109
 11
964.089806
 21
148.009109
  0
LINE
  8
OBRYS
 10
1042.834752
 20
148.009109
 11
1037.083067
 21
148.009109
  0
LINE
  8
OBRYS
 10
1060.542232
 20
221.295954
 11
1073.351148
 21
208.487038
  0
LINE
  8
OBRYS
 10
1056.299591
 20
217.053313
 11
1069.108507
 21
204.244397
  0
LINE
  8
OBRYS
 10
1003.586437
 20
195.218809
 11
1003.586437
 21
177.104267
  0
LINE
  8
OBRYS
 10
997.586437
 20
195.218809
 11
997.586437
 21
177.104267
  0
LINE
  8
OBRYS
 10
940.630641
 20
221.295954
 11
927.821725
 21
208.487038
  0
LINE
  8
OBRYS
 10
944.873282
 20
217.053313
 11
932.064366
 21
204.244397
  0
LINE
  8
OBRYS
 10
1060.542232
 20
332.722263
 11
1066.312002
 21
338.492033
  0
LINE
  8
OBRYS
 10
1082.376736
 20
274.009109
 11
1090.536423
 21
274.009109
  0
LINE
  8
OBRYS
 10
918.796137
 20
280.009109
 11
910.636450
 21
280.009109
  0
LINE
  8
OBRYS
 10
944.873282
 20
336.964904
 11
939.103512
 21
342.734674
  0
LINE
  8
OBRYS
 10
1056.299591
 20
336.964904
 11
1062.069361
 21
342.734674
  0
LINE
  8
OBRYS
 10
1082.376736
 20
280.009109
 11
1090.536423
 21
280.009109
  0
LINE
  8
OBRYS
 10
918.796137
 20
274.009109
 11
910.636450
 21
274.009109
  0
LINE
  8
OBRYS
 10
940.630641
 20
332.722263
 11
934.860871
 21
338.492033
  0
LINE
  8
OBRYS
 10
997.586437
 20
358.799408
 11
997.586437
 21
366.959095
  0
LINE
  8
OBRYS
 10
1003.586437
 20
358.799408
 11
1003.586437
 21
366.959095
  0
LINE
  8
OBRYS
 10
987.586437
 20
160.009109
 11
987.586437
 21
146.009109
  0
ARC
  8
OBRYS
 10
986.586437
 20
153.009109
 40
7.000000
 50
90.000000
 51
270.000000
  0
LINE
  8
OBRYS
 10
986.586437
 20
160.009109
 11
987.586437
 21
160.009109
  0
LINE
  8
OBRYS
 10
986.586437
 20
146.009109
 11
987.586437
 21
146.009109
  0
LINE
  8
OBRYS
 10
990.586437
 20
146.009109
 11
989.586437
 21
146.009109
  0
LINE
  8
OBRYS
 10
990.586437
 20
160.009109
 11
989.586437
 21
160.009109
  0
ARC
  8
OBRYS
 10
990.586437
 20
153.009109
 40
7.000000
 50
270.000000
 51
90.000000
  0
LINE
  8
OBRYS
 10
989.586437
 20
160.009109
 11
989.586437
 21
146.009109
  0
LINE
  8
OBRYS
 10
987.586437
 20
174.009109
 11
987.586437
 21
162.009109
  0
LINE
  8
OBRYS
 10
985.586437
 20
174.009109
 11
987.586437
 21
174.009109
  0
LINE
  8
OBRYS
 10
985.586437
 20
162.009109
 11
987.586437
 21
162.009109
  0
ARC
  8
OBRYS
 10
986.686437
 20
168.009109
 40
6.100000
 50
100.388858
 51
259.611142
  0
ARC
  8
OBRYS
 10
990.486437
 20
168.009109
 40
6.100000
 50
280.388858
 51
79.611142
  0
LINE
  8
OBRYS
 10
991.586437
 20
162.009109
 11
989.586437
 21
162.009109
  0
LINE
  8
OBRYS
 10
991.586437
 20
174.009109
 11
989.586437
 21
174.009109
  0
LINE
  8
OBRYS
 10
989.586437
 20
174.009109
 11
989.586437
 21
162.009109
  0
ARC
  8
OBRYS
 10
1009.586437
 20
152.009109
 40
6.000000
 50
180.000000
 51
270.000000
  0
ARC
  8
OBRYS
 10
1009.586437
 20
168.009109
 40
6.000000
 50
90.000000
 51
180.000000
  0
ARC
  8
OBRYS
 10
1015.586437
 20
168.009109
 40
6.000000
 50
0.000000
 51
90.000000
  0
ARC
  8
OBRYS
 10
1015.586437
 20
152.009109
 40
6.000000
 50
270.000000
 51
360.000000
  0
LINE
  8
OBRYS
 10
1003.586437
 20
168.009109
 11
1003.586437
 21
152.009109
  0
LINE
  8
OBRYS
 10
1009.586437
 20
146.009109
 11
1011.586437
 21
146.009109
  0
LINE
  8
OBRYS
 10
1011.586437
 20
146.009109
 11
1011.586437
 21
174.009109
  0
LINE
  8
OBRYS
 10
1011.586437
 20
174.009109
 11
1009.586437
 21
174.009109
  0
LINE
  8
OBRYS
 10
1015.586437
 20
174.009109
 11
1013.586437
 21
174.009109
  0
LINE
  8
OBRYS
 10
1013.586437
 20
174.009109
 11
1013.586437
 21
146.009109
  0
LINE
  8
OBRYS
 10
1013.586437
 20
146.009109
 11
1015.586437
 21
146.009109
  0
LINE
  8
OBRYS
 10
1021.586437
 20
152.009108
 11
1021.586437
 21
168.009108
  0
LINE
  8
OBRYS
 10
965.586437
 20
143.009109
 11
1000.586437
 21
143.009109
  0
LINE
  8
OBRYS
 10
1035.586437
 20
143.009109
 11
1000.586437
 21
143.009109
  0
LINE
  8
0
 62
     2
 10
965.586437
 20
137.009109
 11
1000.586437
 21
137.009109
  0
LINE
  8
OSA
 10
930.586437
 20
148.009109
 11
930.586437
 21
135.009109
  0
ARC
  8
0
 62
     2
 10
952.586437
 20
154.009109
 40
6.000000
 50
270.000000
 51
360.000000
  0
ARC
  8
0
 62
     2
 10
913.586437
 20
145.009109
 40
3.000000
 50
90.000000
 51
180.000000
  0
LINE
  8
0
 62
     2
 10
913.586437
 20
148.009109
 11
952.586437
 21
148.009109
  0
LINE
  8
0
 62
     2
 10
910.586437
 20
135.009109
 11
965.586437
 21
135.009109
  0
LINE
  8
0
 62
     2
 10
910.586437
 20
277.009109
 11
910.586437
 21
135.009109
  0
LINE
  8
0
 62
     2
 10
1090.586437
 20
277.009109
 11
1090.586437
 21
135.009109
  0
LINE
  8
0
 62
     2
 10
1090.586437
 20
135.009109
 11
1035.586437
 21
135.009109
  0
LINE
  8
0
 62
     2
 10
1087.586437
 20
148.009109
 11
1048.586437
 21
148.009109
  0
ARC
  8
0
 62
     2
 10
1087.586437
 20
145.009109
 40
3.000000
 50
0.000000
 51
90.000000
  0
ARC
  8
0
 62
     2
 10
1048.586437
 20
154.009109
 40
6.000000
 50
180.000000
 51
270.000000
  0
LINE
  8
OSA
 10
1070.586437
 20
148.009109
 11
1070.586437
 21
135.009109
  0
LINE
  8
0
 62
     2
 10
1035.586437
 20
137.009109
 11
1000.586437
 21
137.009109
  0
LINE
  8
OSA
 10
1000.586437
 20
277.009109
 11
1093.586437
 21
277.009109
  0
LINE
  8
OSA
 10
1000.586437
 20
277.009109
 11
1000.586437
 21
137.009109
  0
LINE
  8
OSA
 10
1000.586437
 20
277.009109
 11
907.586437
 21
277.009109
  0
ARC
  8
OBRYS
 10
1000.586437
 20
277.009109
 40
90.000000
 50
0.000000
 51
180.000000
  0
LINE
  8
OSA
 10
1000.586437
 20
277.009109
 11
1000.586437
 21
370.009109
  0
CIRCLE
  8
OSA
 10
1000.586437
 20
277.009109
 40
65.000000
  0
LINE
  8
OBRYS
 10
991.586437
 20
342.009109
 11
991.586437
 21
331.267749
  0
LINE
  8
OBRYS
 10
1009.586437
 20
342.009109
 11
1009.586437
 21
331.267749
  0
ARC
  8
OBRYS
 10
1000.586437
 20
342.009109
 40
9.000000
 50
0.000000
 51
179.999992
  0
ARC
  8
OBRYS
 10
1065.586437
 20
277.009109
 40
9.000000
 50
270.000000
 51
89.999992
  0
ARC
  8
OBRYS
 10
1000.586437
 20
212.009109
 40
9.000000
 50
180.000000
 51
360.000000
  0
ARC
  8
OBRYS
 10
935.586437
 20
277.009109
 40
9.000000
 50
90.000000
 51
270.000000
  0
LINE
  8
OBRYS
 10
1065.586437
 20
268.009109
 11
1054.845076
 21
268.009109
  0
LINE
  8
OBRYS
 10
935.586437
 20
286.009109
 11
946.327797
 21
286.009109
  0
LINE
  8
OBRYS
 10
1065.586437
 20
286.009109
 11
1054.845076
 21
286.009109
  0
LINE
  8
OBRYS
 10
935.586437
 20
268.009109
 11
946.327797
 21
268.009109
  0
CIRCLE
  8
OBRYS
 10
1000.586437
 20
277.009109
 40
81.845299
  0
ARC
  8
OBRYS
 10
1000.586437
 20
277.009109
 40
55.500000
 50
260.667582
 51
279.332418
  0
ARC
  8
OBRYS
 10
1000.586437
 20
277.009109
 40
55.500000
 50
80.667582
 51
99.332418
  0
ARC
  8
OBRYS
 10
1000.586437
 20
277.009109
 40
55.000000
 50
279.418027
 51
350.581973
  0
ARC
  8
OBRYS
 10
1000.586437
 20
277.009109
 40
55.000000
 50
9.418027
 51
80.581973
  0
ARC
  8
OBRYS
 10
1000.586437
 20
277.009109
 40
55.000000
 50
99.418027
 51
170.581973
  0
ARC
  8
OBRYS
 10
1000.586437
 20
277.009109
 40
55.000000
 50
189.418027
 51
260.581973
  0
ARC
  8
OBRYS
 10
1000.586437
 20
277.009109
 40
55.500000
 50
350.667582
 51
9.332418
  0
ARC
  8
OBRYS
 10
1000.586437
 20
277.009109
 40
55.500000
 50
170.667582
 51
189.332418
  0
LINE
  8
OBRYS
 10
991.586437
 20
212.009109
 11
991.586437
 21
222.750469
  0
LINE
  8
OBRYS
 10
1009.586437
 20
212.009109
 11
1009.586437
 21
222.750469
  0
LINE
  8
0
 62
     2
 10
1035.586437
 20
197.551208
 11
1035.586437
 21
135.009109
  0
LINE
  8
0
 62
     2
 10
1042.586437
 20
199.850754
 11
1042.586437
 21
154.009109
  0
ARC
  8
OBRYS
 10
1000.586437
 20
277.009109
 40
99.949874
 50
294.847886
 51
334.217460
  0
LINE
  8
0
 62
     2
 10
958.586437
 20
199.850754
 11
958.586437
 21
154.009109
  0
LINE
  8
0
 62
     2
 10
965.586437
 20
197.551208
 11
965.586437
 21
135.009109
  0
ARC
  8
OBRYS
 10
1000.586437
 20
277.009109
 40
99.949874
 50
205.782540
 51
245.152114
  0
ARC
  8
OBRYS
 10
1000.586437
 20
277.009109
 40
99.949874
 50
249.501948
 51
290.498052
  0
INSERT
  8
OBRYS
  2
Srouby_s_valcovou_hlavou___4
 62
     7
 10
935.586437
 20
277.009109
  0
INSERT
  8
OBRYS
  2
Srouby_s_valcovou_hlavou___5
 62
     7
 10
1000.586437
 20
212.009109
  0
INSERT
  8
OBRYS
  2
Srouby_s_valcovou_hlavou___6
 62
     7
 10
1065.586437
 20
277.009109
  0
INSERT
  8
OBRYS
  2
Srouby_s_valcovou_hlavou___7
 62
     7
 10
1000.586437
 20
342.009109
  0
ARC
  8
OBRYS
 10
949.856197
 20
251.019827
 40
3.000000
 50
335.000000
 51
27.126224
  0
ARC
  8
OBRYS
 10
1000.586437
 20
277.009109
 40
54.000000
 50
197.873776
 51
207.126224
  0
ARC
  8
OBRYS
 10
946.337543
 20
259.514609
 40
3.000000
 50
17.873776
 51
70.000000
  0
ARC
  8
OBRYS
 10
946.337543
 20
294.503608
 40
3.000000
 50
290.000000
 51
342.126224
  0
ARC
  8
OBRYS
 10
1000.586437
 20
277.009109
 40
54.000000
 50
152.873776
 51
162.126224
  0
ARC
  8
OBRYS
 10
949.856197
 20
302.998390
 40
3.000000
 50
332.873776
 51
25.000000
  0
ARC
  8
OBRYS
 10
974.597155
 20
327.739349
 40
3.000000
 50
245.000000
 51
297.126224
  0
ARC
  8
OBRYS
 10
1000.586437
 20
277.009109
 40
54.000000
 50
107.873776
 51
117.126224
  0
ARC
  8
OBRYS
 10
983.091937
 20
331.258003
 40
3.000000
 50
287.873776
 51
340.000000
  0
ARC
  8
OBRYS
 10
1018.080936
 20
331.258003
 40
3.000000
 50
200.000000
 51
252.126224
  0
ARC
  8
OBRYS
 10
1000.586437
 20
277.009109
 40
54.000000
 50
62.873776
 51
72.126224
  0
ARC
  8
OBRYS
 10
1026.575718
 20
327.739349
 40
3.000000
 50
242.873776
 51
295.000000
  0
ARC
  8
OBRYS
 10
1051.316676
 20
302.998390
 40
3.000000
 50
155.000000
 51
207.126224
  0
ARC
  8
OBRYS
 10
1000.586437
 20
277.009109
 40
54.000000
 50
17.873776
 51
27.126224
  0
ARC
  8
OBRYS
 10
1054.835330
 20
294.503608
 40
3.000000
 50
197.873776
 51
250.000000
  0
ARC
  8
OBRYS
 10
1054.835330
 20
259.514609
 40
3.000000
 50
110.000000
 51
162.126224
  0
ARC
  8
OBRYS
 10
1000.586437
 20
277.009109
 40
54.000000
 50
332.873776
 51
342.126224
  0
ARC
  8
OBRYS
 10
1051.316676
 20
251.019827
 40
3.000000
 50
152.873776
 51
205.000000
  0
ARC
  8
OBRYS
 10
1026.575718
 20
226.278869
 40
3.000000
 50
65.000000
 51
117.126224
  0
ARC
  8
OBRYS
 10
1000.586437
 20
277.009109
 40
54.000000
 50
287.873776
 51
297.126224
  0
ARC
  8
OBRYS
 10
1018.080936
 20
222.760215
 40
3.000000
 50
107.873776
 51
160.000000
  0
ARC
  8
OBRYS
 10
983.091937
 20
222.760215
 40
3.000000
 50
20.000000
 51
72.126224
  0
ARC
  8
OBRYS
 10
1000.586437
 20
277.009109
 40
54.000000
 50
242.873776
 51
252.126224
  0
ARC
  8
OBRYS
 10
974.597155
 20
226.278869
 40
3.000000
 50
62.873776
 51
115.000000
  0
CIRCLE
  8
OBRYS
 10
1000.586437
 20
277.009109
 40
32.500000
  0
LINE
  8
OBRYS
 10
1005.586437
 20
297.809109
 11
1005.586437
 21
293.779619
  0
LINE
  8
OBRYS
 10
995.586437
 20
297.809109
 11
995.586437
 21
293.779619
  0
ARC
  8
OBRYS
 10
1000.586437
 20
277.009109
 40
17.500000
 50
106.601550
 51
73.398450
  0
ARC
  8
OBRYS
 10
1000.586437
 20
277.009109
 40
18.654701
 50
105.547012
 51
74.452988
  0
CIRCLE
  8
OBRYS
 10
1000.586437
 20
277.009109
 40
25.000000
  0
LINE
  8
OBRYS
 10
995.586437
 20
297.809109
 11
1005.586437
 21
297.809109
  0
ENDBLK
  8
OBRYS
  0
BLOCK
  8
OBRYS
  2
Srouby_s_valcovou_hlavou___4
 70
   66
 10
935.586437
 20
277.009109
  0
LINE
  8
OBRYS
 10
931.586437
 20
274.699693
 11
931.586437
 21
279.318524
  0
LINE
  8
OBRYS
 10
931.586437
 20
279.318524
 11
935.586437
 21
281.627940
  0
LINE
  8
OBRYS
 10
935.586437
 20
281.627940
 11
939.586437
 21
279.318524
  0
LINE
  8
OBRYS
 10
939.586437
 20
279.318524
 11
939.586437
 21
274.699693
  0
LINE
  8
OBRYS
 10
939.586437
 20
274.699693
 11
935.586437
 21
272.390278
  0
LINE
  8
OBRYS
 10
935.586437
 20
272.390278
 11
931.586437
 21
274.699693
  0
CIRCLE
  8
OBRYS
 10
935.586437
 20
277.009109
 40
4.618831
  0
CIRCLE
  8
OBRYS
 10
935.586437
 20
277.009109
 40
8.000000
  0
ENDBLK
  8
OBRYS
  0
BLOCK
  8
OBRYS
  2
Srouby_s_valcovou_hlavou___5
 70
   66
 10
1000.586437
 20
212.009109
  0
LINE
  8
OBRYS
 10
996.586437
 20
209.699693
 11
996.586437
 21
214.318524
  0
LINE
  8
OBRYS
 10
996.586437
 20
214.318524
 11
1000.586437
 21
216.627940
  0
LINE
  8
OBRYS
 10
1000.586437
 20
216.627940
 11
1004.586437
 21
214.318524
  0
LINE
  8
OBRYS
 10
1004.586437
 20
214.318524
 11
1004.586437
 21
209.699693
  0
LINE
  8
OBRYS
 10
1004.586437
 20
209.699693
 11
1000.586437
 21
207.390278
  0
LINE
  8
OBRYS
 10
1000.586437
 20
207.390278
 11
996.586437
 21
209.699693
  0
CIRCLE
  8
OBRYS
 10
1000.586437
 20
212.009109
 40
4.618831
  0
CIRCLE
  8
OBRYS
 10
1000.586437
 20
212.009109
 40
8.000000
  0
ENDBLK
  8
OBRYS
  0
BLOCK
  8
OBRYS
  2
Srouby_s_valcovou_hlavou___6
 70
   66
 10
1065.586437
 20
277.009109
  0
LINE
  8
OBRYS
 10
1061.586437
 20
274.699693
 11
1061.586437
 21
279.318524
  0
LINE
  8
OBRYS
 10
1061.586437
 20
279.318524
 11
1065.586437
 21
281.627940
  0
LINE
  8
OBRYS
 10
1065.586437
 20
281.627940
 11
1069.586437
 21
279.318524
  0
LINE
  8
OBRYS
 10
1069.586437
 20
279.318524
 11
1069.586437
 21
274.699693
  0
LINE
  8
OBRYS
 10
1069.586437
 20
274.699693
 11
1065.586437
 21
272.390278
  0
LINE
  8
OBRYS
 10
1065.586437
 20
272.390278
 11
1061.586437
 21
274.699693
  0
CIRCLE
  8
OBRYS
 10
1065.586437
 20
277.009109
 40
4.618831
  0
CIRCLE
  8
OBRYS
 10
1065.586437
 20
277.009109
 40
8.000000
  0
ENDBLK
  8
OBRYS
  0
BLOCK
  8
OBRYS
  2
Srouby_s_valcovou_hlavou___7
 70
   66
 10
1000.586437
 20
342.009109
  0
LINE
  8
OBRYS
 10
996.586437
 20
339.699693
 11
996.586437
 21
344.318524
  0
LINE
  8
OBRYS
 10
996.586437
 20
344.318524
 11
1000.586437
 21
346.627940
  0
LINE
  8
OBRYS
 10
1000.586437
 20
346.627940
 11
1004.586437
 21
344.318524
  0
LINE
  8
OBRYS
 10
1004.586437
 20
344.318524
 11
1004.586437
 21
339.699693
  0
LINE
  8
OBRYS
 10
1004.586437
 20
339.699693
 11
1000.586437
 21
337.390278
  0
LINE
  8
OBRYS
 10
1000.586437
 20
337.390278
 11
996.586437
 21
339.699693
  0
CIRCLE
  8
OBRYS
 10
1000.586437
 20
342.009109
 40
4.618831
  0
CIRCLE
  8
OBRYS
 10
1000.586437
 20
342.009109
 40
8.000000
  0
ENDBLK
  8
OBRYS
  0
BLOCK
  8
OBRYS
  2
_19
 70
   64
 10
389.659929
 20
277.009109
  0
LINE
  8
NEVIDITELNA
 10
325.159929
 20
147.009109
 11
325.578978
 21
135.009109
  0
LINE
  8
NEVIDITELNA
 10
314.159929
 20
147.009109
 11
313.740880
 21
135.009109
  0
LINE
  8
NEVIDITELNA
 10
465.159929
 20
147.009109
 11
465.578978
 21
135.009109
  0
LINE
  8
NEVIDITELNA
 10
454.159929
 20
147.009109
 11
453.740880
 21
135.009109
  0
ARC
  8
OBRYS
 10
389.659929
 20
277.009109
 40
85.247506
 50
241.870221
 51
245.164319
  0
ARC
  8
OBRYS
 10
389.659929
 20
277.009109
 40
85.247506
 50
294.835681
 51
298.129779
  0
LINE
  8
OBRYS
 10
347.411613
 20
148.009109
 11
353.163298
 21
148.009109
  0
LINE
  8
OBRYS
 10
431.908245
 20
148.009109
 11
426.156560
 21
148.009109
  0
LINE
  8
OBRYS
 10
449.615724
 20
221.295954
 11
462.424640
 21
208.487038
  0
LINE
  8
OBRYS
 10
445.373084
 20
217.053313
 11
458.182000
 21
204.244397
  0
LINE
  8
OBRYS
 10
392.659929
 20
195.218809
 11
392.659929
 21
177.104267
  0
LINE
  8
OBRYS
 10
386.659929
 20
195.218809
 11
386.659929
 21
177.104267
  0
LINE
  8
OBRYS
 10
329.704133
 20
221.295954
 11
316.895218
 21
208.487038
  0
LINE
  8
OBRYS
 10
333.946774
 20
217.053313
 11
321.137858
 21
204.244397
  0
LINE
  8
OBRYS
 10
449.615724
 20
332.722263
 11
455.385494
 21
338.492033
  0
LINE
  8
OBRYS
 10
471.450228
 20
274.009109
 11
479.609915
 21
274.009109
  0
LINE
  8
OBRYS
 10
307.869630
 20
280.009109
 11
299.709943
 21
280.009109
  0
LINE
  8
OBRYS
 10
333.946774
 20
336.964904
 11
328.177004
 21
342.734674
  0
LINE
  8
OBRYS
 10
445.373084
 20
336.964904
 11
451.142854
 21
342.734674
  0
LINE
  8
OBRYS
 10
471.450228
 20
280.009109
 11
479.609915
 21
280.009109
  0
LINE
  8
OBRYS
 10
307.869630
 20
274.009109
 11
299.709943
 21
274.009109
  0
LINE
  8
OBRYS
 10
329.704133
 20
332.722263
 11
323.934363
 21
338.492033
  0
LINE
  8
OBRYS
 10
386.659929
 20
358.799408
 11
386.659929
 21
366.959095
  0
LINE
  8
OBRYS
 10
392.659929
 20
358.799408
 11
392.659929
 21
366.959095
  0
LINE
  8
OBRYS
 10
376.659929
 20
160.009109
 11
376.659929
 21
146.009109
  0
ARC
  8
OBRYS
 10
375.659929
 20
153.009109
 40
7.000000
 50
90.000000
 51
270.000000
  0
LINE
  8
OBRYS
 10
375.659929
 20
160.009109
 11
376.659929
 21
160.009109
  0
LINE
  8
OBRYS
 10
375.659929
 20
146.009109
 11
376.659929
 21
146.009109
  0
LINE
  8
OBRYS
 10
379.659929
 20
146.009109
 11
378.659929
 21
146.009109
  0
LINE
  8
OBRYS
 10
379.659929
 20
160.009109
 11
378.659929
 21
160.009109
  0
ARC
  8
OBRYS
 10
379.659929
 20
153.009109
 40
7.000000
 50
270.000000
 51
90.000000
  0
LINE
  8
OBRYS
 10
378.659929
 20
160.009109
 11
378.659929
 21
146.009109
  0
LINE
  8
OBRYS
 10
376.659929
 20
174.009109
 11
376.659929
 21
162.009109
  0
LINE
  8
OBRYS
 10
374.659929
 20
174.009109
 11
376.659929
 21
174.009109
  0
LINE
  8
OBRYS
 10
374.659929
 20
162.009109
 11
376.659929
 21
162.009109
  0
ARC
  8
OBRYS
 10
375.759929
 20
168.009109
 40
6.100000
 50
100.388858
 51
259.611142
  0
ARC
  8
OBRYS
 10
379.559929
 20
168.009109
 40
6.100000
 50
280.388858
 51
79.611142
  0
LINE
  8
OBRYS
 10
380.659929
 20
162.009109
 11
378.659929
 21
162.009109
  0
LINE
  8
OBRYS
 10
380.659929
 20
174.009109
 11
378.659929
 21
174.009109
  0
LINE
  8
OBRYS
 10
378.659929
 20
174.009109
 11
378.659929
 21
162.009109
  0
ARC
  8
OBRYS
 10
398.659929
 20
152.009109
 40
6.000000
 50
180.000000
 51
270.000000
  0
ARC
  8
OBRYS
 10
398.659929
 20
168.009109
 40
6.000000
 50
90.000000
 51
180.000000
  0
ARC
  8
OBRYS
 10
404.659929
 20
168.009109
 40
6.000000
 50
0.000000
 51
90.000000
  0
ARC
  8
OBRYS
 10
404.659929
 20
152.009109
 40
6.000000
 50
270.000000
 51
360.000000
  0
LINE
  8
OBRYS
 10
392.659929
 20
168.009109
 11
392.659929
 21
152.009109
  0
LINE
  8
OBRYS
 10
398.659929
 20
146.009109
 11
400.659929
 21
146.009109
  0
LINE
  8
OBRYS
 10
400.659929
 20
146.009109
 11
400.659929
 21
174.009109
  0
LINE
  8
OBRYS
 10
400.659929
 20
174.009109
 11
398.659929
 21
174.009109
  0
LINE
  8
OBRYS
 10
404.659929
 20
174.009109
 11
402.659929
 21
174.009109
  0
LINE
  8
OBRYS
 10
402.659929
 20
174.009109
 11
402.659929
 21
146.009109
  0
LINE
  8
OBRYS
 10
402.659929
 20
146.009109
 11
404.659929
 21
146.009109
  0
LINE
  8
OBRYS
 10
410.659929
 20
152.009108
 11
410.659929
 21
168.009108
  0
LINE
  8
OBRYS
 10
354.659929
 20
143.009109
 11
389.659929
 21
143.009109
  0
LINE
  8
OBRYS
 10
424.659929
 20
143.009109
 11
389.659929
 21
143.009109
  0
LINE
  8
0
 62
     2
 10
354.659929
 20
137.009109
 11
389.659929
 21
137.009109
  0
LINE
  8
OSA
 10
319.659929
 20
148.009109
 11
319.659929
 21
135.009109
  0
ARC
  8
0
 62
     2
 10
341.659929
 20
154.009109
 40
6.000000
 50
270.000000
 51
360.000000
  0
ARC
  8
0
 62
     2
 10
302.659929
 20
145.009109
 40
3.000000
 50
90.000000
 51
180.000000
  0
LINE
  8
0
 62
     2
 10
302.659929
 20
148.009109
 11
341.659929
 21
148.009109
  0
LINE
  8
0
 62
     2
 10
299.659929
 20
135.009109
 11
354.659929
 21
135.009109
  0
LINE
  8
0
 62
     2
 10
299.659929
 20
277.009109
 11
299.659929
 21
135.009109
  0
LINE
  8
0
 62
     2
 10
479.659929
 20
277.009109
 11
479.659929
 21
135.009109
  0
LINE
  8
0
 62
     2
 10
479.659929
 20
135.009109
 11
424.659929
 21
135.009109
  0
LINE
  8
0
 62
     2
 10
476.659929
 20
148.009109
 11
437.659929
 21
148.009109
  0
ARC
  8
0
 62
     2
 10
476.659929
 20
145.009109
 40
3.000000
 50
0.000000
 51
90.000000
  0
ARC
  8
0
 62
     2
 10
437.659929
 20
154.009109
 40
6.000000
 50
180.000000
 51
270.000000
  0
LINE
  8
OSA
 10
459.659929
 20
148.009109
 11
459.659929
 21
135.009109
  0
LINE
  8
0
 62
     2
 10
424.659929
 20
137.009109
 11
389.659929
 21
137.009109
  0
LINE
  8
OSA
 10
389.659929
 20
277.009109
 11
482.659929
 21
277.009109
  0
LINE
  8
OSA
 10
389.659929
 20
277.009109
 11
389.659929
 21
137.009109
  0
LINE
  8
OSA
 10
389.659929
 20
277.009109
 11
296.659929
 21
277.009109
  0
ARC
  8
OBRYS
 10
389.659929
 20
277.009109
 40
90.000000
 50
0.000000
 51
180.000000
  0
LINE
  8
OSA
 10
389.659929
 20
277.009109
 11
389.659929
 21
370.009109
  0
CIRCLE
  8
OSA
 10
389.659929
 20
277.009109
 40
65.000000
  0
LINE
  8
OBRYS
 10
380.659929
 20
342.009109
 11
380.659929
 21
331.267749
  0
LINE
  8
OBRYS
 10
398.659929
 20
342.009109
 11
398.659929
 21
331.267749
  0
ARC
  8
OBRYS
 10
389.659929
 20
342.009109
 40
9.000000
 50
0.000000
 51
179.999992
  0
ARC
  8
OBRYS
 10
454.659929
 20
277.009109
 40
9.000000
 50
270.000000
 51
89.999992
  0
ARC
  8
OBRYS
 10
389.659929
 20
212.009109
 40
9.000000
 50
180.000000
 51
360.000000
  0
ARC
  8
OBRYS
 10
324.659929
 20
277.009109
 40
9.000000
 50
90.000000
 51
270.000000
  0
LINE
  8
OBRYS
 10
454.659929
 20
268.009109
 11
443.918569
 21
268.009109
  0
LINE
  8
OBRYS
 10
324.659929
 20
286.009109
 11
335.401289
 21
286.009109
  0
LINE
  8
OBRYS
 10
454.659929
 20
286.009109
 11
443.918569
 21
286.009109
  0
LINE
  8
OBRYS
 10
324.659929
 20
268.009109
 11
335.401289
 21
268.009109
  0
CIRCLE
  8
OBRYS
 10
389.659929
 20
277.009109
 40
81.845299
  0
ARC
  8
OBRYS
 10
389.659929
 20
277.009109
 40
55.500000
 50
260.667582
 51
279.332418
  0
ARC
  8
OBRYS
 10
389.659929
 20
277.009109
 40
55.500000
 50
80.667582
 51
99.332418
  0
ARC
  8
OBRYS
 10
389.659929
 20
277.009109
 40
55.000000
 50
279.418027
 51
350.581973
  0
ARC
  8
OBRYS
 10
389.659929
 20
277.009109
 40
55.000000
 50
9.418027
 51
80.581973
  0
ARC
  8
OBRYS
 10
389.659929
 20
277.009109
 40
55.000000
 50
99.418027
 51
170.581973
  0
ARC
  8
OBRYS
 10
389.659929
 20
277.009109
 40
55.000000
 50
189.418027
 51
260.581973
  0
ARC
  8
OBRYS
 10
389.659929
 20
277.009109
 40
55.500000
 50
350.667582
 51
9.332418
  0
ARC
  8
OBRYS
 10
389.659929
 20
277.009109
 40
55.500000
 50
170.667582
 51
189.332418
  0
LINE
  8
OBRYS
 10
380.659929
 20
212.009109
 11
380.659929
 21
222.750469
  0
LINE
  8
OBRYS
 10
398.659929
 20
212.009109
 11
398.659929
 21
222.750469
  0
LINE
  8
0
 62
     2
 10
424.659929
 20
197.551208
 11
424.659929
 21
135.009109
  0
LINE
  8
0
 62
     2
 10
431.659929
 20
199.850754
 11
431.659929
 21
154.009109
  0
ARC
  8
OBRYS
 10
389.659929
 20
277.009109
 40
99.949874
 50
294.847886
 51
334.217460
  0
LINE
  8
0
 62
     2
 10
347.659929
 20
199.850754
 11
347.659929
 21
154.009109
  0
LINE
  8
0
 62
     2
 10
354.659929
 20
197.551208
 11
354.659929
 21
135.009109
  0
ARC
  8
OBRYS
 10
389.659929
 20
277.009109
 40
99.949874
 50
205.782540
 51
245.152114
  0
ARC
  8
OBRYS
 10
389.659929
 20
277.009109
 40
99.949874
 50
249.501948
 51
290.498052
  0
INSERT
  8
OBRYS
  2
Srouby_s_valcovou_hlavou___9
 62
     7
 10
324.659929
 20
277.009109
  0
INSERT
  8
OBRYS
  2
Srouby_s_valcovou_hlavou___10
 62
     7
 10
389.659929
 20
212.009109
  0
INSERT
  8
OBRYS
  2
Srouby_s_valcovou_hlavou___11
 62
     7
 10
454.659929
 20
277.009109
  0
INSERT
  8
OBRYS
  2
Srouby_s_valcovou_hlavou___12
 62
     7
 10
389.659929
 20
342.009109
  0
ARC
  8
OBRYS
 10
338.929689
 20
251.019827
 40
3.000000
 50
335.000000
 51
27.126224
  0
ARC
  8
OBRYS
 10
389.659929
 20
277.009109
 40
54.000000
 50
197.873776
 51
207.126224
  0
ARC
  8
OBRYS
 10
335.411035
 20
259.514609
 40
3.000000
 50
17.873776
 51
70.000000
  0
ARC
  8
OBRYS
 10
335.411035
 20
294.503608
 40
3.000000
 50
290.000000
 51
342.126224
  0
ARC
  8
OBRYS
 10
389.659929
 20
277.009109
 40
54.000000
 50
152.873776
 51
162.126224
  0
ARC
  8
OBRYS
 10
338.929689
 20
302.998390
 40
3.000000
 50
332.873776
 51
25.000000
  0
ARC
  8
OBRYS
 10
363.670647
 20
327.739349
 40
3.000000
 50
245.000000
 51
297.126224
  0
ARC
  8
OBRYS
 10
389.659929
 20
277.009109
 40
54.000000
 50
107.873776
 51
117.126224
  0
ARC
  8
OBRYS
 10
372.165430
 20
331.258003
 40
3.000000
 50
287.873776
 51
340.000000
  0
ARC
  8
OBRYS
 10
407.154428
 20
331.258003
 40
3.000000
 50
200.000000
 51
252.126224
  0
ARC
  8
OBRYS
 10
389.659929
 20
277.009109
 40
54.000000
 50
62.873776
 51
72.126224
  0
ARC
  8
OBRYS
 10
415.649211
 20
327.739349
 40
3.000000
 50
242.873776
 51
295.000000
  0
ARC
  8
OBRYS
 10
440.390169
 20
302.998390
 40
3.000000
 50
155.000000
 51
207.126224
  0
ARC
  8
OBRYS
 10
389.659929
 20
277.009109
 40
54.000000
 50
17.873776
 51
27.126224
  0
ARC
  8
OBRYS
 10
443.908823
 20
294.503608
 40
3.000000
 50
197.873776
 51
250.000000
  0
ARC
  8
OBRYS
 10
443.908823
 20
259.514609
 40
3.000000
 50
110.000000
 51
162.126224
  0
ARC
  8
OBRYS
 10
389.659929
 20
277.009109
 40
54.000000
 50
332.873776
 51
342.126224
  0
ARC
  8
OBRYS
 10
440.390169
 20
251.019827
 40
3.000000
 50
152.873776
 51
205.000000
  0
ARC
  8
OBRYS
 10
415.649211
 20
226.278869
 40
3.000000
 50
65.000000
 51
117.126224
  0
ARC
  8
OBRYS
 10
389.659929
 20
277.009109
 40
54.000000
 50
287.873776
 51
297.126224
  0
ARC
  8
OBRYS
 10
407.154428
 20
222.760215
 40
3.000000
 50
107.873776
 51
160.000000
  0
ARC
  8
OBRYS
 10
372.165430
 20
222.760215
 40
3.000000
 50
20.000000
 51
72.126224
  0
ARC
  8
OBRYS
 10
389.659929
 20
277.009109
 40
54.000000
 50
242.873776
 51
252.126224
  0
ARC
  8
OBRYS
 10
363.670647
 20
226.278869
 40
3.000000
 50
62.873776
 51
115.000000
  0
CIRCLE
  8
OBRYS
 10
389.659929
 20
277.009109
 40
32.500000
  0
LINE
  8
OBRYS
 10
394.659929
 20
297.809109
 11
394.659929
 21
293.779619
  0
LINE
  8
OBRYS
 10
384.659929
 20
297.809109
 11
384.659929
 21
293.779619
  0
ARC
  8
OBRYS
 10
389.659929
 20
277.009109
 40
17.500000
 50
106.601550
 51
73.398450
  0
ARC
  8
OBRYS
 10
389.659929
 20
277.009109
 40
18.654701
 50
105.547012
 51
74.452988
  0
CIRCLE
  8
OBRYS
 10
389.659929
 20
277.009109
 40
25.000000
  0
LINE
  8
OBRYS
 10
384.659929
 20
297.809109
 11
394.659929
 21
297.809109
  0
ENDBLK
  8
OBRYS
  0
BLOCK
  8
OBRYS
  2
Srouby_s_valcovou_hlavou___9
 70
   66
 10
324.659929
 20
277.009109
  0
LINE
  8
OBRYS
 10
320.659929
 20
274.699693
 11
320.659929
 21
279.318524
  0
LINE
  8
OBRYS
 10
320.659929
 20
279.318524
 11
324.659929
 21
281.627940
  0
LINE
  8
OBRYS
 10
324.659929
 20
281.627940
 11
328.659929
 21
279.318524
  0
LINE
  8
OBRYS
 10
328.659929
 20
279.318524
 11
328.659929
 21
274.699693
  0
LINE
  8
OBRYS
 10
328.659929
 20
274.699693
 11
324.659929
 21
272.390278
  0
LINE
  8
OBRYS
 10
324.659929
 20
272.390278
 11
320.659929
 21
274.699693
  0
CIRCLE
  8
OBRYS
 10
324.659929
 20
277.009109
 40
4.618831
  0
CIRCLE
  8
OBRYS
 10
324.659929
 20
277.009109
 40
8.000000
  0
ENDBLK
  8
OBRYS
  0
BLOCK
  8
OBRYS
  2
Srouby_s_valcovou_hlavou___10
 70
   66
 10
389.659929
 20
212.009109
  0
LINE
  8
OBRYS
 10
385.659929
 20
209.699693
 11
385.659929
 21
214.318524
  0
LINE
  8
OBRYS
 10
385.659929
 20
214.318524
 11
389.659929
 21
216.627940
  0
LINE
  8
OBRYS
 10
389.659929
 20
216.627940
 11
393.659929
 21
214.318524
  0
LINE
  8
OBRYS
 10
393.659929
 20
214.318524
 11
393.659929
 21
209.699693
  0
LINE
  8
OBRYS
 10
393.659929
 20
209.699693
 11
389.659929
 21
207.390278
  0
LINE
  8
OBRYS
 10
389.659929
 20
207.390278
 11
385.659929
 21
209.699693
  0
CIRCLE
  8
OBRYS
 10
389.659929
 20
212.009109
 40
4.618831
  0
CIRCLE
  8
OBRYS
 10
389.659929
 20
212.009109
 40
8.000000
  0
ENDBLK
  8
OBRYS
  0
BLOCK
  8
OBRYS
  2
Srouby_s_valcovou_hlavou___11
 70
   66
 10
454.659929
 20
277.009109
  0
LINE
  8
OBRYS
 10
450.659929
 20
274.699693
 11
450.659929
 21
279.318524
  0
LINE
  8
OBRYS
 10
450.659929
 20
279.318524
 11
454.659929
 21
281.627940
  0
LINE
  8
OBRYS
 10
454.659929
 20
281.627940
 11
458.659929
 21
279.318524
  0
LINE
  8
OBRYS
 10
458.659929
 20
279.318524
 11
458.659929
 21
274.699693
  0
LINE
  8
OBRYS
 10
458.659929
 20
274.699693
 11
454.659929
 21
272.390278
  0
LINE
  8
OBRYS
 10
454.659929
 20
272.390278
 11
450.659929
 21
274.699693
  0
CIRCLE
  8
OBRYS
 10
454.659929
 20
277.009109
 40
4.618831
  0
CIRCLE
  8
OBRYS
 10
454.659929
 20
277.009109
 40
8.000000
  0
ENDBLK
  8
OBRYS
  0
BLOCK
  8
OBRYS
  2
Srouby_s_valcovou_hlavou___12
 70
   66
 10
389.659929
 20
342.009109
  0
LINE
  8
OBRYS
 10
385.659929
 20
339.699693
 11
385.659929
 21
344.318524
  0
LINE
  8
OBRYS
 10
385.659929
 20
344.318524
 11
389.659929
 21
346.627940
  0
LINE
  8
OBRYS
 10
389.659929
 20
346.627940
 11
393.659929
 21
344.318524
  0
LINE
  8
OBRYS
 10
393.659929
 20
344.318524
 11
393.659929
 21
339.699693
  0
LINE
  8
OBRYS
 10
393.659929
 20
339.699693
 11
389.659929
 21
337.390278
  0
LINE
  8
OBRYS
 10
389.659929
 20
337.390278
 11
385.659929
 21
339.699693
  0
CIRCLE
  8
OBRYS
 10
389.659929
 20
342.009109
 40
4.618831
  0
CIRCLE
  8
OBRYS
 10
389.659929
 20
342.009109
 40
8.000000
  0
ENDBLK
  8
OBRYS
  0
ENDSEC
  0
SECTION
  2
ENTITIES
  0
ARC
  8
OBRYS
 10
403.659929
 20
565.485278
 40
80.000000
 50
241.044976
 51
285.219751
  0
ARC
  8
OBRYS
 10
403.659929
 20
565.485278
 40
80.000000
 50
74.780249
 51
118.955024
  0
ARC
  8
OBRYS
 10
469.659929
 20
565.485278
 40
64.000000
 50
278.989281
 51
289.389830
  0
ARC
  8
OBRYS
 10
469.659929
 20
565.485278
 40
64.000000
 50
70.610170
 51
81.010701
  0
ARC
  8
OBRYS
 10
534.824342
 20
576.270236
 40
3.000000
 50
195.275412
 51
258.652160
  0
ARC
  8
OBRYS
 10
532.659929
 20
565.485278
 40
8.000000
 50
281.347840
 51
78.652160
  0
LINE
  8
OBRYS
 10
531.930331
 20
575.479858
 11
522.412623
 21
610.329491
  0
ARC
  8
OBRYS
 10
534.824342
 20
554.700320
 40
3.000000
 50
101.347840
 51
164.724588
  0
LINE
  8
OBRYS
 10
531.930331
 20
555.490697
 11
522.412623
 21
520.641064
  0
ARC
  8
OBRYS
 10
499.659929
 20
510.085278
 40
8.000000
 50
225.160000
 51
310.607302
  0
ARC
  8
OBRYS
 10
491.903508
 20
502.285411
 40
3.000000
 50
45.160016
 51
109.389830
  0
LINE
  8
0
 62
     2
 10
504.866897
 20
504.011771
 11
520.216026
 21
517.170959
  0
ARC
  8
OBRYS
 10
515.659929
 20
522.485278
 40
7.000000
 50
310.607300
 51
344.724588
  0
ARC
  8
OBRYS
 10
515.659929
 20
608.485278
 40
7.000000
 50
15.275412
 51
49.392700
  0
ARC
  8
OBRYS
 10
499.659929
 20
620.885278
 40
8.000000
 50
49.392698
 51
134.839984
  0
LINE
  8
0
 62
     2
 10
504.866897
 20
626.958785
 11
520.216026
 21
613.799596
  0
ARC
  8
OBRYS
 10
491.903508
 20
628.685145
 40
3.000000
 50
250.610170
 51
314.839984
  0
INSERT
  8
OBRYS
  2
_0
 62
     7
 10
389.659929
 20
33.532939
  0
INSERT
  8
OBRYS
  2
_1
 62
     7
 10
389.659929
 20
-56.467061
  0
LINE
  8
OBRYS
 10
299.659929
 20
-56.467061
 11
337.516146
 21
-56.467061
  0
LINE
  8
OBRYS
 10
332.217644
 20
-47.467061
 11
301.659929
 21
-47.467061
  0
LINE
  8
OBRYS
 10
332.217644
 20
24.532939
 11
301.659929
 21
24.532939
  0
INSERT
  8
OBRYS
  2
_2
 62
     7
 10
469.659929
 20
-11.467061
  0
INSERT
  8
OBRYS
  2
_3
 62
     7
 10
113.727352
 20
372.009109
  0
INSERT
  8
OBRYS
  2
_4
 62
     7
 10
678.136098
 20
372.009109
  0
INSERT
  8
OBRYS
  2
_5
 62
     7
 10
920.586437
 20
372.009109
  0
INSERT
  8
OBRYS
  2
_6
 62
     7
 10
469.659929
 20
372.009109
  0
TEXT
  8
NEVIDITELNA
 62
     2
  6
CONTINUOUS
 10
183.903687
 20
804.993835
 40
15.000000
  1
MRP 80A - FT + 2x adaptér
 50
0.00
 51
0.00
 41
0.80
  0
TEXT
  8
NEVIDITELNA
 62
     2
  6
CONTINUOUS
 10
182.845810
 20
844.166016
 40
15.000000
  1
MRP 80A - V
 50
0.00
 51
0.00
 41
0.80
  0
INSERT
  8
OBRYS
  2
_7
 62
     7
 10
389.659929
 20
565.485278
  0
INSERT
  8
OBRYS
  2
_8
 62
     7
 10
389.659929
 20
565.485278
  0
LINE
  8
0
 62
     2
 10
299.659929
 20
31.532939
 11
299.659929
 21
38.532939
  0
INSERT
  8
OBRYS
  2
_9
 62
     7
 10
113.727352
 20
277.009109
  0
INSERT
  8
OBRYS
  2
_10
 62
     7
 10
68.727352
 20
277.009109
  0
INSERT
  8
OBRYS
  2
_11
 62
     7
 10
678.136098
 20
277.009109
  0
INSERT
  8
OBRYS
  2
_12
 62
     7
 10
723.136098
 20
277.009109
  0
POLYLINE
  8
0
 62
     2
 66
    1
  0
VERTEX
  8
0
 62
     2
 10
314.579346
 20
-30.595123
  0
VERTEX
  8
0
 62
     2
 10
314.672668
 20
-30.623077
  0
VERTEX
  8
0
 62
     2
 10
314.825684
 20
-30.677032
  0
VERTEX
  8
0
 62
     2
 10
315.160095
 20
-30.808014
  0
VERTEX
  8
0
 62
     2
 10
315.804535
 20
-31.076019
  0
VERTEX
  8
0
 62
     2
 10
316.768402
 20
-32.422455
  0
VERTEX
  8
0
 62
     2
 10
317.040649
 20
-32.810211
  0
VERTEX
  8
0
 62
     2
 10
317.854187
 20
-35.405609
  0
VERTEX
  8
0
 62
     2
 10
318.139862
 20
-38.467072
  0
VERTEX
  8
0
 62
     2
 10
318.139862
 20
-45.467072
  0
VERTEX
  8
0
 62
     2
 10
318.006256
 20
-46.232452
  0
VERTEX
  8
0
 62
     2
 10
317.887146
 20
-46.435516
  0
VERTEX
  8
0
 62
     2
 10
317.597931
 20
-46.881256
  0
VERTEX
  8
0
 62
     2
 10
316.967926
 20
-47.314789
  0
VERTEX
  8
0
 62
     2
 10
316.386414
 20
-47.433929
  0
VERTEX
  8
0
 62
     2
 10
316.207947
 20
-47.467072
  0
SEQEND
  8
0
  0
LINE
  8
OBRYS
 10
308.159929
 20
-34.107900
 11
308.159929
 21
-11.467061
  0
LINE
  8
0
 62
     2
 10
306.825687
 20
-47.334633
 11
306.825687
 21
-38.467061
  0
POLYLINE
  8
0
 62
     2
 66
    1
  0
VERTEX
  8
0
 62
     2
 10
314.305695
 20
-30.570465
  0
VERTEX
  8
0
 62
     2
 10
314.335297
 20
-30.566498
  0
VERTEX
  8
0
 62
     2
 10
314.363739
 20
-30.566498
  0
SEQEND
  8
0
  0
ARC
  8
0
 62
     2
 10
314.386849
 20
-31.138241
 40
0.574217
 50
73.397780
 51
91.497555
  0
LINE
  8
0
 62
     2
 10
306.825687
 20
-38.467061
 11
318.139864
 21
-38.467061
  0
POLYLINE
  8
0
 62
     2
 66
    1
  0
VERTEX
  8
0
 62
     2
 10
311.764221
 20
-31.076019
  0
VERTEX
  8
0
 62
     2
 10
309.168823
 20
-32.810211
  0
VERTEX
  8
0
 62
     2
 10
307.434662
 20
-35.405609
  0
VERTEX
  8
0
 62
     2
 10
306.825684
 20
-38.467072
  0
SEQEND
  8
0
  0
LINE
  8
0
 62
     2
 10
311.764219
 20
-31.076024
 11
314.305704
 21
-30.570491
  0
POLYLINE
  8
0
 62
     2
 66
    1
  0
VERTEX
  8
0
 62
     2
 10
308.159943
 20
-34.320160
  0
VERTEX
  8
0
 62
     2
 10
307.434662
 20
-35.405609
  0
VERTEX
  8
0
 62
     2
 10
306.825684
 20
-38.467072
  0
SEQEND
  8
0
  0
LINE
  8
OBRYS
 10
308.159929
 20
-11.467061
 11
308.159929
 21
22.532939
  0
LINE
  8
OBRYS
 10
305.159929
 20
-20.467128
 11
305.159929
 21
-2.466993
  0
LINE
  8
OBRYS
 10
305.159929
 20
-2.466993
 11
306.159792
 21
-2.467062
  0
ARC
  8
OBRYS
 10
306.159929
 20
-0.467062
 40
2.000000
 50
269.996087
 51
360.000000
  0
LINE
  8
OBRYS
 10
305.159929
 20
-20.467128
 11
306.159792
 21
-20.467059
  0
ARC
  8
OBRYS
 10
306.159929
 20
-22.467059
 40
2.000000
 50
0.000000
 51
90.003913
  0
ARC
  8
OBRYS
 10
306.159929
 20
22.532939
 40
2.000000
 50
0.000000
 51
90.000000
  0
ARC
  8
OBRYS
 10
301.659929
 20
26.532939
 40
2.000000
 50
180.000000
 51
270.000000
  0
ARC
  8
OBRYS
 10
301.659929
 20
-49.467061
 40
2.000000
 50
90.000000
 51
180.000000
  0
LINE
  8
OBRYS
 62
     7
  6
DASHDOT
 10
389.659929
 20
-81.467061
 11
389.659929
 21
58.532939
  0
LINE
  8
OBRYS
 62
     7
  6
DASHDOT
 10
469.659929
 20
-81.467061
 11
469.659929
 21
58.532939
  0
LINE
  8
OBRYS
 62
     7
  6
DASHDOT
 10
523.786984
 20
-11.467061
 11
297.659929
 21
-11.467061
  0
ARC
  8
OBRYS
 10
487.557787
 20
596.485278
 40
12.000000
 50
30.000000
 51
90.000000
  0
LINE
  8
OBRYS
 10
487.557787
 20
608.485278
 11
451.762071
 21
608.485278
  0
LINE
  8
OBRYS
 10
515.847950
 20
571.485278
 11
497.950092
 21
602.485278
  0
ARC
  8
OBRYS
 10
451.762071
 20
596.485278
 40
12.000000
 50
90.000000
 51
150.000000
  0
LINE
  8
OBRYS
 10
441.369766
 20
602.485278
 11
423.471907
 21
571.485278
  0
ARC
  8
OBRYS
 10
433.864212
 20
565.485278
 40
12.000000
 50
150.000000
 51
210.000000
  0
LINE
  8
OBRYS
 10
423.471907
 20
559.485278
 11
441.369766
 21
528.485278
  0
ARC
  8
OBRYS
 10
451.762071
 20
534.485278
 40
12.000000
 50
210.000000
 51
270.000000
  0
LINE
  8
OBRYS
 10
451.762071
 20
522.485278
 11
487.557787
 21
522.485278
  0
ARC
  8
OBRYS
 10
487.557787
 20
534.485278
 40
12.000000
 50
270.000000
 51
330.000000
  0
LINE
  8
OBRYS
 10
497.950092
 20
528.485278
 11
515.847950
 21
559.485278
  0
ARC
  8
OBRYS
 10
505.455646
 20
565.485278
 40
12.000000
 50
330.000000
 51
30.000000
  0
CIRCLE
  8
OBRYS
 10
469.659929
 20
565.485278
 40
36.000000
  0
LINE
  8
OBRYS
 62
     7
  6
DASHDOT
 10
523.786984
 20
565.485278
 11
297.659929
 21
565.485278
  0
LINE
  8
OBRYS
 62
     7
  6
DASHDOT
 10
469.659929
 20
635.485278
 11
469.659929
 21
495.485278
  0
LINE
  8
OBRYS
 62
     7
  6
DASHDOT
 10
389.659929
 20
635.485278
 11
389.659929
 21
495.485278
  0
ARC
  8
OBRYS
 10
481.659929
 20
610.485278
 40
2.000000
 50
180.000000
 51
270.000000
  0
ARC
  8
OBRYS
 10
301.659929
 20
603.485278
 40
2.000000
 50
180.000000
 51
270.000000
  0
ARC
  8
OBRYS
 10
301.659929
 20
527.485278
 40
2.000000
 50
90.000000
 51
180.000000
  0
ARC
  8
OBRYS
 10
306.159929
 20
531.485278
 40
2.000000
 50
270.000000
 51
360.000000
  0
ARC
  8
OBRYS
 10
481.659929
 20
520.485278
 40
2.000000
 50
90.000000
 51
180.000000
  0
ARC
  8
OBRYS
 10
306.159929
 20
576.485277
 40
2.000000
 50
269.996087
 51
360.000000
  0
LINE
  8
OBRYS
 10
305.159929
 20
574.485345
 11
306.159792
 21
574.485277
  0
ARC
  8
OBRYS
 10
306.159929
 20
554.485279
 40
2.000000
 50
0.000000
 51
90.003913
  0
LINE
  8
OBRYS
 10
305.159929
 20
556.485211
 11
306.159792
 21
556.485279
  0
LINE
  8
OBRYS
 10
305.159929
 20
574.485345
 11
305.159929
 21
556.485211
  0
LINE
  8
OBRYS
 10
440.792415
 20
529.485278
 11
301.659929
 21
529.485278
  0
LINE
  8
OBRYS
 10
308.159929
 20
565.485278
 11
308.159929
 21
531.485278
  0
LINE
  8
OBRYS
 10
299.659929
 20
610.485278
 11
389.659929
 21
610.485278
  0
LINE
  8
OBRYS
 10
440.792415
 20
601.485278
 11
301.659929
 21
601.485278
  0
LINE
  8
OBRYS
 10
479.659929
 20
610.485278
 11
389.659929
 21
610.485278
  0
LINE
  8
0
 62
     2
 10
414.330528
 20
592.485278
 11
421.708179
 21
592.485278
  0
LINE
  8
0
 62
     2
 10
357.611679
 20
592.485278
 11
364.989330
 21
592.485278
  0
POLYLINE
  8
0
 62
     2
 66
    1
  0
VERTEX
  8
0
 62
     2
 10
308.159943
 20
588.338379
  0
VERTEX
  8
0
 62
     2
 10
307.434662
 20
589.423828
  0
VERTEX
  8
0
 62
     2
 10
306.825684
 20
592.485291
  0
SEQEND
  8
0
  0
LINE
  8
0
 62
     2
 10
311.764219
 20
585.094242
 11
314.305704
 21
584.588709
  0
POLYLINE
  8
0
 62
     2
 66
    1
  0
VERTEX
  8
0
 62
     2
 10
311.764221
 20
585.094238
  0
VERTEX
  8
0
 62
     2
 10
309.168823
 20
586.828430
  0
VERTEX
  8
0
 62
     2
 10
307.434662
 20
589.423828
  0
VERTEX
  8
0
 62
     2
 10
306.825684
 20
592.485291
  0
SEQEND
  8
0
  0
LINE
  8
0
 62
     2
 10
306.825687
 20
592.485278
 11
318.139864
 21
592.485278
  0
ARC
  8
0
 62
     2
 10
314.386849
 20
585.156458
 40
0.574217
 50
268.502445
 51
286.602220
  0
POLYLINE
  8
0
 62
     2
 66
    1
  0
VERTEX
  8
0
 62
     2
 10
314.305695
 20
584.588684
  0
VERTEX
  8
0
 62
     2
 10
314.335297
 20
584.584717
  0
VERTEX
  8
0
 62
     2
 10
314.363739
 20
584.584717
  0
SEQEND
  8
0
  0
LINE
  8
0
 62
     2
 10
357.607001
 20
584.695244
 11
355.601103
 21
585.094242
  0
POLYLINE
  8
0
 62
     2
 66
    1
  0
VERTEX
  8
0
 62
     2
 10
355.601105
 20
585.094238
  0
VERTEX
  8
0
 62
     2
 10
353.005707
 20
586.828430
  0
VERTEX
  8
0
 62
     2
 10
351.271545
 20
589.423828
  0
VERTEX
  8
0
 62
     2
 10
350.662567
 20
592.485291
  0
SEQEND
  8
0
  0
LINE
  8
0
 62
     2
 10
350.662571
 20
592.485278
 11
366.136787
 21
592.485278
  0
POLYLINE
  8
0
 62
     2
 66
    1
  0
VERTEX
  8
0
 62
     2
 10
358.067871
 20
584.613342
  0
VERTEX
  8
0
 62
     2
 10
357.893280
 20
584.641296
  0
VERTEX
  8
0
 62
     2
 10
357.606995
 20
584.695251
  0
SEQEND
  8
0
  0
ARC
  8
0
 62
     2
 10
358.505310
 20
587.249132
 40
2.668241
 50
262.234621
 51
275.194882
  0
POLYLINE
  8
0
 62
     2
 66
    1
  0
VERTEX
  8
0
 62
     2
 10
360.087830
 20
584.826233
  0
VERTEX
  8
0
 62
     2
 10
359.408966
 20
584.695251
  0
VERTEX
  8
0
 62
     2
 10
359.098328
 20
584.641296
  0
VERTEX
  8
0
 62
     2
 10
358.908905
 20
584.613342
  0
VERTEX
  8
0
 62
     2
 10
358.772644
 20
584.597534
  0
SEQEND
  8
0
  0
POLYLINE
  8
0
 62
     2
 66
    1
  0
VERTEX
  8
0
 62
     2
 10
428.657288
 20
592.485291
  0
VERTEX
  8
0
 62
     2
 10
428.048309
 20
589.423828
  0
VERTEX
  8
0
 62
     2
 10
426.314148
 20
586.828430
  0
VERTEX
  8
0
 62
     2
 10
423.718750
 20
585.094238
  0
VERTEX
  8
0
 62
     2
 10
421.712860
 20
584.695251
  0
SEQEND
  8
0
  0
LINE
  8
0
 62
     2
 10
413.183071
 20
592.485278
 11
428.657287
 21
592.485278
  0
POLYLINE
  8
0
 62
     2
 66
    1
  0
VERTEX
  8
0
 62
     2
 10
421.024963
 20
584.588684
  0
VERTEX
  8
0
 62
     2
 10
420.935059
 20
584.584717
  0
VERTEX
  8
0
 62
     2
 10
420.848633
 20
584.584717
  0
VERTEX
  8
0
 62
     2
 10
420.754822
 20
584.584717
  0
VERTEX
  8
0
 62
     2
 10
420.657288
 20
584.588684
  0
SEQEND
  8
0
  0
ARC
  8
0
 62
     2
 10
419.985202
 20
593.076827
 40
8.554676
 50
274.910716
 51
282.696518
  0
LINE
  8
0
 62
     2
 10
306.825687
 20
601.352850
 11
306.825687
 21
592.485278
  0
LINE
  8
0
 62
     2
 10
350.662571
 20
592.485278
 11
350.662571
 21
601.485278
  0
LINE
  8
0
 62
     2
 10
428.657287
 20
601.485278
 11
428.657287
 21
592.485278
  0
LINE
  8
OBRYS
 10
308.159929
 20
588.126117
 11
308.159929
 21
565.485278
  0
POLYLINE
  8
0
 62
     2
 66
    1
  0
VERTEX
  8
0
 62
     2
 10
314.579346
 20
584.613342
  0
VERTEX
  8
0
 62
     2
 10
314.672668
 20
584.641296
  0
VERTEX
  8
0
 62
     2
 10
314.825684
 20
584.695251
  0
VERTEX
  8
0
 62
     2
 10
315.160095
 20
584.826233
  0
VERTEX
  8
0
 62
     2
 10
315.804535
 20
585.094238
  0
VERTEX
  8
0
 62
     2
 10
316.768402
 20
586.440674
  0
VERTEX
  8
0
 62
     2
 10
317.040649
 20
586.828430
  0
VERTEX
  8
0
 62
     2
 10
317.854187
 20
589.423828
  0
VERTEX
  8
0
 62
     2
 10
318.139862
 20
592.485291
  0
VERTEX
  8
0
 62
     2
 10
318.139862
 20
599.485291
  0
VERTEX
  8
0
 62
     2
 10
318.006256
 20
600.250671
  0
VERTEX
  8
0
 62
     2
 10
317.887146
 20
600.453735
  0
VERTEX
  8
0
 62
     2
 10
317.597931
 20
600.899475
  0
VERTEX
  8
0
 62
     2
 10
316.967926
 20
601.333008
  0
VERTEX
  8
0
 62
     2
 10
316.386414
 20
601.452148
  0
VERTEX
  8
0
 62
     2
 10
316.207947
 20
601.485291
  0
SEQEND
  8
0
  0
LINE
  8
0
 62
     2
 10
365.200559
 20
601.485278
 11
365.314328
 21
601.452162
  0
LINE
  8
0
 62
     2
 10
365.314328
 20
601.452162
 11
365.600783
 21
601.333037
  0
LINE
  8
0
 62
     2
 10
365.600783
 20
601.333037
 11
365.911138
 21
600.899491
  0
LINE
  8
0
 62
     2
 10
365.911138
 20
600.899491
 11
366.053607
 21
600.453720
  0
LINE
  8
0
 62
     2
 10
366.053607
 20
600.453720
 11
366.092806
 21
600.250645
  0
LINE
  8
0
 62
     2
 10
366.092806
 20
600.250645
 11
366.136787
 21
599.485278
  0
LINE
  8
0
 62
     2
 10
366.136787
 20
599.485278
 11
366.136787
 21
592.485278
  0
LINE
  8
0
 62
     2
 10
366.136787
 20
592.485278
 11
365.556851
 21
589.423810
  0
LINE
  8
0
 62
     2
 10
365.556851
 20
589.423810
 11
363.905333
 21
586.828424
  0
LINE
  8
0
 62
     2
 10
363.905333
 20
586.828424
 11
363.352724
 21
586.440700
  0
LINE
  8
0
 62
     2
 10
363.352724
 20
586.440700
 11
361.396065
 21
585.094242
  0
LINE
  8
0
 62
     2
 10
361.396065
 20
585.094242
 11
360.087837
 21
584.826244
  0
LINE
  8
0
 62
     2
 10
420.657287
 20
584.588709
 11
420.547214
 21
584.597507
  0
LINE
  8
0
 62
     2
 10
420.547214
 20
584.597507
 11
420.410951
 21
584.613319
  0
LINE
  8
0
 62
     2
 10
420.410951
 20
584.613319
 11
420.221520
 21
584.641297
  0
LINE
  8
0
 62
     2
 10
420.221520
 20
584.641297
 11
419.910886
 21
584.695244
  0
LINE
  8
0
 62
     2
 10
419.910886
 20
584.695244
 11
419.232021
 21
584.826244
  0
LINE
  8
0
 62
     2
 10
419.232021
 20
584.826244
 11
417.923792
 21
585.094242
  0
LINE
  8
0
 62
     2
 10
417.923792
 20
585.094242
 11
415.967134
 21
586.440700
  0
LINE
  8
0
 62
     2
 10
415.967134
 20
586.440700
 11
415.414525
 21
586.828424
  0
LINE
  8
0
 62
     2
 10
415.414525
 20
586.828424
 11
413.763007
 21
589.423810
  0
LINE
  8
0
 62
     2
 10
413.763007
 20
589.423810
 11
413.183071
 21
592.485278
  0
LINE
  8
0
 62
     2
 10
413.183071
 20
592.485278
 11
413.183071
 21
599.485278
  0
LINE
  8
0
 62
     2
 10
413.183071
 20
599.485278
 11
413.227051
 21
600.250645
  0
LINE
  8
0
 62
     2
 10
413.227051
 20
600.250645
 11
413.266251
 21
600.453720
  0
LINE
  8
0
 62
     2
 10
413.266251
 20
600.453720
 11
413.408720
 21
600.899491
  0
LINE
  8
0
 62
     2
 10
413.408720
 20
600.899491
 11
413.719075
 21
601.333037
  0
LINE
  8
0
 62
     2
 10
413.719075
 20
601.333037
 11
414.005530
 21
601.452162
  0
LINE
  8
0
 62
     2
 10
414.005530
 20
601.452162
 11
414.119299
 21
601.485278
  0
INSERT
  8
OSA
 66
     1
  2
M10x1_13
  6
CONTINUOUS
 10
305.159929
 20
1074.900472
  0
ATTRIB
  8
OSA
 62
     2
  6
CONTINUOUS
 10
0.000000
 20
0.000000
 40
3.749998
  1
DIN 908
  2
norma roz.
 70
     1
  0
SEQEND
  8
OSA
  0
INSERT
  8
OSA
 66
     1
  2
M10x1_14
  6
CONTINUOUS
 10
305.159929
 20
497.948134
  0
ATTRIB
  8
OSA
 62
     2
  6
CONTINUOUS
 10
0.000000
 20
0.000000
 40
3.749998
  1
DIN 908
  2
norma roz.
 70
     1
  0
SEQEND
  8
OSA
  0
INSERT
  8
OSA
 66
     1
  2
Sroub_M10x16_15
  6
CONTINUOUS
 10
389.659929
 20
565.485278
  0
ATTRIB
  8
OSA
  6
CONTINUOUS
 10
0.000000
 20
0.000000
 40
2.500000
  1
DIN 912
  2
norma roz.
 70
     1
  0
ATTRIB
  8
OSA
  6
CONTINUOUS
 10
0.000000
 20
0.000000
 40
2.500000
  1
1.5
  2
roztec
 70
     1
  0
ATTRIB
  8
OSA
  6
CONTINUOUS
 10
0.000000
 20
0.000000
 40
2.500000
  1
*N
  2
puvod
 70
     1
  0
SEQEND
  8
OSA
  0
CIRCLE
  8
OSA
 62
     2
  6
CONTINUOUS
 10
389.659929
 20
565.485278
 40
9.000000
  0
CIRCLE
  8
OSA
 62
     2
  6
CONTINUOUS
 10
678.136098
 20
277.009109
 40
9.000000
  0
INSERT
  8
OSA
 66
     1
  2
Sroub_M10x16_16
  6
CONTINUOUS
 10
678.136098
 20
277.009109
  0
ATTRIB
  8
OSA
  6
CONTINUOUS
 10
0.000000
 20
0.000000
 40
2.500000
  1
DIN 912
  2
norma roz.
 70
     1
  0
ATTRIB
  8
OSA
  6
CONTINUOUS
 10
0.000000
 20
0.000000
 40
2.500000
  1
1.5
  2
roztec
 70
     1
  0
ATTRIB
  8
OSA
  6
CONTINUOUS
 10
0.000000
 20
0.000000
 40
2.500000
  1
*N
  2
puvod
 70
     1
  0
SEQEND
  8
OSA
  0
LINE
  8
0
 62
     2
 10
697.745062
 20
305.272972
 11
697.477064
 21
306.581200
  0
LINE
  8
0
 62
     2
 10
699.091520
 20
303.316314
 11
697.745062
 21
305.272972
  0
LINE
  8
0
 62
     2
 10
699.479244
 20
302.763704
 11
699.091520
 21
303.316314
  0
LINE
  8
0
 62
     2
 10
702.074631
 20
301.112187
 11
699.479244
 21
302.763704
  0
LINE
  8
0
 62
     2
 10
705.136098
 20
300.532251
 11
702.074631
 21
301.112187
  0
LINE
  8
0
 62
     2
 10
712.136098
 20
300.532251
 11
705.136098
 21
300.532251
  0
LINE
  8
0
 62
     2
 10
712.901465
 20
300.576231
 11
712.136098
 21
300.532251
  0
LINE
  8
0
 62
     2
 10
713.104540
 20
300.615430
 11
712.901465
 21
300.576231
  0
LINE
  8
0
 62
     2
 10
713.550312
 20
300.757900
 11
713.104540
 21
300.615430
  0
LINE
  8
0
 62
     2
 10
713.983857
 20
301.068255
 11
713.550312
 21
300.757900
  0
LINE
  8
0
 62
     2
 10
714.102982
 20
301.354710
 11
713.983857
 21
301.068255
  0
LINE
  8
0
 62
     2
 10
714.136098
 20
301.468479
 11
714.102982
 21
301.354710
  0
POLYLINE
  8
0
 62
     2
 66
    1
  0
VERTEX
  8
0
 62
     2
 10
697.264160
 20
352.089691
  0
VERTEX
  8
0
 62
     2
 10
697.292114
 20
351.996368
  0
VERTEX
  8
0
 62
     2
 10
697.346069
 20
351.843353
  0
VERTEX
  8
0
 62
     2
 10
697.477051
 20
351.508942
  0
VERTEX
  8
0
 62
     2
 10
697.745056
 20
350.864502
  0
VERTEX
  8
0
 62
     2
 10
699.091492
 20
349.900635
  0
VERTEX
  8
0
 62
     2
 10
699.479248
 20
349.628418
  0
VERTEX
  8
0
 62
     2
 10
702.074646
 20
348.814850
  0
VERTEX
  8
0
 62
     2
 10
705.136108
 20
348.529175
  0
VERTEX
  8
0
 62
     2
 10
712.136108
 20
348.529175
  0
VERTEX
  8
0
 62
     2
 10
712.901489
 20
348.662781
  0
VERTEX
  8
0
 62
     2
 10
713.104553
 20
348.781891
  0
VERTEX
  8
0
 62
     2
 10
713.550293
 20
349.071106
  0
VERTEX
  8
0
 62
     2
 10
713.983826
 20
349.701111
  0
VERTEX
  8
0
 62
     2
 10
714.102966
 20
350.282623
  0
VERTEX
  8
0
 62
     2
 10
714.136108
 20
350.461090
  0
SEQEND
  8
0
  0
LINE
  8
OBRYS
 10
700.776937
 20
358.509109
 11
678.136098
 21
358.509109
  0
LINE
  8
0
 62
     2
 10
705.136098
 20
316.006467
 11
714.136098
 21
316.006467
  0
LINE
  8
0
 62
     2
 10
714.003671
 20
359.843351
 11
705.136098
 21
359.843351
  0
POLYLINE
  8
0
 62
     2
 66
    1
  0
VERTEX
  8
0
 62
     2
 10
697.477051
 20
306.581207
  0
VERTEX
  8
0
 62
     2
 10
697.346069
 20
307.260071
  0
VERTEX
  8
0
 62
     2
 10
697.292114
 20
307.570709
  0
VERTEX
  8
0
 62
     2
 10
697.264160
 20
307.760132
  0
VERTEX
  8
0
 62
     2
 10
697.248352
 20
307.896393
  0
SEQEND
  8
0
  0
ARC
  8
0
 62
     2
 10
699.899952
 20
308.163728
 40
2.668241
 50
172.234621
 51
185.194882
  0
POLYLINE
  8
0
 62
     2
 66
    1
  0
VERTEX
  8
0
 62
     2
 10
697.264160
 20
308.601166
  0
VERTEX
  8
0
 62
     2
 10
697.292114
 20
308.775757
  0
VERTEX
  8
0
 62
     2
 10
697.346069
 20
309.062042
  0
SEQEND
  8
0
  0
LINE
  8
0
 62
     2
 10
705.136098
 20
316.006467
 11
705.136098
 21
300.532251
  0
POLYLINE
  8
0
 62
     2
 66
    1
  0
VERTEX
  8
0
 62
     2
 10
697.745056
 20
311.067932
  0
VERTEX
  8
0
 62
     2
 10
699.479248
 20
313.663330
  0
VERTEX
  8
0
 62
     2
 10
702.074646
 20
315.397491
  0
VERTEX
  8
0
 62
     2
 10
705.136108
 20
316.006470
  0
SEQEND
  8
0
  0
LINE
  8
0
 62
     2
 10
697.346064
 20
309.062037
 11
697.745062
 21
311.067934
  0
POLYLINE
  8
0
 62
     2
 66
    1
  0
VERTEX
  8
0
 62
     2
 10
697.239502
 20
352.363342
  0
VERTEX
  8
0
 62
     2
 10
697.235535
 20
352.333740
  0
VERTEX
  8
0
 62
     2
 10
697.235535
 20
352.305298
  0
SEQEND
  8
0
  0
ARC
  8
0
 62
     2
 10
697.807278
 20
352.282188
 40
0.574217
 50
178.502445
 51
196.602220
  0
LINE
  8
0
 62
     2
 10
705.136098
 20
359.843351
 11
705.136098
 21
348.529173
  0
POLYLINE
  8
0
 62
     2
 66
    1
  0
VERTEX
  8
0
 62
     2
 10
697.745056
 20
354.904816
  0
VERTEX
  8
0
 62
     2
 10
699.479248
 20
357.500214
  0
VERTEX
  8
0
 62
     2
 10
702.074646
 20
359.234375
  0
VERTEX
  8
0
 62
     2
 10
705.136108
 20
359.843353
  0
SEQEND
  8
0
  0
LINE
  8
0
 62
     2
 10
697.745062
 20
354.904818
 11
697.239529
 21
352.363333
  0
POLYLINE
  8
0
 62
     2
 66
    1
  0
VERTEX
  8
0
 62
     2
 10
700.989197
 20
358.509094
  0
VERTEX
  8
0
 62
     2
 10
702.074646
 20
359.234375
  0
VERTEX
  8
0
 62
     2
 10
705.136108
 20
359.843353
  0
SEQEND
  8
0
  0
LINE
  8
0
 62
     2
 10
705.136098
 20
309.057359
 11
705.136098
 21
301.679708
  0
LINE
  8
OBRYS
 10
678.136098
 20
358.509109
 11
644.136098
 21
358.509109
  0
LINE
  8
OBRYS
 10
628.136098
 20
367.009109
 11
640.136098
 21
367.009109
  0
ARC
  8
OBRYS
 10
644.136098
 20
360.509109
 40
2.000000
 50
180.000000
 51
270.000000
  0
ARC
  8
OBRYS
 10
640.136098
 20
365.009109
 40
2.000000
 50
0.000000
 51
90.000000
  0
ARC
  8
OBRYS
 10
716.136098
 20
365.009109
 40
2.000000
 50
90.000000
 51
180.000000
  0
LINE
  8
OBRYS
 62
     7
  6
DASHDOT
 10
748.136098
 20
277.009109
 11
608.136098
 21
277.009109
  0
LINE
  8
OBRYS
 62
     7
  6
DASHDOT
 10
678.136098
 20
175.398249
 11
678.136098
 21
369.009109
  0
ARC
  8
OBRYS
 10
716.136098
 20
189.009109
 40
2.000000
 50
180.000000
 51
270.000000
  0
ARC
  8
OBRYS
 10
640.136098
 20
189.009109
 40
2.000000
 50
270.000000
 51
360.000000
  0
ARC
  8
OBRYS
 10
644.136098
 20
193.509109
 40
2.000000
 50
90.000000
 51
180.000000
  0
LINE
  8
OBRYS
 10
678.136098
 20
195.509109
 11
644.136098
 21
195.509109
  0
LINE
  8
0
 62
     2
 10
705.136098
 20
244.960858
 11
705.136098
 21
252.338510
  0
POLYLINE
  8
0
 62
     2
 66
    1
  0
VERTEX
  8
0
 62
     2
 10
700.989197
 20
195.509094
  0
VERTEX
  8
0
 62
     2
 10
702.074646
 20
194.783844
  0
VERTEX
  8
0
 62
     2
 10
705.136108
 20
194.174866
  0
SEQEND
  8
0
  0
LINE
  8
0
 62
     2
 10
697.745062
 20
199.113399
 11
697.239529
 21
201.654884
  0
POLYLINE
  8
0
 62
     2
 66
    1
  0
VERTEX
  8
0
 62
     2
 10
697.745056
 20
199.113403
  0
VERTEX
  8
0
 62
     2
 10
699.479248
 20
196.518005
  0
VERTEX
  8
0
 62
     2
 10
702.074646
 20
194.783844
  0
VERTEX
  8
0
 62
     2
 10
705.136108
 20
194.174866
  0
SEQEND
  8
0
  0
LINE
  8
0
 62
     2
 10
705.136098
 20
194.174867
 11
705.136098
 21
205.489044
  0
ARC
  8
0
 62
     2
 10
697.807278
 20
201.736029
 40
0.574217
 50
163.397780
 51
181.497555
  0
POLYLINE
  8
0
 62
     2
 66
    1
  0
VERTEX
  8
0
 62
     2
 10
697.239502
 20
201.654877
  0
VERTEX
  8
0
 62
     2
 10
697.235535
 20
201.684479
  0
VERTEX
  8
0
 62
     2
 10
697.235535
 20
201.712921
  0
SEQEND
  8
0
  0
LINE
  8
0
 62
     2
 10
697.346064
 20
244.956180
 11
697.745062
 21
242.950283
  0
POLYLINE
  8
0
 62
     2
 66
    1
  0
VERTEX
  8
0
 62
     2
 10
697.745056
 20
242.950287
  0
VERTEX
  8
0
 62
     2
 10
699.479248
 20
240.354889
  0
VERTEX
  8
0
 62
     2
 10
702.074646
 20
238.620697
  0
VERTEX
  8
0
 62
     2
 10
705.136108
 20
238.011749
  0
SEQEND
  8
0
  0
LINE
  8
0
 62
     2
 10
705.136098
 20
238.011751
 11
705.136098
 21
253.485966
  0
POLYLINE
  8
0
 62
     2
 66
    1
  0
VERTEX
  8
0
 62
     2
 10
697.264160
 20
245.417053
  0
VERTEX
  8
0
 62
     2
 10
697.292114
 20
245.242462
  0
VERTEX
  8
0
 62
     2
 10
697.346069
 20
244.956177
  0
SEQEND
  8
0
  0
ARC
  8
0
 62
     2
 10
699.899952
 20
245.854489
 40
2.668241
 50
174.805118
 51
187.765379
  0
POLYLINE
  8
0
 62
     2
 66
    1
  0
VERTEX
  8
0
 62
     2
 10
697.477051
 20
247.437012
  0
VERTEX
  8
0
 62
     2
 10
697.346069
 20
246.758148
  0
VERTEX
  8
0
 62
     2
 10
697.292114
 20
246.447510
  0
VERTEX
  8
0
 62
     2
 10
697.264160
 20
246.258087
  0
VERTEX
  8
0
 62
     2
 10
697.248352
 20
246.121826
  0
SEQEND
  8
0
  0
LINE
  8
0
 62
     2
 10
714.003671
 20
194.174867
 11
705.136098
 21
194.174867
  0
LINE
  8
0
 62
     2
 10
705.136098
 20
238.011751
 11
714.136098
 21
238.011751
  0
LINE
  8
OBRYS
 10
700.776937
 20
195.509109
 11
678.136098
 21
195.509109
  0
POLYLINE
  8
0
 62
     2
 66
    1
  0
VERTEX
  8
0
 62
     2
 10
697.264160
 20
201.928528
  0
VERTEX
  8
0
 62
     2
 10
697.292114
 20
202.021851
  0
VERTEX
  8
0
 62
     2
 10
697.346069
 20
202.174866
  0
VERTEX
  8
0
 62
     2
 10
697.477051
 20
202.509277
  0
VERTEX
  8
0
 62
     2
 10
697.745056
 20
203.153717
  0
VERTEX
  8
0
 62
     2
 10
699.091492
 20
204.117584
  0
VERTEX
  8
0
 62
     2
 10
699.479248
 20
204.389801
  0
VERTEX
  8
0
 62
     2
 10
702.074646
 20
205.203369
  0
VERTEX
  8
0
 62
     2
 10
705.136108
 20
205.489044
  0
VERTEX
  8
0
 62
     2
 10
712.136108
 20
205.489044
  0
VERTEX
  8
0
 62
     2
 10
712.901489
 20
205.355438
  0
VERTEX
  8
0
 62
     2
 10
713.104553
 20
205.236328
  0
VERTEX
  8
0
 62
     2
 10
713.550293
 20
204.947113
  0
VERTEX
  8
0
 62
     2
 10
713.983826
 20
204.317108
  0
VERTEX
  8
0
 62
     2
 10
714.102966
 20
203.735596
  0
VERTEX
  8
0
 62
     2
 10
714.136108
 20
203.557129
  0
SEQEND
  8
0
  0
LINE
  8
0
 62
     2
 10
714.136098
 20
252.549738
 11
714.102982
 21
252.663508
  0
LINE
  8
0
 62
     2
 10
714.102982
 20
252.663508
 11
713.983857
 21
252.949963
  0
LINE
  8
0
 62
     2
 10
713.983857
 20
252.949963
 11
713.550312
 21
253.260317
  0
LINE
  8
0
 62
     2
 10
713.550312
 20
253.260317
 11
713.104540
 21
253.402787
  0
LINE
  8
0
 62
     2
 10
713.104540
 20
253.402787
 11
712.901465
 21
253.441986
  0
LINE
  8
0
 62
     2
 10
712.901465
 20
253.441986
 11
712.136098
 21
253.485966
  0
LINE
  8
0
 62
     2
 10
712.136098
 20
253.485966
 11
705.136098
 21
253.485966
  0
LINE
  8
0
 62
     2
 10
705.136098
 20
253.485966
 11
702.074631
 21
252.906031
  0
LINE
  8
0
 62
     2
 10
702.074631
 20
252.906031
 11
699.479244
 21
251.254513
  0
LINE
  8
0
 62
     2
 10
699.479244
 20
251.254513
 11
699.091520
 21
250.701904
  0
LINE
  8
0
 62
     2
 10
699.091520
 20
250.701904
 11
697.745062
 21
248.745245
  0
LINE
  8
0
 62
     2
 10
697.745062
 20
248.745245
 11
697.477064
 21
247.437017
  0
LINE
  8
OBRYS
 10
714.136098
 20
189.009109
 11
714.136098
 21
365.009109
  0
LINE
  8
OBRYS
 10
642.136098
 20
189.009109
 11
642.136098
 21
365.009109
  0
LINE
  8
OBRYS
 10
723.136098
 20
367.009109
 11
723.136098
 21
187.009109
  0
ARC
  8
OBRYS
 10
689.136097
 20
193.509109
 40
2.000000
 50
90.000000
 51
180.003913
  0
LINE
  8
OBRYS
 10
687.136165
 20
192.509109
 11
687.136097
 21
193.508972
  0
ARC
  8
OBRYS
 10
667.136099
 20
193.509109
 40
2.000000
 50
359.996087
 51
90.000000
  0
LINE
  8
OBRYS
 10
669.136031
 20
192.509109
 11
669.136099
 21
193.508972
  0
LINE
  8
OBRYS
 10
687.136165
 20
192.509109
 11
669.136031
 21
192.509109
  0
INSERT
  8
OSA
 66
     1
  2
M10x1_17
  6
CONTINUOUS
 10
1187.551293
 20
192.509109
  0
ATTRIB
  8
OSA
 62
     2
  6
CONTINUOUS
 10
0.000000
 20
0.000000
 40
3.749998
  1
DIN 908
  2
norma roz.
 70
     1
  0
SEQEND
  8
OSA
  0
LINE
  8
OBRYS
 10
68.727352
 20
367.009109
 11
68.727352
 21
187.009109
  0
LINE
  8
OBRYS
 62
     7
  6
DASHDOT
 10
113.727352
 20
175.882812
 11
113.727352
 21
369.009109
  0
LINE
  8
OBRYS
 62
     7
  6
DASHDOT
 10
43.727352
 20
277.009109
 11
183.727352
 21
277.009109
  0
LINE
  8
0
 62
     2
 10
77.727352
 20
332.009109
 11
80.727352
 21
332.009109
  0
LINE
  8
0
 62
     2
 10
80.727352
 20
222.009109
 11
77.727352
 21
222.009109
  0
LINE
  8
0
 62
     2
 10
76.727352
 20
335.782813
 11
76.727352
 21
372.009109
  0
LINE
  8
0
 62
     2
 10
76.727352
 20
218.235404
 11
76.727352
 21
182.009109
  0
LINE
  8
0
 62
     2
 10
70.727352
 20
372.009109
 11
70.727352
 21
335.593029
  0
LINE
  8
0
 62
     2
 10
70.727352
 20
182.009109
 11
70.727352
 21
218.425188
  0
LINE
  8
0
 62
     2
 10
156.727352
 20
335.593029
 11
156.727352
 21
372.009109
  0
LINE
  8
0
 62
     2
 10
156.727352
 20
218.425188
 11
156.727352
 21
182.009109
  0
LINE
  8
0
 62
     2
 10
150.727352
 20
335.782813
 11
150.727352
 21
372.009109
  0
LINE
  8
0
 62
     2
 10
150.727352
 20
372.009109
 11
119.727352
 21
372.009109
  0
LINE
  8
0
 62
     2
 10
150.727352
 20
218.235404
 11
150.727352
 21
182.009109
  0
LINE
  8
0
 62
     2
 10
150.727352
 20
182.009109
 11
119.727352
 21
182.009109
  0
LINE
  8
0
 62
     2
 10
119.727352
 20
335.788079
 11
119.727352
 21
372.009109
  0
LINE
  8
0
 62
     2
 10
119.727352
 20
218.230139
 11
119.727352
 21
182.009109
  0
LINE
  8
0
 62
     2
 10
107.727352
 20
335.788079
 11
107.727352
 21
372.009109
  0
LINE
  8
0
 62
     2
 10
107.727352
 20
372.009109
 11
76.727352
 21
372.009109
  0
LINE
  8
0
 62
     2
 10
107.727352
 20
218.230139
 11
107.727352
 21
182.009109
  0
LINE
  8
0
 62
     2
 10
107.727352
 20
182.009109
 11
76.727352
 21
182.009109
  0
LINE
  8
0
 62
     2
 10
156.727352
 20
332.009109
 11
156.727352
 21
317.342278
  0
LINE
  8
0
 62
     2
 10
156.727352
 20
236.675940
 11
156.727352
 21
222.009109
  0
LINE
  8
0
 62
     2
 10
70.727352
 20
222.009109
 11
70.727352
 21
236.675940
  0
LINE
  8
0
 62
     2
 10
70.727352
 20
317.342278
 11
70.727352
 21
332.009109
  0
LINE
  8
0
 62
     2
 10
149.727352
 20
332.009109
 11
146.727352
 21
332.009109
  0
LINE
  8
0
 62
     2
 10
149.727352
 20
222.009109
 11
146.727352
 21
222.009109
  0
LINE
  8
0
 62
     2
 10
76.727352
 20
218.235404
 11
76.727352
 21
206.174867
  0
LINE
  8
0
 62
     2
 10
76.727352
 20
347.843351
 11
76.727352
 21
335.782813
  0
LINE
  8
0
 62
     2
 10
76.727352
 20
207.809109
 11
76.727352
 21
212.761400
  0
LINE
  8
0
 62
     2
 10
76.727352
 20
341.256817
 11
76.727352
 21
346.209109
  0
LINE
  8
0
 62
     2
 10
70.727352
 20
333.391548
 11
70.727352
 21
341.910487
  0
LINE
  8
0
 62
     2
 10
70.727352
 20
212.107730
 11
70.727352
 21
220.626670
  0
LINE
  8
0
 62
     2
 10
156.727352
 20
341.910487
 11
156.727352
 21
333.391548
  0
LINE
  8
0
 62
     2
 10
156.727352
 20
220.626670
 11
156.727352
 21
212.107730
  0
LINE
  8
0
 62
     2
 10
76.727352
 20
372.009109
 11
70.727352
 21
372.009109
  0
LINE
  8
0
 62
     2
 10
76.727352
 20
182.009109
 11
70.727352
 21
182.009109
  0
LINE
  8
0
 62
     2
 10
156.727352
 20
372.009109
 11
150.727352
 21
372.009109
  0
LINE
  8
0
 62
     2
 10
156.727352
 20
182.009109
 11
150.727352
 21
182.009109
  0
LINE
  8
0
 62
     2
 10
119.727352
 20
372.009109
 11
107.727352
 21
372.009109
  0
LINE
  8
0
 62
     2
 10
119.727352
 20
182.009109
 11
107.727352
 21
182.009109
  0
LINE
  8
0
 62
     2
 10
156.727352
 20
332.009109
 11
70.727352
 21
332.009109
  0
POLYLINE
  8
0
 62
     2
 66
    1
  0
VERTEX
  8
0
 62
     2
 10
156.727356
 20
317.342285
  0
VERTEX
  8
0
 62
     2
 10
156.417191
 20
311.450623
  0
VERTEX
  8
0
 62
     2
 10
155.912766
 20
294.567230
  0
VERTEX
  8
0
 62
     2
 10
155.901123
 20
293.367035
  0
VERTEX
  8
0
 62
     2
 10
155.412399
 20
277.009094
  0
VERTEX
  8
0
 62
     2
 10
155.901123
 20
260.651184
  0
VERTEX
  8
0
 62
     2
 10
155.912766
 20
259.450989
  0
VERTEX
  8
0
 62
     2
 10
156.417191
 20
242.567596
  0
VERTEX
  8
0
 62
     2
 10
156.727356
 20
236.675934
  0
SEQEND
  8
0
  0
POLYLINE
  8
0
 62
     2
 66
    1
  0
VERTEX
  8
0
 62
     2
 10
70.727356
 20
236.675934
  0
VERTEX
  8
0
 62
     2
 10
71.037521
 20
242.567596
  0
VERTEX
  8
0
 62
     2
 10
71.541946
 20
259.450989
  0
VERTEX
  8
0
 62
     2
 10
71.553589
 20
260.651184
  0
VERTEX
  8
0
 62
     2
 10
72.042313
 20
277.009094
  0
VERTEX
  8
0
 62
     2
 10
71.553589
 20
293.367035
  0
VERTEX
  8
0
 62
     2
 10
71.541946
 20
294.567230
  0
VERTEX
  8
0
 62
     2
 10
71.037521
 20
311.450623
  0
VERTEX
  8
0
 62
     2
 10
70.727356
 20
317.342285
  0
SEQEND
  8
0
  0
POLYLINE
  8
0
 62
     2
 66
    1
  0
VERTEX
  8
0
 62
     2
 10
70.727356
 20
222.009094
  0
VERTEX
  8
0
 62
     2
 10
70.727356
 20
221.166687
  0
VERTEX
  8
0
 62
     2
 10
70.727356
 20
218.466248
  0
VERTEX
  8
0
 62
     2
 10
70.727356
 20
218.425201
  0
VERTEX
  8
0
 62
     2
 10
70.989586
 20
217.475769
  0
VERTEX
  8
0
 62
     2
 10
71.764809
 20
217.032623
  0
VERTEX
  8
0
 62
     2
 10
73.019150
 20
217.115112
  0
VERTEX
  8
0
 62
     2
 10
74.283531
 20
217.570435
  0
VERTEX
  8
0
 62
     2
 10
74.697784
 20
217.598907
  0
VERTEX
  8
0
 62
     2
 10
76.727356
 20
218.235413
  0
VERTEX
  8
0
 62
     2
 10
82.249168
 20
220.492218
  0
VERTEX
  8
0
 62
     2
 10
89.786575
 20
221.916840
  0
VERTEX
  8
0
 62
     2
 10
97.129967
 20
221.638062
  0
VERTEX
  8
0
 62
     2
 10
104.868317
 20
219.599213
  0
VERTEX
  8
0
 62
     2
 10
107.727348
 20
218.230133
  0
VERTEX
  8
0
 62
     2
 10
110.019142
 20
217.435486
  0
VERTEX
  8
0
 62
     2
 10
112.473007
 20
217.155579
  0
VERTEX
  8
0
 62
     2
 10
113.727348
 20
217.279114
  0
VERTEX
  8
0
 62
     2
 10
114.981689
 20
217.155579
  0
VERTEX
  8
0
 62
     2
 10
117.435547
 20
217.435486
  0
VERTEX
  8
0
 62
     2
 10
119.727348
 20
218.230133
  0
VERTEX
  8
0
 62
     2
 10
122.586380
 20
219.599213
  0
VERTEX
  8
0
 62
     2
 10
130.324738
 20
221.638062
  0
VERTEX
  8
0
 62
     2
 10
137.668137
 20
221.916840
  0
VERTEX
  8
0
 62
     2
 10
145.205536
 20
220.492218
  0
VERTEX
  8
0
 62
     2
 10
150.727356
 20
218.235413
  0
VERTEX
  8
0
 62
     2
 10
152.756927
 20
217.598907
  0
VERTEX
  8
0
 62
     2
 10
153.171173
 20
217.570435
  0
VERTEX
  8
0
 62
     2
 10
154.435562
 20
217.115112
  0
VERTEX
  8
0
 62
     2
 10
155.689896
 20
217.032623
  0
VERTEX
  8
0
 62
     2
 10
156.465134
 20
217.475769
  0
VERTEX
  8
0
 62
     2
 10
156.727356
 20
218.425201
  0
VERTEX
  8
0
 62
     2
 10
156.727356
 20
218.466248
  0
VERTEX
  8
0
 62
     2
 10
156.727356
 20
221.166687
  0
VERTEX
  8
0
 62
     2
 10
156.727356
 20
222.009094
  0
SEQEND
  8
0
  0
LINE
  8
0
 62
     2
 10
156.727352
 20
222.009109
 11
70.727352
 21
222.009109
  0
POLYLINE
  8
0
 62
     2
 66
    1
  0
VERTEX
  8
0
 62
     2
 10
70.727356
 20
332.009094
  0
VERTEX
  8
0
 62
     2
 10
70.727356
 20
332.851532
  0
VERTEX
  8
0
 62
     2
 10
70.727356
 20
335.551971
  0
VERTEX
  8
0
 62
     2
 10
70.727356
 20
335.593018
  0
VERTEX
  8
0
 62
     2
 10
70.989586
 20
336.542450
  0
VERTEX
  8
0
 62
     2
 10
71.764809
 20
336.985596
  0
VERTEX
  8
0
 62
     2
 10
73.019150
 20
336.903107
  0
VERTEX
  8
0
 62
     2
 10
74.283531
 20
336.447784
  0
VERTEX
  8
0
 62
     2
 10
74.697784
 20
336.419312
  0
VERTEX
  8
0
 62
     2
 10
76.727356
 20
335.782806
  0
VERTEX
  8
0
 62
     2
 10
82.249168
 20
333.525970
  0
VERTEX
  8
0
 62
     2
 10
89.786575
 20
332.101379
  0
VERTEX
  8
0
 62
     2
 10
97.129967
 20
332.380157
  0
VERTEX
  8
0
 62
     2
 10
104.868317
 20
334.419006
  0
VERTEX
  8
0
 62
     2
 10
107.727348
 20
335.788086
  0
VERTEX
  8
0
 62
     2
 10
110.019142
 20
336.582733
  0
VERTEX
  8
0
 62
     2
 10
112.473007
 20
336.862640
  0
VERTEX
  8
0
 62
     2
 10
113.727348
 20
336.739075
  0
VERTEX
  8
0
 62
     2
 10
114.981689
 20
336.862640
  0
VERTEX
  8
0
 62
     2
 10
117.435547
 20
336.582733
  0
VERTEX
  8
0
 62
     2
 10
119.727348
 20
335.788086
  0
VERTEX
  8
0
 62
     2
 10
122.586380
 20
334.419006
  0
VERTEX
  8
0
 62
     2
 10
130.324738
 20
332.380157
  0
VERTEX
  8
0
 62
     2
 10
137.668137
 20
332.101379
  0
VERTEX
  8
0
 62
     2
 10
145.205536
 20
333.525970
  0
VERTEX
  8
0
 62
     2
 10
150.727356
 20
335.782806
  0
VERTEX
  8
0
 62
     2
 10
152.756927
 20
336.419312
  0
VERTEX
  8
0
 62
     2
 10
153.171173
 20
336.447784
  0
VERTEX
  8
0
 62
     2
 10
154.435562
 20
336.903107
  0
VERTEX
  8
0
 62
     2
 10
155.689896
 20
336.985596
  0
VERTEX
  8
0
 62
     2
 10
156.465134
 20
336.542450
  0
VERTEX
  8
0
 62
     2
 10
156.727356
 20
335.593018
  0
VERTEX
  8
0
 62
     2
 10
156.727356
 20
335.551971
  0
VERTEX
  8
0
 62
     2
 10
156.727356
 20
332.851532
  0
VERTEX
  8
0
 62
     2
 10
156.727356
 20
332.009094
  0
SEQEND
  8
0
  0
LINE
  8
0
 62
     2
 10
150.727352
 20
346.209109
 11
150.727352
 21
337.809109
  0
LINE
  8
0
 62
     2
 10
150.727352
 20
216.209109
 11
150.727352
 21
207.809109
  0
LINE
  8
0
 62
     2
 10
77.727352
 20
182.009109
 11
149.727352
 21
182.009109
  0
LINE
  8
0
 62
     2
 10
77.727352
 20
372.009109
 11
149.727352
 21
372.009109
  0
LINE
  8
0
 62
     2
 10
117.177352
 20
372.009109
 11
110.277352
 21
372.009109
  0
LINE
  8
0
 62
     2
 10
80.796898
 20
372.009109
 11
73.911672
 21
372.009109
  0
LINE
  8
0
 62
     2
 10
80.796898
 20
372.009109
 11
73.911672
 21
372.009109
  0
LINE
  8
0
 62
     2
 10
146.657806
 20
372.009109
 11
153.543032
 21
372.009109
  0
LINE
  8
0
 62
     2
 10
110.277352
 20
372.009109
 11
117.177352
 21
372.009109
  0
LINE
  8
0
 62
     2
 10
146.657806
 20
372.009109
 11
153.543032
 21
372.009109
  0
LINE
  8
OBRYS
 10
113.727352
 20
372.009109
 11
70.727352
 21
372.009109
  0
LINE
  8
OBRYS
 10
113.727352
 20
372.009109
 11
156.727352
 21
372.009109
  0
LINE
  8
OSA
 10
113.727352
 20
392.009109
 11
113.727352
 21
357.345604
  0
LINE
  8
0
 62
     2
 10
721.136098
 20
372.009109
 11
721.136098
 21
367.009109
  0
LINE
  8
0
 62
     2
 10
721.136098
 20
187.009109
 11
721.136098
 21
182.009109
  0
LINE
  8
0
 62
     2
 10
684.136098
 20
372.009109
 11
715.136098
 21
372.009109
  0
LINE
  8
0
 62
     2
 10
715.136098
 20
372.009109
 11
715.136098
 21
366.700091
  0
LINE
  8
0
 62
     2
 10
715.136098
 20
187.318126
 11
715.136098
 21
182.009109
  0
LINE
  8
0
 62
     2
 10
715.136098
 20
182.009109
 11
684.136098
 21
182.009109
  0
LINE
  8
0
 62
     2
 10
684.136098
 20
372.009109
 11
684.136098
 21
358.509109
  0
LINE
  8
0
 62
     2
 10
641.136098
 20
372.009109
 11
672.136098
 21
372.009109
  0
LINE
  8
0
 62
     2
 10
672.136098
 20
372.009109
 11
672.136098
 21
358.509109
  0
LINE
  8
0
 62
     2
 10
672.136098
 20
182.009109
 11
641.136098
 21
182.009109
  0
LINE
  8
0
 62
     2
 10
641.136098
 20
372.009109
 11
641.136098
 21
366.700091
  0
LINE
  8
0
 62
     2
 10
641.136098
 20
187.318126
 11
641.136098
 21
182.009109
  0
LINE
  8
0
 62
     2
 10
635.136098
 20
367.009109
 11
635.136098
 21
372.009109
  0
LINE
  8
0
 62
     2
 10
635.136098
 20
182.009109
 11
635.136098
 21
187.009109
  0
LINE
  8
0
 62
     2
 10
715.136098
 20
372.009109
 11
721.136098
 21
372.009109
  0
LINE
  8
0
 62
     2
 10
721.136098
 20
182.009109
 11
715.136098
 21
182.009109
  0
LINE
  8
0
 62
     2
 10
672.136098
 20
372.009109
 11
684.136098
 21
372.009109
  0
LINE
  8
0
 62
     2
 10
684.136098
 20
182.009109
 11
672.136098
 21
182.009109
  0
LINE
  8
0
 62
     2
 10
635.136098
 20
372.009109
 11
641.136098
 21
372.009109
  0
LINE
  8
0
 62
     2
 10
641.136098
 20
182.009109
 11
635.136098
 21
182.009109
  0
LINE
  8
0
 62
     2
 10
642.136098
 20
182.009109
 11
714.136098
 21
182.009109
  0
LINE
  8
0
 62
     2
 10
642.136098
 20
372.009109
 11
714.136098
 21
372.009109
  0
LINE
  8
0
 62
     2
 10
681.586098
 20
372.009109
 11
674.686098
 21
372.009109
  0
LINE
  8
0
 62
     2
 10
717.951778
 20
372.009109
 11
711.066552
 21
372.009109
  0
LINE
  8
0
 62
     2
 10
717.951778
 20
372.009109
 11
711.066552
 21
372.009109
  0
LINE
  8
0
 62
     2
 10
638.320418
 20
372.009109
 11
645.205644
 21
372.009109
  0
LINE
  8
0
 62
     2
 10
674.686098
 20
372.009109
 11
681.586098
 21
372.009109
  0
LINE
  8
0
 62
     2
 10
638.320418
 20
372.009109
 11
645.205644
 21
372.009109
  0
LINE
  8
0
 62
     2
 10
672.136098
 20
189.509109
 11
672.136098
 21
182.009109
  0
LINE
  8
0
 62
     2
 10
684.136098
 20
189.509109
 11
684.136098
 21
182.009109
  0
LINE
  8
OBRYS
 10
299.659929
 20
610.485278
 11
299.659929
 21
603.485278
  0
LINE
  8
OBRYS
 10
299.659929
 20
-49.467061
 11
299.659929
 21
-56.467061
  0
LINE
  8
OSA
 10
678.136098
 20
392.009109
 11
678.136098
 21
357.345604
  0
LINE
  8
OBRYS
 10
299.659929
 20
520.485278
 11
299.659929
 21
527.485278
  0
LINE
  8
OBRYS
 10
68.727352
 20
187.009109
 11
70.727352
 21
187.009109
  0
LINE
  8
OBRYS
 10
68.727352
 20
367.009109
 11
70.727352
 21
367.009109
  0
LINE
  8
OBRYS
 10
716.136098
 20
367.009109
 11
723.136098
 21
367.009109
  0
LINE
  8
OBRYS
 10
716.136098
 20
187.009109
 11
723.136098
 21
187.009109
  0
LINE
  8
OBRYS
 10
299.659929
 20
33.532939
 11
299.659929
 21
26.532939
  0
ARC
  8
OBRYS
 10
920.586437
 20
170.174952
 40
51.834157
 50
101.123415
 51
110.199549
  0
LINE
  8
OBRYS
 10
877.586437
 20
222.009109
 11
910.586437
 21
222.009109
  0
LINE
  8
OBRYS
 10
872.790720
 20
182.009109
 11
910.586437
 21
182.009109
  0
LINE
  8
OBRYS
 10
877.586437
 20
332.009109
 11
929.347402
 21
332.009109
  0
LINE
  8
OSA
 10
920.586437
 20
177.009109
 11
920.586437
 21
377.009109
  0
LINE
  8
OBRYS
 10
872.790720
 20
372.009109
 11
968.382153
 21
372.009109
  0
LINE
  8
OBRYS
 10
968.382153
 20
361.050076
 11
968.382153
 21
372.009109
  0
LINE
  8
OBRYS
 10
877.586437
 20
222.009109
 11
872.790720
 21
217.213392
  0
LINE
  8
OBRYS
 10
877.586437
 20
222.009109
 11
877.586437
 21
332.009109
  0
LINE
  8
OBRYS
 10
877.586437
 20
332.009109
 11
872.790720
 21
336.804825
  0
LINE
  8
OBRYS
 10
872.790720
 20
182.009109
 11
872.790720
 21
217.213392
  0
LINE
  8
OBRYS
 10
872.790720
 20
336.804825
 11
872.790720
 21
372.009109
  0
LINE
  8
OBRYS
 10
874.398415
 20
182.009109
 11
874.398415
 21
218.821087
  0
LINE
  8
OBRYS
 10
892.296272
 20
182.009109
 11
892.296272
 21
218.821087
  0
LINE
  8
OBRYS
 10
902.688578
 20
182.009109
 11
902.688578
 21
218.821087
  0
ARC
  8
OBRYS
 10
883.347344
 20
207.855063
 40
14.154046
 50
50.783507
 51
129.216493
  0
ARC
  8
OBRYS
 10
897.492425
 20
226.213394
 40
9.035829
 50
234.896096
 51
305.103904
  0
ARC
  8
OBRYS
 10
920.586437
 20
383.843265
 40
51.834157
 50
249.800451
 51
280.491535
  0
ARC
  8
OBRYS
 10
897.492425
 20
327.804823
 40
9.035829
 50
54.896096
 51
125.103904
  0
ARC
  8
OBRYS
 10
883.347344
 20
346.163154
 40
14.154046
 50
230.783507
 51
309.216493
  0
LINE
  8
OBRYS
 10
902.688578
 20
372.009109
 11
902.688578
 21
335.197130
  0
LINE
  8
OBRYS
 10
892.296272
 20
372.009109
 11
892.296272
 21
335.197130
  0
LINE
  8
OBRYS
 10
874.398415
 20
372.009109
 11
874.398415
 21
335.197130
  0
LINE
  8
OBRYS
 10
938.484295
 20
372.009109
 11
938.484295
 21
342.149910
  0
LINE
  8
OBRYS
 10
948.876601
 20
372.009109
 11
948.876601
 21
350.671127
  0
ARC
  8
OBRYS
 10
469.659929
 20
170.174952
 40
51.834157
 50
69.800451
 51
78.876585
  0
LINE
  8
OBRYS
 10
512.659929
 20
222.009109
 11
479.659929
 21
222.009109
  0
LINE
  8
OBRYS
 10
517.455646
 20
182.009109
 11
479.659929
 21
182.009109
  0
LINE
  8
OBRYS
 10
512.659929
 20
332.009109
 11
460.898963
 21
332.009109
  0
LINE
  8
OBRYS
 10
441.369765
 20
372.009109
 11
441.369765
 21
350.671127
  0
LINE
  8
OBRYS
 10
451.762071
 20
372.009109
 11
451.762071
 21
342.149910
  0
LINE
  8
OBRYS
 10
515.847950
 20
372.009109
 11
515.847950
 21
335.197130
  0
LINE
  8
OBRYS
 10
497.950093
 20
372.009109
 11
497.950093
 21
335.197130
  0
LINE
  8
OBRYS
 10
487.557787
 20
372.009109
 11
487.557787
 21
335.197130
  0
ARC
  8
OBRYS
 10
506.899022
 20
346.163154
 40
14.154046
 50
230.783507
 51
309.216493
  0
ARC
  8
OBRYS
 10
492.753940
 20
327.804823
 40
9.035829
 50
54.896096
 51
125.103904
  0
ARC
  8
OBRYS
 10
469.659929
 20
383.843265
 40
51.834157
 50
259.508465
 51
290.199549
  0
ARC
  8
OBRYS
 10
492.753940
 20
226.213394
 40
9.035829
 50
234.896096
 51
305.103904
  0
ARC
  8
OBRYS
 10
506.899022
 20
207.855063
 40
14.154046
 50
50.783507
 51
129.216493
  0
LINE
  8
OBRYS
 10
487.557787
 20
182.009109
 11
487.557787
 21
218.821087
  0
LINE
  8
OBRYS
 10
497.950093
 20
182.009109
 11
497.950093
 21
218.821087
  0
LINE
  8
OBRYS
 10
515.847950
 20
182.009109
 11
515.847950
 21
218.821087
  0
LINE
  8
OBRYS
 10
517.455646
 20
336.804825
 11
517.455646
 21
372.009109
  0
LINE
  8
OBRYS
 10
517.455646
 20
182.009109
 11
517.455646
 21
217.213392
  0
LINE
  8
OBRYS
 10
512.659929
 20
332.009109
 11
517.455646
 21
336.804825
  0
LINE
  8
OBRYS
 10
512.659929
 20
222.009109
 11
512.659929
 21
332.009109
  0
LINE
  8
OBRYS
 10
512.659929
 20
222.009109
 11
517.455646
 21
217.213392
  0
LINE
  8
OBRYS
 10
421.864212
 20
361.050076
 11
421.864212
 21
372.009109
  0
LINE
  8
OBRYS
 10
517.455646
 20
372.009109
 11
421.864212
 21
372.009109
  0
LINE
  8
OSA
 10
469.659929
 20
177.009109
 11
469.659929
 21
377.009109
  0
INSERT
  8
OBRYS
  2
_18
 62
     7
 10
1000.586437
 20
277.009109
  0
INSERT
  8
OBRYS
  2
_19
 62
     7
 10
389.659929
 20
277.009109
  0
LINE
  8
OSA
 10
1000.586437
 20
404.509109
 11
1000.586437
 21
182.009109
  0
LINE
  8
OSA
 10
905.586437
 20
277.009109
 11
1095.586437
 21
277.009109
  0
LINE
  8
OSA
 10
484.659929
 20
277.009109
 11
294.659929
 21
277.009109
  0
LINE
  8
OSA
 10
389.659929
 20
404.509109
 11
389.659929
 21
182.009109
  0
ENDSEC
  0
EOF

