  0
SECTION
  2
HEADER
  9
$ACADVER
  1
AC1009
  9
$DWGCODEPAGE
  3
ansi_1250
  9
$INSBASE
 10
0.0
 20
0.0
 30
0.0
  9
$EXTMIN
 10
0.0
 20
0.0
 30
0.0
  9
$EXTMAX
 10
279.4
 20
215.9
 30
0.0
  9
$LIMMIN
 10
0.0
 20
0.0
  9
$LIMMAX
 10
279.4
 20
215.9
  9
$ORTHOMODE
 70
     0
  9
$REGENMODE
 70
     1
  9
$FILLMODE
 70
     1
  9
$QTEXTMODE
 70
     0
  9
$MIRRTEXT
 70
     1
  9
$DRAGMODE
 70
     2
  9
$LTSCALE
 40
1.0
  9
$OSMODE
 70
    37
  9
$ATTMODE
 70
     1
  9
$TEXTSIZE
 40
3.5
  9
$TRACEWID
 40
1.0
  9
$TEXTSTYLE
  7
STANDARD
  9
$CLAYER
  8
0
  9
$CELTYPE
  6
BYLAYER
  9
$CECOLOR
 62
   256
  9
$DIMSCALE
 40
1.0
  9
$DIMASZ
 40
6.0
  9
$DIMEXO
 40
1.0
  9
$DIMDLI
 40
3.75
  9
$DIMRND
 40
0.0
  9
$DIMDLE
 40
0.0
  9
$DIMEXE
 40
1.0
  9
$DIMTP
 40
0.0
  9
$DIMTM
 40
0.0
  9
$DIMTXT
 40
3.5
  9
$DIMCEN
 40
2.5
  9
$DIMTSZ
 40
0.0
  9
$DIMTOL
 70
     0
  9
$DIMLIM
 70
     0
  9
$DIMTIH
 70
     1
  9
$DIMTOH
 70
     1
  9
$DIMSE1
 70
     0
  9
$DIMSE2
 70
     0
  9
$DIMTAD
 70
     1
  9
$DIMZIN
 70
     0
  9
$DIMBLK
  1

  9
$DIMASO
 70
     1
  9
$DIMSHO
 70
     1
  9
$DIMPOST
  1

  9
$DIMAPOST
  1

  9
$DIMALT
 70
     0
  9
$DIMALTD
 70
     3
  9
$DIMALTF
 40
0.0393700787
  9
$DIMLFAC
 40
1.0
  9
$DIMTOFL
 70
     1
  9
$DIMTVP
 40
0.0
  9
$DIMTIX
 70
     0
  9
$DIMSOXD
 70
     0
  9
$DIMSAH
 70
     0
  9
$DIMBLK1
  1

  9
$DIMBLK2
  1

  9
$DIMSTYLE
  2
ISO-25
  9
$DIMCLRD
 70
     0
  9
$DIMCLRE
 70
     0
  9
$DIMCLRT
 70
     0
  9
$DIMTFAC
 40
1.0
  9
$DIMGAP
 40
1.524
  9
$LUNITS
 70
     2
  9
$LUPREC
 70
     2
  9
$SKETCHINC
 40
1.0
  9
$FILLETRAD
 40
10.0
  9
$AUNITS
 70
     0
  9
$AUPREC
 70
     2
  9
$MENU
  1
.
  9
$ELEVATION
 40
0.0
  9
$PELEVATION
 40
0.0
  9
$THICKNESS
 40
0.0
  9
$LIMCHECK
 70
     0
  9
$CHAMFERA
 40
10.0
  9
$CHAMFERB
 40
10.0
  9
$SKPOLY
 70
     0
  9
$TDCREATE
 40
2455964.308418692
  9
$TDUPDATE
 40
2455964.308418704
  9
$TDINDWG
 40
0.0000000116
  9
$TDUSRTIMER
 40
0.0000000116
  9
$USRTIMER
 70
     1
  9
$ANGBASE
 50
0.0
  9
$ANGDIR
 70
     0
  9
$PDMODE
 70
     0
  9
$PDSIZE
 40
-1.0
  9
$PLINEWID
 40
0.0
  9
$COORDS
 70
     1
  9
$SPLFRAME
 70
     0
  9
$SPLINETYPE
 70
     6
  9
$SPLINESEGS
 70
     8
  9
$ATTDIA
 70
     0
  9
$ATTREQ
 70
     1
  9
$HANDLING
 70
     1
  9
$HANDSEED
  5
A74
  9
$SURFTAB1
 70
     6
  9
$SURFTAB2
 70
     6
  9
$SURFTYPE
 70
     6
  9
$SURFU
 70
     6
  9
$SURFV
 70
     6
  9
$UCSNAME
  2

  9
$UCSORG
 10
0.0
 20
0.0
 30
0.0
  9
$UCSXDIR
 10
1.0
 20
0.0
 30
0.0
  9
$UCSYDIR
 10
0.0
 20
1.0
 30
0.0
  9
$PUCSNAME
  2

  9
$PUCSORG
 10
0.0
 20
0.0
 30
0.0
  9
$PUCSXDIR
 10
1.0
 20
0.0
 30
0.0
  9
$PUCSYDIR
 10
0.0
 20
1.0
 30
0.0
  9
$USERI1
 70
     0
  9
$USERI2
 70
     0
  9
$USERI3
 70
     0
  9
$USERI4
 70
     0
  9
$USERI5
 70
     0
  9
$USERR1
 40
0.0
  9
$USERR2
 40
0.0
  9
$USERR3
 40
0.0
  9
$USERR4
 40
0.0
  9
$USERR5
 40
0.0
  9
$WORLDVIEW
 70
     1
  9
$SHADEDGE
 70
     3
  9
$SHADEDIF
 70
    70
  9
$TILEMODE
 70
     1
  9
$MAXACTVP
 70
    64
  9
$PLIMCHECK
 70
     0
  9
$PEXTMIN
 10
1.0000000000E+20
 20
1.0000000000E+20
 30
1.0000000000E+20
  9
$PEXTMAX
 10
-1.0000000000E+20
 20
-1.0000000000E+20
 30
-1.0000000000E+20
  9
$PLIMMIN
 10
0.0
 20
0.0
  9
$PLIMMAX
 10
420.0
 20
297.0
  9
$UNITMODE
 70
     0
  9
$VISRETAIN
 70
     1
  9
$PLINEGEN
 70
     0
  9
$PSLTSCALE
 70
     1
  0
ENDSEC
  0
SECTION
  2
TABLES
  0
TABLE
  2
VPORT
 70
     1
  0
VPORT
  2
*ACTIVE
 70
     0
 10
0.0
 20
0.0
 11
1.0
 21
1.0
 12
139.7
 22
107.95
 13
0.0
 23
0.0
 14
10.0
 24
10.0
 15
10.0
 25
10.0
 16
0.0
 26
0.0
 36
1.0
 17
0.0
 27
0.0
 37
0.0
 40
215.9
 41
1.2941176471
 42
50.0
 43
0.0
 44
0.0
 50
0.0
 51
0.0
 71
     0
 72
  2000
 73
     1
 74
     3
 75
     0
 76
     0
 77
     0
 78
     0
  0
ENDTAB
  0
TABLE
  2
LTYPE
 70
    10
  0
LTYPE
  2
CONTINUOUS
 70
     0
  3
Solid line
 72
    65
 73
     0
 40
0.0
  0
LTYPE
  2
SLD-PLNÁ
 70
     0
  3
SolidWorks Line Style
 72
    65
 73
     0
 40
0.0
  0
LTYPE
  2
SLD-ČÁRKOVANÁ
 70
     0
  3
SolidWorks Line Style
 72
    65
 73
     2
 40
1.905
 49
1.27
 49
-0.635
  0
LTYPE
  2
SLD-DVOJITĚ-ČERCHOVANÁ
 70
     0
  3
SolidWorks Line Style
 72
    65
 73
     6
 40
12.7
 49
6.35
 49
-1.27
 49
1.27
 49
-1.27
 49
1.27
 49
-1.27
  0
LTYPE
  2
SLD-ČERCHOVANÁ
 70
     0
  3
SolidWorks Line Style
 72
    65
 73
     4
 40
10.16
 49
6.35
 49
-1.27
 49
1.27
 49
-1.27
  0
LTYPE
  2
SLD-OSA
 70
     0
  3
SolidWorks Line Style
 72
    65
 73
     4
 40
19.05
 49
15.24
 49
-1.27
 49
1.27
 49
-1.27
  0
LTYPE
  2
SLD-TEČKOVANÁ
 70
     0
  3
SolidWorks Line Style
 72
    65
 73
     2
 40
0.635
 49
0.0
 49
-0.635
  0
LTYPE
  2
SLD-HRUBÁ-TENKÁ-ČERCHOVANÁ
 70
     0
  3
SolidWorks Line Style
 72
    65
 73
     4
 40
10.16
 49
6.35
 49
-1.27
 49
1.27
 49
-1.27
  0
LTYPE
  2
SLD-ŘEZ-1
 70
     0
  3
SolidWorks Line Style
 72
    65
 73
     4
 40
8.128
 49
5.08
 49
-1.016
 49
1.016
 49
-1.016
  0
LTYPE
  2
SLD-ŘEZ-2
 70
     0
  3
SolidWorks Line Style
 72
    65
 73
     2
 40
5080.0
 49
0.0
 49
-5080.0
  0
ENDTAB
  0
TABLE
  2
LAYER
 70
    15
  0
LAYER
  2
0
 70
     0
 62
     7
  6
CONTINUOUS
  0
LAYER
  2
DEFPOINTS
 70
     0
 62
     7
  6
CONTINUOUS
  0
LAYER
  2
VIDITELNE
 70
     0
 62
     2
  6
SLD-PLNÁ
  0
LAYER
  2
SKRYTE
 70
     0
 62
     4
  6
SLD-ČÁRKOVANÁ
  0
LAYER
  2
SKICA
 70
     0
 62
     6
  6
SLD-PLNÁ
  0
LAYER
  2
DETAIL
 70
     0
 62
     7
  6
SLD-PLNÁ
  0
LAYER
  2
REZY
 70
     0
 62
     1
  6
SLD-HRUBÁ-TENKÁ-ČERCHOVANÁ
  0
LAYER
  2
KOTY
 70
     0
 62
     3
  6
SLD-PLNÁ
  0
LAYER
  2
OSY
 70
     0
 62
     7
  6
SLD-OSA
  0
LAYER
  2
SRAF
 70
     0
 62
     7
  6
SLD-PLNÁ
  0
LAYER
  2
TECNE
 70
     0
 62
     7
  6
SLD-DVOJITĚ-ČERCHOVANÁ
  0
LAYER
  2
HRANICE
 70
     0
 62
     4
  6
SLD-PLNÁ
  0
LAYER
  2
UZ-1
 70
     0
 62
    11
  6
SLD-DVOJITĚ-ČERCHOVANÁ
  0
LAYER
  2
UZ-2
 70
     0
 62
    11
  6
SLD-DVOJITĚ-ČERCHOVANÁ
  0
LAYER
  2
UZ-3
 70
     0
 62
    11
  6
SLD-ČÁRKOVANÁ
  0
ENDTAB
  0
TABLE
  2
STYLE
 70
     1
  0
STYLE
  2
STANDARD
 70
     0
 40
0.0
 41
1.0
 50
0.0
 71
     0
 42
2.5
  3
txt
  4

  0
ENDTAB
  0
TABLE
  2
VIEW
 70
     0
  0
ENDTAB
  0
TABLE
  2
UCS
 70
     0
  0
ENDTAB
  0
TABLE
  2
APPID
 70
     1
  0
APPID
  2
ACAD
 70
     0
  0
ENDTAB
  0
TABLE
  2
DIMSTYLE
 70
     1
  0
DIMSTYLE
  2
ISO-25
 70
     0
  3

  4

  5

  6

  7

 40
1.0
 41
2.5
 42
0.625
 43
3.75
 44
1.25
 45
0.0
 46
0.0
 47
0.0
 48
0.0
140
2.5
141
2.5
142
0.0
143
0.0393700787
144
1.0
145
0.0
146
1.0
147
0.625
 71
     0
 72
     0
 73
     0
 74
     0
 75
     0
 76
     0
 77
     1
 78
     8
170
     0
171
     3
172
     1
173
     0
174
     0
175
     0
176
     0
177
     0
178
     0
  0
ENDTAB
  0
ENDSEC
  0
SECTION
  2
BLOCKS
  0
BLOCK
  8
0
  2
$MODEL_SPACE
 70
     0
 10
0.0
 20
0.0
 30
0.0
  3
$MODEL_SPACE
  1

  0
ENDBLK
  5
21
  8
0
  0
BLOCK
 67
     1
  8
0
  2
$PAPER_SPACE
 70
     0
 10
0.0
 20
0.0
 30
0.0
  3
$PAPER_SPACE
  1

  0
ENDBLK
  5
1D
 67
     1
  8
0
  0
ENDSEC
  0
SECTION
  2
ENTITIES
  0
LINE
  5
56
  8
VIDITELNE
  6
SLD-PLNÁ
 62
     2
 10
46.4511534421
 20
-167.0306296884
 30
0.0
 11
87.5
 21
-167.0306296884
 31
0.0
  0
LINE
  5
57
  8
VIDITELNE
  6
SLD-PLNÁ
 62
     2
 10
-28.5
 20
-167.0306296884
 30
0.0
 11
12.5005621562
 21
-167.0306296884
 31
0.0
  0
ARC
  5
58
  8
VIDITELNE
  6
SLD-PLNÁ
 62
     2
 10
113.5
 20
-11.5306296884
 30
0.0
 40
2.000000000000002
 50
0.0
 51
90.0
  0
ARC
  5
59
  8
VIDITELNE
  6
SLD-PLNÁ
 62
     2
 10
113.5
 20
-72.5306296884
 30
0.0
 40
2.0
 50
270.0
 51
0.0
  0
ARC
  5
5A
  8
VIDITELNE
  6
SLD-PLNÁ
 62
     2
 10
12.5
 20
-169.0306296884
 30
0.0
 40
1.999999999988374
 50
359.9999999996
 51
89.9999999997
  0
ARC
  5
5B
  8
VIDITELNE
  6
SLD-PLNÁ
 62
     2
 10
46.5
 20
-169.0306296884
 30
0.0
 40
2.000000000005947
 50
90.0000000014
 51
180.0
  0
LINE
  5
5C
  8
VIDITELNE
  6
SLD-PLNÁ
 62
     2
 10
14.5
 20
-169.0305533641
 30
0.0
 11
14.5
 21
-170.0306296884
 31
0.0
  0
LINE
  5
5D
  8
VIDITELNE
  6
SLD-PLNÁ
 62
     2
 10
44.5
 20
-170.0306296884
 30
0.0
 11
44.5
 21
-169.0234783528
 31
0.0
  0
LINE
  5
5E
  8
VIDITELNE
  6
SLD-PLNÁ
 62
     2
 10
19.0
 20
-170.0306296884
 30
0.0
 11
19.0
 21
-173.0306296884
 31
0.0
  0
LINE
  5
5F
  8
VIDITELNE
  6
SLD-PLNÁ
 62
     2
 10
40.0
 20
-173.0306296884
 30
0.0
 11
40.0
 21
-170.0306296884
 31
0.0
  0
ARC
  5
60
  8
VIDITELNE
  6
SLD-PLNÁ
 62
     2
 10
39.0
 20
-173.0306296884
 30
0.0
 40
1.0
 50
270.0
 51
0.0
  0
ARC
  5
61
  8
VIDITELNE
  6
SLD-PLNÁ
 62
     2
 10
20.0
 20
-173.0306296884
 30
0.0
 40
1.0
 50
180.0
 51
270.0
  0
ARC
  5
62
  8
VIDITELNE
  6
SLD-PLNÁ
 62
     2
 10
-102.5
 20
80.9693703116
 30
0.0
 40
2.000000000000014
 50
0.0
 51
90.0
  0
ARC
  5
63
  8
VIDITELNE
  6
SLD-PLNÁ
 62
     2
 10
-102.5
 20
-165.0306296884
 30
0.0
 40
2.000000000000014
 50
270.0
 51
0.0
  0
LINE
  5
64
  8
VIDITELNE
  6
SLD-PLNÁ
 62
     2
 10
-102.5
 20
82.9693703116
 30
0.0
 11
-115.5
 21
82.9693703116
 31
0.0
  0
LINE
  5
65
  8
VIDITELNE
  6
SLD-PLNÁ
 62
     2
 10
-115.5
 20
-167.0306296884
 30
0.0
 11
-102.5
 21
-167.0306296884
 31
0.0
  0
LINE
  5
66
  8
VIDITELNE
  6
SLD-PLNÁ
 62
     2
 10
-37.5844928937
 20
-166.7133922061
 30
0.0
 11
-28.5
 21
-167.0306296884
 31
0.0
  0
LINE
  5
67
  8
VIDITELNE
  6
SLD-PLNÁ
 62
     2
 10
-39.5
 20
-34.0306296884
 30
0.0
 11
-48.5
 21
-34.0306296884
 31
0.0
  0
LINE
  5
68
  8
VIDITELNE
  6
SLD-PLNÁ
 62
     2
 10
-48.5
 20
-50.0306296884
 30
0.0
 11
-39.5
 21
-50.0306296884
 31
0.0
  0
ARC
  5
69
  8
VIDITELNE
  6
SLD-PLNÁ
 62
     2
 10
-48.5
 20
-35.0306296884
 30
0.0
 40
1.0
 50
90.0
 51
180.0
  0
ARC
  5
6A
  8
VIDITELNE
  6
SLD-PLNÁ
 62
     2
 10
-48.5
 20
-49.0306296884
 30
0.0
 40
1.0
 50
180.0
 51
270.0
  0
ARC
  5
6B
  8
VIDITELNE
  6
SLD-PLNÁ
 62
     2
 10
-98.5
 20
48.51776825
 30
0.0
 40
2.000000000000004
 50
180.0
 51
235.0
  0
ARC
  5
6C
  8
VIDITELNE
  6
SLD-PLNÁ
 62
     2
 10
-98.5
 20
-132.5790276269
 30
0.0
 40
2.000000000000004
 50
125.0
 51
180.0
  0
ARC
  5
6D
  8
VIDITELNE
  6
SLD-PLNÁ
 62
     2
 10
-48.5
 20
-116.3479095249
 30
0.0
 40
1.0
 50
90.0
 51
180.0
  0
ARC
  5
6E
  8
VIDITELNE
  6
SLD-PLNÁ
 62
     2
 10
-48.5
 20
-130.3479095249
 30
0.0
 40
1.0
 50
180.0
 51
270.0
  0
LINE
  5
6F
  8
VIDITELNE
  6
SLD-PLNÁ
 62
     2
 10
-39.5
 20
-115.3479095249
 30
0.0
 11
-48.5
 21
-115.3479095249
 31
0.0
  0
LINE
  5
70
  8
VIDITELNE
  6
SLD-PLNÁ
 62
     2
 10
-48.5
 20
-131.3479095249
 30
0.0
 11
-39.5
 21
-131.3479095249
 31
0.0
  0
ARC
  5
71
  8
VIDITELNE
  6
SLD-PLNÁ
 62
     2
 10
-48.5
 20
46.286650148
 30
0.0
 40
1.0
 50
90.0
 51
180.0
  0
ARC
  5
72
  8
VIDITELNE
  6
SLD-PLNÁ
 62
     2
 10
-48.5
 20
32.286650148
 30
0.0
 40
1.0
 50
180.0
 51
270.0
  0
LINE
  5
73
  8
VIDITELNE
  6
SLD-PLNÁ
 62
     2
 10
-44.3821404899
 20
47.286650148
 30
0.0
 11
-48.5
 21
47.286650148
 31
0.0
  0
LINE
  5
74
  8
VIDITELNE
  6
SLD-PLNÁ
 62
     2
 10
-48.5
 20
31.286650148
 30
0.0
 11
-39.5
 21
31.286650148
 31
0.0
  0
LINE
  5
75
  8
VIDITELNE
  6
SLD-PLNÁ
 62
     2
 10
-99.6471528727
 20
-130.9407235383
 30
0.0
 11
-66.7913882374
 21
-107.934869467
 31
0.0
  0
LINE
  5
76
  8
VIDITELNE
  6
SLD-PLNÁ
 62
     2
 10
-66.7913882374
 20
23.8736100901
 30
0.0
 11
-99.6471528727
 21
46.8794641614
 31
0.0
  0
ARC
  5
77
  8
VIDITELNE
  6
SLD-PLNÁ
 62
     2
 10
-41.5
 20
-109.0306296884
 30
0.0
 40
2.0
 50
0.0
 51
90.0
  0
ARC
  5
78
  8
VIDITELNE
  6
SLD-PLNÁ
 62
     2
 10
-41.5
 20
24.9693703116
 30
0.0
 40
2.0
 50
270.0
 51
0.0
  0
ARC
  5
79
  8
VIDITELNE
  6
SLD-PLNÁ
 62
     2
 10
-63.9235060556
 20
27.9693703116
 30
0.0
 40
5.000000000000004
 50
235.0
 51
270.0
  0
ARC
  5
7A
  8
VIDITELNE
  6
SLD-PLNÁ
 62
     2
 10
-63.9235060556
 20
-112.0306296884
 30
0.0
 40
5.0
 50
90.0
 51
125.0
  0
LINE
  5
7B
  8
VIDITELNE
  6
SLD-PLNÁ
 62
     2
 10
-41.5
 20
22.9693703116
 30
0.0
 11
-63.9235060556
 21
22.9693703116
 31
0.0
  0
LINE
  5
7C
  8
VIDITELNE
  6
SLD-PLNÁ
 62
     2
 10
-63.9235060556
 20
-107.0306296884
 30
0.0
 11
-41.5
 21
-107.0306296884
 31
0.0
  0
LINE
  5
7D
  8
VIDITELNE
  6
SLD-PLNÁ
 62
     2
 10
-39.5
 20
-149.0306296884
 30
0.0
 11
-48.5
 21
-149.0306296884
 31
0.0
  0
LINE
  5
7E
  8
VIDITELNE
  6
SLD-PLNÁ
 62
     2
 10
-48.5
 20
-165.0306296884
 30
0.0
 11
-39.5
 21
-165.0306296884
 31
0.0
  0
ARC
  5
7F
  8
VIDITELNE
  6
SLD-PLNÁ
 62
     2
 10
-48.5
 20
-150.0306296884
 30
0.0
 40
1.0
 50
90.0
 51
180.0
  0
ARC
  5
80
  8
VIDITELNE
  6
SLD-PLNÁ
 62
     2
 10
-48.5
 20
-164.0306296884
 30
0.0
 40
1.0
 50
180.0
 51
270.0
  0
ARC
  5
81
  8
VIDITELNE
  6
SLD-PLNÁ
 62
     2
 10
-37.6186702263
 20
-164.8428925198
 30
0.0
 40
1.862806312156418
 50
182.3936320166
 51
271.0617169454
  0
LINE
  5
82
  8
VIDITELNE
  6
SLD-PLNÁ
 62
     2
 10
87.5
 20
-167.0306296884
 30
0.0
 11
98.5
 21
-166.646501224
 31
0.0
  0
LINE
  5
83
  8
VIDITELNE
  6
SLD-PLNÁ
 62
     2
 10
98.5
 20
-50.0306296884
 30
0.0
 11
107.5
 21
-50.0306296884
 31
0.0
  0
LINE
  5
84
  8
VIDITELNE
  6
SLD-PLNÁ
 62
     2
 10
107.5
 20
-34.0306296884
 30
0.0
 11
98.5
 21
-34.0306296884
 31
0.0
  0
ARC
  5
85
  8
VIDITELNE
  6
SLD-PLNÁ
 62
     2
 10
107.5
 20
-35.0306296884
 30
0.0
 40
1.0
 50
360.0
 51
90.0
  0
ARC
  5
86
  8
VIDITELNE
  6
SLD-PLNÁ
 62
     2
 10
107.5
 20
-49.0306296884
 30
0.0
 40
1.0
 50
270.0
 51
360.0
  0
ARC
  5
87
  8
VIDITELNE
  6
SLD-PLNÁ
 62
     2
 10
107.5
 20
46.286650148
 30
0.0
 40
1.000000000000007
 50
0.0
 51
90.0
  0
ARC
  5
88
  8
VIDITELNE
  6
SLD-PLNÁ
 62
     2
 10
107.5
 20
32.286650148
 30
0.0
 40
1.000000000000004
 50
270.0
 51
0.0
  0
LINE
  5
89
  8
VIDITELNE
  6
SLD-PLNÁ
 62
     2
 10
98.5
 20
31.286650148
 30
0.0
 11
107.5
 21
31.286650148
 31
0.0
  0
LINE
  5
8A
  8
VIDITELNE
  6
SLD-PLNÁ
 62
     2
 10
107.5
 20
47.286650148
 30
0.0
 11
103.3821404899
 21
47.286650148
 31
0.0
  0
LINE
  5
8B
  8
VIDITELNE
  6
SLD-PLNÁ
 62
     2
 10
98.5
 20
-131.3479095249
 30
0.0
 11
107.5
 21
-131.3479095249
 31
0.0
  0
LINE
  5
8C
  8
VIDITELNE
  6
SLD-PLNÁ
 62
     2
 10
107.5
 20
-115.3479095249
 30
0.0
 11
98.5
 21
-115.3479095249
 31
0.0
  0
ARC
  5
8D
  8
VIDITELNE
  6
SLD-PLNÁ
 62
     2
 10
107.5
 20
-116.3479095249
 30
0.0
 40
1.0
 50
0.0
 51
90.0
  0
ARC
  5
8E
  8
VIDITELNE
  6
SLD-PLNÁ
 62
     2
 10
107.5
 20
-130.3479095249
 30
0.0
 40
1.0
 50
270.0
 51
0.0
  0
LINE
  5
8F
  8
VIDITELNE
  6
SLD-PLNÁ
 62
     2
 10
113.5
 20
22.9693703116
 30
0.0
 11
110.0
 21
22.9693703116
 31
0.0
  0
LINE
  5
90
  8
VIDITELNE
  6
SLD-PLNÁ
 62
     2
 10
110.0
 20
-107.0306296884
 30
0.0
 11
113.5
 21
-107.0306296884
 31
0.0
  0
LINE
  5
91
  8
VIDITELNE
  6
SLD-PLNÁ
 62
     2
 10
106.3731240234
 20
-139.1246075099
 30
0.0
 11
110.0
 21
-137.0306296884
 31
0.0
  0
LINE
  5
92
  8
VIDITELNE
  6
SLD-PLNÁ
 62
     2
 10
110.0
 20
52.9693703116
 30
0.0
 11
106.3731240234
 21
55.063348133
 31
0.0
  0
ARC
  5
93
  8
VIDITELNE
  6
SLD-PLNÁ
 62
     2
 10
107.5
 20
-150.0306296884
 30
0.0
 40
1.0
 50
0.0
 51
90.0
  0
ARC
  5
94
  8
VIDITELNE
  6
SLD-PLNÁ
 62
     2
 10
107.5
 20
-164.0306296884
 30
0.0
 40
1.0
 50
270.0
 51
0.0
  0
LINE
  5
95
  8
VIDITELNE
  6
SLD-PLNÁ
 62
     2
 10
98.5
 20
-165.0306296884
 30
0.0
 11
107.5
 21
-165.0306296884
 31
0.0
  0
LINE
  5
96
  8
VIDITELNE
  6
SLD-PLNÁ
 62
     2
 10
107.5
 20
-149.0306296884
 30
0.0
 11
101.8094140097
 21
-149.0306296884
 31
0.0
  0
POLYLINE
  5
97
  8
VIDITELNE
  6
SLD-PLNÁ
 62
     2
 66
     1
 10
0.0
 20
0.0
 30
0.0
  0
VERTEX
  5
737
  8
VIDITELNE
  6
SLD-PLNÁ
 62
     2
 10
34.3218998561
 20
157.6525449714
 30
0.0
  0
VERTEX
  5
738
  8
VIDITELNE
  6
SLD-PLNÁ
 62
     2
 10
34.2843179476
 20
158.629180405
 30
0.0
  0
VERTEX
  5
739
  8
VIDITELNE
  6
SLD-PLNÁ
 62
     2
 10
34.1361769247
 20
162.1931877671
 30
0.0
  0
VERTEX
  5
73A
  8
VIDITELNE
  6
SLD-PLNÁ
 62
     2
 10
33.9786937459
 20
165.4448308915
 30
0.0
  0
VERTEX
  5
73B
  8
VIDITELNE
  6
SLD-PLNÁ
 62
     2
 10
33.8238013452
 20
167.9114790107
 30
0.0
  0
VERTEX
  5
73C
  8
VIDITELNE
  6
SLD-PLNÁ
 62
     2
 10
33.6077103725
 20
169.8111823495
 30
0.0
  0
VERTEX
  5
73D
  8
VIDITELNE
  6
SLD-PLNÁ
 62
     2
 10
33.0808469496
 20
171.681311692
 30
0.0
  0
VERTEX
  5
73E
  8
VIDITELNE
  6
SLD-PLNÁ
 62
     2
 10
32.013843704
 20
173.0807349369
 30
0.0
  0
SEQEND
  5
73F
  8
VIDITELNE
  6
SLD-PLNÁ
 62
     2
  0
POLYLINE
  5
98
  8
VIDITELNE
  6
SLD-PLNÁ
 62
     2
 66
     1
 10
0.0
 20
0.0
 30
0.0
  0
VERTEX
  5
740
  8
VIDITELNE
  6
SLD-PLNÁ
 62
     2
 10
26.9848378753
 20
173.07966925
 30
0.0
  0
VERTEX
  5
741
  8
VIDITELNE
  6
SLD-PLNÁ
 62
     2
 10
26.1679763048
 20
172.0843480019
 30
0.0
  0
VERTEX
  5
742
  8
VIDITELNE
  6
SLD-PLNÁ
 62
     2
 10
25.6258251471
 20
170.5976586379
 30
0.0
  0
VERTEX
  5
743
  8
VIDITELNE
  6
SLD-PLNÁ
 62
     2
 10
25.274337469
 20
168.7035939616
 30
0.0
  0
VERTEX
  5
744
  8
VIDITELNE
  6
SLD-PLNÁ
 62
     2
 10
25.1169805815
 20
167.039887921
 30
0.0
  0
VERTEX
  5
745
  8
VIDITELNE
  6
SLD-PLNÁ
 62
     2
 10
25.0391864434
 20
165.7723787531
 30
0.0
  0
VERTEX
  5
746
  8
VIDITELNE
  6
SLD-PLNÁ
 62
     2
 10
24.9718739186
 20
164.4970365952
 30
0.0
  0
VERTEX
  5
747
  8
VIDITELNE
  6
SLD-PLNÁ
 62
     2
 10
24.9017735971
 20
163.0355099462
 30
0.0
  0
VERTEX
  5
748
  8
VIDITELNE
  6
SLD-PLNÁ
 62
     2
 10
24.7787939513
 20
160.1948314984
 30
0.0
  0
VERTEX
  5
749
  8
VIDITELNE
  6
SLD-PLNÁ
 62
     2
 10
24.6783894438
 20
157.6661230061
 30
0.0
  0
SEQEND
  5
74A
  8
VIDITELNE
  6
SLD-PLNÁ
 62
     2
  0
CIRCLE
  5
99
  8
VIDITELNE
  6
SLD-PLNÁ
 62
     2
 10
29.5
 20
77.9693703116
 30
0.0
 40
18.0
  0
LINE
  5
9A
  8
VIDITELNE
  6
SLD-PLNÁ
 62
     2
 10
33.5
 20
95.2693703116
 30
0.0
 11
25.5
 21
95.2693703116
 31
0.0
  0
LINE
  5
9B
  8
VIDITELNE
  6
SLD-PLNÁ
 62
     2
 10
25.5
 20
95.2693703116
 30
0.0
 11
25.5
 21
92.5866528363
 31
0.0
  0
ARC
  5
9C
  8
VIDITELNE
  6
SLD-PLNÁ
 62
     2
 10
29.5
 20
77.9693703116
 30
0.0
 40
15.15470053837924
 50
105.3042448177
 51
74.6957551823
  0
LINE
  5
9D
  8
VIDITELNE
  6
SLD-PLNÁ
 62
     2
 10
33.5
 20
92.5866528363
 30
0.0
 11
33.5
 21
95.2693703116
 31
0.0
  0
ARC
  5
9E
  8
VIDITELNE
  6
SLD-PLNÁ
 62
     2
 10
29.5
 20
77.9693703116
 30
0.0
 40
13.99999999999999
 50
106.601549599
 51
73.398450401
  0
LINE
  5
9F
  8
VIDITELNE
  6
SLD-PLNÁ
 62
     2
 10
33.5
 20
91.3857781766
 30
0.0
 11
33.5
 21
92.5866528363
 31
0.0
  0
LINE
  5
A0
  8
VIDITELNE
  6
SLD-PLNÁ
 62
     2
 10
25.5
 20
92.5866528363
 30
0.0
 11
25.5
 21
91.3857781766
 31
0.0
  0
CIRCLE
  5
A1
  8
VIDITELNE
  6
SLD-PLNÁ
 62
     2
 10
29.5
 20
77.9693703116
 30
0.0
 40
20.0
  0
ARC
  5
A2
  8
VIDITELNE
  6
SLD-PLNÁ
 62
     2
 10
436.0163259304
 20
2.9063684051
 30
0.0
 40
461.7083360675401
 50
181.6524598005
 51
185.5853066594
  0
LINE
  5
A3
  8
VIDITELNE
  6
SLD-PLNÁ
 62
     2
 10
-25.5
 20
-10.4078530868
 30
0.0
 11
-25.5
 21
19.8746201185
 31
0.0
  0
LINE
  5
A4
  8
VIDITELNE
  6
SLD-PLNÁ
 62
     2
 10
84.5
 20
19.8746201185
 30
0.0
 11
84.5
 21
-10.4078530868
 31
0.0
  0
ARC
  5
A5
  8
VIDITELNE
  6
SLD-PLNÁ
 62
     2
 10
-376.8888040549
 20
2.8983032135
 30
0.0
 40
461.5806346703255
 50
354.4141490939
 51
358.3480844461
  0
LINE
  5
A6
  8
VIDITELNE
  6
SLD-PLNÁ
 62
     2
 10
82.5
 20
-42.0306296884
 30
0.0
 11
-23.5
 21
-42.0306296884
 31
0.0
  0
ARC
  5
A7
  8
VIDITELNE
  6
SLD-PLNÁ
 62
     2
 10
-27.031000062
 20
-8.524305893
 30
0.0
 40
2.427284742432348
 50
258.8592408081
 51
309.1051800945
  0
POLYLINE
  5
A8
  8
VIDITELNE
  6
SLD-PLNÁ
 62
     2
 66
     1
 10
0.0
 20
0.0
 30
0.0
  0
VERTEX
  5
74B
  8
VIDITELNE
  6
SLD-PLNÁ
 62
     2
 10
-23.5
 20
-42.0306296884
 30
0.0
  0
VERTEX
  5
74C
  8
VIDITELNE
  6
SLD-PLNÁ
 62
     2
 10
-23.5125475578
 20
-41.9610411238
 30
0.0
  0
VERTEX
  5
74D
  8
VIDITELNE
  6
SLD-PLNÁ
 62
     2
 10
-25.5388819987
 20
-30.3191717045
 30
0.0
  0
VERTEX
  5
74E
  8
VIDITELNE
  6
SLD-PLNÁ
 62
     2
 10
-26.4152225157
 20
-24.458674456
 30
0.0
  0
VERTEX
  5
74F
  8
VIDITELNE
  6
SLD-PLNÁ
 62
     2
 10
-27.097986477
 20
-18.5936778876
 30
0.0
  0
VERTEX
  5
750
  8
VIDITELNE
  6
SLD-PLNÁ
 62
     2
 10
-27.5
 20
-10.9058495687
 30
0.0
  0
SEQEND
  5
751
  8
VIDITELNE
  6
SLD-PLNÁ
 62
     2
  0
ARC
  5
A9
  8
VIDITELNE
  6
SLD-PLNÁ
 62
     2
 10
86.031000062
 20
-8.524305893
 30
0.0
 40
2.427284742432137
 50
230.8948199055
 51
281.1407591919
  0
POLYLINE
  5
AA
  8
VIDITELNE
  6
SLD-PLNÁ
 62
     2
 66
     1
 10
0.0
 20
0.0
 30
0.0
  0
VERTEX
  5
752
  8
VIDITELNE
  6
SLD-PLNÁ
 62
     2
 10
86.5
 20
-10.9058495687
 30
0.0
  0
VERTEX
  5
753
  8
VIDITELNE
  6
SLD-PLNÁ
 62
     2
 10
86.097986477
 20
-18.5936778876
 30
0.0
  0
VERTEX
  5
754
  8
VIDITELNE
  6
SLD-PLNÁ
 62
     2
 10
85.4260824104
 20
-24.3784134674
 30
0.0
  0
VERTEX
  5
755
  8
VIDITELNE
  6
SLD-PLNÁ
 62
     2
 10
84.5586030129
 20
-30.1968124068
 30
0.0
  0
VERTEX
  5
756
  8
VIDITELNE
  6
SLD-PLNÁ
 62
     2
 10
82.5125475578
 20
-41.9610411238
 30
0.0
  0
VERTEX
  5
757
  8
VIDITELNE
  6
SLD-PLNÁ
 62
     2
 10
82.5
 20
-42.0306296884
 30
0.0
  0
SEQEND
  5
758
  8
VIDITELNE
  6
SLD-PLNÁ
 62
     2
  0
LINE
  5
AB
  8
VIDITELNE
  6
SLD-PLNÁ
 62
     2
 10
87.5
 20
22.8694610557
 30
0.0
 11
87.5
 21
-167.0306296884
 31
0.0
  0
LINE
  5
AC
  8
VIDITELNE
  6
SLD-PLNÁ
 62
     2
 10
-28.5
 20
22.8694610557
 30
0.0
 11
-28.5
 21
-167.0306296884
 31
0.0
  0
LINE
  5
AD
  8
VIDITELNE
  6
SLD-PLNÁ
 62
     2
 10
115.5
 20
-11.5306296884
 30
0.0
 11
115.5
 21
-72.5306296884
 31
0.0
  0
LINE
  5
AE
  8
VIDITELNE
  6
SLD-PLNÁ
 62
     2
 10
29.5
 20
-170.0306296884
 30
0.0
 11
44.5
 21
-170.0306296884
 31
0.0
  0
LINE
  5
AF
  8
VIDITELNE
  6
SLD-PLNÁ
 62
     2
 10
14.5
 20
-170.0306296884
 30
0.0
 11
29.5
 21
-170.0306296884
 31
0.0
  0
LINE
  5
B0
  8
VIDITELNE
  6
SLD-PLNÁ
 62
     2
 10
39.0
 20
-174.0306296884
 30
0.0
 11
20.0
 21
-174.0306296884
 31
0.0
  0
LINE
  5
B1
  8
VIDITELNE
  6
SLD-PLNÁ
 62
     2
 10
-100.5
 20
80.9693703116
 30
0.0
 11
-100.5
 21
-165.0306296884
 31
0.0
  0
LINE
  5
B2
  8
VIDITELNE
  6
SLD-PLNÁ
 62
     2
 10
-115.5
 20
82.9693703116
 30
0.0
 11
-115.5
 21
-167.0306296884
 31
0.0
  0
LINE
  5
B3
  8
VIDITELNE
  6
SLD-PLNÁ
 62
     2
 10
-37.5697989934
 20
-131.8306430084
 30
0.0
 11
-37.5697989934
 21
-166.6920393535
 31
0.0
  0
POLYLINE
  5
B4
  8
VIDITELNE
  6
SLD-PLNÁ
 62
     2
 66
     1
 10
0.0
 20
0.0
 30
0.0
  0
VERTEX
  5
759
  8
VIDITELNE
  6
SLD-PLNÁ
 62
     2
 10
-37.5697989934
 20
-128.5284726214
 30
0.0
  0
VERTEX
  5
75A
  8
VIDITELNE
  6
SLD-PLNÁ
 62
     2
 10
-37.5892079691
 20
-129.623084093
 30
0.0
  0
VERTEX
  5
75B
  8
VIDITELNE
  6
SLD-PLNÁ
 62
     2
 10
-37.5697989934
 20
-131.8306430084
 30
0.0
  0
SEQEND
  5
75C
  8
VIDITELNE
  6
SLD-PLNÁ
 62
     2
  0
LINE
  5
B5
  8
VIDITELNE
  6
SLD-PLNÁ
 62
     2
 10
-37.5697989934
 20
-44.3656167617
 30
0.0
 11
-37.5697989934
 21
-128.5284726214
 31
0.0
  0
POLYLINE
  5
B6
  8
VIDITELNE
  6
SLD-PLNÁ
 62
     2
 66
     1
 10
0.0
 20
0.0
 30
0.0
  0
VERTEX
  5
75D
  8
VIDITELNE
  6
SLD-PLNÁ
 62
     2
 10
-37.5697989934
 20
-39.6956426152
 30
0.0
  0
VERTEX
  5
75E
  8
VIDITELNE
  6
SLD-PLNÁ
 62
     2
 10
-37.5892079691
 20
-41.2250711385
 30
0.0
  0
VERTEX
  5
75F
  8
VIDITELNE
  6
SLD-PLNÁ
 62
     2
 10
-37.5697989934
 20
-44.3656167617
 30
0.0
  0
SEQEND
  5
760
  8
VIDITELNE
  6
SLD-PLNÁ
 62
     2
  0
LINE
  5
B7
  8
VIDITELNE
  6
SLD-PLNÁ
 62
     2
 10
-39.5
 20
-44.3281848824
 30
0.0
 11
-39.5
 21
-39.7330744945
 31
0.0
  0
ARC
  5
B8
  8
VIDITELNE
  6
SLD-PLNÁ
 62
     2
 10
-38.0411458116
 20
-65.175112272
 30
0.0
 40
25.4838290257634
 50
88.9402015146
 51
93.2817638657
  0
ARC
  5
B9
  8
VIDITELNE
  6
SLD-PLNÁ
 62
     2
 10
-38.0411458116
 20
-18.8861471049
 30
0.0
 40
25.48382902570707
 50
266.7182361343
 51
271.0597984854
  0
LINE
  5
BA
  8
VIDITELNE
  6
SLD-PLNÁ
 62
     2
 10
-39.5
 20
-127.141836758
 30
0.0
 11
-39.5
 21
-44.3281848824
 31
0.0
  0
ARC
  5
BB
  8
VIDITELNE
  6
SLD-PLNÁ
 62
     2
 10
-37.7808038361
 20
-126.7854514175
 30
0.0
 40
1.755746553723679
 50
191.7114058078
 51
276.9024654221
  0
LINE
  5
BC
  8
VIDITELNE
  6
SLD-PLNÁ
 62
     2
 10
-39.5
 20
-39.7330744945
 30
0.0
 11
-39.5
 21
37.4848053516
 31
0.0
  0
LINE
  5
BD
  8
VIDITELNE
  6
SLD-PLNÁ
 62
     2
 10
-49.5
 20
-49.0306288453
 30
0.0
 11
-49.5
 21
-35.0306296884
 31
0.0
  0
LINE
  5
BE
  8
VIDITELNE
  6
SLD-PLNÁ
 62
     2
 10
-39.5
 20
-130.3910704736
 30
0.0
 11
-39.5
 21
-127.141836758
 31
0.0
  0
ARC
  5
BF
  8
VIDITELNE
  6
SLD-PLNÁ
 62
     2
 10
-37.7605318293
 20
-130.0725726566
 30
0.0
 40
1.768386376468075
 50
190.3759610839
 51
276.1917952532
  0
LINE
  5
C0
  8
VIDITELNE
  6
SLD-PLNÁ
 62
     2
 10
-49.5
 20
-130.3479086817
 30
0.0
 11
-49.5
 21
-116.3479095249
 31
0.0
  0
LINE
  5
C1
  8
VIDITELNE
  6
SLD-PLNÁ
 62
     2
 10
-49.5
 20
32.2866509912
 30
0.0
 11
-49.5
 21
46.286650148
 31
0.0
  0
ARC
  5
C2
  8
VIDITELNE
  6
SLD-PLNÁ
 62
     2
 10
-37.5001898538
 20
-164.6934410406
 30
0.0
 40
1.999810153231877
 50
180.0047900837
 51
268.0052527911
  0
LINE
  5
C3
  8
VIDITELNE
  6
SLD-PLNÁ
 62
     2
 10
-39.5
 20
-164.6936082302
 30
0.0
 11
-39.5
 21
-130.3910704736
 31
0.0
  0
LINE
  5
C4
  8
VIDITELNE
  6
SLD-PLNÁ
 62
     2
 10
-39.5
 20
-165.0278414396
 30
0.0
 11
-39.5
 21
-164.6936082302
 31
0.0
  0
LINE
  5
C5
  8
VIDITELNE
  6
SLD-PLNÁ
 62
     2
 10
-49.5
 20
-164.0306288453
 30
0.0
 11
-49.5
 21
-150.0306296884
 31
0.0
  0
CIRCLE
  5
C6
  8
VIDITELNE
  6
SLD-PLNÁ
 62
     2
 10
29.5
 20
77.9693703116
 30
0.0
 40
80.0
  0
ARC
  5
C7
  8
VIDITELNE
  6
SLD-PLNÁ
 62
     2
 10
29.5
 20
77.9693703116
 30
0.0
 40
75.00000000000004
 50
146.5699438283
 51
213.4300561717
  0
ARC
  5
C8
  8
VIDITELNE
  6
SLD-PLNÁ
 62
     2
 10
-31.4228053711
 20
37.7523119194
 30
0.0
 40
2.000000000000037
 50
213.4300561717
 51
305.0
  0
LINE
  5
C9
  8
VIDITELNE
  6
SLD-PLNÁ
 62
     2
 10
-30.2756524984
 20
36.1140078308
 30
0.0
 11
-20.4414100359
 21
43.0000185356
 31
0.0
  0
ARC
  5
CA
  8
VIDITELNE
  6
SLD-PLNÁ
 62
     2
 10
-21.5885629086
 20
44.6383226242
 30
0.0
 40
2.000000000000004
 50
305.0
 51
33.1211131219
  0
ARC
  5
CB
  8
VIDITELNE
  6
SLD-PLNÁ
 62
     2
 10
29.5
 20
77.9693703116
 30
0.0
 40
59.00000000000008
 50
146.8788868781
 51
213.1211131219
  0
ARC
  5
CC
  8
VIDITELNE
  6
SLD-PLNÁ
 62
     2
 10
-21.5885629086
 20
111.3004179989
 30
0.0
 40
1.999999999999997
 50
326.8788868781
 51
55.0
  0
LINE
  5
CD
  8
VIDITELNE
  6
SLD-PLNÁ
 62
     2
 10
-20.4414100359
 20
112.9387220875
 30
0.0
 11
-30.2756524984
 21
119.8247327923
 31
0.0
  0
ARC
  5
CE
  8
VIDITELNE
  6
SLD-PLNÁ
 62
     2
 10
-31.4228053711
 20
118.1864287037
 30
0.0
 40
2.000000000000011
 50
55.0
 51
146.5699438283
  0
LINE
  5
CF
  8
VIDITELNE
  6
SLD-PLNÁ
 62
     2
 10
-12.3553624808
 20
137.7450228099
 30
0.0
 11
-5.4693517759
 21
127.9107803474
 31
0.0
  0
ARC
  5
D0
  8
VIDITELNE
  6
SLD-PLNÁ
 62
     2
 10
-3.8310476874
 20
129.0579332201
 30
0.0
 40
2.000000000000011
 50
215.0
 51
303.1211131219
  0
ARC
  5
D1
  8
VIDITELNE
  6
SLD-PLNÁ
 62
     2
 10
29.5
 20
77.9693703116
 30
0.0
 40
59.00000000000003
 50
97.5359093423
 51
123.1211131219
  0
ARC
  5
D2
  8
VIDITELNE
  6
SLD-PLNÁ
 62
     2
 10
21.5
 20
138.4425048425
 30
0.0
 40
2.0
 50
277.5359093423
 51
0.0
  0
LINE
  5
D3
  8
VIDITELNE
  6
SLD-PLNÁ
 62
     2
 10
23.5
 20
138.4425048425
 30
0.0
 11
23.5
 21
150.5296900463
 31
0.0
  0
ARC
  5
D4
  8
VIDITELNE
  6
SLD-PLNÁ
 62
     2
 10
21.5
 20
150.5296900463
 30
0.0
 40
2.0
 50
0.0
 51
96.2916261394
  0
ARC
  5
D5
  8
VIDITELNE
  6
SLD-PLNÁ
 62
     2
 10
29.5
 20
77.9693703116
 30
0.0
 40
74.99999999999999
 50
96.2916261394
 51
123.4300561717
  0
ARC
  5
D6
  8
VIDITELNE
  6
SLD-PLNÁ
 62
     2
 10
-10.7170583922
 20
138.8921756826
 30
0.0
 40
2.000000000000006
 50
123.4300561717
 51
215.0
  0
LINE
  5
D7
  8
VIDITELNE
  6
SLD-PLNÁ
 62
     2
 10
35.5
 20
150.5296900463
 30
0.0
 11
35.5
 21
138.4425048425
 31
0.0
  0
ARC
  5
D8
  8
VIDITELNE
  6
SLD-PLNÁ
 62
     2
 10
37.5
 20
138.4425048425
 30
0.0
 40
2.000000000000455
 50
180.0
 51
262.4640906577
  0
ARC
  5
D9
  8
VIDITELNE
  6
SLD-PLNÁ
 62
     2
 10
29.5
 20
77.9693703116
 30
0.0
 40
59.00000000000006
 50
56.8788868781
 51
82.4640906577
  0
ARC
  5
DA
  8
VIDITELNE
  6
SLD-PLNÁ
 62
     2
 10
62.8310476874
 20
129.0579332201
 30
0.0
 40
1.999999999999997
 50
236.8788868781
 51
325.0
  0
LINE
  5
DB
  8
VIDITELNE
  6
SLD-PLNÁ
 62
     2
 10
64.4693517759
 20
127.9107803474
 30
0.0
 11
71.3553624808
 21
137.7450228099
 31
0.0
  0
ARC
  5
DC
  8
VIDITELNE
  6
SLD-PLNÁ
 62
     2
 10
69.7170583922
 20
138.8921756826
 30
0.0
 40
2.000000000000016
 50
325.0
 51
56.5699438283
  0
ARC
  5
DD
  8
VIDITELNE
  6
SLD-PLNÁ
 62
     2
 10
29.5
 20
77.9693703116
 30
0.0
 40
75.00000000000003
 50
56.5699438283
 51
83.7083738606
  0
ARC
  5
DE
  8
VIDITELNE
  6
SLD-PLNÁ
 62
     2
 10
37.5
 20
150.5296900463
 30
0.0
 40
2.0
 50
83.7083738606
 51
180.0
  0
ARC
  5
DF
  8
VIDITELNE
  6
SLD-PLNÁ
 62
     2
 10
90.4228053711
 20
118.1864287037
 30
0.0
 40
2.000000000000269
 50
33.4300561717
 51
125.0
  0
LINE
  5
E0
  8
VIDITELNE
  6
SLD-PLNÁ
 62
     2
 10
89.2756524984
 20
119.8247327923
 30
0.0
 11
79.4414100359
 21
112.9387220875
 31
0.0
  0
ARC
  5
E1
  8
VIDITELNE
  6
SLD-PLNÁ
 62
     2
 10
80.5885629086
 20
111.3004179989
 30
0.0
 40
2.000000000000013
 50
125.0
 51
213.1211131219
  0
ARC
  5
E2
  8
VIDITELNE
  6
SLD-PLNÁ
 62
     2
 10
29.5
 20
77.9693703116
 30
0.0
 40
59.00000000000038
 50
326.8788868781
 51
33.1211131219
  0
ARC
  5
E3
  8
VIDITELNE
  6
SLD-PLNÁ
 62
     2
 10
80.5885629086
 20
44.6383226242
 30
0.0
 40
2.000000000000005
 50
146.8788868781
 51
235.0
  0
LINE
  5
E4
  8
VIDITELNE
  6
SLD-PLNÁ
 62
     2
 10
79.4414100359
 20
43.0000185356
 30
0.0
 11
89.2756524984
 21
36.1140078308
 31
0.0
  0
ARC
  5
E5
  8
VIDITELNE
  6
SLD-PLNÁ
 62
     2
 10
90.4228053711
 20
37.7523119194
 30
0.0
 40
2.000000000000017
 50
235.0
 51
326.5699438283
  0
ARC
  5
E6
  8
VIDITELNE
  6
SLD-PLNÁ
 62
     2
 10
29.5
 20
77.9693703116
 30
0.0
 40
75.00000000000003
 50
326.5699438283
 51
33.4300561717
  0
LINE
  5
E7
  8
VIDITELNE
  6
SLD-PLNÁ
 62
     2
 10
71.3553624808
 20
18.1937178132
 30
0.0
 11
64.4693517759
 21
28.0279602757
 31
0.0
  0
ARC
  5
E8
  8
VIDITELNE
  6
SLD-PLNÁ
 62
     2
 10
62.8310476874
 20
26.880807403
 30
0.0
 40
2.000000000000376
 50
35.0
 51
123.1211131219
  0
ARC
  5
E9
  8
VIDITELNE
  6
SLD-PLNÁ
 62
     2
 10
29.5
 20
77.9693703116
 30
0.0
 40
59.00000000000149
 50
236.8788868781
 51
303.1211131219
  0
ARC
  5
EA
  8
VIDITELNE
  6
SLD-PLNÁ
 62
     2
 10
-3.8310476874
 20
26.880807403
 30
0.0
 40
2.000000000000023
 50
56.8788868781
 51
145.0
  0
LINE
  5
EB
  8
VIDITELNE
  6
SLD-PLNÁ
 62
     2
 10
-5.4693517759
 20
28.0279602757
 30
0.0
 11
-12.3553624808
 21
18.1937178132
 31
0.0
  0
ARC
  5
EC
  8
VIDITELNE
  6
SLD-PLNÁ
 62
     2
 10
-10.7170583922
 20
17.0465649405
 30
0.0
 40
2.0
 50
145.0
 51
236.5699438282
  0
ARC
  5
ED
  8
VIDITELNE
  6
SLD-PLNÁ
 62
     2
 10
29.5
 20
77.9693703116
 30
0.0
 40
75.0000000000008
 50
236.5699438283
 51
303.4300561717
  0
ARC
  5
EE
  8
VIDITELNE
  6
SLD-PLNÁ
 62
     2
 10
69.7170583922
 20
17.0465649405
 30
0.0
 40
2.000000000000786
 50
303.4300561717
 51
35.0
  0
CIRCLE
  5
EF
  8
VIDITELNE
  6
SLD-PLNÁ
 62
     2
 10
-16.4619407771
 20
123.9313110887
 30
0.0
 40
4.500000000000005
  0
CIRCLE
  5
F0
  8
VIDITELNE
  6
SLD-PLNÁ
 62
     2
 10
75.4619407771
 20
123.9313110887
 30
0.0
 40
4.5
  0
CIRCLE
  5
F1
  8
VIDITELNE
  6
SLD-PLNÁ
 62
     2
 10
-16.4619407771
 20
32.0074295344
 30
0.0
 40
4.500000000000005
  0
CIRCLE
  5
F2
  8
VIDITELNE
  6
SLD-PLNÁ
 62
     2
 10
75.4619407771
 20
32.0074295344
 30
0.0
 40
4.5
  0
ARC
  5
F3
  8
VIDITELNE
  6
SLD-PLNÁ
 62
     2
 10
29.5
 20
77.9693703116
 30
0.0
 40
55.0000000000004
 50
334.647676539
 51
25.352323461
  0
ARC
  5
F4
  8
VIDITELNE
  6
SLD-PLNÁ
 62
     2
 10
70.2031939779
 20
101.4693703116
 30
0.0
 40
8.999999999999991
 50
0.3188332924
 51
59.6811667076
  0
ARC
  5
F5
  8
VIDITELNE
  6
SLD-PLNÁ
 62
     2
 10
29.5
 20
77.9693703116
 30
0.0
 40
55.00000000000037
 50
34.647676539
 51
85.352323461
  0
ARC
  5
F6
  8
VIDITELNE
  6
SLD-PLNÁ
 62
     2
 10
29.5
 20
124.9693703116
 30
0.0
 40
9.000000000000007
 50
60.3188332924
 51
119.6811667076
  0
ARC
  5
F7
  8
VIDITELNE
  6
SLD-PLNÁ
 62
     2
 10
29.5
 20
77.9693703116
 30
0.0
 40
55.00000000000001
 50
94.647676539
 51
145.352323461
  0
ARC
  5
F8
  8
VIDITELNE
  6
SLD-PLNÁ
 62
     2
 10
-11.2031939779
 20
101.4693703116
 30
0.0
 40
9.000000000000028
 50
120.3188332924
 51
179.6811667076
  0
ARC
  5
F9
  8
VIDITELNE
  6
SLD-PLNÁ
 62
     2
 10
29.5
 20
77.9693703116
 30
0.0
 40
55.00000000000011
 50
154.647676539
 51
205.352323461
  0
ARC
  5
FA
  8
VIDITELNE
  6
SLD-PLNÁ
 62
     2
 10
-11.2031939779
 20
54.4693703116
 30
0.0
 40
9.000000000000032
 50
180.3188332924
 51
239.6811667076
  0
ARC
  5
FB
  8
VIDITELNE
  6
SLD-PLNÁ
 62
     2
 10
29.5
 20
77.9693703116
 30
0.0
 40
55.00000000000093
 50
214.647676539
 51
265.352323461
  0
ARC
  5
FC
  8
VIDITELNE
  6
SLD-PLNÁ
 62
     2
 10
29.5
 20
30.9693703116
 30
0.0
 40
9.000000000000222
 50
240.3188332924
 51
299.6811667076
  0
ARC
  5
FD
  8
VIDITELNE
  6
SLD-PLNÁ
 62
     2
 10
29.5
 20
77.9693703116
 30
0.0
 40
55.00000000000095
 50
274.647676539
 51
325.352323461
  0
ARC
  5
FE
  8
VIDITELNE
  6
SLD-PLNÁ
 62
     2
 10
70.2031939779
 20
54.4693703116
 30
0.0
 40
9.000000000000005
 50
300.3188332924
 51
359.6811667076
  0
LINE
  5
FF
  8
VIDITELNE
  6
SLD-PLNÁ
 62
     2
 10
91.9883956434
 20
36.7188165802
 30
0.0
 11
92.0919233264
 21
36.6504747032
 31
0.0
  0
ARC
  5
100
  8
VIDITELNE
  6
SLD-PLNÁ
 62
     2
 10
29.5
 20
77.9693703116
 30
0.0
 40
74.8759492308597
 50
326.5699438283
 51
33.4300561717
  0
LINE
  5
101
  8
VIDITELNE
  6
SLD-PLNÁ
 62
     2
 10
91.9883956434
 20
119.2199240429
 30
0.0
 11
92.0919233264
 21
119.28826592
 31
0.0
  0
LINE
  5
102
  8
VIDITELNE
  6
SLD-PLNÁ
 62
     2
 10
79.512562634
 20
43.1016349768
 30
0.0
 11
79.4414100359
 21
43.0000185356
 31
0.0
  0
LINE
  5
103
  8
VIDITELNE
  6
SLD-PLNÁ
 62
     2
 10
89.3468050964
 20
36.2156242719
 30
0.0
 11
79.512562634
 21
43.1016349768
 31
0.0
  0
LINE
  5
104
  8
VIDITELNE
  6
SLD-PLNÁ
 62
     2
 10
89.3468050964
 20
36.2156242719
 30
0.0
 11
89.2756524984
 21
36.1140078308
 31
0.0
  0
ARC
  5
105
  8
VIDITELNE
  6
SLD-PLNÁ
 62
     2
 10
90.4228053711
 20
37.7523119194
 30
0.0
 40
1.8759492308593
 50
235.0
 51
326.5699438283
  0
LINE
  5
106
  8
VIDITELNE
  6
SLD-PLNÁ
 62
     2
 10
79.0174227398
 20
110.2753794207
 30
0.0
 11
78.9135280591
 21
110.2075967633
 31
0.0
  0
ARC
  5
107
  8
VIDITELNE
  6
SLD-PLNÁ
 62
     2
 10
29.5
 20
77.9693703116
 30
0.0
 40
59.1240507691411
 50
326.8788868781
 51
33.1211131219
  0
LINE
  5
108
  8
VIDITELNE
  6
SLD-PLNÁ
 62
     2
 10
79.0174227398
 20
45.6633612024
 30
0.0
 11
78.9135280591
 21
45.7311438599
 31
0.0
  0
LINE
  5
109
  8
VIDITELNE
  6
SLD-PLNÁ
 62
     2
 10
70.7505537313
 20
15.4809746682
 30
0.0
 11
70.8188956084
 21
15.3774469851
 31
0.0
  0
ARC
  5
10A
  8
VIDITELNE
  6
SLD-PLNÁ
 62
     2
 10
69.7170583922
 20
17.0465649405
 30
0.0
 40
1.875949230859313
 50
303.4300561717
 51
35.0
  0
LINE
  5
10B
  8
VIDITELNE
  6
SLD-PLNÁ
 62
     2
 10
71.2537460396
 20
18.1225652151
 30
0.0
 11
71.3553624808
 21
18.1937178132
 31
0.0
  0
LINE
  5
10C
  8
VIDITELNE
  6
SLD-PLNÁ
 62
     2
 10
-11.7505537313
 20
15.4809746682
 30
0.0
 11
-11.8188956084
 21
15.3774469851
 31
0.0
  0
ARC
  5
10D
  8
VIDITELNE
  6
SLD-PLNÁ
 62
     2
 10
29.5
 20
77.9693703116
 30
0.0
 40
74.87594923086083
 50
236.5699438283
 51
303.4300561717
  0
ARC
  5
10E
  8
VIDITELNE
  6
SLD-PLNÁ
 62
     2
 10
80.5885629086
 20
44.6383226242
 30
0.0
 40
1.87594923085929
 50
146.8788868781
 51
235.0
  0
LINE
  5
10F
  8
VIDITELNE
  6
SLD-PLNÁ
 62
     2
 10
64.3677353348
 20
27.9568076776
 30
0.0
 11
71.2537460396
 21
18.1225652151
 31
0.0
  0
LINE
  5
110
  8
VIDITELNE
  6
SLD-PLNÁ
 62
     2
 10
64.3677353348
 20
27.9568076776
 30
0.0
 11
64.4693517759
 21
28.0279602757
 31
0.0
  0
LINE
  5
111
  8
VIDITELNE
  6
SLD-PLNÁ
 62
     2
 10
79.512562634
 20
112.8371056464
 30
0.0
 11
79.4414100359
 21
112.9387220875
 31
0.0
  0
ARC
  5
112
  8
VIDITELNE
  6
SLD-PLNÁ
 62
     2
 10
80.5885629086
 20
111.3004179989
 30
0.0
 40
1.875949230859317
 50
125.0
 51
213.1211131219
  0
LINE
  5
113
  8
VIDITELNE
  6
SLD-PLNÁ
 62
     2
 10
-32.9883956434
 20
36.7188165802
 30
0.0
 11
-33.0919233264
 21
36.6504747032
 31
0.0
  0
ARC
  5
114
  8
VIDITELNE
  6
SLD-PLNÁ
 62
     2
 10
-31.4228053711
 20
37.7523119194
 30
0.0
 40
1.875949230859293
 50
213.4300561717
 51
305.0
  0
LINE
  5
115
  8
VIDITELNE
  6
SLD-PLNÁ
 62
     2
 10
-30.3468050964
 20
36.2156242719
 30
0.0
 11
-30.2756524984
 21
36.1140078308
 31
0.0
  0
LINE
  5
116
  8
VIDITELNE
  6
SLD-PLNÁ
 62
     2
 10
-32.9883956434
 20
119.2199240429
 30
0.0
 11
-33.0919233264
 21
119.28826592
 31
0.0
  0
ARC
  5
117
  8
VIDITELNE
  6
SLD-PLNÁ
 62
     2
 10
29.5
 20
77.9693703116
 30
0.0
 40
74.87594923085929
 50
146.5699438283
 51
213.4300561717
  0
ARC
  5
118
  8
VIDITELNE
  6
SLD-PLNÁ
 62
     2
 10
90.4228053711
 20
118.1864287037
 30
0.0
 40
1.875949230859316
 50
33.4300561717
 51
125.0
  0
LINE
  5
119
  8
VIDITELNE
  6
SLD-PLNÁ
 62
     2
 10
89.3468050965
 20
119.7231163512
 30
0.0
 11
89.2756524984
 21
119.8247327923
 31
0.0
  0
LINE
  5
11A
  8
VIDITELNE
  6
SLD-PLNÁ
 62
     2
 10
-20.512562634
 20
43.1016349768
 30
0.0
 11
-30.3468050964
 21
36.2156242719
 31
0.0
  0
LINE
  5
11B
  8
VIDITELNE
  6
SLD-PLNÁ
 62
     2
 10
-20.512562634
 20
43.1016349768
 30
0.0
 11
-20.4414100359
 21
43.0000185356
 31
0.0
  0
LINE
  5
11C
  8
VIDITELNE
  6
SLD-PLNÁ
 62
     2
 10
21.2944165226
 20
152.3943404024
 30
0.0
 11
21.2808219178
 21
152.5176440116
 31
0.0
  0
ARC
  5
11D
  8
VIDITELNE
  6
SLD-PLNÁ
 62
     2
 10
29.5
 20
77.9693703116
 30
0.0
 40
74.87594923085929
 50
96.2916261394
 51
123.4300561717
  0
LINE
  5
11E
  8
VIDITELNE
  6
SLD-PLNÁ
 62
     2
 10
-11.7505537313
 20
140.4577659549
 30
0.0
 11
-11.8188956084
 21
140.561293638
 31
0.0
  0
LINE
  5
11F
  8
VIDITELNE
  6
SLD-PLNÁ
 62
     2
 10
23.3759492309
 20
150.5296900463
 30
0.0
 11
23.5
 21
150.5296900463
 31
0.0
  0
ARC
  5
120
  8
VIDITELNE
  6
SLD-PLNÁ
 62
     2
 10
21.5
 20
150.5296900463
 30
0.0
 40
1.875949230859298
 50
0.0
 51
96.2916261394
  0
ARC
  5
121
  8
VIDITELNE
  6
SLD-PLNÁ
 62
     2
 10
-21.5885629086
 20
44.6383226242
 30
0.0
 40
1.875949230859369
 50
305.0
 51
33.1211131219
  0
LINE
  5
122
  8
VIDITELNE
  6
SLD-PLNÁ
 62
     2
 10
-20.0174227398
 20
45.6633612024
 30
0.0
 11
-19.9135280591
 21
45.7311438599
 31
0.0
  0
LINE
  5
123
  8
VIDITELNE
  6
SLD-PLNÁ
 62
     2
 10
21.7460261286
 20
136.5827584456
 30
0.0
 11
21.762295082
 21
136.4597791202
 31
0.0
  0
ARC
  5
124
  8
VIDITELNE
  6
SLD-PLNÁ
 62
     2
 10
21.5
 20
138.4425048425
 30
0.0
 40
1.875949230859304
 50
277.5359093423
 51
0.0
  0
LINE
  5
125
  8
VIDITELNE
  6
SLD-PLNÁ
 62
     2
 10
23.3759492309
 20
138.4425048425
 30
0.0
 11
23.5
 21
138.4425048425
 31
0.0
  0
LINE
  5
126
  8
VIDITELNE
  6
SLD-PLNÁ
 62
     2
 10
-2.8060091091
 20
127.4867930514
 30
0.0
 11
-2.7382264517
 21
127.3828983707
 31
0.0
  0
ARC
  5
127
  8
VIDITELNE
  6
SLD-PLNÁ
 62
     2
 10
29.5
 20
77.9693703116
 30
0.0
 40
59.1240507691407
 50
97.5359093423
 51
123.1211131219
  0
LINE
  5
128
  8
VIDITELNE
  6
SLD-PLNÁ
 62
     2
 10
-5.3677353348
 20
127.9819329455
 30
0.0
 11
-5.4693517759
 21
127.9107803474
 31
0.0
  0
ARC
  5
129
  8
VIDITELNE
  6
SLD-PLNÁ
 62
     2
 10
-3.8310476874
 20
129.0579332201
 30
0.0
 40
1.875949230859292
 50
215.0
 51
303.1211131219
  0
LINE
  5
12A
  8
VIDITELNE
  6
SLD-PLNÁ
 62
     2
 10
-12.2537460396
 20
137.816175408
 30
0.0
 11
-12.3553624808
 21
137.7450228099
 31
0.0
  0
LINE
  5
12B
  8
VIDITELNE
  6
SLD-PLNÁ
 62
     2
 10
-5.3677353348
 20
127.9819329455
 30
0.0
 11
-12.2537460396
 21
137.816175408
 31
0.0
  0
LINE
  5
12C
  8
VIDITELNE
  6
SLD-PLNÁ
 62
     2
 10
35.6240507691
 20
150.5296900463
 30
0.0
 11
35.5
 21
150.5296900463
 31
0.0
  0
LINE
  5
12D
  8
VIDITELNE
  6
SLD-PLNÁ
 62
     2
 10
35.6240507691
 20
138.4425048425
 30
0.0
 11
35.6240507691
 21
150.5296900463
 31
0.0
  0
LINE
  5
12E
  8
VIDITELNE
  6
SLD-PLNÁ
 62
     2
 10
35.6240507691
 20
138.4425048425
 30
0.0
 11
35.5
 21
138.4425048425
 31
0.0
  0
LINE
  5
12F
  8
VIDITELNE
  6
SLD-PLNÁ
 62
     2
 10
23.3759492309
 20
150.5296900463
 30
0.0
 11
23.3759492309
 21
138.4425048425
 31
0.0
  0
LINE
  5
130
  8
VIDITELNE
  6
SLD-PLNÁ
 62
     2
 10
64.3677353348
 20
127.9819329455
 30
0.0
 11
64.4693517759
 21
127.9107803474
 31
0.0
  0
LINE
  5
131
  8
VIDITELNE
  6
SLD-PLNÁ
 62
     2
 10
71.2537460396
 20
137.816175408
 30
0.0
 11
64.3677353348
 21
127.9819329455
 31
0.0
  0
LINE
  5
132
  8
VIDITELNE
  6
SLD-PLNÁ
 62
     2
 10
71.2537460396
 20
137.816175408
 30
0.0
 11
71.3553624808
 21
137.7450228099
 31
0.0
  0
LINE
  5
133
  8
VIDITELNE
  6
SLD-PLNÁ
 62
     2
 10
61.8060091091
 20
127.4867930514
 30
0.0
 11
61.7382264517
 21
127.3828983707
 31
0.0
  0
ARC
  5
134
  8
VIDITELNE
  6
SLD-PLNÁ
 62
     2
 10
62.8310476874
 20
129.0579332201
 30
0.0
 40
1.875949230859287
 50
236.8788868781
 51
325.0
  0
LINE
  5
135
  8
VIDITELNE
  6
SLD-PLNÁ
 62
     2
 10
37.2539738714
 20
136.5827584456
 30
0.0
 11
37.237704918
 21
136.4597791202
 31
0.0
  0
ARC
  5
136
  8
VIDITELNE
  6
SLD-PLNÁ
 62
     2
 10
29.5
 20
77.9693703116
 30
0.0
 40
59.12405076914073
 50
56.8788868781
 51
82.4640906577
  0
LINE
  5
137
  8
VIDITELNE
  6
SLD-PLNÁ
 62
     2
 10
79.512562634
 20
112.8371056464
 30
0.0
 11
89.3468050965
 21
119.7231163512
 31
0.0
  0
ARC
  5
138
  8
VIDITELNE
  6
SLD-PLNÁ
 62
     2
 10
69.7170583922
 20
138.8921756826
 30
0.0
 40
1.875949230859294
 50
325.0
 51
56.5699438283
  0
LINE
  5
139
  8
VIDITELNE
  6
SLD-PLNÁ
 62
     2
 10
70.7505537313
 20
140.4577659549
 30
0.0
 11
70.8188956084
 21
140.561293638
 31
0.0
  0
ARC
  5
13A
  8
VIDITELNE
  6
SLD-PLNÁ
 62
     2
 10
29.5
 20
77.9693703116
 30
0.0
 40
74.87594923085932
 50
56.5699438283
 51
83.7083738606
  0
LINE
  5
13B
  8
VIDITELNE
  6
SLD-PLNÁ
 62
     2
 10
37.7055834774
 20
152.3943404024
 30
0.0
 11
37.7191780822
 21
152.5176440116
 31
0.0
  0
ARC
  5
13C
  8
VIDITELNE
  6
SLD-PLNÁ
 62
     2
 10
37.5
 20
150.5296900463
 30
0.0
 40
1.87594923085976
 50
83.7083738606
 51
180.0
  0
ARC
  5
13D
  8
VIDITELNE
  6
SLD-PLNÁ
 62
     2
 10
37.5
 20
138.4425048425
 30
0.0
 40
1.875949230859291
 50
180.0
 51
262.4640906577
  0
ARC
  5
13E
  8
VIDITELNE
  6
SLD-PLNÁ
 62
     2
 10
29.5
 20
77.9693703116
 30
0.0
 40
59.12405076914079
 50
146.8788868781
 51
213.1211131219
  0
LINE
  5
13F
  8
VIDITELNE
  6
SLD-PLNÁ
 62
     2
 10
-20.0174227398
 20
110.2753794207
 30
0.0
 11
-19.9135280591
 21
110.2075967633
 31
0.0
  0
LINE
  5
140
  8
VIDITELNE
  6
SLD-PLNÁ
 62
     2
 10
-20.512562634
 20
112.8371056464
 30
0.0
 11
-20.4414100359
 21
112.9387220875
 31
0.0
  0
LINE
  5
141
  8
VIDITELNE
  6
SLD-PLNÁ
 62
     2
 10
-30.3468050964
 20
119.7231163512
 30
0.0
 11
-20.512562634
 21
112.8371056464
 31
0.0
  0
LINE
  5
142
  8
VIDITELNE
  6
SLD-PLNÁ
 62
     2
 10
-30.3468050964
 20
119.7231163512
 30
0.0
 11
-30.2756524984
 21
119.8247327923
 31
0.0
  0
ARC
  5
143
  8
VIDITELNE
  6
SLD-PLNÁ
 62
     2
 10
-31.4228053711
 20
118.1864287037
 30
0.0
 40
1.875949230859313
 50
55.0
 51
146.5699438283
  0
ARC
  5
144
  8
VIDITELNE
  6
SLD-PLNÁ
 62
     2
 10
-21.5885629086
 20
111.3004179989
 30
0.0
 40
1.875949230859292
 50
326.8788868781
 51
55.0
  0
LINE
  5
145
  8
VIDITELNE
  6
SLD-PLNÁ
 62
     2
 10
-2.8060091091
 20
28.4519475717
 30
0.0
 11
-2.7382264517
 21
28.5558422525
 31
0.0
  0
ARC
  5
146
  8
VIDITELNE
  6
SLD-PLNÁ
 62
     2
 10
-3.8310476874
 20
26.880807403
 30
0.0
 40
1.875949230859321
 50
56.8788868781
 51
145.0
  0
LINE
  5
147
  8
VIDITELNE
  6
SLD-PLNÁ
 62
     2
 10
-5.3677353348
 20
27.9568076776
 30
0.0
 11
-5.4693517759
 21
28.0279602757
 31
0.0
  0
LINE
  5
148
  8
VIDITELNE
  6
SLD-PLNÁ
 62
     2
 10
-12.2537460396
 20
18.1225652151
 30
0.0
 11
-12.3553624808
 21
18.1937178132
 31
0.0
  0
ARC
  5
149
  8
VIDITELNE
  6
SLD-PLNÁ
 62
     2
 10
-10.7170583922
 20
17.0465649405
 30
0.0
 40
1.875949230859317
 50
145.0
 51
236.5699438283
  0
ARC
  5
14A
  8
VIDITELNE
  6
SLD-PLNÁ
 62
     2
 10
62.8310476874
 20
26.880807403
 30
0.0
 40
1.875949230859312
 50
35.0
 51
123.1211131219
  0
LINE
  5
14B
  8
VIDITELNE
  6
SLD-PLNÁ
 62
     2
 10
61.8060091091
 20
28.4519475717
 30
0.0
 11
61.7382264517
 21
28.5558422525
 31
0.0
  0
LINE
  5
14C
  8
VIDITELNE
  6
SLD-PLNÁ
 62
     2
 10
-12.2537460396
 20
18.1225652151
 30
0.0
 11
-5.3677353348
 21
27.9568076776
 31
0.0
  0
ARC
  5
14D
  8
VIDITELNE
  6
SLD-PLNÁ
 62
     2
 10
29.5
 20
77.9693703116
 30
0.0
 40
59.12405076914222
 50
236.8788868781
 51
303.1211131219
  0
ARC
  5
14E
  8
VIDITELNE
  6
SLD-PLNÁ
 62
     2
 10
-10.7170583922
 20
138.8921756826
 30
0.0
 40
1.875949230859314
 50
123.4300561717
 51
215.0
  0
LINE
  5
14F
  8
VIDITELNE
  6
SLD-PLNÁ
 62
     2
 10
91.9883956434
 20
36.7188165802
 30
0.0
 11
90.737319763
 21
37.5446910853
 31
0.0
  0
ARC
  5
150
  8
VIDITELNE
  6
SLD-PLNÁ
 62
     2
 10
29.5
 20
77.9693703116
 30
0.0
 40
73.37686299033102
 50
326.5699438283
 51
33.4300561717
  0
LINE
  5
151
  8
VIDITELNE
  6
SLD-PLNÁ
 62
     2
 10
91.9883956434
 20
119.2199240429
 30
0.0
 11
90.737319763
 21
118.3940495378
 31
0.0
  0
ARC
  5
152
  8
VIDITELNE
  6
SLD-PLNÁ
 62
     2
 10
69.7170583922
 20
138.8921756826
 30
0.0
 40
0.3768629903306503
 50
325.0
 51
56.5699438283
  0
LINE
  5
153
  8
VIDITELNE
  6
SLD-PLNÁ
 62
     2
 10
69.9246792263
 20
139.2066900746
 30
0.0
 11
70.7505537313
 21
140.4577659549
 31
0.0
  0
LINE
  5
154
  8
VIDITELNE
  6
SLD-PLNÁ
 62
     2
 10
70.0257664811
 20
138.6760159516
 30
0.0
 11
71.2537460396
 21
137.816175408
 31
0.0
  0
ARC
  5
155
  8
VIDITELNE
  6
SLD-PLNÁ
 62
     2
 10
90.4228053711
 20
118.1864287037
 30
0.0
 40
0.3768629903306468
 50
33.4300561717
 51
125.0
  0
LINE
  5
156
  8
VIDITELNE
  6
SLD-PLNÁ
 62
     2
 10
89.3468050965
 20
119.7231163512
 30
0.0
 11
90.2066456401
 21
118.4951367927
 31
0.0
  0
ARC
  5
157
  8
VIDITELNE
  6
SLD-PLNÁ
 62
     2
 10
80.5885629086
 20
44.6383226242
 30
0.0
 40
0.3768629903306528
 50
146.8788868781
 51
235.0
  0
LINE
  5
158
  8
VIDITELNE
  6
SLD-PLNÁ
 62
     2
 10
80.3724031776
 20
44.3296145353
 30
0.0
 11
79.512562634
 21
43.1016349768
 31
0.0
  0
LINE
  5
159
  8
VIDITELNE
  6
SLD-PLNÁ
 62
     2
 10
80.2729335874
 20
44.8442445636
 30
0.0
 11
79.0174227398
 21
45.6633612024
 31
0.0
  0
ARC
  5
15A
  8
VIDITELNE
  6
SLD-PLNÁ
 62
     2
 10
62.8310476874
 20
129.0579332201
 30
0.0
 40
0.3768629903306561
 50
236.8788868781
 51
325.0
  0
LINE
  5
15B
  8
VIDITELNE
  6
SLD-PLNÁ
 62
     2
 10
63.1397557763
 20
128.8417734891
 30
0.0
 11
64.3677353348
 21
127.9819329455
 31
0.0
  0
LINE
  5
15C
  8
VIDITELNE
  6
SLD-PLNÁ
 62
     2
 10
62.625125748
 20
128.742303899
 30
0.0
 11
61.8060091091
 21
127.4867930514
 31
0.0
  0
ARC
  5
15D
  8
VIDITELNE
  6
SLD-PLNÁ
 62
     2
 10
29.5
 20
77.9693703116
 30
0.0
 40
60.6231370096696
 50
56.8788868781
 51
82.4640906577
  0
LINE
  5
15E
  8
VIDITELNE
  6
SLD-PLNÁ
 62
     2
 10
37.2539738714
 20
136.5827584456
 30
0.0
 11
37.4505753455
 21
138.0688968702
 31
0.0
  0
LINE
  5
15F
  8
VIDITELNE
  6
SLD-PLNÁ
 62
     2
 10
-32.9883956434
 20
119.2199240429
 30
0.0
 11
-31.737319763
 21
118.3940495378
 31
0.0
  0
ARC
  5
160
  8
VIDITELNE
  6
SLD-PLNÁ
 62
     2
 10
29.5
 20
77.9693703116
 30
0.0
 40
73.37686299033061
 50
146.5699438283
 51
213.4300561717
  0
LINE
  5
161
  8
VIDITELNE
  6
SLD-PLNÁ
 62
     2
 10
-32.9883956434
 20
36.7188165802
 30
0.0
 11
-31.737319763
 21
37.5446910853
 31
0.0
  0
ARC
  5
162
  8
VIDITELNE
  6
SLD-PLNÁ
 62
     2
 10
90.4228053711
 20
37.7523119194
 30
0.0
 40
0.3768629903306386
 50
235.0
 51
326.5699438283
  0
LINE
  5
163
  8
VIDITELNE
  6
SLD-PLNÁ
 62
     2
 10
90.2066456401
 20
37.4436038304
 30
0.0
 11
89.3468050964
 21
36.2156242719
 31
0.0
  0
ARC
  5
164
  8
VIDITELNE
  6
SLD-PLNÁ
 62
     2
 10
29.5
 20
77.9693703116
 30
0.0
 40
60.62313700966973
 50
326.8788868781
 51
33.1211131219
  0
LINE
  5
165
  8
VIDITELNE
  6
SLD-PLNÁ
 62
     2
 10
80.2729335874
 20
111.0944960595
 30
0.0
 11
79.0174227398
 21
110.2753794207
 31
0.0
  0
LINE
  5
166
  8
VIDITELNE
  6
SLD-PLNÁ
 62
     2
 10
71.2537460396
 20
18.1225652151
 30
0.0
 11
70.0257664811
 21
17.2627246715
 31
0.0
  0
LINE
  5
167
  8
VIDITELNE
  6
SLD-PLNÁ
 62
     2
 10
70.0257664811
 20
17.2627246715
 30
0.0
 11
63.1397557763
 21
27.096967134
 31
0.0
  0
LINE
  5
168
  8
VIDITELNE
  6
SLD-PLNÁ
 62
     2
 10
64.3677353348
 20
27.9568076776
 30
0.0
 11
63.1397557763
 21
27.096967134
 31
0.0
  0
LINE
  5
169
  8
VIDITELNE
  6
SLD-PLNÁ
 62
     2
 10
90.2066456401
 20
118.4951367927
 30
0.0
 11
80.3724031776
 21
111.6091260879
 31
0.0
  0
LINE
  5
16A
  8
VIDITELNE
  6
SLD-PLNÁ
 62
     2
 10
79.512562634
 20
112.8371056464
 30
0.0
 11
80.3724031776
 21
111.6091260879
 31
0.0
  0
LINE
  5
16B
  8
VIDITELNE
  6
SLD-PLNÁ
 62
     2
 10
63.1397557763
 20
128.8417734891
 30
0.0
 11
70.0257664811
 21
138.6760159516
 31
0.0
  0
ARC
  5
16C
  8
VIDITELNE
  6
SLD-PLNÁ
 62
     2
 10
29.5
 20
77.9693703116
 30
0.0
 40
73.3768629903307
 50
56.5699438283
 51
83.7083738606
  0
LINE
  5
16D
  8
VIDITELNE
  6
SLD-PLNÁ
 62
     2
 10
37.7055834774
 20
152.3943404024
 30
0.0
 11
37.5413000537
 21
150.9042831843
 31
0.0
  0
LINE
  5
16E
  8
VIDITELNE
  6
SLD-PLNÁ
 62
     2
 10
70.7505537313
 20
15.4809746682
 30
0.0
 11
69.9246792263
 21
16.7320505486
 31
0.0
  0
ARC
  5
16F
  8
VIDITELNE
  6
SLD-PLNÁ
 62
     2
 10
69.7170583922
 20
17.0465649405
 30
0.0
 40
0.3768629903306585
 50
303.4300561717
 51
35.0
  0
ARC
  5
170
  8
VIDITELNE
  6
SLD-PLNÁ
 62
     2
 10
80.5885629086
 20
111.3004179989
 30
0.0
 40
0.3768629903306606
 50
125.0
 51
213.1211131219
  0
LINE
  5
171
  8
VIDITELNE
  6
SLD-PLNÁ
 62
     2
 10
80.3724031776
 20
44.3296145353
 30
0.0
 11
90.2066456401
 21
37.4436038304
 31
0.0
  0
ARC
  5
172
  8
VIDITELNE
  6
SLD-PLNÁ
 62
     2
 10
29.5
 20
77.9693703116
 30
0.0
 40
73.37686299033219
 50
236.5699438283
 51
303.4300561717
  0
LINE
  5
173
  8
VIDITELNE
  6
SLD-PLNÁ
 62
     2
 10
-10.9246792263
 20
16.7320505486
 30
0.0
 11
-11.7505537313
 21
15.4809746682
 31
0.0
  0
ARC
  5
174
  8
VIDITELNE
  6
SLD-PLNÁ
 62
     2
 10
-21.5885629086
 20
111.3004179989
 30
0.0
 40
0.3768629903306535
 50
326.8788868781
 51
55.0
  0
LINE
  5
175
  8
VIDITELNE
  6
SLD-PLNÁ
 62
     2
 10
-21.3724031776
 20
111.6091260879
 30
0.0
 11
-20.512562634
 21
112.8371056464
 31
0.0
  0
LINE
  5
176
  8
VIDITELNE
  6
SLD-PLNÁ
 62
     2
 10
-21.2729335874
 20
111.0944960595
 30
0.0
 11
-20.0174227398
 21
110.2753794207
 31
0.0
  0
LINE
  5
177
  8
VIDITELNE
  6
SLD-PLNÁ
 62
     2
 10
21.8768629903
 20
138.4425048425
 30
0.0
 11
21.8768629903
 21
150.5296900463
 31
0.0
  0
LINE
  5
178
  8
VIDITELNE
  6
SLD-PLNÁ
 62
     2
 10
21.8768629903
 20
150.5296900463
 30
0.0
 11
23.3759492309
 21
150.5296900463
 31
0.0
  0
LINE
  5
179
  8
VIDITELNE
  6
SLD-PLNÁ
 62
     2
 10
21.8768629903
 20
138.4425048425
 30
0.0
 11
23.3759492309
 21
138.4425048425
 31
0.0
  0
ARC
  5
17A
  8
VIDITELNE
  6
SLD-PLNÁ
 62
     2
 10
29.5
 20
77.9693703116
 30
0.0
 40
73.37686299033064
 50
96.2916261394
 51
123.4300561717
  0
LINE
  5
17B
  8
VIDITELNE
  6
SLD-PLNÁ
 62
     2
 10
-11.7505537313
 20
140.4577659549
 30
0.0
 11
-10.9246792263
 21
139.2066900746
 31
0.0
  0
LINE
  5
17C
  8
VIDITELNE
  6
SLD-PLNÁ
 62
     2
 10
21.4586999463
 20
150.9042831843
 30
0.0
 11
21.2944165226
 21
152.3943404024
 31
0.0
  0
LINE
  5
17D
  8
VIDITELNE
  6
SLD-PLNÁ
 62
     2
 10
35.6240507691
 20
150.5296900463
 30
0.0
 11
37.1231370097
 21
150.5296900463
 31
0.0
  0
LINE
  5
17E
  8
VIDITELNE
  6
SLD-PLNÁ
 62
     2
 10
37.1231370097
 20
150.5296900463
 30
0.0
 11
37.1231370097
 21
138.4425048425
 31
0.0
  0
LINE
  5
17F
  8
VIDITELNE
  6
SLD-PLNÁ
 62
     2
 10
35.6240507691
 20
138.4425048425
 30
0.0
 11
37.1231370097
 21
138.4425048425
 31
0.0
  0
ARC
  5
180
  8
VIDITELNE
  6
SLD-PLNÁ
 62
     2
 10
21.5
 20
150.5296900463
 30
0.0
 40
0.376862990330654
 50
0.0
 51
96.2916261394
  0
ARC
  5
181
  8
VIDITELNE
  6
SLD-PLNÁ
 62
     2
 10
-21.5885629086
 20
44.6383226242
 30
0.0
 40
0.3768629903306701
 50
305.0
 51
33.1211131219
  0
LINE
  5
182
  8
VIDITELNE
  6
SLD-PLNÁ
 62
     2
 10
-21.2729335874
 20
44.8442445636
 30
0.0
 11
-20.0174227398
 21
45.6633612024
 31
0.0
  0
LINE
  5
183
  8
VIDITELNE
  6
SLD-PLNÁ
 62
     2
 10
-21.3724031776
 20
44.3296145353
 30
0.0
 11
-20.512562634
 21
43.1016349768
 31
0.0
  0
ARC
  5
184
  8
VIDITELNE
  6
SLD-PLNÁ
 62
     2
 10
37.5
 20
138.4425048425
 30
0.0
 40
0.3768629903306742
 50
180.0
 51
262.4640906577
  0
LINE
  5
185
  8
VIDITELNE
  6
SLD-PLNÁ
 62
     2
 10
-12.2537460396
 20
137.816175408
 30
0.0
 11
-11.0257664811
 21
138.6760159516
 31
0.0
  0
LINE
  5
186
  8
VIDITELNE
  6
SLD-PLNÁ
 62
     2
 10
-11.0257664811
 20
138.6760159516
 30
0.0
 11
-4.1397557763
 21
128.8417734891
 31
0.0
  0
LINE
  5
187
  8
VIDITELNE
  6
SLD-PLNÁ
 62
     2
 10
-5.3677353348
 20
127.9819329455
 30
0.0
 11
-4.1397557763
 21
128.8417734891
 31
0.0
  0
ARC
  5
188
  8
VIDITELNE
  6
SLD-PLNÁ
 62
     2
 10
-3.8310476874
 20
129.0579332201
 30
0.0
 40
0.3768629903306693
 50
215.0
 51
303.1211131219
  0
LINE
  5
189
  8
VIDITELNE
  6
SLD-PLNÁ
 62
     2
 10
-2.8060091091
 20
127.4867930514
 30
0.0
 11
-3.625125748
 21
128.742303899
 31
0.0
  0
LINE
  5
18A
  8
VIDITELNE
  6
SLD-PLNÁ
 62
     2
 10
-30.3468050964
 20
119.7231163512
 30
0.0
 11
-31.2066456401
 21
118.4951367927
 31
0.0
  0
ARC
  5
18B
  8
VIDITELNE
  6
SLD-PLNÁ
 62
     2
 10
-31.4228053711
 20
118.1864287037
 30
0.0
 40
0.3768629903306681
 50
55.0
 51
146.5699438283
  0
ARC
  5
18C
  8
VIDITELNE
  6
SLD-PLNÁ
 62
     2
 10
37.5
 20
150.5296900463
 30
0.0
 40
0.3768629903306575
 50
83.7083738606
 51
180.0
  0
LINE
  5
18D
  8
VIDITELNE
  6
SLD-PLNÁ
 62
     2
 10
-31.2066456401
 20
37.4436038304
 30
0.0
 11
-21.3724031776
 21
44.3296145353
 31
0.0
  0
LINE
  5
18E
  8
VIDITELNE
  6
SLD-PLNÁ
 62
     2
 10
-30.3468050964
 20
36.2156242719
 30
0.0
 11
-31.2066456401
 21
37.4436038304
 31
0.0
  0
ARC
  5
18F
  8
VIDITELNE
  6
SLD-PLNÁ
 62
     2
 10
-31.4228053711
 20
37.7523119194
 30
0.0
 40
0.3768629903306447
 50
213.4300561717
 51
305.0
  0
ARC
  5
190
  8
VIDITELNE
  6
SLD-PLNÁ
 62
     2
 10
29.5
 20
77.9693703116
 30
0.0
 40
60.62313700966933
 50
146.8788868781
 51
213.1211131219
  0
ARC
  5
191
  8
VIDITELNE
  6
SLD-PLNÁ
 62
     2
 10
21.5
 20
138.4425048425
 30
0.0
 40
0.3768629903306737
 50
277.5359093423
 51
0.0
  0
LINE
  5
192
  8
VIDITELNE
  6
SLD-PLNÁ
 62
     2
 10
21.5494246545
 20
138.0688968702
 30
0.0
 11
21.7460261286
 21
136.5827584456
 31
0.0
  0
LINE
  5
193
  8
VIDITELNE
  6
SLD-PLNÁ
 62
     2
 10
-21.3724031776
 20
111.6091260879
 30
0.0
 11
-31.2066456401
 21
118.4951367927
 31
0.0
  0
ARC
  5
194
  8
VIDITELNE
  6
SLD-PLNÁ
 62
     2
 10
29.5
 20
77.9693703116
 30
0.0
 40
60.62313700966933
 50
97.5359093423
 51
123.1211131219
  0
ARC
  5
195
  8
VIDITELNE
  6
SLD-PLNÁ
 62
     2
 10
29.5
 20
77.9693703116
 30
0.0
 40
60.62313700967086
 50
236.8788868781
 51
303.1211131219
  0
LINE
  5
196
  8
VIDITELNE
  6
SLD-PLNÁ
 62
     2
 10
-3.625125748
 20
27.1964367241
 30
0.0
 11
-2.8060091091
 21
28.4519475717
 31
0.0
  0
LINE
  5
197
  8
VIDITELNE
  6
SLD-PLNÁ
 62
     2
 10
61.8060091091
 20
28.4519475717
 30
0.0
 11
62.625125748
 21
27.1964367241
 31
0.0
  0
ARC
  5
198
  8
VIDITELNE
  6
SLD-PLNÁ
 62
     2
 10
62.8310476874
 20
26.880807403
 30
0.0
 40
0.3768629903306565
 50
35.0
 51
123.1211131219
  0
ARC
  5
199
  8
VIDITELNE
  6
SLD-PLNÁ
 62
     2
 10
-3.8310476874
 20
26.880807403
 30
0.0
 40
0.3768629903306679
 50
56.8788868781
 51
145.0
  0
LINE
  5
19A
  8
VIDITELNE
  6
SLD-PLNÁ
 62
     2
 10
-4.1397557763
 20
27.096967134
 30
0.0
 11
-5.3677353348
 21
27.9568076776
 31
0.0
  0
LINE
  5
19B
  8
VIDITELNE
  6
SLD-PLNÁ
 62
     2
 10
-4.1397557763
 20
27.096967134
 30
0.0
 11
-11.0257664811
 21
17.2627246715
 31
0.0
  0
LINE
  5
19C
  8
VIDITELNE
  6
SLD-PLNÁ
 62
     2
 10
-11.0257664811
 20
17.2627246715
 30
0.0
 11
-12.2537460396
 21
18.1225652151
 31
0.0
  0
ARC
  5
19D
  8
VIDITELNE
  6
SLD-PLNÁ
 62
     2
 10
-10.7170583922
 20
17.0465649405
 30
0.0
 40
0.3768629903306582
 50
145.0
 51
236.5699438283
  0
ARC
  5
19E
  8
VIDITELNE
  6
SLD-PLNÁ
 62
     2
 10
-10.7170583922
 20
138.8921756826
 30
0.0
 40
0.3768629903306371
 50
123.4300561717
 51
215.0
  0
CIRCLE
  5
19F
  8
VIDITELNE
  6
SLD-PLNÁ
 62
     2
 10
29.5
 20
77.9693703116
 30
0.0
 40
32.49999999999999
  0
ARC
  5
1A0
  8
VIDITELNE
  6
SLD-PLNÁ
 62
     2
 10
29.5
 20
30.9693703116
 30
0.0
 40
8.999999999999993
 50
299.6811667076
 51
240.3188332924
  0
ARC
  5
1A1
  8
VIDITELNE
  6
SLD-PLNÁ
 62
     2
 10
70.2031939779
 20
101.4693703116
 30
0.0
 40
8.999999999999991
 50
59.6811667076
 51
0.3188332924
  0
ARC
  5
1A2
  8
VIDITELNE
  6
SLD-PLNÁ
 62
     2
 10
70.2031939779
 20
54.4693703116
 30
0.0
 40
9.000000000000005
 50
359.6811667076
 51
300.3188332924
  0
ARC
  5
1A3
  8
VIDITELNE
  6
SLD-PLNÁ
 62
     2
 10
29.5
 20
124.9693703116
 30
0.0
 40
9.000000000000234
 50
119.6811667076
 51
60.3188332924
  0
ARC
  5
1A4
  8
VIDITELNE
  6
SLD-PLNÁ
 62
     2
 10
-11.2031939779
 20
101.4693703116
 30
0.0
 40
9.000000000000009
 50
179.6811667076
 51
120.3188332924
  0
ARC
  5
1A5
  8
VIDITELNE
  6
SLD-PLNÁ
 62
     2
 10
-11.2031939779
 20
54.4693703116
 30
0.0
 40
9.000000000000004
 50
239.6811667076
 51
180.3188332924
  0
CIRCLE
  5
1A6
  8
VIDITELNE
  6
SLD-PLNÁ
 62
     2
 10
29.5
 20
77.9693703116
 30
0.0
 40
30.99999999999999
  0
ARC
  5
1A7
  8
VIDITELNE
  6
SLD-PLNÁ
 62
     2
 10
-11.2031939779
 20
54.4693703116
 30
0.0
 40
3.464101615137597
 50
240.0
 51
300.0
  0
LINE
  5
1A8
  8
VIDITELNE
  6
SLD-PLNÁ
 62
     2
 10
-9.4711431703
 20
51.4693703116
 30
0.0
 11
-12.9352447854
 21
51.4693703116
 31
0.0
  0
ARC
  5
1A9
  8
VIDITELNE
  6
SLD-PLNÁ
 62
     2
 10
-11.2031939779
 20
54.4693703116
 30
0.0
 40
3.464101615141375
 50
60.0
 51
120.0
  0
LINE
  5
1AA
  8
VIDITELNE
  6
SLD-PLNÁ
 62
     2
 10
-12.9352447854
 20
57.4693703116
 30
0.0
 11
-9.4711431703
 21
57.4693703116
 31
0.0
  0
ARC
  5
1AB
  8
VIDITELNE
  6
SLD-PLNÁ
 62
     2
 10
-11.2031939779
 20
54.4693703116
 30
0.0
 40
3.464101615141375
 50
120.0
 51
180.0
  0
LINE
  5
1AC
  8
VIDITELNE
  6
SLD-PLNÁ
 62
     2
 10
-14.667295593
 20
54.4693703116
 30
0.0
 11
-12.9352447854
 21
57.4693703116
 31
0.0
  0
ARC
  5
1AD
  8
VIDITELNE
  6
SLD-PLNÁ
 62
     2
 10
-11.2031939779
 20
54.4693703116
 30
0.0
 40
3.464101615136785
 50
300.0
 51
0.0
  0
LINE
  5
1AE
  8
VIDITELNE
  6
SLD-PLNÁ
 62
     2
 10
-7.7390923627
 20
54.4693703116
 30
0.0
 11
-9.4711431703
 21
51.4693703116
 31
0.0
  0
ARC
  5
1AF
  8
VIDITELNE
  6
SLD-PLNÁ
 62
     2
 10
-11.2031939779
 20
54.4693703116
 30
0.0
 40
3.464101615138549
 50
180.0
 51
240.0
  0
LINE
  5
1B0
  8
VIDITELNE
  6
SLD-PLNÁ
 62
     2
 10
-12.9352447854
 20
51.4693703116
 30
0.0
 11
-14.667295593
 21
54.4693703116
 31
0.0
  0
ARC
  5
1B1
  8
VIDITELNE
  6
SLD-PLNÁ
 62
     2
 10
-11.2031939779
 20
54.4693703116
 30
0.0
 40
3.464101615139439
 50
0.0
 51
60.0
  0
LINE
  5
1B2
  8
VIDITELNE
  6
SLD-PLNÁ
 62
     2
 10
-9.4711431703
 20
57.4693703116
 30
0.0
 11
-7.7390923627
 21
54.4693703116
 31
0.0
  0
CIRCLE
  5
1B3
  8
VIDITELNE
  6
SLD-PLNÁ
 62
     2
 10
-11.2031939779
 20
54.4693703116
 30
0.0
 40
5.700000000000407
  0
CIRCLE
  5
1B4
  8
VIDITELNE
  6
SLD-PLNÁ
 62
     2
 10
-11.2031939779
 20
54.4693703116
 30
0.0
 40
6.500000000000465
  0
ARC
  5
1B5
  8
VIDITELNE
  6
SLD-PLNÁ
 62
     2
 10
29.5
 20
124.9693703116
 30
0.0
 40
3.464101615137594
 50
120.0
 51
180.0
  0
LINE
  5
1B6
  8
VIDITELNE
  6
SLD-PLNÁ
 62
     2
 10
26.0358983849
 20
124.9693703116
 30
0.0
 11
27.7679491924
 21
127.9693703116
 31
0.0
  0
ARC
  5
1B7
  8
VIDITELNE
  6
SLD-PLNÁ
 62
     2
 10
29.5
 20
124.9693703116
 30
0.0
 40
3.464101615141381
 50
300.0
 51
360.0
  0
LINE
  5
1B8
  8
VIDITELNE
  6
SLD-PLNÁ
 62
     2
 10
32.9641016151
 20
124.9693703116
 30
0.0
 11
31.2320508076
 21
121.9693703116
 31
0.0
  0
ARC
  5
1B9
  8
VIDITELNE
  6
SLD-PLNÁ
 62
     2
 10
29.5
 20
124.9693703116
 30
0.0
 40
3.464101615141381
 50
360.0
 51
60.0
  0
LINE
  5
1BA
  8
VIDITELNE
  6
SLD-PLNÁ
 62
     2
 10
31.2320508076
 20
127.9693703116
 30
0.0
 11
32.9641016151
 21
124.9693703116
 31
0.0
  0
ARC
  5
1BB
  8
VIDITELNE
  6
SLD-PLNÁ
 62
     2
 10
29.5
 20
124.9693703116
 30
0.0
 40
3.464101615136799
 50
180.0
 51
240.0
  0
LINE
  5
1BC
  8
VIDITELNE
  6
SLD-PLNÁ
 62
     2
 10
27.7679491924
 20
121.9693703116
 30
0.0
 11
26.0358983849
 21
124.9693703116
 31
0.0
  0
ARC
  5
1BD
  8
VIDITELNE
  6
SLD-PLNÁ
 62
     2
 10
29.5
 20
124.9693703116
 30
0.0
 40
3.464101615138545
 50
60.0
 51
120.0
  0
LINE
  5
1BE
  8
VIDITELNE
  6
SLD-PLNÁ
 62
     2
 10
27.7679491924
 20
127.9693703116
 30
0.0
 11
31.2320508076
 21
127.9693703116
 31
0.0
  0
ARC
  5
1BF
  8
VIDITELNE
  6
SLD-PLNÁ
 62
     2
 10
29.5
 20
124.9693703116
 30
0.0
 40
3.46410161513944
 50
240.0
 51
300.0
  0
LINE
  5
1C0
  8
VIDITELNE
  6
SLD-PLNÁ
 62
     2
 10
31.2320508076
 20
121.9693703116
 30
0.0
 11
27.7679491924
 21
121.9693703116
 31
0.0
  0
CIRCLE
  5
1C1
  8
VIDITELNE
  6
SLD-PLNÁ
 62
     2
 10
29.5
 20
124.9693703116
 30
0.0
 40
5.700000000000415
  0
CIRCLE
  5
1C2
  8
VIDITELNE
  6
SLD-PLNÁ
 62
     2
 10
29.5
 20
124.9693703116
 30
0.0
 40
6.500000000000469
  0
ARC
  5
1C3
  8
VIDITELNE
  6
SLD-PLNÁ
 62
     2
 10
70.2031939779
 20
101.4693703116
 30
0.0
 40
3.464101615137608
 50
60.0
 51
120.0
  0
LINE
  5
1C4
  8
VIDITELNE
  6
SLD-PLNÁ
 62
     2
 10
68.4711431703
 20
104.4693703116
 30
0.0
 11
71.9352447854
 21
104.4693703116
 31
0.0
  0
ARC
  5
1C5
  8
VIDITELNE
  6
SLD-PLNÁ
 62
     2
 10
70.2031939779
 20
101.4693703116
 30
0.0
 40
3.464101615141383
 50
300.0
 51
360.0
  0
LINE
  5
1C6
  8
VIDITELNE
  6
SLD-PLNÁ
 62
     2
 10
73.667295593
 20
101.4693703116
 30
0.0
 11
71.9352447854
 21
98.4693703116
 31
0.0
  0
ARC
  5
1C7
  8
VIDITELNE
  6
SLD-PLNÁ
 62
     2
 10
70.2031939779
 20
101.4693703116
 30
0.0
 40
3.464101615141383
 50
240.0
 51
300.0
  0
LINE
  5
1C8
  8
VIDITELNE
  6
SLD-PLNÁ
 62
     2
 10
71.9352447854
 20
98.4693703116
 30
0.0
 11
68.4711431703
 21
98.4693703116
 31
0.0
  0
ARC
  5
1C9
  8
VIDITELNE
  6
SLD-PLNÁ
 62
     2
 10
70.2031939779
 20
101.4693703116
 30
0.0
 40
3.464101615136798
 50
120.0
 51
180.0
  0
LINE
  5
1CA
  8
VIDITELNE
  6
SLD-PLNÁ
 62
     2
 10
66.7390923627
 20
101.4693703116
 30
0.0
 11
68.4711431703
 21
104.4693703116
 31
0.0
  0
ARC
  5
1CB
  8
VIDITELNE
  6
SLD-PLNÁ
 62
     2
 10
70.2031939779
 20
101.4693703116
 30
0.0
 40
3.464101615138546
 50
360.0
 51
60.0
  0
LINE
  5
1CC
  8
VIDITELNE
  6
SLD-PLNÁ
 62
     2
 10
71.9352447854
 20
104.4693703116
 30
0.0
 11
73.667295593
 21
101.4693703116
 31
0.0
  0
ARC
  5
1CD
  8
VIDITELNE
  6
SLD-PLNÁ
 62
     2
 10
70.2031939779
 20
101.4693703116
 30
0.0
 40
3.464101615139439
 50
180.0
 51
240.0
  0
LINE
  5
1CE
  8
VIDITELNE
  6
SLD-PLNÁ
 62
     2
 10
68.4711431703
 20
98.4693703116
 30
0.0
 11
66.7390923627
 21
101.4693703116
 31
0.0
  0
CIRCLE
  5
1CF
  8
VIDITELNE
  6
SLD-PLNÁ
 62
     2
 10
70.2031939779
 20
101.4693703116
 30
0.0
 40
5.7000000000004
  0
CIRCLE
  5
1D0
  8
VIDITELNE
  6
SLD-PLNÁ
 62
     2
 10
70.2031939779
 20
101.4693703116
 30
0.0
 40
6.500000000000468
  0
ARC
  5
1D1
  8
VIDITELNE
  6
SLD-PLNÁ
 62
     2
 10
70.2031939779
 20
54.4693703116
 30
0.0
 40
3.464101615137594
 50
360.0
 51
60.0
  0
LINE
  5
1D2
  8
VIDITELNE
  6
SLD-PLNÁ
 62
     2
 10
71.9352447854
 20
57.4693703116
 30
0.0
 11
73.667295593
 21
54.4693703116
 31
0.0
  0
ARC
  5
1D3
  8
VIDITELNE
  6
SLD-PLNÁ
 62
     2
 10
70.2031939779
 20
54.4693703116
 30
0.0
 40
3.464101615141382
 50
180.0
 51
240.0
  0
LINE
  5
1D4
  8
VIDITELNE
  6
SLD-PLNÁ
 62
     2
 10
68.4711431703
 20
51.4693703116
 30
0.0
 11
66.7390923627
 21
54.4693703116
 31
0.0
  0
ARC
  5
1D5
  8
VIDITELNE
  6
SLD-PLNÁ
 62
     2
 10
70.2031939779
 20
54.4693703116
 30
0.0
 40
3.464101615141382
 50
240.0
 51
300.0
  0
LINE
  5
1D6
  8
VIDITELNE
  6
SLD-PLNÁ
 62
     2
 10
71.9352447854
 20
51.4693703116
 30
0.0
 11
68.4711431703
 21
51.4693703116
 31
0.0
  0
ARC
  5
1D7
  8
VIDITELNE
  6
SLD-PLNÁ
 62
     2
 10
70.2031939779
 20
54.4693703116
 30
0.0
 40
3.464101615136792
 50
60.0
 51
120.0
  0
LINE
  5
1D8
  8
VIDITELNE
  6
SLD-PLNÁ
 62
     2
 10
68.4711431703
 20
57.4693703116
 30
0.0
 11
71.9352447854
 21
57.4693703116
 31
0.0
  0
ARC
  5
1D9
  8
VIDITELNE
  6
SLD-PLNÁ
 62
     2
 10
70.2031939779
 20
54.4693703116
 30
0.0
 40
3.464101615138543
 50
300.0
 51
360.0
  0
LINE
  5
1DA
  8
VIDITELNE
  6
SLD-PLNÁ
 62
     2
 10
73.667295593
 20
54.4693703116
 30
0.0
 11
71.9352447854
 21
51.4693703116
 31
0.0
  0
ARC
  5
1DB
  8
VIDITELNE
  6
SLD-PLNÁ
 62
     2
 10
70.2031939779
 20
54.4693703116
 30
0.0
 40
3.464101615139441
 50
120.0
 51
180.0
  0
LINE
  5
1DC
  8
VIDITELNE
  6
SLD-PLNÁ
 62
     2
 10
66.7390923627
 20
54.4693703116
 30
0.0
 11
68.4711431703
 21
57.4693703116
 31
0.0
  0
CIRCLE
  5
1DD
  8
VIDITELNE
  6
SLD-PLNÁ
 62
     2
 10
70.2031939779
 20
54.4693703116
 30
0.0
 40
5.700000000000409
  0
CIRCLE
  5
1DE
  8
VIDITELNE
  6
SLD-PLNÁ
 62
     2
 10
70.2031939779
 20
54.4693703116
 30
0.0
 40
6.500000000000471
  0
ARC
  5
1DF
  8
VIDITELNE
  6
SLD-PLNÁ
 62
     2
 10
29.5
 20
30.9693703116
 30
0.0
 40
3.464101615137597
 50
300.0
 51
0.0
  0
LINE
  5
1E0
  8
VIDITELNE
  6
SLD-PLNÁ
 62
     2
 10
32.9641016151
 20
30.9693703116
 30
0.0
 11
31.2320508076
 21
27.9693703116
 31
0.0
  0
ARC
  5
1E1
  8
VIDITELNE
  6
SLD-PLNÁ
 62
     2
 10
29.5
 20
30.9693703116
 30
0.0
 40
3.464101615141381
 50
180.0
 51
240.0
  0
LINE
  5
1E2
  8
VIDITELNE
  6
SLD-PLNÁ
 62
     2
 10
27.7679491924
 20
27.9693703116
 30
0.0
 11
26.0358983849
 21
30.9693703116
 31
0.0
  0
ARC
  5
1E3
  8
VIDITELNE
  6
SLD-PLNÁ
 62
     2
 10
29.5
 20
30.9693703116
 30
0.0
 40
3.464101615141381
 50
120.0
 51
180.0
  0
LINE
  5
1E4
  8
VIDITELNE
  6
SLD-PLNÁ
 62
     2
 10
26.0358983849
 20
30.9693703116
 30
0.0
 11
27.7679491924
 21
33.9693703116
 31
0.0
  0
ARC
  5
1E5
  8
VIDITELNE
  6
SLD-PLNÁ
 62
     2
 10
29.5
 20
30.9693703116
 30
0.0
 40
3.464101615136788
 50
0.0
 51
60.0
  0
LINE
  5
1E6
  8
VIDITELNE
  6
SLD-PLNÁ
 62
     2
 10
31.2320508076
 20
33.9693703116
 30
0.0
 11
32.9641016151
 21
30.9693703116
 31
0.0
  0
ARC
  5
1E7
  8
VIDITELNE
  6
SLD-PLNÁ
 62
     2
 10
29.5
 20
30.9693703116
 30
0.0
 40
3.464101615138549
 50
240.0
 51
300.0
  0
LINE
  5
1E8
  8
VIDITELNE
  6
SLD-PLNÁ
 62
     2
 10
31.2320508076
 20
27.9693703116
 30
0.0
 11
27.7679491924
 21
27.9693703116
 31
0.0
  0
ARC
  5
1E9
  8
VIDITELNE
  6
SLD-PLNÁ
 62
     2
 10
29.5
 20
30.9693703116
 30
0.0
 40
3.46410161513944
 50
60.0
 51
120.0
  0
LINE
  5
1EA
  8
VIDITELNE
  6
SLD-PLNÁ
 62
     2
 10
27.7679491924
 20
33.9693703116
 30
0.0
 11
31.2320508076
 21
33.9693703116
 31
0.0
  0
CIRCLE
  5
1EB
  8
VIDITELNE
  6
SLD-PLNÁ
 62
     2
 10
29.5
 20
30.9693703116
 30
0.0
 40
5.700000000000415
  0
CIRCLE
  5
1EC
  8
VIDITELNE
  6
SLD-PLNÁ
 62
     2
 10
29.5
 20
30.9693703116
 30
0.0
 40
6.500000000000473
  0
ARC
  5
1ED
  8
VIDITELNE
  6
SLD-PLNÁ
 62
     2
 10
-11.2031939779
 20
101.4693703116
 30
0.0
 40
3.464101615137592
 50
180.0
 51
240.0
  0
LINE
  5
1EE
  8
VIDITELNE
  6
SLD-PLNÁ
 62
     2
 10
-12.9352447854
 20
98.4693703116
 30
0.0
 11
-14.667295593
 21
101.4693703116
 31
0.0
  0
ARC
  5
1EF
  8
VIDITELNE
  6
SLD-PLNÁ
 62
     2
 10
-11.2031939779
 20
101.4693703116
 30
0.0
 40
3.464101615141386
 50
0.0
 51
60.0
  0
LINE
  5
1F0
  8
VIDITELNE
  6
SLD-PLNÁ
 62
     2
 10
-9.4711431703
 20
104.4693703116
 30
0.0
 11
-7.7390923627
 21
101.4693703116
 31
0.0
  0
ARC
  5
1F1
  8
VIDITELNE
  6
SLD-PLNÁ
 62
     2
 10
-11.2031939779
 20
101.4693703116
 30
0.0
 40
3.464101615141386
 50
60.0
 51
120.0
  0
LINE
  5
1F2
  8
VIDITELNE
  6
SLD-PLNÁ
 62
     2
 10
-12.9352447854
 20
104.4693703116
 30
0.0
 11
-9.4711431703
 21
104.4693703116
 31
0.0
  0
ARC
  5
1F3
  8
VIDITELNE
  6
SLD-PLNÁ
 62
     2
 10
-11.2031939779
 20
101.4693703116
 30
0.0
 40
3.464101615136773
 50
240.0
 51
300.0
  0
LINE
  5
1F4
  8
VIDITELNE
  6
SLD-PLNÁ
 62
     2
 10
-9.4711431703
 20
98.4693703116
 30
0.0
 11
-12.9352447854
 21
98.4693703116
 31
0.0
  0
ARC
  5
1F5
  8
VIDITELNE
  6
SLD-PLNÁ
 62
     2
 10
-11.2031939779
 20
101.4693703116
 30
0.0
 40
3.464101615138552
 50
120.0
 51
180.0
  0
LINE
  5
1F6
  8
VIDITELNE
  6
SLD-PLNÁ
 62
     2
 10
-14.667295593
 20
101.4693703116
 30
0.0
 11
-12.9352447854
 21
104.4693703116
 31
0.0
  0
ARC
  5
1F7
  8
VIDITELNE
  6
SLD-PLNÁ
 62
     2
 10
-11.2031939779
 20
101.4693703116
 30
0.0
 40
3.464101615139436
 50
300.0
 51
0.0
  0
LINE
  5
1F8
  8
VIDITELNE
  6
SLD-PLNÁ
 62
     2
 10
-7.7390923627
 20
101.4693703116
 30
0.0
 11
-9.4711431703
 21
98.4693703116
 31
0.0
  0
CIRCLE
  5
1F9
  8
VIDITELNE
  6
SLD-PLNÁ
 62
     2
 10
-11.2031939779
 20
101.4693703116
 30
0.0
 40
5.700000000000417
  0
CIRCLE
  5
1FA
  8
VIDITELNE
  6
SLD-PLNÁ
 62
     2
 10
-11.2031939779
 20
101.4693703116
 30
0.0
 40
6.500000000000458
  0
LINE
  5
1FB
  8
VIDITELNE
  6
SLD-PLNÁ
 62
     2
 10
98.5
 20
37.4848053516
 30
0.0
 11
98.5
 21
-166.646501224
 31
0.0
  0
LINE
  5
1FC
  8
VIDITELNE
  6
SLD-PLNÁ
 62
     2
 10
108.5
 20
-35.0306296884
 30
0.0
 11
108.5
 21
-49.0306296884
 31
0.0
  0
LINE
  5
1FD
  8
VIDITELNE
  6
SLD-PLNÁ
 62
     2
 10
110.0
 20
-2.0124257526
 30
0.0
 11
98.5
 21
8.3271664471
 31
0.0
  0
LINE
  5
1FE
  8
VIDITELNE
  6
SLD-PLNÁ
 62
     2
 10
110.0
 20
-2.0124257526
 30
0.0
 11
110.0
 21
-9.4034620127
 31
0.0
  0
LINE
  5
1FF
  8
VIDITELNE
  6
SLD-PLNÁ
 62
     2
 10
98.5
 20
0.936130187
 30
0.0
 11
110.0
 21
-9.4034620127
 31
0.0
  0
LINE
  5
200
  8
VIDITELNE
  6
SLD-PLNÁ
 62
     2
 10
110.0
 20
-9.4034620127
 30
0.0
 11
98.5
 21
-6.8605168497
 31
0.0
  0
LINE
  5
201
  8
VIDITELNE
  6
SLD-PLNÁ
 62
     2
 10
110.0
 20
-74.6577973642
 30
0.0
 11
98.5
 21
-84.9973895639
 31
0.0
  0
LINE
  5
202
  8
VIDITELNE
  6
SLD-PLNÁ
 62
     2
 10
110.0
 20
-74.6577973642
 30
0.0
 11
110.0
 21
-82.0488336243
 31
0.0
  0
LINE
  5
203
  8
VIDITELNE
  6
SLD-PLNÁ
 62
     2
 10
98.5
 20
-92.3884258239
 30
0.0
 11
110.0
 21
-82.0488336243
 31
0.0
  0
LINE
  5
204
  8
VIDITELNE
  6
SLD-PLNÁ
 62
     2
 10
98.5
 20
-77.2007425272
 30
0.0
 11
110.0
 21
-74.6577973642
 31
0.0
  0
LINE
  5
205
  8
VIDITELNE
  6
SLD-PLNÁ
 62
     2
 10
110.0
 20
-9.4034620127
 30
0.0
 11
110.0
 21
-74.6577973642
 31
0.0
  0
LINE
  5
206
  8
VIDITELNE
  6
SLD-PLNÁ
 62
     2
 10
110.0
 20
44.1293572762
 30
0.0
 11
108.5
 21
44.9301241503
 31
0.0
  0
LINE
  5
207
  8
VIDITELNE
  6
SLD-PLNÁ
 62
     2
 10
104.0857452259
 20
47.286650148
 30
0.0
 11
103.36060408
 21
47.6737628204
 31
0.0
  0
LINE
  5
208
  8
VIDITELNE
  6
SLD-PLNÁ
 62
     2
 10
110.0
 20
44.1293572762
 30
0.0
 11
110.0
 21
-2.0124257526
 31
0.0
  0
LINE
  5
209
  8
VIDITELNE
  6
SLD-PLNÁ
 62
     2
 10
98.5
 20
-134.329829354
 30
0.0
 11
104.0857452259
 21
-131.3479095249
 31
0.0
  0
LINE
  5
20A
  8
VIDITELNE
  6
SLD-PLNÁ
 62
     2
 10
108.5
 20
-128.9913835271
 30
0.0
 11
110.0
 21
-128.1906166531
 31
0.0
  0
LINE
  5
20B
  8
VIDITELNE
  6
SLD-PLNÁ
 62
     2
 10
110.0
 20
-82.0488336243
 30
0.0
 11
110.0
 21
-128.1906166531
 31
0.0
  0
LINE
  5
20C
  8
VIDITELNE
  6
SLD-PLNÁ
 62
     2
 10
108.5
 20
46.286650148
 30
0.0
 11
108.5
 21
32.286650148
 31
0.0
  0
LINE
  5
20D
  8
VIDITELNE
  6
SLD-PLNÁ
 62
     2
 10
108.5
 20
-116.3479095249
 30
0.0
 11
108.5
 21
-130.3479095249
 31
0.0
  0
LINE
  5
20E
  8
VIDITELNE
  6
SLD-PLNÁ
 62
     2
 10
113.5
 20
22.9693703116
 30
0.0
 11
113.5
 21
-107.0306296884
 31
0.0
  0
LINE
  5
20F
  8
VIDITELNE
  6
SLD-PLNÁ
 62
     2
 10
110.0
 20
-128.1906166531
 30
0.0
 11
98.5
 21
-153.152600371
 31
0.0
  0
LINE
  5
210
  8
VIDITELNE
  6
SLD-PLNÁ
 62
     2
 10
98.5
 20
-156.2140678299
 30
0.0
 11
110.0
 21
-131.252084112
 31
0.0
  0
LINE
  5
211
  8
VIDITELNE
  6
SLD-PLNÁ
 62
     2
 10
110.0
 20
-128.1906166531
 30
0.0
 11
110.0
 21
-131.252084112
 31
0.0
  0
LINE
  5
212
  8
VIDITELNE
  6
SLD-PLNÁ
 62
     2
 10
105.6017799017
 20
53.6761658399
 30
0.0
 11
110.0
 21
44.1293572762
 31
0.0
  0
LINE
  5
213
  8
VIDITELNE
  6
SLD-PLNÁ
 62
     2
 10
110.0
 20
47.1908247351
 30
0.0
 11
106.1314985359
 21
55.587822175
 31
0.0
  0
LINE
  5
214
  8
VIDITELNE
  6
SLD-PLNÁ
 62
     2
 10
110.0
 20
47.1908247351
 30
0.0
 11
110.0
 21
44.1293572762
 31
0.0
  0
LINE
  5
215
  8
VIDITELNE
  6
SLD-PLNÁ
 62
     2
 10
110.0
 20
-131.252084112
 30
0.0
 11
110.0
 21
-137.0306296884
 31
0.0
  0
LINE
  5
216
  8
VIDITELNE
  6
SLD-PLNÁ
 62
     2
 10
110.0
 20
52.9693703116
 30
0.0
 11
110.0
 21
47.1908247351
 31
0.0
  0
LINE
  5
217
  8
VIDITELNE
  6
SLD-PLNÁ
 62
     2
 10
108.5
 20
-150.0306296884
 30
0.0
 11
108.5
 21
-164.0306296884
 31
0.0
  0
ARC
  5
218
  8
VIDITELNE
  6
SLD-PLNÁ
 62
     2
 10
29.5
 20
169.9693703116
 30
0.0
 40
3.999999999999875
 50
90.0
 51
132.3271812589
  0
ARC
  5
219
  8
VIDITELNE
  6
SLD-PLNÁ
 62
     2
 10
29.5
 20
169.9693703116
 30
0.0
 40
3.999999999999868
 50
49.6226293364
 51
90.0
  0
LINE
  5
21A
  8
VIDITELNE
  6
SLD-PLNÁ
 62
     2
 10
-23.5
 20
18.0444172453
 30
0.0
 11
-23.5
 21
-42.0306296884
 31
0.0
  0
LINE
  5
21B
  8
VIDITELNE
  6
SLD-PLNÁ
 62
     2
 10
82.5
 20
-42.0306296884
 30
0.0
 11
82.5
 21
18.0444172453
 31
0.0
  0
LINE
  5
21C
  8
VIDITELNE
  6
SLD-PLNÁ
 62
     2
 10
-27.5
 20
-10.9058495687
 30
0.0
 11
-27.5
 21
21.8356015088
 31
0.0
  0
LINE
  5
21D
  8
VIDITELNE
  6
SLD-PLNÁ
 62
     2
 10
86.5
 20
21.8356015088
 30
0.0
 11
86.5
 21
-10.9058495687
 31
0.0
  0
ARC
  5
21E
  8
VIDITELNE
  6
SLD-PLNÁ
 62
     2
 10
29.4142184456
 20
-296.2122464906
 30
0.0
 40
130.3065842298869
 50
82.4873545902
 51
89.9622818646
  0
ARC
  5
21F
  8
VIDITELNE
  6
SLD-PLNÁ
 62
     2
 10
29.588584611
 20
-296.2581440699
 30
0.0
 40
130.3524836740708
 50
90.0389369238
 51
97.5326349277
  0
ARC
  5
220
  8
VIDITELNE
  6
SLD-PLNÁ
 62
     2
 10
29.5952242967
 20
-268.1393794309
 30
0.0
 40
100.2517331865726
 50
90.0544225118
 51
98.6598773165
  0
ARC
  5
221
  8
VIDITELNE
  6
SLD-PLNÁ
 62
     2
 10
29.4086575518
 20
-268.0983319453
 30
0.0
 40
100.2106821059916
 50
81.3652800821
 51
89.9477746545
  0
LINE
  5
222
  8
VIDITELNE
  6
SLD-PLNÁ
 62
     2
 10
19.0
 20
-173.0306296884
 30
0.0
 11
40.0
 21
-173.0306296884
 31
0.0
  0
LINE
  5
223
  8
VIDITELNE
  6
SLD-PLNÁ
 62
     2
 10
-102.5
 20
-167.0306296884
 30
0.0
 11
-102.5
 21
82.9693703116
 31
0.0
  0
LINE
  5
224
  8
VIDITELNE
  6
SLD-PLNÁ
 62
     2
 10
-37.5697989934
 20
-166.6920393535
 30
0.0
 11
-37.5892079691
 21
-166.7106252188
 31
0.0
  0
LINE
  5
225
  8
VIDITELNE
  6
SLD-PLNÁ
 62
     2
 10
-37.5697989934
 20
34.3615491898
 30
0.0
 11
-37.5697989934
 21
-39.6956426152
 31
0.0
  0
LINE
  5
226
  8
VIDITELNE
  6
SLD-PLNÁ
 62
     2
 10
-48.5
 20
-34.0306296884
 30
0.0
 11
-48.5
 21
-50.0306296884
 31
0.0
  0
LINE
  5
227
  8
VIDITELNE
  6
SLD-PLNÁ
 62
     2
 10
-99.6471528727
 20
46.8794641614
 30
0.0
 11
-99.6471528727
 21
-130.9407235383
 31
0.0
  0
LINE
  5
228
  8
VIDITELNE
  6
SLD-PLNÁ
 62
     2
 10
-48.5
 20
-115.3479095249
 30
0.0
 11
-48.5
 21
-131.3479095249
 31
0.0
  0
LINE
  5
229
  8
VIDITELNE
  6
SLD-PLNÁ
 62
     2
 10
-48.5
 20
47.286650148
 30
0.0
 11
-48.5
 21
31.286650148
 31
0.0
  0
LINE
  5
22A
  8
VIDITELNE
  6
SLD-PLNÁ
 62
     2
 10
-66.7913882374
 20
23.8736100901
 30
0.0
 11
-66.7913882374
 21
-107.934869467
 31
0.0
  0
LINE
  5
22B
  8
VIDITELNE
  6
SLD-PLNÁ
 62
     2
 10
-41.5
 20
-107.0306296884
 30
0.0
 11
-41.5
 21
-50.0306296884
 31
0.0
  0
LINE
  5
22C
  8
VIDITELNE
  6
SLD-PLNÁ
 62
     2
 10
-41.5
 20
-34.0306296884
 30
0.0
 11
-41.5
 21
22.9693703116
 31
0.0
  0
LINE
  5
22D
  8
VIDITELNE
  6
SLD-PLNÁ
 62
     2
 10
-63.9235060556
 20
22.9693703116
 30
0.0
 11
-63.9235060556
 21
-107.0306296884
 31
0.0
  0
LINE
  5
22E
  8
VIDITELNE
  6
SLD-PLNÁ
 62
     2
 10
-48.5
 20
-149.0306296884
 30
0.0
 11
-48.5
 21
-165.0306296884
 31
0.0
  0
LINE
  5
22F
  8
VIDITELNE
  6
SLD-PLNÁ
 62
     2
 10
107.5
 20
-50.0306296884
 30
0.0
 11
107.5
 21
-34.0306296884
 31
0.0
  0
LINE
  5
230
  8
VIDITELNE
  6
SLD-PLNÁ
 62
     2
 10
107.5
 20
31.286650148
 30
0.0
 11
107.5
 21
47.286650148
 31
0.0
  0
LINE
  5
231
  8
VIDITELNE
  6
SLD-PLNÁ
 62
     2
 10
107.5
 20
-131.3479095249
 30
0.0
 11
107.5
 21
-115.3479095249
 31
0.0
  0
LINE
  5
232
  8
VIDITELNE
  6
SLD-PLNÁ
 62
     2
 10
107.5
 20
-165.0306296884
 30
0.0
 11
107.5
 21
-149.0306296884
 31
0.0
  0
LINE
  5
233
  8
VIDITELNE
  6
SLD-PLNÁ
 62
     2
 10
713.9296628631
 20
82.9693703116
 30
0.0
 11
712.5
 21
82.9693703116
 31
0.0
  0
LINE
  5
234
  8
VIDITELNE
  6
SLD-PLNÁ
 62
     2
 10
828.5
 20
82.9693703116
 30
0.0
 11
827.0703371369
 21
82.9693703116
 31
0.0
  0
LINE
  5
235
  8
VIDITELNE
  6
SLD-PLNÁ
 62
     2
 10
787.4994378438
 20
-167.0306296884
 30
0.0
 11
828.5
 21
-167.0306296884
 31
0.0
  0
LINE
  5
236
  8
VIDITELNE
  6
SLD-PLNÁ
 62
     2
 10
712.5
 20
-167.0306296884
 30
0.0
 11
753.5488465579
 21
-167.0306296884
 31
0.0
  0
ARC
  5
237
  8
VIDITELNE
  6
SLD-PLNÁ
 62
     2
 10
713.9737379654
 20
84.9097271274
 30
0.0
 40
1.932582281002768
 50
268.6073713439
 51
343.6326031811
  0
ARC
  5
238
  8
VIDITELNE
  6
SLD-PLNÁ
 62
     2
 10
827.0374293246
 20
84.9195658271
 30
0.0
 40
1.945018631743435
 50
196.557241867
 51
271.0487932335
  0
ARC
  5
239
  8
VIDITELNE
  6
SLD-PLNÁ
 62
     2
 10
686.5
 20
-72.5306296884
 30
0.0
 40
2.0
 50
180.0
 51
270.0
  0
ARC
  5
23A
  8
VIDITELNE
  6
SLD-PLNÁ
 62
     2
 10
686.5
 20
-11.5306296884
 30
0.0
 40
2.000000000000002
 50
90.0
 51
180.0
  0
ARC
  5
23B
  8
VIDITELNE
  6
SLD-PLNÁ
 62
     2
 10
753.5
 20
-169.0306296884
 30
0.0
 40
2.000000000006139
 50
0.0
 51
89.9999999986
  0
ARC
  5
23C
  8
VIDITELNE
  6
SLD-PLNÁ
 62
     2
 10
787.5
 20
-169.0306296884
 30
0.0
 40
1.999999999988376
 50
90.0000000003
 51
180.0000000004
  0
LINE
  5
23D
  8
VIDITELNE
  6
SLD-PLNÁ
 62
     2
 10
755.5
 20
-169.0234783528
 30
0.0
 11
755.5
 21
-170.0306296884
 31
0.0
  0
LINE
  5
23E
  8
VIDITELNE
  6
SLD-PLNÁ
 62
     2
 10
785.5
 20
-170.0306296884
 30
0.0
 11
785.5
 21
-169.0305533641
 31
0.0
  0
ARC
  5
23F
  8
VIDITELNE
  6
SLD-PLNÁ
 62
     2
 10
780.0
 20
-173.0306296884
 30
0.0
 40
1.0
 50
270.0
 51
0.0
  0
ARC
  5
240
  8
VIDITELNE
  6
SLD-PLNÁ
 62
     2
 10
761.0
 20
-173.0306296884
 30
0.0
 40
1.0
 50
180.0
 51
270.0
  0
LINE
  5
241
  8
VIDITELNE
  6
SLD-PLNÁ
 62
     2
 10
760.0
 20
-170.0306296884
 30
0.0
 11
760.0
 21
-173.0306296884
 31
0.0
  0
LINE
  5
242
  8
VIDITELNE
  6
SLD-PLNÁ
 62
     2
 10
781.0
 20
-173.0306296884
 30
0.0
 11
781.0
 21
-170.0306296884
 31
0.0
  0
LINE
  5
243
  8
VIDITELNE
  6
SLD-PLNÁ
 62
     2
 10
902.5
 20
-167.0306296884
 30
0.0
 11
915.5
 21
-167.0306296884
 31
0.0
  0
LINE
  5
244
  8
VIDITELNE
  6
SLD-PLNÁ
 62
     2
 10
915.5
 20
82.9693703116
 30
0.0
 11
902.5
 21
82.9693703116
 31
0.0
  0
LINE
  5
245
  8
VIDITELNE
  6
SLD-PLNÁ
 62
     2
 10
828.5
 20
-167.0306296884
 30
0.0
 11
837.5844928937
 21
-166.7133922061
 31
0.0
  0
LINE
  5
246
  8
VIDITELNE
  6
SLD-PLNÁ
 62
     2
 10
837.5844928937
 20
82.6521328293
 30
0.0
 11
828.5
 21
82.9693703116
 31
0.0
  0
ARC
  5
247
  8
VIDITELNE
  6
SLD-PLNÁ
 62
     2
 10
902.5
 20
-165.0306296884
 30
0.0
 40
2.0
 50
180.0
 51
270.0
  0
ARC
  5
248
  8
VIDITELNE
  6
SLD-PLNÁ
 62
     2
 10
902.5
 20
80.9693703116
 30
0.0
 40
2.0
 50
90.0
 51
180.0
  0
LINE
  5
249
  8
VIDITELNE
  6
SLD-PLNÁ
 62
     2
 10
839.5
 20
-50.0306296884
 30
0.0
 11
848.5
 21
-50.0306296884
 31
0.0
  0
LINE
  5
24A
  8
VIDITELNE
  6
SLD-PLNÁ
 62
     2
 10
848.5
 20
-34.0306296884
 30
0.0
 11
839.5
 21
-34.0306296884
 31
0.0
  0
ARC
  5
24B
  8
VIDITELNE
  6
SLD-PLNÁ
 62
     2
 10
848.5
 20
-49.0306296884
 30
0.0
 40
1.0
 50
270.0
 51
0.0
  0
ARC
  5
24C
  8
VIDITELNE
  6
SLD-PLNÁ
 62
     2
 10
848.5
 20
-35.0306296884
 30
0.0
 40
1.000000000000007
 50
0.0
 51
90.0
  0
ARC
  5
24D
  8
VIDITELNE
  6
SLD-PLNÁ
 62
     2
 10
898.5
 20
-132.5790276269
 30
0.0
 40
2.0
 50
0.0
 51
55.0
  0
ARC
  5
24E
  8
VIDITELNE
  6
SLD-PLNÁ
 62
     2
 10
898.5
 20
48.51776825
 30
0.0
 40
2.0
 50
305.0
 51
0.0
  0
LINE
  5
24F
  8
VIDITELNE
  6
SLD-PLNÁ
 62
     2
 10
839.5
 20
-131.3479095249
 30
0.0
 11
848.5
 21
-131.3479095249
 31
0.0
  0
LINE
  5
250
  8
VIDITELNE
  6
SLD-PLNÁ
 62
     2
 10
848.5
 20
-115.3479095249
 30
0.0
 11
839.5
 21
-115.3479095249
 31
0.0
  0
ARC
  5
251
  8
VIDITELNE
  6
SLD-PLNÁ
 62
     2
 10
848.5
 20
-130.3479095249
 30
0.0
 40
1.0
 50
270.0
 51
0.0
  0
ARC
  5
252
  8
VIDITELNE
  6
SLD-PLNÁ
 62
     2
 10
848.5
 20
-116.3479095249
 30
0.0
 40
1.0
 50
0.0
 51
90.0
  0
LINE
  5
253
  8
VIDITELNE
  6
SLD-PLNÁ
 62
     2
 10
839.5
 20
31.286650148
 30
0.0
 11
848.5
 21
31.286650148
 31
0.0
  0
LINE
  5
254
  8
VIDITELNE
  6
SLD-PLNÁ
 62
     2
 10
848.5
 20
47.286650148
 30
0.0
 11
839.5
 21
47.286650148
 31
0.0
  0
ARC
  5
255
  8
VIDITELNE
  6
SLD-PLNÁ
 62
     2
 10
848.5
 20
32.286650148
 30
0.0
 40
1.0
 50
270.0
 51
0.0
  0
ARC
  5
256
  8
VIDITELNE
  6
SLD-PLNÁ
 62
     2
 10
848.5
 20
46.286650148
 30
0.0
 40
1.0
 50
0.0
 51
90.0
  0
LINE
  5
257
  8
VIDITELNE
  6
SLD-PLNÁ
 62
     2
 10
899.6471528727
 20
46.8794641614
 30
0.0
 11
866.7913882374
 21
23.8736100901
 31
0.0
  0
LINE
  5
258
  8
VIDITELNE
  6
SLD-PLNÁ
 62
     2
 10
866.7913882374
 20
-107.934869467
 30
0.0
 11
899.6471528727
 21
-130.9407235383
 31
0.0
  0
ARC
  5
259
  8
VIDITELNE
  6
SLD-PLNÁ
 62
     2
 10
841.5
 20
24.9693703116
 30
0.0
 40
2.0
 50
180.0
 51
270.0
  0
ARC
  5
25A
  8
VIDITELNE
  6
SLD-PLNÁ
 62
     2
 10
841.5
 20
-109.0306296884
 30
0.0
 40
2.0
 50
90.0
 51
180.0
  0
ARC
  5
25B
  8
VIDITELNE
  6
SLD-PLNÁ
 62
     2
 10
863.9235060556
 20
-112.0306296884
 30
0.0
 40
5.000000000000002
 50
55.0
 51
90.0
  0
ARC
  5
25C
  8
VIDITELNE
  6
SLD-PLNÁ
 62
     2
 10
863.9235060556
 20
27.9693703116
 30
0.0
 40
5.000000000000004
 50
270.0
 51
305.0
  0
LINE
  5
25D
  8
VIDITELNE
  6
SLD-PLNÁ
 62
     2
 10
841.5
 20
-107.0306296884
 30
0.0
 11
863.9235060556
 21
-107.0306296884
 31
0.0
  0
LINE
  5
25E
  8
VIDITELNE
  6
SLD-PLNÁ
 62
     2
 10
863.9235060556
 20
22.9693703116
 30
0.0
 11
841.5
 21
22.9693703116
 31
0.0
  0
LINE
  5
25F
  8
VIDITELNE
  6
SLD-PLNÁ
 62
     2
 10
839.5
 20
-165.0306296884
 30
0.0
 11
848.5
 21
-165.0306296884
 31
0.0
  0
LINE
  5
260
  8
VIDITELNE
  6
SLD-PLNÁ
 62
     2
 10
848.5
 20
-149.0306296884
 30
0.0
 11
839.5
 21
-149.0306296884
 31
0.0
  0
ARC
  5
261
  8
VIDITELNE
  6
SLD-PLNÁ
 62
     2
 10
848.5
 20
-164.0306296884
 30
0.0
 40
1.0
 50
270.0
 51
0.0
  0
ARC
  5
262
  8
VIDITELNE
  6
SLD-PLNÁ
 62
     2
 10
848.5
 20
-150.0306296884
 30
0.0
 40
1.0
 50
0.0
 51
90.0
  0
LINE
  5
263
  8
VIDITELNE
  6
SLD-PLNÁ
 62
     2
 10
839.5
 20
64.9693703116
 30
0.0
 11
848.5
 21
64.9693703116
 31
0.0
  0
LINE
  5
264
  8
VIDITELNE
  6
SLD-PLNÁ
 62
     2
 10
848.5
 20
80.9693703116
 30
0.0
 11
839.5
 21
80.9693703116
 31
0.0
  0
ARC
  5
265
  8
VIDITELNE
  6
SLD-PLNÁ
 62
     2
 10
848.5
 20
65.9693703116
 30
0.0
 40
1.0
 50
270.0
 51
0.0
  0
ARC
  5
266
  8
VIDITELNE
  6
SLD-PLNÁ
 62
     2
 10
848.5
 20
79.9693703116
 30
0.0
 40
1.0
 50
0.0
 51
90.0
  0
ARC
  5
267
  8
VIDITELNE
  6
SLD-PLNÁ
 62
     2
 10
837.5974073159
 20
-164.8219759866
 30
0.0
 40
1.884184594848791
 50
269.5987235768
 51
357.0253359785
  0
ARC
  5
268
  8
VIDITELNE
  6
SLD-PLNÁ
 62
     2
 10
837.6186702376
 20
80.7816331548
 30
0.0
 40
1.862806299855632
 50
2.3936317022
 51
91.0617173029
  0
LINE
  5
269
  8
VIDITELNE
  6
SLD-PLNÁ
 62
     2
 10
712.5
 20
82.9693703116
 30
0.0
 11
701.5
 21
82.5852418472
 31
0.0
  0
LINE
  5
26A
  8
VIDITELNE
  6
SLD-PLNÁ
 62
     2
 10
701.5
 20
-166.646501224
 30
0.0
 11
712.5
 21
-167.0306296884
 31
0.0
  0
LINE
  5
26B
  8
VIDITELNE
  6
SLD-PLNÁ
 62
     2
 10
701.5
 20
-34.0306296884
 30
0.0
 11
692.5
 21
-34.0306296884
 31
0.0
  0
LINE
  5
26C
  8
VIDITELNE
  6
SLD-PLNÁ
 62
     2
 10
692.5
 20
-50.0306296884
 30
0.0
 11
701.5
 21
-50.0306296884
 31
0.0
  0
ARC
  5
26D
  8
VIDITELNE
  6
SLD-PLNÁ
 62
     2
 10
692.5
 20
-49.0306296884
 30
0.0
 40
1.0
 50
180.0
 51
270.0
  0
ARC
  5
26E
  8
VIDITELNE
  6
SLD-PLNÁ
 62
     2
 10
692.5
 20
-35.0306296884
 30
0.0
 40
1.0
 50
90.0
 51
180.0
  0
ARC
  5
26F
  8
VIDITELNE
  6
SLD-PLNÁ
 62
     2
 10
692.5
 20
-130.3479095249
 30
0.0
 40
1.000000000000114
 50
180.0
 51
270.0
  0
ARC
  5
270
  8
VIDITELNE
  6
SLD-PLNÁ
 62
     2
 10
692.5
 20
-116.3479095249
 30
0.0
 40
1.000000000000114
 50
90.0
 51
180.0
  0
LINE
  5
271
  8
VIDITELNE
  6
SLD-PLNÁ
 62
     2
 10
701.5
 20
47.286650148
 30
0.0
 11
692.5
 21
47.286650148
 31
0.0
  0
LINE
  5
272
  8
VIDITELNE
  6
SLD-PLNÁ
 62
     2
 10
692.5
 20
31.286650148
 30
0.0
 11
701.5
 21
31.286650148
 31
0.0
  0
ARC
  5
273
  8
VIDITELNE
  6
SLD-PLNÁ
 62
     2
 10
692.5
 20
32.286650148
 30
0.0
 40
1.000000000000004
 50
180.0
 51
270.0
  0
ARC
  5
274
  8
VIDITELNE
  6
SLD-PLNÁ
 62
     2
 10
692.5
 20
46.286650148
 30
0.0
 40
1.0
 50
90.0
 51
180.0
  0
LINE
  5
275
  8
VIDITELNE
  6
SLD-PLNÁ
 62
     2
 10
701.5
 20
-115.3479095249
 30
0.0
 11
692.5
 21
-115.3479095249
 31
0.0
  0
LINE
  5
276
  8
VIDITELNE
  6
SLD-PLNÁ
 62
     2
 10
692.5
 20
-131.3479095249
 30
0.0
 11
701.5
 21
-131.3479095249
 31
0.0
  0
LINE
  5
277
  8
VIDITELNE
  6
SLD-PLNÁ
 62
     2
 10
686.5
 20
-107.0306296884
 30
0.0
 11
690.0
 21
-107.0306296884
 31
0.0
  0
LINE
  5
278
  8
VIDITELNE
  6
SLD-PLNÁ
 62
     2
 10
690.0
 20
22.9693703116
 30
0.0
 11
686.5
 21
22.9693703116
 31
0.0
  0
LINE
  5
279
  8
VIDITELNE
  6
SLD-PLNÁ
 62
     2
 10
693.6268759766
 20
55.063348133
 30
0.0
 11
690.0
 21
52.9693703116
 31
0.0
  0
LINE
  5
27A
  8
VIDITELNE
  6
SLD-PLNÁ
 62
     2
 10
690.0
 20
-137.0306296884
 30
0.0
 11
693.6268759766
 21
-139.1246075099
 31
0.0
  0
LINE
  5
27B
  8
VIDITELNE
  6
SLD-PLNÁ
 62
     2
 10
698.1905859903
 20
-149.0306296884
 30
0.0
 11
692.5
 21
-149.0306296884
 31
0.0
  0
LINE
  5
27C
  8
VIDITELNE
  6
SLD-PLNÁ
 62
     2
 10
692.5
 20
-165.0306296884
 30
0.0
 11
701.5
 21
-165.0306296884
 31
0.0
  0
ARC
  5
27D
  8
VIDITELNE
  6
SLD-PLNÁ
 62
     2
 10
692.5
 20
-164.0306296884
 30
0.0
 40
1.0
 50
180.0
 51
270.0
  0
ARC
  5
27E
  8
VIDITELNE
  6
SLD-PLNÁ
 62
     2
 10
692.5
 20
-150.0306296884
 30
0.0
 40
1.0
 50
90.0
 51
180.0
  0
ARC
  5
27F
  8
VIDITELNE
  6
SLD-PLNÁ
 62
     2
 10
692.5
 20
65.9693703116
 30
0.0
 40
1.0
 50
180.0
 51
270.0
  0
ARC
  5
280
  8
VIDITELNE
  6
SLD-PLNÁ
 62
     2
 10
692.5
 20
79.9693703116
 30
0.0
 40
1.0
 50
90.0
 51
180.0
  0
LINE
  5
281
  8
VIDITELNE
  6
SLD-PLNÁ
 62
     2
 10
701.5
 20
80.9693703116
 30
0.0
 11
692.5
 21
80.9693703116
 31
0.0
  0
LINE
  5
282
  8
VIDITELNE
  6
SLD-PLNÁ
 62
     2
 10
692.5
 20
64.9693703116
 30
0.0
 11
698.1905859903
 21
64.9693703116
 31
0.0
  0
POLYLINE
  5
283
  8
VIDITELNE
  6
SLD-PLNÁ
 62
     2
 66
     1
 10
0.0
 20
0.0
 30
0.0
  0
VERTEX
  5
761
  8
VIDITELNE
  6
SLD-PLNÁ
 62
     2
 10
775.9965663235
 20
139.4821262072
 30
0.0
  0
VERTEX
  5
762
  8
VIDITELNE
  6
SLD-PLNÁ
 62
     2
 10
775.9989132655
 20
140.2883003109
 30
0.0
  0
VERTEX
  5
763
  8
VIDITELNE
  6
SLD-PLNÁ
 62
     2
 10
775.9629457425
 20
141.4565908545
 30
0.0
  0
VERTEX
  5
764
  8
VIDITELNE
  6
SLD-PLNÁ
 62
     2
 10
775.9074947443
 20
142.795849303
 30
0.0
  0
VERTEX
  5
765
  8
VIDITELNE
  6
SLD-PLNÁ
 62
     2
 10
775.8456105008
 20
144.211022414
 30
0.0
  0
VERTEX
  5
766
  8
VIDITELNE
  6
SLD-PLNÁ
 62
     2
 10
775.7853262406
 20
145.6223434705
 30
0.0
  0
VERTEX
  5
767
  8
VIDITELNE
  6
SLD-PLNÁ
 62
     2
 10
775.6679915233
 20
148.5421500319
 30
0.0
  0
VERTEX
  5
768
  8
VIDITELNE
  6
SLD-PLNÁ
 62
     2
 10
775.5513084054
 20
151.5999290087
 30
0.0
  0
VERTEX
  5
769
  8
VIDITELNE
  6
SLD-PLNÁ
 62
     2
 10
775.4415346167
 20
154.5258795556
 30
0.0
  0
VERTEX
  5
76A
  8
VIDITELNE
  6
SLD-PLNÁ
 62
     2
 10
775.3373493163
 20
157.2697390442
 30
0.0
  0
VERTEX
  5
76B
  8
VIDITELNE
  6
SLD-PLNÁ
 62
     2
 10
775.2212060487
 20
160.1948314984
 30
0.0
  0
VERTEX
  5
76C
  8
VIDITELNE
  6
SLD-PLNÁ
 62
     2
 10
775.0982264029
 20
163.0355099462
 30
0.0
  0
VERTEX
  5
76D
  8
VIDITELNE
  6
SLD-PLNÁ
 62
     2
 10
775.0205136478
 20
164.6478465886
 30
0.0
  0
VERTEX
  5
76E
  8
VIDITELNE
  6
SLD-PLNÁ
 62
     2
 10
774.9462149658
 20
166.0311636816
 30
0.0
  0
VERTEX
  5
76F
  8
VIDITELNE
  6
SLD-PLNÁ
 62
     2
 10
774.8438292241
 20
167.553868466
 30
0.0
  0
VERTEX
  5
770
  8
VIDITELNE
  6
SLD-PLNÁ
 62
     2
 10
774.6844227782
 20
169.0108723896
 30
0.0
  0
VERTEX
  5
771
  8
VIDITELNE
  6
SLD-PLNÁ
 62
     2
 10
774.3741748529
 20
170.5976586379
 30
0.0
  0
VERTEX
  5
772
  8
VIDITELNE
  6
SLD-PLNÁ
 62
     2
 10
773.8320236952
 20
172.0843480019
 30
0.0
  0
VERTEX
  5
773
  8
VIDITELNE
  6
SLD-PLNÁ
 62
     2
 10
773.0151621247
 20
173.07966925
 30
0.0
  0
SEQEND
  5
774
  8
VIDITELNE
  6
SLD-PLNÁ
 62
     2
  0
POLYLINE
  5
284
  8
VIDITELNE
  6
SLD-PLNÁ
 62
     2
 66
     1
 10
0.0
 20
0.0
 30
0.0
  0
VERTEX
  5
775
  8
VIDITELNE
  6
SLD-PLNÁ
 62
     2
 10
767.986156296
 20
173.0807349369
 30
0.0
  0
VERTEX
  5
776
  8
VIDITELNE
  6
SLD-PLNÁ
 62
     2
 10
766.9191530504
 20
171.681311692
 30
0.0
  0
VERTEX
  5
777
  8
VIDITELNE
  6
SLD-PLNÁ
 62
     2
 10
766.3922896275
 20
169.8111823495
 30
0.0
  0
VERTEX
  5
778
  8
VIDITELNE
  6
SLD-PLNÁ
 62
     2
 10
766.1761986548
 20
167.9114790107
 30
0.0
  0
VERTEX
  5
779
  8
VIDITELNE
  6
SLD-PLNÁ
 62
     2
 10
766.0213062541
 20
165.4448308915
 30
0.0
  0
VERTEX
  5
77A
  8
VIDITELNE
  6
SLD-PLNÁ
 62
     2
 10
765.8638230753
 20
162.1931877671
 30
0.0
  0
VERTEX
  5
77B
  8
VIDITELNE
  6
SLD-PLNÁ
 62
     2
 10
765.7156820524
 20
158.629180405
 30
0.0
  0
VERTEX
  5
77C
  8
VIDITELNE
  6
SLD-PLNÁ
 62
     2
 10
765.6256964755
 20
156.3064770122
 30
0.0
  0
VERTEX
  5
77D
  8
VIDITELNE
  6
SLD-PLNÁ
 62
     2
 10
765.5519637161
 20
154.3539444248
 30
0.0
  0
VERTEX
  5
77E
  8
VIDITELNE
  6
SLD-PLNÁ
 62
     2
 10
765.4948828587
 20
152.8310527443
 30
0.0
  0
VERTEX
  5
77F
  8
VIDITELNE
  6
SLD-PLNÁ
 62
     2
 10
765.4328172793
 20
151.1789727794
 30
0.0
  0
VERTEX
  5
780
  8
VIDITELNE
  6
SLD-PLNÁ
 62
     2
 10
765.3514470318
 20
149.043667719
 30
0.0
  0
VERTEX
  5
781
  8
VIDITELNE
  6
SLD-PLNÁ
 62
     2
 10
765.2541378341
 20
146.5810856135
 30
0.0
  0
VERTEX
  5
782
  8
VIDITELNE
  6
SLD-PLNÁ
 62
     2
 10
765.0996839162
 20
143.0077114242
 30
0.0
  0
VERTEX
  5
783
  8
VIDITELNE
  6
SLD-PLNÁ
 62
     2
 10
765.0214373987
 20
141.4045058532
 30
0.0
  0
VERTEX
  5
784
  8
VIDITELNE
  6
SLD-PLNÁ
 62
     2
 10
764.9540352491
 20
140.1179574803
 30
0.0
  0
VERTEX
  5
785
  8
VIDITELNE
  6
SLD-PLNÁ
 62
     2
 10
764.9084589003
 20
139.1980905197
 30
0.0
  0
VERTEX
  5
786
  8
VIDITELNE
  6
SLD-PLNÁ
 62
     2
 10
764.9055629571
 20
139.0727062811
 30
0.0
  0
SEQEND
  5
787
  8
VIDITELNE
  6
SLD-PLNÁ
 62
     2
  0
LINE
  5
285
  8
VIDITELNE
  6
SLD-PLNÁ
 62
     2
 10
781.8563269083
 20
131.7841809045
 30
0.0
 11
780.7319551923
 21
138.1608097761
 31
0.0
  0
LINE
  5
286
  8
VIDITELNE
  6
SLD-PLNÁ
 62
     2
 10
760.2680448077
 20
138.1608097761
 30
0.0
 11
759.1436730917
 21
131.7841809045
 31
0.0
  0
ARC
  5
287
  8
VIDITELNE
  6
SLD-PLNÁ
 62
     2
 10
777.7775319332
 20
137.6398652431
 30
0.0
 40
2.999999999999979
 50
10.0
 51
80.0
  0
ARC
  5
288
  8
VIDITELNE
  6
SLD-PLNÁ
 62
     2
 10
763.2224680668
 20
137.6398652431
 30
0.0
 40
2.999999999999979
 50
100.0
 51
170.0
  0
LINE
  5
289
  8
VIDITELNE
  6
SLD-PLNÁ
 62
     2
 10
765.0002250262
 20
140.9996115959
 30
0.0
 11
762.7015235338
 21
140.5942885021
 31
0.0
  0
LINE
  5
28A
  8
VIDITELNE
  6
SLD-PLNÁ
 62
     2
 10
778.2984764662
 20
140.5942885021
 30
0.0
 11
775.9768902843
 21
141.0036467841
 31
0.0
  0
CIRCLE
  5
28B
  8
VIDITELNE
  6
SLD-PLNÁ
 62
     2
 10
770.5
 20
-2.0306296884
 30
0.0
 40
9.500000000000002
  0
CIRCLE
  5
28C
  8
VIDITELNE
  6
SLD-PLNÁ
 62
     2
 10
770.5
 20
-2.0306296884
 30
0.0
 40
10.49999999999999
  0
LINE
  5
28D
  8
VIDITELNE
  6
SLD-PLNÁ
 62
     2
 10
783.6270166538
 20
22.5015288737
 30
0.0
 11
783.7157910714
 21
23.0576306325
 31
0.0
  0
ARC
  5
28E
  8
VIDITELNE
  6
SLD-PLNÁ
 62
     2
 10
770.5
 20
77.9693703116
 30
0.0
 40
57.00000000000001
 50
256.6853514544
 51
283.3146485456
  0
POLYLINE
  5
28F
  8
VIDITELNE
  6
SLD-PLNÁ
 62
     2
 66
     1
 10
0.0
 20
0.0
 30
0.0
  0
VERTEX
  5
788
  8
VIDITELNE
  6
SLD-PLNÁ
 62
     2
 10
757.2842089286
 20
23.0576306325
 30
0.0
  0
VERTEX
  5
789
  8
VIDITELNE
  6
SLD-PLNÁ
 62
     2
 10
757.3323906995
 20
22.7130629442
 30
0.0
  0
VERTEX
  5
78A
  8
VIDITELNE
  6
SLD-PLNÁ
 62
     2
 10
757.3729833462
 20
22.5015288737
 30
0.0
  0
SEQEND
  5
78B
  8
VIDITELNE
  6
SLD-PLNÁ
 62
     2
  0
POLYLINE
  5
290
  8
VIDITELNE
  6
SLD-PLNÁ
 62
     2
 66
     1
 10
0.0
 20
0.0
 30
0.0
  0
VERTEX
  5
78C
  8
VIDITELNE
  6
SLD-PLNÁ
 62
     2
 10
756.7818964441
 20
24.008682676
 30
0.0
  0
VERTEX
  5
78D
  8
VIDITELNE
  6
SLD-PLNÁ
 62
     2
 10
757.174989371
 20
23.4566620438
 30
0.0
  0
VERTEX
  5
78E
  8
VIDITELNE
  6
SLD-PLNÁ
 62
     2
 10
757.2842089286
 20
23.0576306325
 30
0.0
  0
SEQEND
  5
78F
  8
VIDITELNE
  6
SLD-PLNÁ
 62
     2
  0
ARC
  5
291
  8
VIDITELNE
  6
SLD-PLNÁ
 62
     2
 10
752.0355931875
 20
18.4964515609
 30
0.0
 40
7.274069457345758
 50
49.2699238835
 51
73.5414756496
  0
ARC
  5
292
  8
VIDITELNE
  6
SLD-PLNÁ
 62
     2
 10
770.5
 20
77.9693703116
 30
0.0
 40
55.00000000000001
 50
252.6477389318
 51
287.3522610682
  0
ARC
  5
293
  8
VIDITELNE
  6
SLD-PLNÁ
 62
     2
 10
788.9644068125
 20
18.4964515609
 30
0.0
 40
7.274069457346161
 50
106.4585243504
 51
130.7300761165
  0
ARC
  5
294
  8
VIDITELNE
  6
SLD-PLNÁ
 62
     2
 10
785.3045301242
 20
22.826692114
 30
0.0
 40
1.605435883813327
 50
132.5876668876
 51
171.7294329098
  0
ARC
  5
295
  8
VIDITELNE
  6
SLD-PLNÁ
 62
     2
 10
784.6699173599
 20
25.2322217594
 30
0.0
 40
1.304294292684164
 50
249.7324263928
 51
321.8836335387
  0
ARC
  5
296
  8
VIDITELNE
  6
SLD-PLNÁ
 62
     2
 10
787.5
 20
23.5634882767
 30
0.0
 40
1.999999999944853
 50
107.3522610675
 51
154.4167568453
  0
ARC
  5
297
  8
VIDITELNE
  6
SLD-PLNÁ
 62
     2
 10
770.5
 20
77.9693703116
 30
0.0
 40
55.00000000000001
 50
287.3522610682
 51
252.6477389318
  0
ARC
  5
298
  8
VIDITELNE
  6
SLD-PLNÁ
 62
     2
 10
756.3300826401
 20
25.2322217594
 30
0.0
 40
1.304294292683802
 50
218.1163664613
 51
290.2675736072
  0
ARC
  5
299
  8
VIDITELNE
  6
SLD-PLNÁ
 62
     2
 10
753.5
 20
23.5634882767
 30
0.0
 40
1.99999999994483
 50
25.5832431547
 51
72.6477389325
  0
POLYLINE
  5
29A
  8
VIDITELNE
  6
SLD-PLNÁ
 62
     2
 66
     1
 10
0.0
 20
0.0
 30
0.0
  0
VERTEX
  5
790
  8
VIDITELNE
  6
SLD-PLNÁ
 62
     2
 10
755.4529776853
 20
23.5634882766
 30
0.0
  0
VERTEX
  5
791
  8
VIDITELNE
  6
SLD-PLNÁ
 62
     2
 10
755.4422500274
 20
23.9386299698
 30
0.0
  0
VERTEX
  5
792
  8
VIDITELNE
  6
SLD-PLNÁ
 62
     2
 10
755.3039177131
 20
24.4271322336
 30
0.0
  0
SEQEND
  5
793
  8
VIDITELNE
  6
SLD-PLNÁ
 62
     2
  0
ARC
  5
29B
  8
VIDITELNE
  6
SLD-PLNÁ
 62
     2
 10
757.1911314685
 20
26.2881908055
 30
0.0
 40
3.231900747998808
 50
237.4652096372
 51
271.650323919
  0
POLYLINE
  5
29C
  8
VIDITELNE
  6
SLD-PLNÁ
 62
     2
 66
     1
 10
0.0
 20
0.0
 30
0.0
  0
VERTEX
  5
794
  8
VIDITELNE
  6
SLD-PLNÁ
 62
     2
 10
785.6960822869
 20
24.4271322336
 30
0.0
  0
VERTEX
  5
795
  8
VIDITELNE
  6
SLD-PLNÁ
 62
     2
 10
785.5861610124
 20
24.1048238227
 30
0.0
  0
VERTEX
  5
796
  8
VIDITELNE
  6
SLD-PLNÁ
 62
     2
 10
785.5470223147
 20
23.5634882766
 30
0.0
  0
SEQEND
  5
797
  8
VIDITELNE
  6
SLD-PLNÁ
 62
     2
  0
ARC
  5
29D
  8
VIDITELNE
  6
SLD-PLNÁ
 62
     2
 10
783.8088685315
 20
26.2881908055
 30
0.0
 40
3.231900747997873
 50
268.349676081
 51
302.5347903628
  0
LINE
  5
29E
  8
VIDITELNE
  6
SLD-PLNÁ
 62
     2
 10
785.5470223147
 20
23.5634882766
 30
0.0
 11
785.5635083269
 21
22.5015288737
 31
0.0
  0
LINE
  5
29F
  8
VIDITELNE
  6
SLD-PLNÁ
 62
     2
 10
785.5635083269
 20
22.5015288737
 30
0.0
 11
783.6270166538
 21
22.5015288737
 31
0.0
  0
POLYLINE
  5
2A0
  8
VIDITELNE
  6
SLD-PLNÁ
 62
     2
 66
     1
 10
0.0
 20
0.0
 30
0.0
  0
VERTEX
  5
798
  8
VIDITELNE
  6
SLD-PLNÁ
 62
     2
 10
755.4364916731
 20
22.5015288737
 30
0.0
  0
VERTEX
  5
799
  8
VIDITELNE
  6
SLD-PLNÁ
 62
     2
 10
755.4389626527
 20
22.9041435054
 30
0.0
  0
VERTEX
  5
79A
  8
VIDITELNE
  6
SLD-PLNÁ
 62
     2
 10
755.4529776853
 20
23.5634882766
 30
0.0
  0
SEQEND
  5
79B
  8
VIDITELNE
  6
SLD-PLNÁ
 62
     2
  0
LINE
  5
2A1
  8
VIDITELNE
  6
SLD-PLNÁ
 62
     2
 10
755.4364916731
 20
22.5015288737
 30
0.0
 11
757.3729833462
 21
22.5015288737
 31
0.0
  0
LINE
  5
2A2
  8
VIDITELNE
  6
SLD-PLNÁ
 62
     2
 10
785.5635083269
 20
22.5015288737
 30
0.0
 11
785.5635083269
 21
-2.0306296884
 31
0.0
  0
LINE
  5
2A3
  8
VIDITELNE
  6
SLD-PLNÁ
 62
     2
 10
785.5635083269
 20
-2.0306296884
 30
0.0
 11
783.6270166538
 21
-2.0306296884
 31
0.0
  0
LINE
  5
2A4
  8
VIDITELNE
  6
SLD-PLNÁ
 62
     2
 10
783.6270166538
 20
-2.0306296884
 30
0.0
 11
783.6270166538
 21
22.5015288737
 31
0.0
  0
LINE
  5
2A5
  8
VIDITELNE
  6
SLD-PLNÁ
 62
     2
 10
755.4364916731
 20
-2.0306296884
 30
0.0
 11
755.4364916731
 21
22.5015288737
 31
0.0
  0
LINE
  5
2A6
  8
VIDITELNE
  6
SLD-PLNÁ
 62
     2
 10
757.3729833462
 20
22.5015288737
 30
0.0
 11
757.3729833462
 21
-2.0306296884
 31
0.0
  0
LINE
  5
2A7
  8
VIDITELNE
  6
SLD-PLNÁ
 62
     2
 10
755.4364916731
 20
-2.0306296884
 30
0.0
 11
757.3729833462
 21
-2.0306296884
 31
0.0
  0
ARC
  5
2A8
  8
VIDITELNE
  6
SLD-PLNÁ
 62
     2
 10
770.5
 20
-2.0306296884
 30
0.0
 40
13.12701665379257
 50
180.0
 51
0.0
  0
ARC
  5
2A9
  8
VIDITELNE
  6
SLD-PLNÁ
 62
     2
 10
770.5
 20
-2.0306296884
 30
0.0
 40
15.06350832689634
 50
180.0
 51
0.0
  0
LINE
  5
2AA
  8
VIDITELNE
  6
SLD-PLNÁ
 62
     2
 10
823.5
 20
56.9931933482
 30
0.0
 11
821.6403508772
 21
57.7291995574
 31
0.0
  0
ARC
  5
2AB
  8
VIDITELNE
  6
SLD-PLNÁ
 62
     2
 10
715.7158194151
 20
77.8534464788
 30
0.0
 40
109.7842417882794
 50
349.0465528217
 51
0.0605000088
  0
LINE
  5
2AC
  8
VIDITELNE
  6
SLD-PLNÁ
 62
     2
 10
719.3596491228
 20
57.7291995574
 30
0.0
 11
717.5
 21
56.9931933482
 31
0.0
  0
ARC
  5
2AD
  8
VIDITELNE
  6
SLD-PLNÁ
 62
     2
 10
825.2841805849
 20
77.8534464788
 30
0.0
 40
109.7842417883053
 50
179.9394999912
 51
190.9534471783
  0
LINE
  5
2AE
  8
VIDITELNE
  6
SLD-PLNÁ
 62
     2
 10
787.5
 20
23.5634882766
 30
0.0
 11
786.9035087719
 21
25.4724665936
 31
0.0
  0
LINE
  5
2AF
  8
VIDITELNE
  6
SLD-PLNÁ
 62
     2
 10
787.5
 20
23.5634882766
 30
0.0
 11
785.5470223147
 21
23.5634882766
 31
0.0
  0
LINE
  5
2B0
  8
VIDITELNE
  6
SLD-PLNÁ
 62
     2
 10
754.0964912281
 20
25.4724665936
 30
0.0
 11
753.5
 21
23.5634882766
 31
0.0
  0
LINE
  5
2B1
  8
VIDITELNE
  6
SLD-PLNÁ
 62
     2
 10
755.4529776853
 20
23.5634882766
 30
0.0
 11
753.5
 21
23.5634882766
 31
0.0
  0
ARC
  5
2B2
  8
VIDITELNE
  6
SLD-PLNÁ
 62
     2
 10
770.5
 20
77.9693703116
 30
0.0
 40
57.00000000000011
 50
201.5925161782
 51
252.6477389318
  0
ARC
  5
2B3
  8
VIDITELNE
  6
SLD-PLNÁ
 62
     2
 10
770.5
 20
77.9693703116
 30
0.0
 40
57.00000000000001
 50
287.3522610682
 51
338.4074838218
  0
LINE
  5
2B4
  8
VIDITELNE
  6
SLD-PLNÁ
 62
     2
 10
787.5
 20
23.5634882766
 30
0.0
 11
787.5
 21
-2.0306296884
 31
0.0
  0
LINE
  5
2B5
  8
VIDITELNE
  6
SLD-PLNÁ
 62
     2
 10
787.5
 20
-2.0306296884
 30
0.0
 11
785.5635083269
 21
-2.0306296884
 31
0.0
  0
LINE
  5
2B6
  8
VIDITELNE
  6
SLD-PLNÁ
 62
     2
 10
753.5
 20
-2.0306296884
 30
0.0
 11
753.5
 21
23.5634882766
 31
0.0
  0
LINE
  5
2B7
  8
VIDITELNE
  6
SLD-PLNÁ
 62
     2
 10
753.5
 20
-2.0306296884
 30
0.0
 11
755.4364916731
 21
-2.0306296884
 31
0.0
  0
ARC
  5
2B8
  8
VIDITELNE
  6
SLD-PLNÁ
 62
     2
 10
770.5
 20
-2.0306296884
 30
0.0
 40
17.0
 50
180.0
 51
0.0
  0
LINE
  5
2B9
  8
VIDITELNE
  6
SLD-PLNÁ
 62
     2
 10
823.5
 20
-42.0306296884
 30
0.0
 11
823.5
 21
56.9931933482
 31
0.0
  0
LINE
  5
2BA
  8
VIDITELNE
  6
SLD-PLNÁ
 62
     2
 10
717.5
 20
-42.0306296884
 30
0.0
 11
823.5
 21
-42.0306296884
 31
0.0
  0
LINE
  5
2BB
  8
VIDITELNE
  6
SLD-PLNÁ
 62
     2
 10
717.5
 20
56.9931933482
 30
0.0
 11
717.5
 21
-42.0306296884
 31
0.0
  0
ARC
  5
2BC
  8
VIDITELNE
  6
SLD-PLNÁ
 62
     2
 10
1176.8888040701
 20
2.8983032145
 30
0.0
 40
461.5806346855999
 50
181.651915554
 51
185.585850906
  0
POLYLINE
  5
2BD
  8
VIDITELNE
  6
SLD-PLNÁ
 62
     2
 66
     1
 10
0.0
 20
0.0
 30
0.0
  0
VERTEX
  5
79C
  8
VIDITELNE
  6
SLD-PLNÁ
 62
     2
 10
717.5
 20
-42.0306296884
 30
0.0
  0
VERTEX
  5
79D
  8
VIDITELNE
  6
SLD-PLNÁ
 62
     2
 10
717.4874524422
 20
-41.9610411238
 30
0.0
  0
VERTEX
  5
79E
  8
VIDITELNE
  6
SLD-PLNÁ
 62
     2
 10
715.4611180013
 20
-30.3191717045
 30
0.0
  0
VERTEX
  5
79F
  8
VIDITELNE
  6
SLD-PLNÁ
 62
     2
 10
714.5847774843
 20
-24.458674456
 30
0.0
  0
VERTEX
  5
7A0
  8
VIDITELNE
  6
SLD-PLNÁ
 62
     2
 10
713.902013523
 20
-18.5936778876
 30
0.0
  0
VERTEX
  5
7A1
  8
VIDITELNE
  6
SLD-PLNÁ
 62
     2
 10
713.5
 20
-10.9058495687
 30
0.0
  0
SEQEND
  5
7A2
  8
VIDITELNE
  6
SLD-PLNÁ
 62
     2
  0
ARC
  5
2BE
  8
VIDITELNE
  6
SLD-PLNÁ
 62
     2
 10
713.968999938
 20
-8.524305893
 30
0.0
 40
2.427284742432067
 50
258.8592408081
 51
309.1051800945
  0
LINE
  5
2BF
  8
VIDITELNE
  6
SLD-PLNÁ
 62
     2
 10
715.5
 20
-10.4078530868
 30
0.0
 11
715.5
 21
77.9693703116
 31
0.0
  0
LINE
  5
2C0
  8
VIDITELNE
  6
SLD-PLNÁ
 62
     2
 10
828.5
 20
-42.0306296884
 30
0.0
 11
828.5
 21
82.9693703116
 31
0.0
  0
LINE
  5
2C1
  8
VIDITELNE
  6
SLD-PLNÁ
 62
     2
 10
828.5
 20
-167.0306296884
 30
0.0
 11
828.5
 21
-42.0306296884
 31
0.0
  0
LINE
  5
2C2
  8
VIDITELNE
  6
SLD-PLNÁ
 62
     2
 10
712.5
 20
-42.0306296884
 30
0.0
 11
712.5
 21
82.9693703116
 31
0.0
  0
LINE
  5
2C3
  8
VIDITELNE
  6
SLD-PLNÁ
 62
     2
 10
712.5
 20
-167.0306296884
 30
0.0
 11
712.5
 21
-42.0306296884
 31
0.0
  0
POLYLINE
  5
2C4
  8
VIDITELNE
  6
SLD-PLNÁ
 62
     2
 66
     1
 10
0.0
 20
0.0
 30
0.0
  0
VERTEX
  5
7A3
  8
VIDITELNE
  6
SLD-PLNÁ
 62
     2
 10
827.5
 20
-10.9058495687
 30
0.0
  0
VERTEX
  5
7A4
  8
VIDITELNE
  6
SLD-PLNÁ
 62
     2
 10
827.097986477
 20
-18.5936778876
 30
0.0
  0
VERTEX
  5
7A5
  8
VIDITELNE
  6
SLD-PLNÁ
 62
     2
 10
826.4260824104
 20
-24.3784134674
 30
0.0
  0
VERTEX
  5
7A6
  8
VIDITELNE
  6
SLD-PLNÁ
 62
     2
 10
825.5586030129
 20
-30.1968124068
 30
0.0
  0
VERTEX
  5
7A7
  8
VIDITELNE
  6
SLD-PLNÁ
 62
     2
 10
823.5125475578
 20
-41.9610411238
 30
0.0
  0
VERTEX
  5
7A8
  8
VIDITELNE
  6
SLD-PLNÁ
 62
     2
 10
823.5
 20
-42.0306296884
 30
0.0
  0
SEQEND
  5
7A9
  8
VIDITELNE
  6
SLD-PLNÁ
 62
     2
  0
LINE
  5
2C5
  8
VIDITELNE
  6
SLD-PLNÁ
 62
     2
 10
827.5
 20
76.079606532
 30
0.0
 11
827.5
 21
-10.9058495687
 31
0.0
  0
LINE
  5
2C6
  8
VIDITELNE
  6
SLD-PLNÁ
 62
     2
 10
713.5
 20
-10.9058495687
 30
0.0
 11
713.5
 21
76.079606532
 31
0.0
  0
ARC
  5
2C7
  8
VIDITELNE
  6
SLD-PLNÁ
 62
     2
 10
363.9836740581
 20
2.9063684058
 30
0.0
 40
461.7083360790483
 50
354.4146933406
 51
358.3475401994
  0
ARC
  5
2C8
  8
VIDITELNE
  6
SLD-PLNÁ
 62
     2
 10
827.031000062
 20
-8.524305893
 30
0.0
 40
2.427284742432803
 50
230.8948199055
 51
281.1407591919
  0
LINE
  5
2C9
  8
VIDITELNE
  6
SLD-PLNÁ
 62
     2
 10
825.5
 20
77.9693703116
 30
0.0
 11
825.5
 21
-10.4078530868
 31
0.0
  0
ARC
  5
2CA
  8
VIDITELNE
  6
SLD-PLNÁ
 62
     2
 10
713.5535991072
 20
78.0260960333
 30
0.0
 40
1.947227321863259
 50
268.4226851541
 51
358.3306497957
  0
ARC
  5
2CB
  8
VIDITELNE
  6
SLD-PLNÁ
 62
     2
 10
827.4464008928
 20
78.0260960334
 30
0.0
 40
1.947227321863604
 50
181.6693502043
 51
271.5773148459
  0
LINE
  5
2CC
  8
VIDITELNE
  6
SLD-PLNÁ
 62
     2
 10
684.5
 20
-42.0306296884
 30
0.0
 11
684.5
 21
-11.5306296884
 31
0.0
  0
LINE
  5
2CD
  8
VIDITELNE
  6
SLD-PLNÁ
 62
     2
 10
684.5
 20
-72.5306296884
 30
0.0
 11
684.5
 21
-42.0306296884
 31
0.0
  0
LINE
  5
2CE
  8
VIDITELNE
  6
SLD-PLNÁ
 62
     2
 10
755.5
 20
-170.0306296884
 30
0.0
 11
785.5
 21
-170.0306296884
 31
0.0
  0
LINE
  5
2CF
  8
VIDITELNE
  6
SLD-PLNÁ
 62
     2
 10
770.5
 20
-174.0306296884
 30
0.0
 11
761.0
 21
-174.0306296884
 31
0.0
  0
LINE
  5
2D0
  8
VIDITELNE
  6
SLD-PLNÁ
 62
     2
 10
780.0
 20
-174.0306296884
 30
0.0
 11
770.5
 21
-174.0306296884
 31
0.0
  0
LINE
  5
2D1
  8
VIDITELNE
  6
SLD-PLNÁ
 62
     2
 10
915.5
 20
-167.0306296884
 30
0.0
 11
915.5
 21
82.9693703116
 31
0.0
  0
POLYLINE
  5
2D2
  8
VIDITELNE
  6
SLD-PLNÁ
 62
     2
 66
     1
 10
0.0
 20
0.0
 30
0.0
  0
VERTEX
  5
7AA
  8
VIDITELNE
  6
SLD-PLNÁ
 62
     2
 10
837.5697989934
 20
44.4672132446
 30
0.0
  0
VERTEX
  5
7AB
  8
VIDITELNE
  6
SLD-PLNÁ
 62
     2
 10
837.5892079691
 20
45.5618247161
 30
0.0
  0
VERTEX
  5
7AC
  8
VIDITELNE
  6
SLD-PLNÁ
 62
     2
 10
837.5697989934
 20
47.7693836315
 30
0.0
  0
SEQEND
  5
7AD
  8
VIDITELNE
  6
SLD-PLNÁ
 62
     2
  0
LINE
  5
2D3
  8
VIDITELNE
  6
SLD-PLNÁ
 62
     2
 10
837.5697989934
 20
-39.6956426152
 30
0.0
 11
837.5697989934
 21
44.4672132446
 31
0.0
  0
POLYLINE
  5
2D4
  8
VIDITELNE
  6
SLD-PLNÁ
 62
     2
 66
     1
 10
0.0
 20
0.0
 30
0.0
  0
VERTEX
  5
7AE
  8
VIDITELNE
  6
SLD-PLNÁ
 62
     2
 10
837.5697989934
 20
-44.3656167617
 30
0.0
  0
VERTEX
  5
7AF
  8
VIDITELNE
  6
SLD-PLNÁ
 62
     2
 10
837.5892079691
 20
-42.8361882383
 30
0.0
  0
VERTEX
  5
7B0
  8
VIDITELNE
  6
SLD-PLNÁ
 62
     2
 10
837.5697989934
 20
-39.6956426152
 30
0.0
  0
SEQEND
  5
7B1
  8
VIDITELNE
  6
SLD-PLNÁ
 62
     2
  0
LINE
  5
2D5
  8
VIDITELNE
  6
SLD-PLNÁ
 62
     2
 10
837.5697989934
 20
-128.5284726214
 30
0.0
 11
837.5697989934
 21
-44.3656167617
 31
0.0
  0
POLYLINE
  5
2D6
  8
VIDITELNE
  6
SLD-PLNÁ
 62
     2
 66
     1
 10
0.0
 20
0.0
 30
0.0
  0
VERTEX
  5
7B2
  8
VIDITELNE
  6
SLD-PLNÁ
 62
     2
 10
837.5697989934
 20
-131.8306430084
 30
0.0
  0
VERTEX
  5
7B3
  8
VIDITELNE
  6
SLD-PLNÁ
 62
     2
 10
837.5892079691
 20
-130.7623159195
 30
0.0
  0
VERTEX
  5
7B4
  8
VIDITELNE
  6
SLD-PLNÁ
 62
     2
 10
837.5697989934
 20
-128.5284726214
 30
0.0
  0
SEQEND
  5
7B5
  8
VIDITELNE
  6
SLD-PLNÁ
 62
     2
  0
LINE
  5
2D7
  8
VIDITELNE
  6
SLD-PLNÁ
 62
     2
 10
837.5697989934
 20
-166.6920393535
 30
0.0
 11
837.5697989934
 21
-131.8306430084
 31
0.0
  0
LINE
  5
2D8
  8
VIDITELNE
  6
SLD-PLNÁ
 62
     2
 10
837.5697989934
 20
47.7693836315
 30
0.0
 11
837.5697989934
 21
82.6307799767
 31
0.0
  0
LINE
  5
2D9
  8
VIDITELNE
  6
SLD-PLNÁ
 62
     2
 10
828.5
 20
-167.0306296884
 30
0.0
 11
828.5
 21
82.9693703116
 31
0.0
  0
LINE
  5
2DA
  8
VIDITELNE
  6
SLD-PLNÁ
 62
     2
 10
900.5
 20
-165.0306296884
 30
0.0
 11
900.5
 21
80.9693703116
 31
0.0
  0
ARC
  5
2DB
  8
VIDITELNE
  6
SLD-PLNÁ
 62
     2
 10
838.0411458116
 20
-65.1751122719
 30
0.0
 40
25.48382902569907
 50
86.7182361343
 51
91.0597984854
  0
LINE
  5
2DC
  8
VIDITELNE
  6
SLD-PLNÁ
 62
     2
 10
839.5
 20
-39.7330744945
 30
0.0
 11
839.5
 21
-44.3281848824
 31
0.0
  0
ARC
  5
2DD
  8
VIDITELNE
  6
SLD-PLNÁ
 62
     2
 10
838.0411458116
 20
-18.8861471049
 30
0.0
 40
25.48382902572176
 50
268.9402015146
 51
273.2817638657
  0
ARC
  5
2DE
  8
VIDITELNE
  6
SLD-PLNÁ
 62
     2
 10
837.7808038361
 20
42.7241920407
 30
0.0
 40
1.755746553724377
 50
11.7114058078
 51
96.9024654221
  0
LINE
  5
2DF
  8
VIDITELNE
  6
SLD-PLNÁ
 62
     2
 10
839.5
 20
43.0805773812
 30
0.0
 11
839.5
 21
-39.7330744945
 31
0.0
  0
LINE
  5
2E0
  8
VIDITELNE
  6
SLD-PLNÁ
 62
     2
 10
839.5
 20
-44.3281848824
 30
0.0
 11
839.5
 21
-127.141836758
 31
0.0
  0
ARC
  5
2E1
  8
VIDITELNE
  6
SLD-PLNÁ
 62
     2
 10
837.7808038361
 20
-126.7854514175
 30
0.0
 40
1.755746553723641
 50
263.0975345779
 51
348.2885941922
  0
LINE
  5
2E2
  8
VIDITELNE
  6
SLD-PLNÁ
 62
     2
 10
849.5
 20
-35.0306296884
 30
0.0
 11
849.5
 21
-49.0306296884
 31
0.0
  0
LINE
  5
2E3
  8
VIDITELNE
  6
SLD-PLNÁ
 62
     2
 10
839.5
 20
-127.141836758
 30
0.0
 11
839.5
 21
-130.3910704736
 31
0.0
  0
ARC
  5
2E4
  8
VIDITELNE
  6
SLD-PLNÁ
 62
     2
 10
837.7605318293
 20
-130.0725726566
 30
0.0
 40
1.768386376468935
 50
263.8082047469
 51
349.6240389161
  0
ARC
  5
2E5
  8
VIDITELNE
  6
SLD-PLNÁ
 62
     2
 10
837.7605318293
 20
46.0113132797
 30
0.0
 40
1.768386376467867
 50
10.3759610839
 51
96.1917952532
  0
LINE
  5
2E6
  8
VIDITELNE
  6
SLD-PLNÁ
 62
     2
 10
839.5
 20
46.3298110967
 30
0.0
 11
839.5
 21
43.0805773812
 31
0.0
  0
LINE
  5
2E7
  8
VIDITELNE
  6
SLD-PLNÁ
 62
     2
 10
849.5
 20
-116.3479095249
 30
0.0
 11
849.5
 21
-130.3479095249
 31
0.0
  0
LINE
  5
2E8
  8
VIDITELNE
  6
SLD-PLNÁ
 62
     2
 10
849.5
 20
46.286650148
 30
0.0
 11
849.5
 21
32.286650148
 31
0.0
  0
ARC
  5
2E9
  8
VIDITELNE
  6
SLD-PLNÁ
 62
     2
 10
837.5001898538
 20
-164.6934410406
 30
0.0
 40
1.999810153231822
 50
271.9947472089
 51
359.9952099163
  0
LINE
  5
2EA
  8
VIDITELNE
  6
SLD-PLNÁ
 62
     2
 10
839.5
 20
-130.3910704736
 30
0.0
 11
839.5
 21
-164.6936082302
 31
0.0
  0
ARC
  5
2EB
  8
VIDITELNE
  6
SLD-PLNÁ
 62
     2
 10
837.5001898538
 20
80.6321816637
 30
0.0
 40
1.999810153232798
 50
0.0047900837
 51
88.005252791
  0
LINE
  5
2EC
  8
VIDITELNE
  6
SLD-PLNÁ
 62
     2
 10
839.5
 20
80.6323488533
 30
0.0
 11
839.5
 21
46.3298110967
 31
0.0
  0
LINE
  5
2ED
  8
VIDITELNE
  6
SLD-PLNÁ
 62
     2
 10
839.5
 20
-164.6936082302
 30
0.0
 11
839.5
 21
-165.0306296884
 31
0.0
  0
LINE
  5
2EE
  8
VIDITELNE
  6
SLD-PLNÁ
 62
     2
 10
849.5
 20
-150.0306296884
 30
0.0
 11
849.5
 21
-164.0306296884
 31
0.0
  0
LINE
  5
2EF
  8
VIDITELNE
  6
SLD-PLNÁ
 62
     2
 10
839.5
 20
80.9665820627
 30
0.0
 11
839.5
 21
80.6323488533
 31
0.0
  0
LINE
  5
2F0
  8
VIDITELNE
  6
SLD-PLNÁ
 62
     2
 10
849.5
 20
79.9693703116
 30
0.0
 11
849.5
 21
65.9693703116
 31
0.0
  0
CIRCLE
  5
2F1
  8
VIDITELNE
  6
SLD-PLNÁ
 62
     2
 10
816.4619407771
 20
123.9313110887
 30
0.0
 40
4.500000000000114
  0
CIRCLE
  5
2F2
  8
VIDITELNE
  6
SLD-PLNÁ
 62
     2
 10
724.5380592229
 20
123.9313110887
 30
0.0
 40
4.5
  0
ARC
  5
2F3
  8
VIDITELNE
  6
SLD-PLNÁ
 62
     2
 10
770.5
 20
77.9693703116
 30
0.0
 40
80.00000000000004
 50
93.462356157
 51
180.0
  0
ARC
  5
2F4
  8
VIDITELNE
  6
SLD-PLNÁ
 62
     2
 10
770.5
 20
77.9693703116
 30
0.0
 40
80.0
 50
337.4472405722
 51
86.5363008616
  0
ARC
  5
2F5
  8
VIDITELNE
  6
SLD-PLNÁ
 62
     2
 10
770.5
 20
77.9693703116
 30
0.0
 40
80.00000000000006
 50
180.0
 51
196.2802484795
  0
LINE
  5
2F6
  8
VIDITELNE
  6
SLD-PLNÁ
 62
     2
 10
701.5
 20
-42.0306296884
 30
0.0
 11
701.5
 21
82.5852418472
 31
0.0
  0
LINE
  5
2F7
  8
VIDITELNE
  6
SLD-PLNÁ
 62
     2
 10
701.5
 20
-166.646501224
 30
0.0
 11
701.5
 21
-42.0306296884
 31
0.0
  0
LINE
  5
2F8
  8
VIDITELNE
  6
SLD-PLNÁ
 62
     2
 10
691.5
 20
-42.0306296884
 30
0.0
 11
691.5
 21
-35.0306296884
 31
0.0
  0
LINE
  5
2F9
  8
VIDITELNE
  6
SLD-PLNÁ
 62
     2
 10
691.5
 20
-49.0306296884
 30
0.0
 11
691.5
 21
-42.0306296884
 31
0.0
  0
LINE
  5
2FA
  8
VIDITELNE
  6
SLD-PLNÁ
 62
     2
 10
690.0
 20
-82.0488336243
 30
0.0
 11
701.5
 21
-92.3884258239
 31
0.0
  0
LINE
  5
2FB
  8
VIDITELNE
  6
SLD-PLNÁ
 62
     2
 10
690.0
 20
-82.0488336243
 30
0.0
 11
690.0
 21
-74.6577973642
 31
0.0
  0
LINE
  5
2FC
  8
VIDITELNE
  6
SLD-PLNÁ
 62
     2
 10
701.5
 20
-84.9973895639
 30
0.0
 11
690.0
 21
-74.6577973642
 31
0.0
  0
LINE
  5
2FD
  8
VIDITELNE
  6
SLD-PLNÁ
 62
     2
 10
690.0
 20
-74.6577973642
 30
0.0
 11
701.5
 21
-77.2007425272
 31
0.0
  0
LINE
  5
2FE
  8
VIDITELNE
  6
SLD-PLNÁ
 62
     2
 10
690.0
 20
-9.4034620127
 30
0.0
 11
701.5
 21
0.936130187
 31
0.0
  0
LINE
  5
2FF
  8
VIDITELNE
  6
SLD-PLNÁ
 62
     2
 10
701.5
 20
-6.8605168497
 30
0.0
 11
690.0
 21
-9.4034620127
 31
0.0
  0
LINE
  5
300
  8
VIDITELNE
  6
SLD-PLNÁ
 62
     2
 10
701.5
 20
8.3271664471
 30
0.0
 11
690.0
 21
-2.0124257526
 31
0.0
  0
LINE
  5
301
  8
VIDITELNE
  6
SLD-PLNÁ
 62
     2
 10
690.0
 20
-9.4034620127
 30
0.0
 11
690.0
 21
-2.0124257526
 31
0.0
  0
LINE
  5
302
  8
VIDITELNE
  6
SLD-PLNÁ
 62
     2
 10
690.0
 20
-74.6577973642
 30
0.0
 11
690.0
 21
-9.4034620127
 31
0.0
  0
LINE
  5
303
  8
VIDITELNE
  6
SLD-PLNÁ
 62
     2
 10
690.0
 20
-128.1906166531
 30
0.0
 11
691.5
 21
-128.9913835271
 31
0.0
  0
LINE
  5
304
  8
VIDITELNE
  6
SLD-PLNÁ
 62
     2
 10
695.9142547741
 20
-131.3479095249
 30
0.0
 11
701.5
 21
-134.329829354
 31
0.0
  0
LINE
  5
305
  8
VIDITELNE
  6
SLD-PLNÁ
 62
     2
 10
690.0
 20
-128.1906166531
 30
0.0
 11
690.0
 21
-82.0488336243
 31
0.0
  0
LINE
  5
306
  8
VIDITELNE
  6
SLD-PLNÁ
 62
     2
 10
701.5
 20
50.2685699771
 30
0.0
 11
695.9142547741
 21
47.286650148
 31
0.0
  0
LINE
  5
307
  8
VIDITELNE
  6
SLD-PLNÁ
 62
     2
 10
691.5
 20
44.9301241503
 30
0.0
 11
690.0
 21
44.1293572762
 31
0.0
  0
LINE
  5
308
  8
VIDITELNE
  6
SLD-PLNÁ
 62
     2
 10
690.0
 20
-2.0124257526
 30
0.0
 11
690.0
 21
44.1293572762
 31
0.0
  0
LINE
  5
309
  8
VIDITELNE
  6
SLD-PLNÁ
 62
     2
 10
691.5
 20
-123.3479095249
 30
0.0
 11
691.5
 21
-116.3479095249
 31
0.0
  0
LINE
  5
30A
  8
VIDITELNE
  6
SLD-PLNÁ
 62
     2
 10
691.5
 20
-130.3479095249
 30
0.0
 11
691.5
 21
-123.3479095249
 31
0.0
  0
LINE
  5
30B
  8
VIDITELNE
  6
SLD-PLNÁ
 62
     2
 10
691.5
 20
39.286650148
 30
0.0
 11
691.5
 21
46.286650148
 31
0.0
  0
LINE
  5
30C
  8
VIDITELNE
  6
SLD-PLNÁ
 62
     2
 10
691.5
 20
32.286650148
 30
0.0
 11
691.5
 21
39.286650148
 31
0.0
  0
LINE
  5
30D
  8
VIDITELNE
  6
SLD-PLNÁ
 62
     2
 10
686.5
 20
-42.0306296884
 30
0.0
 11
686.5
 21
22.9693703116
 31
0.0
  0
LINE
  5
30E
  8
VIDITELNE
  6
SLD-PLNÁ
 62
     2
 10
686.5
 20
-107.0306296884
 30
0.0
 11
686.5
 21
-42.0306296884
 31
0.0
  0
LINE
  5
30F
  8
VIDITELNE
  6
SLD-PLNÁ
 62
     2
 10
690.0
 20
44.1293572762
 30
0.0
 11
701.5
 21
69.0913409941
 31
0.0
  0
LINE
  5
310
  8
VIDITELNE
  6
SLD-PLNÁ
 62
     2
 10
701.5
 20
72.152808453
 30
0.0
 11
690.0
 21
47.1908247351
 31
0.0
  0
LINE
  5
311
  8
VIDITELNE
  6
SLD-PLNÁ
 62
     2
 10
690.0
 20
44.1293572762
 30
0.0
 11
690.0
 21
47.1908247351
 31
0.0
  0
LINE
  5
312
  8
VIDITELNE
  6
SLD-PLNÁ
 62
     2
 10
690.0
 20
-131.252084112
 30
0.0
 11
701.5
 21
-156.2140678299
 31
0.0
  0
LINE
  5
313
  8
VIDITELNE
  6
SLD-PLNÁ
 62
     2
 10
701.5
 20
-153.152600371
 30
0.0
 11
690.0
 21
-128.1906166531
 31
0.0
  0
LINE
  5
314
  8
VIDITELNE
  6
SLD-PLNÁ
 62
     2
 10
690.0
 20
-131.252084112
 30
0.0
 11
690.0
 21
-128.1906166531
 31
0.0
  0
LINE
  5
315
  8
VIDITELNE
  6
SLD-PLNÁ
 62
     2
 10
690.0
 20
47.1908247351
 30
0.0
 11
690.0
 21
52.9693703116
 31
0.0
  0
LINE
  5
316
  8
VIDITELNE
  6
SLD-PLNÁ
 62
     2
 10
690.0
 20
-137.0306296884
 30
0.0
 11
690.0
 21
-131.252084112
 31
0.0
  0
LINE
  5
317
  8
VIDITELNE
  6
SLD-PLNÁ
 62
     2
 10
691.5
 20
-157.0306296884
 30
0.0
 11
691.5
 21
-150.0306296884
 31
0.0
  0
LINE
  5
318
  8
VIDITELNE
  6
SLD-PLNÁ
 62
     2
 10
691.5
 20
-164.0306296884
 30
0.0
 11
691.5
 21
-157.0306296884
 31
0.0
  0
LINE
  5
319
  8
VIDITELNE
  6
SLD-PLNÁ
 62
     2
 10
691.5
 20
72.9693703116
 30
0.0
 11
691.5
 21
79.9693703116
 31
0.0
  0
LINE
  5
31A
  8
VIDITELNE
  6
SLD-PLNÁ
 62
     2
 10
691.5
 20
65.9693703116
 30
0.0
 11
691.5
 21
72.9693703116
 31
0.0
  0
POLYLINE
  5
31B
  8
VIDITELNE
  6
SLD-PLNÁ
 62
     2
 66
     1
 10
0.0
 20
0.0
 30
0.0
  0
VERTEX
  5
7B6
  8
VIDITELNE
  6
SLD-PLNÁ
 62
     2
 10
775.9808531507
 20
139.4793646419
 30
0.0
  0
VERTEX
  5
7B7
  8
VIDITELNE
  6
SLD-PLNÁ
 62
     2
 10
776.1358776883
 20
138.7767755603
 30
0.0
  0
VERTEX
  5
7B8
  8
VIDITELNE
  6
SLD-PLNÁ
 62
     2
 10
776.1670240867
 20
138.1608097761
 30
0.0
  0
SEQEND
  5
7B9
  8
VIDITELNE
  6
SLD-PLNÁ
 62
     2
  0
POLYLINE
  5
31C
  8
VIDITELNE
  6
SLD-PLNÁ
 62
     2
 66
     1
 10
0.0
 20
0.0
 30
0.0
  0
VERTEX
  5
7BA
  8
VIDITELNE
  6
SLD-PLNÁ
 62
     2
 10
776.1670240867
 20
138.1608097761
 30
0.0
  0
VERTEX
  5
7BB
  8
VIDITELNE
  6
SLD-PLNÁ
 62
     2
 10
775.9253147328
 20
136.5971315388
 30
0.0
  0
VERTEX
  5
7BC
  8
VIDITELNE
  6
SLD-PLNÁ
 62
     2
 10
775.214613632
 20
135.2573719879
 30
0.0
  0
VERTEX
  5
7BD
  8
VIDITELNE
  6
SLD-PLNÁ
 62
     2
 10
774.0498608198
 20
134.1939493877
 30
0.0
  0
VERTEX
  5
7BE
  8
VIDITELNE
  6
SLD-PLNÁ
 62
     2
 10
772.4218947729
 20
133.4634287573
 30
0.0
  0
VERTEX
  5
7BF
  8
VIDITELNE
  6
SLD-PLNÁ
 62
     2
 10
770.5374859569
 20
133.201252955
 30
0.0
  0
VERTEX
  5
7C0
  8
VIDITELNE
  6
SLD-PLNÁ
 62
     2
 10
768.6711223755
 20
133.4377828187
 30
0.0
  0
VERTEX
  5
7C1
  8
VIDITELNE
  6
SLD-PLNÁ
 62
     2
 10
767.0106253617
 20
134.1549284823
 30
0.0
  0
VERTEX
  5
7C2
  8
VIDITELNE
  6
SLD-PLNÁ
 62
     2
 10
765.7192258409
 20
135.3446375773
 30
0.0
  0
VERTEX
  5
7C3
  8
VIDITELNE
  6
SLD-PLNÁ
 62
     2
 10
764.9849058526
 20
136.907684863
 30
0.0
  0
VERTEX
  5
7C4
  8
VIDITELNE
  6
SLD-PLNÁ
 62
     2
 10
764.8329731302
 20
138.1608097761
 30
0.0
  0
SEQEND
  5
7C5
  8
VIDITELNE
  6
SLD-PLNÁ
 62
     2
  0
LINE
  5
31D
  8
VIDITELNE
  6
SLD-PLNÁ
 62
     2
 10
764.8329731302
 20
138.1608097761
 30
0.0
 11
764.9104208147
 21
139.0723255094
 31
0.0
  0
ARC
  5
31E
  8
VIDITELNE
  6
SLD-PLNÁ
 62
     2
 10
770.5
 20
169.9693703116
 30
0.0
 40
3.999999999999858
 50
47.6728187411
 51
90.0
  0
ARC
  5
31F
  8
VIDITELNE
  6
SLD-PLNÁ
 62
     2
 10
770.5
 20
169.9693703116
 30
0.0
 40
3.999999999999881
 50
90.0
 51
130.3773706636
  0
LINE
  5
320
  8
VIDITELNE
  6
SLD-PLNÁ
 62
     2
 10
724.7968060221
 20
98.5826189656
 30
0.0
 11
729.7968060221
 21
95.6958676197
 31
0.0
  0
LINE
  5
321
  8
VIDITELNE
  6
SLD-PLNÁ
 62
     2
 10
724.7968060221
 20
104.3561216575
 30
0.0
 11
724.7968060221
 21
98.5826189656
 31
0.0
  0
LINE
  5
322
  8
VIDITELNE
  6
SLD-PLNÁ
 62
     2
 10
729.7968060221
 20
107.2428730035
 30
0.0
 11
724.7968060221
 21
104.3561216575
 31
0.0
  0
LINE
  5
323
  8
VIDITELNE
  6
SLD-PLNÁ
 62
     2
 10
734.7968060221
 20
104.3561216575
 30
0.0
 11
729.7968060221
 21
107.2428730035
 31
0.0
  0
LINE
  5
324
  8
VIDITELNE
  6
SLD-PLNÁ
 62
     2
 10
734.7968060221
 20
98.5826189656
 30
0.0
 11
734.7968060221
 21
104.3561216575
 31
0.0
  0
LINE
  5
325
  8
VIDITELNE
  6
SLD-PLNÁ
 62
     2
 10
729.7968060221
 20
95.6958676197
 30
0.0
 11
734.7968060221
 21
98.5826189656
 31
0.0
  0
LINE
  5
326
  8
VIDITELNE
  6
SLD-PLNÁ
 62
     2
 10
816.2031939779
 20
104.3561216575
 30
0.0
 11
811.2031939779
 21
107.2428730035
 31
0.0
  0
LINE
  5
327
  8
VIDITELNE
  6
SLD-PLNÁ
 62
     2
 10
816.2031939779
 20
98.5826189656
 30
0.0
 11
816.2031939779
 21
104.3561216575
 31
0.0
  0
LINE
  5
328
  8
VIDITELNE
  6
SLD-PLNÁ
 62
     2
 10
811.2031939779
 20
95.6958676197
 30
0.0
 11
816.2031939779
 21
98.5826189656
 31
0.0
  0
LINE
  5
329
  8
VIDITELNE
  6
SLD-PLNÁ
 62
     2
 10
806.2031939779
 20
98.5826189656
 30
0.0
 11
811.2031939779
 21
95.6958676197
 31
0.0
  0
LINE
  5
32A
  8
VIDITELNE
  6
SLD-PLNÁ
 62
     2
 10
806.2031939779
 20
104.3561216575
 30
0.0
 11
806.2031939779
 21
98.5826189656
 31
0.0
  0
LINE
  5
32B
  8
VIDITELNE
  6
SLD-PLNÁ
 62
     2
 10
811.2031939779
 20
107.2428730035
 30
0.0
 11
806.2031939779
 21
104.3561216575
 31
0.0
  0
LINE
  5
32C
  8
VIDITELNE
  6
SLD-PLNÁ
 62
     2
 10
816.2031939779
 20
57.3561216575
 30
0.0
 11
811.2031939779
 21
60.2428730035
 31
0.0
  0
LINE
  5
32D
  8
VIDITELNE
  6
SLD-PLNÁ
 62
     2
 10
816.2031939779
 20
51.5826189656
 30
0.0
 11
816.2031939779
 21
57.3561216575
 31
0.0
  0
LINE
  5
32E
  8
VIDITELNE
  6
SLD-PLNÁ
 62
     2
 10
811.2031939779
 20
48.6958676197
 30
0.0
 11
816.2031939779
 21
51.5826189656
 31
0.0
  0
LINE
  5
32F
  8
VIDITELNE
  6
SLD-PLNÁ
 62
     2
 10
806.2031939779
 20
51.5826189656
 30
0.0
 11
811.2031939779
 21
48.6958676197
 31
0.0
  0
LINE
  5
330
  8
VIDITELNE
  6
SLD-PLNÁ
 62
     2
 10
806.2031939779
 20
57.3561216575
 30
0.0
 11
806.2031939779
 21
51.5826189656
 31
0.0
  0
LINE
  5
331
  8
VIDITELNE
  6
SLD-PLNÁ
 62
     2
 10
811.2031939779
 20
60.2428730035
 30
0.0
 11
806.2031939779
 21
57.3561216575
 31
0.0
  0
LINE
  5
332
  8
VIDITELNE
  6
SLD-PLNÁ
 62
     2
 10
775.5
 20
28.0826189656
 30
0.0
 11
775.5
 21
33.8561216575
 31
0.0
  0
LINE
  5
333
  8
VIDITELNE
  6
SLD-PLNÁ
 62
     2
 10
770.5
 20
25.1958676197
 30
0.0
 11
775.5
 21
28.0826189656
 31
0.0
  0
LINE
  5
334
  8
VIDITELNE
  6
SLD-PLNÁ
 62
     2
 10
765.5
 20
28.0826189656
 30
0.0
 11
770.5
 21
25.1958676197
 31
0.0
  0
LINE
  5
335
  8
VIDITELNE
  6
SLD-PLNÁ
 62
     2
 10
765.5
 20
33.8561216575
 30
0.0
 11
765.5
 21
28.0826189656
 31
0.0
  0
LINE
  5
336
  8
VIDITELNE
  6
SLD-PLNÁ
 62
     2
 10
770.5
 20
36.7428730035
 30
0.0
 11
765.5
 21
33.8561216575
 31
0.0
  0
LINE
  5
337
  8
VIDITELNE
  6
SLD-PLNÁ
 62
     2
 10
775.5
 20
33.8561216575
 30
0.0
 11
770.5
 21
36.7428730035
 31
0.0
  0
LINE
  5
338
  8
VIDITELNE
  6
SLD-PLNÁ
 62
     2
 10
729.7968060221
 20
48.6958676197
 30
0.0
 11
734.7968060221
 21
51.5826189656
 31
0.0
  0
LINE
  5
339
  8
VIDITELNE
  6
SLD-PLNÁ
 62
     2
 10
724.7968060221
 20
51.5826189656
 30
0.0
 11
729.7968060221
 21
48.6958676197
 31
0.0
  0
LINE
  5
33A
  8
VIDITELNE
  6
SLD-PLNÁ
 62
     2
 10
724.7968060221
 20
57.3561216575
 30
0.0
 11
724.7968060221
 21
51.5826189656
 31
0.0
  0
LINE
  5
33B
  8
VIDITELNE
  6
SLD-PLNÁ
 62
     2
 10
729.7968060221
 20
60.2428730035
 30
0.0
 11
724.7968060221
 21
57.3561216575
 31
0.0
  0
LINE
  5
33C
  8
VIDITELNE
  6
SLD-PLNÁ
 62
     2
 10
734.7968060221
 20
57.3561216575
 30
0.0
 11
729.7968060221
 21
60.2428730035
 31
0.0
  0
LINE
  5
33D
  8
VIDITELNE
  6
SLD-PLNÁ
 62
     2
 10
734.7968060221
 20
51.5826189656
 30
0.0
 11
734.7968060221
 21
57.3561216575
 31
0.0
  0
LINE
  5
33E
  8
VIDITELNE
  6
SLD-PLNÁ
 62
     2
 10
775.5
 20
127.8561216575
 30
0.0
 11
770.5
 21
130.7428730035
 31
0.0
  0
LINE
  5
33F
  8
VIDITELNE
  6
SLD-PLNÁ
 62
     2
 10
775.5
 20
122.0826189656
 30
0.0
 11
775.5
 21
127.8561216575
 31
0.0
  0
LINE
  5
340
  8
VIDITELNE
  6
SLD-PLNÁ
 62
     2
 10
770.5
 20
119.1958676197
 30
0.0
 11
775.5
 21
122.0826189656
 31
0.0
  0
LINE
  5
341
  8
VIDITELNE
  6
SLD-PLNÁ
 62
     2
 10
765.5
 20
122.0826189656
 30
0.0
 11
770.5
 21
119.1958676197
 31
0.0
  0
LINE
  5
342
  8
VIDITELNE
  6
SLD-PLNÁ
 62
     2
 10
770.5
 20
130.7428730035
 30
0.0
 11
765.5
 21
127.8561216575
 31
0.0
  0
LINE
  5
343
  8
VIDITELNE
  6
SLD-PLNÁ
 62
     2
 10
765.5
 20
127.8561216575
 30
0.0
 11
765.5
 21
122.0826189656
 31
0.0
  0
ARC
  5
344
  8
VIDITELNE
  6
SLD-PLNÁ
 62
     2
 10
770.5
 20
77.9693703116
 30
0.0
 40
52.28925629445197
 50
90.9322222308
 51
149.0677777692
  0
ARC
  5
345
  8
VIDITELNE
  6
SLD-PLNÁ
 62
     2
 10
770.5
 20
77.9693703116
 30
0.0
 40
52.28925629445185
 50
30.9322222308
 51
89.0677777692
  0
ARC
  5
346
  8
VIDITELNE
  6
SLD-PLNÁ
 62
     2
 10
770.5
 20
77.9693703116
 30
0.0
 40
52.2892562944518
 50
330.9322222308
 51
29.0677777692
  0
ARC
  5
347
  8
VIDITELNE
  6
SLD-PLNÁ
 62
     2
 10
770.5
 20
77.9693703116
 30
0.0
 40
52.28925629445183
 50
270.9322222308
 51
329.0677777692
  0
ARC
  5
348
  8
VIDITELNE
  6
SLD-PLNÁ
 62
     2
 10
770.5
 20
77.9693703116
 30
0.0
 40
52.28925629445187
 50
210.9322222308
 51
269.0677777692
  0
ARC
  5
349
  8
VIDITELNE
  6
SLD-PLNÁ
 62
     2
 10
770.5
 20
77.9693703116
 30
0.0
 40
52.28925629445191
 50
150.9322222308
 51
209.0677777692
  0
CIRCLE
  5
34A
  8
VIDITELNE
  6
SLD-PLNÁ
 62
     2
 10
770.5
 20
77.9693703116
 30
0.0
 40
54.28803794849011
  0
CIRCLE
  5
34B
  8
VIDITELNE
  6
SLD-PLNÁ
 62
     2
 10
770.5
 20
77.9693703116
 30
0.0
 40
54.5
  0
POLYLINE
  5
34C
  8
VIDITELNE
  6
SLD-PLNÁ
 62
     2
 66
     1
 10
0.0
 20
0.0
 30
0.0
  0
VERTEX
  5
7C6
  8
VIDITELNE
  6
SLD-PLNÁ
 62
     2
 10
827.0703371369
 20
82.9546474604
 30
0.0
  0
VERTEX
  5
7C7
  8
VIDITELNE
  6
SLD-PLNÁ
 62
     2
 10
827.0686062799
 20
82.9688629495
 30
0.0
  0
VERTEX
  5
7C8
  8
VIDITELNE
  6
SLD-PLNÁ
 62
     2
 10
827.1223021314
 20
82.5273886173
 30
0.0
  0
VERTEX
  5
7C9
  8
VIDITELNE
  6
SLD-PLNÁ
 62
     2
 10
827.2571835531
 20
81.2525145675
 30
0.0
  0
VERTEX
  5
7CA
  8
VIDITELNE
  6
SLD-PLNÁ
 62
     2
 10
827.4173060719
 20
79.1005177106
 30
0.0
  0
VERTEX
  5
7CB
  8
VIDITELNE
  6
SLD-PLNÁ
 62
     2
 10
827.5
 20
76.079606532
 30
0.0
  0
SEQEND
  5
7CC
  8
VIDITELNE
  6
SLD-PLNÁ
 62
     2
  0
ARC
  5
34D
  8
VIDITELNE
  6
SLD-PLNÁ
 62
     2
 10
768.6826552803
 20
76.0818554364
 30
0.0
 40
55.18265532616913
 50
172.8454477425
 51
180.0023350222
  0
POLYLINE
  5
34E
  8
VIDITELNE
  6
SLD-PLNÁ
 62
     2
 66
     1
 10
0.0
 20
0.0
 30
0.0
  0
VERTEX
  5
7CD
  8
VIDITELNE
  6
SLD-PLNÁ
 62
     2
 10
753.5488465579
 20
-167.0242101266
 30
0.0
  0
VERTEX
  5
7CE
  8
VIDITELNE
  6
SLD-PLNÁ
 62
     2
 10
753.5209368963
 20
-167.0278729151
 30
0.0
  0
VERTEX
  5
7CF
  8
VIDITELNE
  6
SLD-PLNÁ
 62
     2
 10
753.9097231563
 20
-166.9772876826
 30
0.0
  0
VERTEX
  5
7D0
  8
VIDITELNE
  6
SLD-PLNÁ
 62
     2
 10
754.7435669611
 20
-166.8726821637
 30
0.0
  0
VERTEX
  5
7D1
  8
VIDITELNE
  6
SLD-PLNÁ
 62
     2
 10
756.0441147751
 20
-166.7201373396
 30
0.0
  0
VERTEX
  5
7D2
  8
VIDITELNE
  6
SLD-PLNÁ
 62
     2
 10
757.7180442976
 20
-166.5428934356
 30
0.0
  0
VERTEX
  5
7D3
  8
VIDITELNE
  6
SLD-PLNÁ
 62
     2
 10
759.7990370426
 20
-166.3526432807
 30
0.0
  0
VERTEX
  5
7D4
  8
VIDITELNE
  6
SLD-PLNÁ
 62
     2
 10
762.1410426985
 20
-166.1786038458
 30
0.0
  0
VERTEX
  5
7D5
  8
VIDITELNE
  6
SLD-PLNÁ
 62
     2
 10
764.7875722026
 20
-166.0332217577
 30
0.0
  0
VERTEX
  5
7D6
  8
VIDITELNE
  6
SLD-PLNÁ
 62
     2
 10
768.6195923474
 20
-165.919515921
 30
0.0
  0
VERTEX
  5
7D7
  8
VIDITELNE
  6
SLD-PLNÁ
 62
     2
 10
771.4231638833
 20
-165.9090228449
 30
0.0
  0
VERTEX
  5
7D8
  8
VIDITELNE
  6
SLD-PLNÁ
 62
     2
 10
774.2793688117
 20
-165.9615297213
 30
0.0
  0
VERTEX
  5
7D9
  8
VIDITELNE
  6
SLD-PLNÁ
 62
     2
 10
776.9487797876
 20
-166.0681963572
 30
0.0
  0
VERTEX
  5
7DA
  8
VIDITELNE
  6
SLD-PLNÁ
 62
     2
 10
779.5129370241
 20
-166.2229215142
 30
0.0
  0
VERTEX
  5
7DB
  8
VIDITELNE
  6
SLD-PLNÁ
 62
     2
 10
781.7624373119
 20
-166.4006807541
 30
0.0
  0
VERTEX
  5
7DC
  8
VIDITELNE
  6
SLD-PLNÁ
 62
     2
 10
783.7595113112
 20
-166.591263371
 30
0.0
  0
VERTEX
  5
7DD
  8
VIDITELNE
  6
SLD-PLNÁ
 62
     2
 10
785.3383776052
 20
-166.7636566753
 30
0.0
  0
VERTEX
  5
7DE
  8
VIDITELNE
  6
SLD-PLNÁ
 62
     2
 10
786.5383098509
 20
-166.9074498577
 30
0.0
  0
VERTEX
  5
7DF
  8
VIDITELNE
  6
SLD-PLNÁ
 62
     2
 10
787.2496606398
 20
-166.9978859691
 30
0.0
  0
VERTEX
  5
7E0
  8
VIDITELNE
  6
SLD-PLNÁ
 62
     2
 10
787.4999986352
 20
-167.0306295086
 30
0.0
  0
VERTEX
  5
7E1
  8
VIDITELNE
  6
SLD-PLNÁ
 62
     2
 10
787.4994378438
 20
-167.0305561153
 30
0.0
  0
SEQEND
  5
7E2
  8
VIDITELNE
  6
SLD-PLNÁ
 62
     2
  0
POLYLINE
  5
34F
  8
VIDITELNE
  6
SLD-PLNÁ
 62
     2
 66
     1
 10
0.0
 20
0.0
 30
0.0
  0
VERTEX
  5
7E3
  8
VIDITELNE
  6
SLD-PLNÁ
 62
     2
 10
785.499535579
 20
-169.0305592825
 30
0.0
  0
VERTEX
  5
7E4
  8
VIDITELNE
  6
SLD-PLNÁ
 62
     2
 10
785.4999987957
 20
-169.0306295057
 30
0.0
  0
VERTEX
  5
7E5
  8
VIDITELNE
  6
SLD-PLNÁ
 62
     2
 10
785.2841711765
 20
-168.9979152915
 30
0.0
  0
VERTEX
  5
7E6
  8
VIDITELNE
  6
SLD-PLNÁ
 62
     2
 10
784.6514498684
 20
-168.9054789805
 30
0.0
  0
VERTEX
  5
7E7
  8
VIDITELNE
  6
SLD-PLNÁ
 62
     2
 10
783.6107359875
 20
-168.7617147529
 30
0.0
  0
VERTEX
  5
7E8
  8
VIDITELNE
  6
SLD-PLNÁ
 62
     2
 10
782.199568804
 20
-168.5842335099
 30
0.0
  0
VERTEX
  5
7E9
  8
VIDITELNE
  6
SLD-PLNÁ
 62
     2
 10
780.4654718481
 20
-168.3935784683
 30
0.0
  0
VERTEX
  5
7EA
  8
VIDITELNE
  6
SLD-PLNÁ
 62
     2
 10
778.4525914918
 20
-168.2099981834
 30
0.0
  0
VERTEX
  5
7EB
  8
VIDITELNE
  6
SLD-PLNÁ
 62
     2
 10
776.224048176
 20
-168.0551168245
 30
0.0
  0
VERTEX
  5
7EC
  8
VIDITELNE
  6
SLD-PLNÁ
 62
     2
 10
773.8347371868
 20
-167.9444241218
 30
0.0
  0
VERTEX
  5
7ED
  8
VIDITELNE
  6
SLD-PLNÁ
 62
     2
 10
771.3498346579
 20
-167.8918347629
 30
0.0
  0
VERTEX
  5
7EE
  8
VIDITELNE
  6
SLD-PLNÁ
 62
     2
 10
768.8408167771
 20
-167.9017381007
 30
0.0
  0
VERTEX
  5
7EF
  8
VIDITELNE
  6
SLD-PLNÁ
 62
     2
 10
765.4596225317
 20
-168.0172632308
 30
0.0
  0
VERTEX
  5
7F0
  8
VIDITELNE
  6
SLD-PLNÁ
 62
     2
 10
763.1539020887
 20
-168.1630519422
 30
0.0
  0
VERTEX
  5
7F1
  8
VIDITELNE
  6
SLD-PLNÁ
 62
     2
 10
761.0579738611
 20
-168.3417954982
 30
0.0
  0
VERTEX
  5
7F2
  8
VIDITELNE
  6
SLD-PLNÁ
 62
     2
 10
759.2443868503
 20
-168.5325687507
 30
0.0
  0
VERTEX
  5
7F3
  8
VIDITELNE
  6
SLD-PLNÁ
 62
     2
 10
757.7448071545
 20
-168.715169462
 30
0.0
  0
VERTEX
  5
7F4
  8
VIDITELNE
  6
SLD-PLNÁ
 62
     2
 10
756.6115079931
 20
-168.8680282894
 30
0.0
  0
VERTEX
  5
7F5
  8
VIDITELNE
  6
SLD-PLNÁ
 62
     2
 10
755.861520432
 20
-168.9764342105
 30
0.0
  0
VERTEX
  5
7F6
  8
VIDITELNE
  6
SLD-PLNÁ
 62
     2
 10
755.5219109877
 20
-169.0270920403
 30
0.0
  0
VERTEX
  5
7F7
  8
VIDITELNE
  6
SLD-PLNÁ
 62
     2
 10
755.5462638537
 20
-169.0234793427
 30
0.0
  0
SEQEND
  5
7F8
  8
VIDITELNE
  6
SLD-PLNÁ
 62
     2
  0
LINE
  5
350
  8
VIDITELNE
  6
SLD-PLNÁ
 62
     2
 10
770.5
 20
-173.0306296884
 30
0.0
 11
781.0
 21
-173.0306296884
 31
0.0
  0
LINE
  5
351
  8
VIDITELNE
  6
SLD-PLNÁ
 62
     2
 10
760.0
 20
-173.0306296884
 30
0.0
 11
770.5
 21
-173.0306296884
 31
0.0
  0
LINE
  5
352
  8
VIDITELNE
  6
SLD-PLNÁ
 62
     2
 10
902.5
 20
82.9693703116
 30
0.0
 11
902.5
 21
-167.0306296884
 31
0.0
  0
LINE
  5
353
  8
VIDITELNE
  6
SLD-PLNÁ
 62
     2
 10
837.5842297993
 20
-166.705858167
 30
0.0
 11
837.5697989934
 21
-166.6920393535
 31
0.0
  0
LINE
  5
354
  8
VIDITELNE
  6
SLD-PLNÁ
 62
     2
 10
837.5697989934
 20
82.6307799767
 30
0.0
 11
837.5892079691
 21
82.6493658419
 31
0.0
  0
LINE
  5
355
  8
VIDITELNE
  6
SLD-PLNÁ
 62
     2
 10
848.5
 20
-50.0306296884
 30
0.0
 11
848.5
 21
-34.0306296884
 31
0.0
  0
LINE
  5
356
  8
VIDITELNE
  6
SLD-PLNÁ
 62
     2
 10
899.6471528727
 20
-130.9407235383
 30
0.0
 11
899.6471528727
 21
46.8794641614
 31
0.0
  0
LINE
  5
357
  8
VIDITELNE
  6
SLD-PLNÁ
 62
     2
 10
848.5
 20
-131.3479095249
 30
0.0
 11
848.5
 21
-115.3479095249
 31
0.0
  0
LINE
  5
358
  8
VIDITELNE
  6
SLD-PLNÁ
 62
     2
 10
848.5
 20
31.286650148
 30
0.0
 11
848.5
 21
47.286650148
 31
0.0
  0
LINE
  5
359
  8
VIDITELNE
  6
SLD-PLNÁ
 62
     2
 10
866.7913882374
 20
-107.934869467
 30
0.0
 11
866.7913882374
 21
23.8736100901
 31
0.0
  0
LINE
  5
35A
  8
VIDITELNE
  6
SLD-PLNÁ
 62
     2
 10
841.5
 20
22.9693703116
 30
0.0
 11
841.5
 21
-34.0306296884
 31
0.0
  0
LINE
  5
35B
  8
VIDITELNE
  6
SLD-PLNÁ
 62
     2
 10
841.5
 20
-50.0306296884
 30
0.0
 11
841.5
 21
-107.0306296884
 31
0.0
  0
LINE
  5
35C
  8
VIDITELNE
  6
SLD-PLNÁ
 62
     2
 10
863.9235060556
 20
-107.0306296884
 30
0.0
 11
863.9235060556
 21
22.9693703116
 31
0.0
  0
LINE
  5
35D
  8
VIDITELNE
  6
SLD-PLNÁ
 62
     2
 10
848.5
 20
-165.0306296884
 30
0.0
 11
848.5
 21
-149.0306296884
 31
0.0
  0
LINE
  5
35E
  8
VIDITELNE
  6
SLD-PLNÁ
 62
     2
 10
848.5
 20
64.9693703116
 30
0.0
 11
848.5
 21
80.9693703116
 31
0.0
  0
ARC
  5
35F
  8
VIDITELNE
  6
SLD-PLNÁ
 62
     2
 10
770.5
 20
77.9693703116
 30
0.0
 40
55.28302230777317
 50
101.7981093773
 51
173.3517147146
  0
ARC
  5
360
  8
VIDITELNE
  6
SLD-PLNÁ
 62
     2
 10
770.5
 20
77.9693703116
 30
0.0
 40
55.28302230777309
 50
6.1344693805
 51
78.2018906227
  0
ARC
  5
361
  8
VIDITELNE
  6
SLD-PLNÁ
 62
     2
 10
770.5
 20
77.9693703116
 30
0.0
 40
58.28119478883044
 50
100.6240429872
 51
175.0807821084
  0
ARC
  5
362
  8
VIDITELNE
  6
SLD-PLNÁ
 62
     2
 10
770.5
 20
77.9693703116
 30
0.0
 40
58.28119478883043
 50
4.9192178916
 51
79.3759570128
  0
ARC
  5
363
  8
VIDITELNE
  6
SLD-PLNÁ
 62
     2
 10
770.5
 20
77.9693703116
 30
0.0
 40
77.68449398597667
 50
93.627284614
 51
177.7868158512
  0
ARC
  5
364
  8
VIDITELNE
  6
SLD-PLNÁ
 62
     2
 10
770.5
 20
77.9693703116
 30
0.0
 40
77.68449398597659
 50
2.2131841488
 51
86.3701472862
  0
ARC
  5
365
  8
VIDITELNE
  6
SLD-PLNÁ
 62
     2
 10
770.5
 20
77.9693703116
 30
0.0
 40
77.68449398597656
 50
336.7361574032
 51
350.3665960494
  0
POLYLINE
  5
366
  8
VIDITELNE
  6
SLD-PLNÁ
 62
     2
 66
     1
 10
0.0
 20
0.0
 30
0.0
  0
VERTEX
  5
7F9
  8
VIDITELNE
  6
SLD-PLNÁ
 62
     2
 10
695.2597032041
 20
58.6360223365
 30
0.0
  0
VERTEX
  5
7FA
  8
VIDITELNE
  6
SLD-PLNÁ
 62
     2
 10
694.4057121697
 20
62.3315966384
 30
0.0
  0
VERTEX
  5
7FB
  8
VIDITELNE
  6
SLD-PLNÁ
 62
     2
 10
693.9109628873
 20
64.9693703116
 30
0.0
  0
SEQEND
  5
7FC
  8
VIDITELNE
  6
SLD-PLNÁ
 62
     2
  0
ARC
  5
367
  8
VIDITELNE
  6
SLD-PLNÁ
 62
     2
 10
770.5
 20
77.9693703116
 30
0.0
 40
79.68327564001493
 50
93.4845834172
 51
180.0
  0
ARC
  5
368
  8
VIDITELNE
  6
SLD-PLNÁ
 62
     2
 10
770.5
 20
77.9693703116
 30
0.0
 40
79.68327564001477
 50
352.4913331717
 51
86.5135757267
  0
ARC
  5
369
  8
VIDITELNE
  6
SLD-PLNÁ
 62
     2
 10
770.5
 20
77.9693703116
 30
0.0
 40
79.68327564001478
 50
337.352629831
 51
350.7890224031
  0
ARC
  5
36A
  8
VIDITELNE
  6
SLD-PLNÁ
 62
     2
 10
770.5
 20
77.9693703116
 30
0.0
 40
79.68327564001487
 50
189.2109775969
 51
196.0254320892
  0
POLYLINE
  5
36B
  8
VIDITELNE
  6
SLD-PLNÁ
 62
     2
 66
     1
 10
0.0
 20
0.0
 30
0.0
  0
VERTEX
  5
7FD
  8
VIDITELNE
  6
SLD-PLNÁ
 62
     2
 10
691.5
 20
67.5566657291
 30
0.0
  0
VERTEX
  5
7FE
  8
VIDITELNE
  6
SLD-PLNÁ
 62
     2
 10
690.9946667862
 20
72.6471144661
 30
0.0
  0
VERTEX
  5
7FF
  8
VIDITELNE
  6
SLD-PLNÁ
 62
     2
 10
690.81672436
 20
77.9693703116
 30
0.0
  0
SEQEND
  5
800
  8
VIDITELNE
  6
SLD-PLNÁ
 62
     2
  0
LINE
  5
36C
  8
VIDITELNE
  6
SLD-PLNÁ
 62
     2
 10
692.5
 20
-42.0306296884
 30
0.0
 11
692.5
 21
-50.0306296884
 31
0.0
  0
LINE
  5
36D
  8
VIDITELNE
  6
SLD-PLNÁ
 62
     2
 10
692.5
 20
-34.0306296884
 30
0.0
 11
692.5
 21
-42.0306296884
 31
0.0
  0
LINE
  5
36E
  8
VIDITELNE
  6
SLD-PLNÁ
 62
     2
 10
692.5
 20
-123.3479095249
 30
0.0
 11
692.5
 21
-131.3479095249
 31
0.0
  0
LINE
  5
36F
  8
VIDITELNE
  6
SLD-PLNÁ
 62
     2
 10
692.5
 20
-115.3479095249
 30
0.0
 11
692.5
 21
-123.3479095249
 31
0.0
  0
LINE
  5
370
  8
VIDITELNE
  6
SLD-PLNÁ
 62
     2
 10
692.5
 20
39.286650148
 30
0.0
 11
692.5
 21
31.286650148
 31
0.0
  0
LINE
  5
371
  8
VIDITELNE
  6
SLD-PLNÁ
 62
     2
 10
692.5
 20
47.286650148
 30
0.0
 11
692.5
 21
39.286650148
 31
0.0
  0
LINE
  5
372
  8
VIDITELNE
  6
SLD-PLNÁ
 62
     2
 10
692.5
 20
-157.0306296884
 30
0.0
 11
692.5
 21
-165.0306296884
 31
0.0
  0
LINE
  5
373
  8
VIDITELNE
  6
SLD-PLNÁ
 62
     2
 10
692.5
 20
-149.0306296884
 30
0.0
 11
692.5
 21
-157.0306296884
 31
0.0
  0
LINE
  5
374
  8
VIDITELNE
  6
SLD-PLNÁ
 62
     2
 10
692.5
 20
72.9693703116
 30
0.0
 11
692.5
 21
64.9693703116
 31
0.0
  0
LINE
  5
375
  8
VIDITELNE
  6
SLD-PLNÁ
 62
     2
 10
692.5
 20
80.9693703116
 30
0.0
 11
692.5
 21
72.9693703116
 31
0.0
  0
LINE
  5
376
  8
VIDITELNE
  6
SLD-PLNÁ
 62
     2
 10
764.8329731302
 20
138.1608097761
 30
0.0
 11
760.2680448077
 21
138.1608097761
 31
0.0
  0
LINE
  5
377
  8
VIDITELNE
  6
SLD-PLNÁ
 62
     2
 10
780.7319551923
 20
138.1608097761
 30
0.0
 11
776.1670240867
 21
138.1608097761
 31
0.0
  0
LINE
  5
378
  8
VIDITELNE
  6
SLD-PLNÁ
 62
     2
 10
778.2984764662
 20
140.5942885021
 30
0.0
 11
776.0247218535
 21
140.5942885021
 31
0.0
  0
LINE
  5
379
  8
VIDITELNE
  6
SLD-PLNÁ
 62
     2
 10
764.8696725292
 20
140.5942885021
 30
0.0
 11
762.7015235338
 21
140.5942885021
 31
0.0
  0
LINE
  5
37A
  8
VIDITELNE
  6
SLD-PLNÁ
 62
     2
 10
-500.65
 20
132.9693703116
 30
0.0
 11
-525.65
 21
132.9693703116
 31
0.0
  0
LINE
  5
37B
  8
VIDITELNE
  6
SLD-PLNÁ
 62
     2
 10
-410.65
 20
132.9693703116
 30
0.0
 11
-470.6725757509
 21
132.9693703116
 31
0.0
  0
LINE
  5
37C
  8
VIDITELNE
  6
SLD-PLNÁ
 62
     2
 10
-265.65
 20
132.9693703116
 30
0.0
 11
-380.6725757509
 21
132.9693703116
 31
0.0
  0
LINE
  5
37D
  8
VIDITELNE
  6
SLD-PLNÁ
 62
     2
 10
-525.65
 20
22.9693703116
 30
0.0
 11
-522.65
 21
22.9693703116
 31
0.0
  0
ARC
  5
37E
  8
VIDITELNE
  6
SLD-PLNÁ
 62
     2
 10
-522.65
 20
20.9693703116
 30
0.0
 40
2.000000000000004
 50
0.0
 51
90.0
  0
ARC
  5
37F
  8
VIDITELNE
  6
SLD-PLNÁ
 62
     2
 10
-378.6989745397
 20
-167.8536861524
 30
0.0
 40
1.949649552578536
 50
108.1438088166
 51
180.9643239291
  0
POLYLINE
  5
380
  8
VIDITELNE
  6
SLD-PLNÁ
 62
     2
 66
     1
 10
0.0
 20
0.0
 30
0.0
  0
VERTEX
  5
801
  8
VIDITELNE
  6
SLD-PLNÁ
 62
     2
 10
-412.3642091195
 20
-165.9083823142
 30
0.0
  0
VERTEX
  5
802
  8
VIDITELNE
  6
SLD-PLNÁ
 62
     2
 10
-412.3642200814
 20
-165.9083863642
 30
0.0
  0
VERTEX
  5
803
  8
VIDITELNE
  6
SLD-PLNÁ
 62
     2
 10
-412.3538515023
 20
-165.9099007458
 30
0.0
  0
VERTEX
  5
804
  8
VIDITELNE
  6
SLD-PLNÁ
 62
     2
 10
-412.3387018812
 20
-165.9122159346
 30
0.0
  0
VERTEX
  5
805
  8
VIDITELNE
  6
SLD-PLNÁ
 62
     2
 10
-412.3166422579
 20
-165.915801572
 30
0.0
  0
VERTEX
  5
806
  8
VIDITELNE
  6
SLD-PLNÁ
 62
     2
 10
-412.2724283468
 20
-165.9237550819
 30
0.0
  0
VERTEX
  5
807
  8
VIDITELNE
  6
SLD-PLNÁ
 62
     2
 10
-412.0447416666
 20
-165.9814041566
 30
0.0
  0
VERTEX
  5
808
  8
VIDITELNE
  6
SLD-PLNÁ
 62
     2
 10
-411.6012582262
 20
-166.1842365538
 30
0.0
  0
VERTEX
  5
809
  8
VIDITELNE
  6
SLD-PLNÁ
 62
     2
 10
-411.0217852235
 20
-166.7247237512
 30
0.0
  0
VERTEX
  5
80A
  8
VIDITELNE
  6
SLD-PLNÁ
 62
     2
 10
-410.7249873858
 20
-167.3407448565
 30
0.0
  0
VERTEX
  5
80B
  8
VIDITELNE
  6
SLD-PLNÁ
 62
     2
 10
-410.6715046695
 20
-167.8899447404
 30
0.0
  0
SEQEND
  5
80C
  8
VIDITELNE
  6
SLD-PLNÁ
 62
     2
  0
ARC
  5
381
  8
VIDITELNE
  6
SLD-PLNÁ
 62
     2
 10
-268.65
 20
-19.0306296884
 30
0.0
 40
2.0
 50
104.4775121859
 51
180.0
  0
ARC
  5
382
  8
VIDITELNE
  6
SLD-PLNÁ
 62
     2
 10
-265.65
 20
20.9693703116
 30
0.0
 40
2.000000000000004
 50
90.0
 51
180.0
  0
ARC
  5
383
  8
VIDITELNE
  6
SLD-PLNÁ
 62
     2
 10
-269.65
 20
-15.1576463422
 30
0.0
 40
2.000000000000016
 50
284.4775121859
 51
0.0
  0
LINE
  5
384
  8
VIDITELNE
  6
SLD-PLNÁ
 62
     2
 10
-410.65
 20
-167.8876914689
 30
0.0
 11
-410.65
 21
-170.0306296884
 31
0.0
  0
LINE
  5
385
  8
VIDITELNE
  6
SLD-PLNÁ
 62
     2
 10
-380.65
 20
-170.0306296884
 30
0.0
 11
-380.65
 21
-167.8951841183
 31
0.0
  0
LINE
  5
386
  8
VIDITELNE
  6
SLD-PLNÁ
 62
     2
 10
-406.15
 20
-170.0306296884
 30
0.0
 11
-406.15
 21
-173.0306296884
 31
0.0
  0
LINE
  5
387
  8
VIDITELNE
  6
SLD-PLNÁ
 62
     2
 10
-385.15
 20
-173.0306296884
 30
0.0
 11
-385.15
 21
-170.0306296884
 31
0.0
  0
LINE
  5
388
  8
VIDITELNE
  6
SLD-PLNÁ
 62
     2
 10
-267.65
 20
-12.5306296884
 30
0.0
 11
-264.65
 21
-12.5306296884
 31
0.0
  0
LINE
  5
389
  8
VIDITELNE
  6
SLD-PLNÁ
 62
     2
 10
-264.65
 20
8.4693703116
 30
0.0
 11
-267.65
 21
8.4693703116
 31
0.0
  0
ARC
  5
38A
  8
VIDITELNE
  6
SLD-PLNÁ
 62
     2
 10
-264.65
 20
7.4693703116
 30
0.0
 40
1.0
 50
0.0
 51
90.0
  0
ARC
  5
38B
  8
VIDITELNE
  6
SLD-PLNÁ
 62
     2
 10
-264.65
 20
-11.5306296884
 30
0.0
 40
1.000000000000002
 50
270.0
 51
0.0
  0
ARC
  5
38C
  8
VIDITELNE
  6
SLD-PLNÁ
 62
     2
 10
-386.15
 20
-173.0306296884
 30
0.0
 40
1.0
 50
270.0
 51
0.0
  0
ARC
  5
38D
  8
VIDITELNE
  6
SLD-PLNÁ
 62
     2
 10
-405.15
 20
-173.0306296884
 30
0.0
 40
1.0
 50
180.0
 51
270.0
  0
LINE
  5
38E
  8
VIDITELNE
  6
SLD-PLNÁ
 62
     2
 10
-475.15
 20
131.9162229335
 30
0.0
 11
-475.15
 21
133.9693703116
 31
0.0
  0
LINE
  5
38F
  8
VIDITELNE
  6
SLD-PLNÁ
 62
     2
 10
-496.15
 20
133.9693703116
 30
0.0
 11
-496.15
 21
131.9231907798
 31
0.0
  0
ARC
  5
390
  8
VIDITELNE
  6
SLD-PLNÁ
 62
     2
 10
-495.15
 20
133.9693703116
 30
0.0
 40
1.0
 50
90.0
 51
180.0
  0
ARC
  5
391
  8
VIDITELNE
  6
SLD-PLNÁ
 62
     2
 10
-476.15
 20
133.9693703116
 30
0.0
 40
1.0
 50
0.0
 51
90.0
  0
LINE
  5
392
  8
VIDITELNE
  6
SLD-PLNÁ
 62
     2
 10
-547.65
 20
-2.0306296884
 30
0.0
 11
-538.5802010066
 21
-1.7139053284
 31
0.0
  0
LINE
  5
393
  8
VIDITELNE
  6
SLD-PLNÁ
 62
     2
 10
-538.5802010066
 20
157.6526459516
 30
0.0
 11
-547.65
 21
157.9693703116
 31
0.0
  0
ARC
  5
394
  8
VIDITELNE
  6
SLD-PLNÁ
 62
     2
 10
-538.65
 20
0.2848763256
 30
0.0
 40
2.0
 50
272.0
 51
0.0
  0
ARC
  5
395
  8
VIDITELNE
  6
SLD-PLNÁ
 62
     2
 10
-538.65
 20
155.6538642975
 30
0.0
 40
2.000000000000002
 50
0.0
 51
88.0
  0
ARC
  5
396
  8
VIDITELNE
  6
SLD-PLNÁ
 62
     2
 10
-533.65
 20
19.6881755227
 30
0.0
 40
2.999999999999996
 50
92.0
 51
180.0
  0
ARC
  5
397
  8
VIDITELNE
  6
SLD-PLNÁ
 62
     2
 10
-533.65
 20
136.2505651004
 30
0.0
 40
2.999999999999993
 50
180.0
 51
268.0
  0
LINE
  5
398
  8
VIDITELNE
  6
SLD-PLNÁ
 62
     2
 10
-533.7546984901
 20
22.6863480038
 30
0.0
 11
-525.65
 21
22.9693703116
 31
0.0
  0
LINE
  5
399
  8
VIDITELNE
  6
SLD-PLNÁ
 62
     2
 10
-525.65
 20
132.9693703116
 30
0.0
 11
-533.7546984901
 21
133.2523926193
 31
0.0
  0
LINE
  5
39A
  8
VIDITELNE
  6
SLD-PLNÁ
 62
     2
 10
-384.3465354484
 20
132.0839782269
 30
0.0
 11
-384.5444667725
 21
133.2065025466
 31
0.0
  0
LINE
  5
39B
  8
VIDITELNE
  6
SLD-PLNÁ
 62
     2
 10
-406.7555279998
 20
133.2065321945
 30
0.0
 11
-406.9540484586
 21
132.0806667258
 31
0.0
  0
POLYLINE
  5
39C
  8
VIDITELNE
  6
SLD-PLNÁ
 62
     2
 66
     1
 10
0.0
 20
0.0
 30
0.0
  0
VERTEX
  5
80D
  8
VIDITELNE
  6
SLD-PLNÁ
 62
     2
 10
-395.65
 20
141.969367316
 30
0.0
  0
VERTEX
  5
80E
  8
VIDITELNE
  6
SLD-PLNÁ
 62
     2
 10
-397.7428191919
 20
142.0444870367
 30
0.0
  0
VERTEX
  5
80F
  8
VIDITELNE
  6
SLD-PLNÁ
 62
     2
 10
-399.562057361
 20
142.4472908267
 30
0.0
  0
VERTEX
  5
810
  8
VIDITELNE
  6
SLD-PLNÁ
 62
     2
 10
-401.0733746959
 20
143.0348934578
 30
0.0
  0
VERTEX
  5
811
  8
VIDITELNE
  6
SLD-PLNÁ
 62
     2
 10
-402.2777837383
 20
143.699773228
 30
0.0
  0
VERTEX
  5
812
  8
VIDITELNE
  6
SLD-PLNÁ
 62
     2
 10
-403.9617245108
 20
145.0020426762
 30
0.0
  0
VERTEX
  5
813
  8
VIDITELNE
  6
SLD-PLNÁ
 62
     2
 10
-405.2652682567
 20
146.4436662941
 30
0.0
  0
VERTEX
  5
814
  8
VIDITELNE
  6
SLD-PLNÁ
 62
     2
 10
-407.0148040045
 20
149.7118429675
 30
0.0
  0
VERTEX
  5
815
  8
VIDITELNE
  6
SLD-PLNÁ
 62
     2
 10
-407.4945944462
 20
151.5803132739
 30
0.0
  0
VERTEX
  5
816
  8
VIDITELNE
  6
SLD-PLNÁ
 62
     2
 10
-407.666337906
 20
153.7241479769
 30
0.0
  0
VERTEX
  5
817
  8
VIDITELNE
  6
SLD-PLNÁ
 62
     2
 10
-407.4379029216
 20
155.9440916712
 30
0.0
  0
VERTEX
  5
818
  8
VIDITELNE
  6
SLD-PLNÁ
 62
     2
 10
-406.8872628654
 20
157.8772895207
 30
0.0
  0
VERTEX
  5
819
  8
VIDITELNE
  6
SLD-PLNÁ
 62
     2
 10
-406.092747048
 20
159.5805099574
 30
0.0
  0
VERTEX
  5
81A
  8
VIDITELNE
  6
SLD-PLNÁ
 62
     2
 10
-404.9684249683
 20
161.2445803156
 30
0.0
  0
VERTEX
  5
81B
  8
VIDITELNE
  6
SLD-PLNÁ
 62
     2
 10
-403.4742363332
 20
162.8104183859
 30
0.0
  0
VERTEX
  5
81C
  8
VIDITELNE
  6
SLD-PLNÁ
 62
     2
 10
-401.5782991668
 20
164.1905655313
 30
0.0
  0
VERTEX
  5
81D
  8
VIDITELNE
  6
SLD-PLNÁ
 62
     2
 10
-399.0266018055
 20
165.3484858181
 30
0.0
  0
VERTEX
  5
81E
  8
VIDITELNE
  6
SLD-PLNÁ
 62
     2
 10
-395.65
 20
165.9693703116
 30
0.0
  0
SEQEND
  5
81F
  8
VIDITELNE
  6
SLD-PLNÁ
 62
     2
  0
POLYLINE
  5
39D
  8
VIDITELNE
  6
SLD-PLNÁ
 62
     2
 66
     1
 10
0.0
 20
0.0
 30
0.0
  0
VERTEX
  5
820
  8
VIDITELNE
  6
SLD-PLNÁ
 62
     2
 10
-395.65
 20
173.9693703116
 30
0.0
  0
VERTEX
  5
821
  8
VIDITELNE
  6
SLD-PLNÁ
 62
     2
 10
-398.8008773865
 20
173.8313852467
 30
0.0
  0
VERTEX
  5
822
  8
VIDITELNE
  6
SLD-PLNÁ
 62
     2
 10
-401.6233232532
 20
173.2914107613
 30
0.0
  0
VERTEX
  5
823
  8
VIDITELNE
  6
SLD-PLNÁ
 62
     2
 10
-404.0825647726
 20
172.4839093594
 30
0.0
  0
VERTEX
  5
824
  8
VIDITELNE
  6
SLD-PLNÁ
 62
     2
 10
-406.1717852124
 20
171.5221266604
 30
0.0
  0
VERTEX
  5
825
  8
VIDITELNE
  6
SLD-PLNÁ
 62
     2
 10
-409.6410770239
 20
169.2311183556
 30
0.0
  0
VERTEX
  5
826
  8
VIDITELNE
  6
SLD-PLNÁ
 62
     2
 10
-412.3895604535
 20
166.5655818785
 30
0.0
  0
VERTEX
  5
827
  8
VIDITELNE
  6
SLD-PLNÁ
 62
     2
 10
-414.4784629788
 20
163.696821071
 30
0.0
  0
VERTEX
  5
828
  8
VIDITELNE
  6
SLD-PLNÁ
 62
     2
 10
-416.0136670817
 20
160.6664199398
 30
0.0
  0
VERTEX
  5
829
  8
VIDITELNE
  6
SLD-PLNÁ
 62
     2
 10
-417.1420354921
 20
157.0706736296
 30
0.0
  0
VERTEX
  5
82A
  8
VIDITELNE
  6
SLD-PLNÁ
 62
     2
 10
-417.6486769324
 20
153.0101750625
 30
0.0
  0
VERTEX
  5
82B
  8
VIDITELNE
  6
SLD-PLNÁ
 62
     2
 10
-417.4382052283
 20
149.2208263874
 30
0.0
  0
VERTEX
  5
82C
  8
VIDITELNE
  6
SLD-PLNÁ
 62
     2
 10
-416.6851671011
 20
145.849444146
 30
0.0
  0
VERTEX
  5
82D
  8
VIDITELNE
  6
SLD-PLNÁ
 62
     2
 10
-415.4165264182
 20
142.6319872629
 30
0.0
  0
VERTEX
  5
82E
  8
VIDITELNE
  6
SLD-PLNÁ
 62
     2
 10
-413.6498579938
 20
139.6266387049
 30
0.0
  0
VERTEX
  5
82F
  8
VIDITELNE
  6
SLD-PLNÁ
 62
     2
 10
-412.2562551695
 20
137.8315704125
 30
0.0
  0
VERTEX
  5
830
  8
VIDITELNE
  6
SLD-PLNÁ
 62
     2
 10
-410.7196865358
 20
136.2164247467
 30
0.0
  0
VERTEX
  5
831
  8
VIDITELNE
  6
SLD-PLNÁ
 62
     2
 10
-408.6107965573
 20
134.4411761135
 30
0.0
  0
VERTEX
  5
832
  8
VIDITELNE
  6
SLD-PLNÁ
 62
     2
 10
-406.7431294952
 20
133.219112136
 30
0.0
  0
SEQEND
  5
833
  8
VIDITELNE
  6
SLD-PLNÁ
 62
     2
  0
POLYLINE
  5
39E
  8
VIDITELNE
  6
SLD-PLNÁ
 62
     2
 66
     1
 10
0.0
 20
0.0
 30
0.0
  0
VERTEX
  5
834
  8
VIDITELNE
  6
SLD-PLNÁ
 62
     2
 10
-384.5550468142
 20
133.2191605017
 30
0.0
  0
VERTEX
  5
835
  8
VIDITELNE
  6
SLD-PLNÁ
 62
     2
 10
-383.6892787387
 20
133.7395395936
 30
0.0
  0
VERTEX
  5
836
  8
VIDITELNE
  6
SLD-PLNÁ
 62
     2
 10
-382.0662918088
 20
134.9206617398
 30
0.0
  0
VERTEX
  5
837
  8
VIDITELNE
  6
SLD-PLNÁ
 62
     2
 10
-380.2545759659
 20
136.5328347147
 30
0.0
  0
VERTEX
  5
838
  8
VIDITELNE
  6
SLD-PLNÁ
 62
     2
 10
-378.3508251183
 20
138.6773634889
 30
0.0
  0
VERTEX
  5
839
  8
VIDITELNE
  6
SLD-PLNÁ
 62
     2
 10
-376.7272943134
 20
141.0622319609
 30
0.0
  0
VERTEX
  5
83A
  8
VIDITELNE
  6
SLD-PLNÁ
 62
     2
 10
-375.6485508925
 20
143.1296139797
 30
0.0
  0
VERTEX
  5
83B
  8
VIDITELNE
  6
SLD-PLNÁ
 62
     2
 10
-374.9684498319
 20
144.7920096573
 30
0.0
  0
VERTEX
  5
83C
  8
VIDITELNE
  6
SLD-PLNÁ
 62
     2
 10
-374.3963064846
 20
146.6096279
 30
0.0
  0
VERTEX
  5
83D
  8
VIDITELNE
  6
SLD-PLNÁ
 62
     2
 10
-373.9088595821
 20
148.9070599239
 30
0.0
  0
VERTEX
  5
83E
  8
VIDITELNE
  6
SLD-PLNÁ
 62
     2
 10
-373.6520918914
 20
151.6347475503
 30
0.0
  0
VERTEX
  5
83F
  8
VIDITELNE
  6
SLD-PLNÁ
 62
     2
 10
-373.9204978573
 20
155.826602678
 30
0.0
  0
VERTEX
  5
840
  8
VIDITELNE
  6
SLD-PLNÁ
 62
     2
 10
-374.9844274657
 20
159.8911897718
 30
0.0
  0
VERTEX
  5
841
  8
VIDITELNE
  6
SLD-PLNÁ
 62
     2
 10
-376.016984872
 20
162.2558323398
 30
0.0
  0
VERTEX
  5
842
  8
VIDITELNE
  6
SLD-PLNÁ
 62
     2
 10
-377.0756529622
 20
164.1038726326
 30
0.0
  0
VERTEX
  5
843
  8
VIDITELNE
  6
SLD-PLNÁ
 62
     2
 10
-378.0729381441
 20
165.5317946101
 30
0.0
  0
VERTEX
  5
844
  8
VIDITELNE
  6
SLD-PLNÁ
 62
     2
 10
-379.3356808769
 20
167.0442160452
 30
0.0
  0
VERTEX
  5
845
  8
VIDITELNE
  6
SLD-PLNÁ
 62
     2
 10
-381.0226245138
 20
168.6948974146
 30
0.0
  0
VERTEX
  5
846
  8
VIDITELNE
  6
SLD-PLNÁ
 62
     2
 10
-383.296128323
 20
170.4334901218
 30
0.0
  0
VERTEX
  5
847
  8
VIDITELNE
  6
SLD-PLNÁ
 62
     2
 10
-385.5789613388
 20
171.7534397497
 30
0.0
  0
VERTEX
  5
848
  8
VIDITELNE
  6
SLD-PLNÁ
 62
     2
 10
-388.4049051363
 20
172.9140940347
 30
0.0
  0
VERTEX
  5
849
  8
VIDITELNE
  6
SLD-PLNÁ
 62
     2
 10
-391.7791592712
 20
173.7349295512
 30
0.0
  0
VERTEX
  5
84A
  8
VIDITELNE
  6
SLD-PLNÁ
 62
     2
 10
-395.65
 20
173.9693703116
 30
0.0
  0
SEQEND
  5
84B
  8
VIDITELNE
  6
SLD-PLNÁ
 62
     2
  0
POLYLINE
  5
39F
  8
VIDITELNE
  6
SLD-PLNÁ
 62
     2
 66
     1
 10
0.0
 20
0.0
 30
0.0
  0
VERTEX
  5
84C
  8
VIDITELNE
  6
SLD-PLNÁ
 62
     2
 10
-395.65
 20
165.9693703116
 30
0.0
  0
VERTEX
  5
84D
  8
VIDITELNE
  6
SLD-PLNÁ
 62
     2
 10
-393.8612761694
 20
165.7571923654
 30
0.0
  0
VERTEX
  5
84E
  8
VIDITELNE
  6
SLD-PLNÁ
 62
     2
 10
-392.2733981945
 20
165.3484858181
 30
0.0
  0
VERTEX
  5
84F
  8
VIDITELNE
  6
SLD-PLNÁ
 62
     2
 10
-389.7217008332
 20
164.1905655313
 30
0.0
  0
VERTEX
  5
850
  8
VIDITELNE
  6
SLD-PLNÁ
 62
     2
 10
-387.8257636668
 20
162.8104183859
 30
0.0
  0
VERTEX
  5
851
  8
VIDITELNE
  6
SLD-PLNÁ
 62
     2
 10
-386.3315750317
 20
161.2445803156
 30
0.0
  0
VERTEX
  5
852
  8
VIDITELNE
  6
SLD-PLNÁ
 62
     2
 10
-385.207252952
 20
159.5805099574
 30
0.0
  0
VERTEX
  5
853
  8
VIDITELNE
  6
SLD-PLNÁ
 62
     2
 10
-384.4127371346
 20
157.8772895207
 30
0.0
  0
VERTEX
  5
854
  8
VIDITELNE
  6
SLD-PLNÁ
 62
     2
 10
-383.8620970784
 20
155.9440916712
 30
0.0
  0
VERTEX
  5
855
  8
VIDITELNE
  6
SLD-PLNÁ
 62
     2
 10
-383.633662094
 20
153.7241479769
 30
0.0
  0
VERTEX
  5
856
  8
VIDITELNE
  6
SLD-PLNÁ
 62
     2
 10
-383.8054055538
 20
151.5803132739
 30
0.0
  0
VERTEX
  5
857
  8
VIDITELNE
  6
SLD-PLNÁ
 62
     2
 10
-384.2851959955
 20
149.7118429675
 30
0.0
  0
VERTEX
  5
858
  8
VIDITELNE
  6
SLD-PLNÁ
 62
     2
 10
-386.0347317433
 20
146.4436662941
 30
0.0
  0
VERTEX
  5
859
  8
VIDITELNE
  6
SLD-PLNÁ
 62
     2
 10
-387.3382754892
 20
145.0020426762
 30
0.0
  0
VERTEX
  5
85A
  8
VIDITELNE
  6
SLD-PLNÁ
 62
     2
 10
-389.0222162617
 20
143.699773228
 30
0.0
  0
VERTEX
  5
85B
  8
VIDITELNE
  6
SLD-PLNÁ
 62
     2
 10
-390.2266253041
 20
143.0348934578
 30
0.0
  0
VERTEX
  5
85C
  8
VIDITELNE
  6
SLD-PLNÁ
 62
     2
 10
-391.737942639
 20
142.4472908267
 30
0.0
  0
VERTEX
  5
85D
  8
VIDITELNE
  6
SLD-PLNÁ
 62
     2
 10
-393.5571808081
 20
142.0444870367
 30
0.0
  0
VERTEX
  5
85E
  8
VIDITELNE
  6
SLD-PLNÁ
 62
     2
 10
-395.65
 20
141.969367316
 30
0.0
  0
SEQEND
  5
85F
  8
VIDITELNE
  6
SLD-PLNÁ
 62
     2
  0
LINE
  5
3A0
  8
VIDITELNE
  6
SLD-PLNÁ
 62
     2
 10
-265.65
 20
23.4693703116
 30
0.0
 11
-259.5802010066
 21
23.6813323631
 31
0.0
  0
LINE
  5
3A1
  8
VIDITELNE
  6
SLD-PLNÁ
 62
     2
 10
-259.5802010066
 20
132.2574082601
 30
0.0
 11
-265.65
 21
132.4693703116
 31
0.0
  0
ARC
  5
3A2
  8
VIDITELNE
  6
SLD-PLNÁ
 62
     2
 10
-259.65
 20
25.6801140171
 30
0.0
 40
2.000000000000008
 50
272.0
 51
0.0
  0
ARC
  5
3A3
  8
VIDITELNE
  6
SLD-PLNÁ
 62
     2
 10
-259.65
 20
130.258626606
 30
0.0
 40
2.000000000000004
 50
0.0
 51
88.0
  0
CIRCLE
  5
3A4
  8
VIDITELNE
  6
SLD-PLNÁ
 62
     2
 10
-395.65
 20
-42.0306296884
 30
0.0
 40
30.5
  0
LINE
  5
3A5
  8
VIDITELNE
  6
SLD-PLNÁ
 62
     2
 10
-402.65
 20
-15.7306296884
 30
0.0
 11
-388.65
 21
-15.7306296884
 31
0.0
  0
LINE
  5
3A6
  8
VIDITELNE
  6
SLD-PLNÁ
 62
     2
 10
-402.65
 20
-19.4353899783
 30
0.0
 11
-402.65
 21
-15.7306296884
 31
0.0
  0
ARC
  5
3A7
  8
VIDITELNE
  6
SLD-PLNÁ
 62
     2
 10
-395.65
 20
-42.0306296884
 30
0.0
 40
23.65470053837927
 50
107.2129689444
 51
72.7870310556
  0
LINE
  5
3A8
  8
VIDITELNE
  6
SLD-PLNÁ
 62
     2
 10
-388.65
 20
-15.7306296884
 30
0.0
 11
-388.65
 21
-19.4353899783
 31
0.0
  0
CIRCLE
  5
3A9
  8
VIDITELNE
  6
SLD-PLNÁ
 62
     2
 10
-395.65
 20
-42.0306296884
 30
0.0
 40
32.5
  0
ARC
  5
3AA
  8
VIDITELNE
  6
SLD-PLNÁ
 62
     2
 10
-395.65
 20
-42.0306296884
 30
0.0
 40
22.50000000000001
 50
108.1262039606
 51
71.8737960394
  0
LINE
  5
3AB
  8
VIDITELNE
  6
SLD-PLNÁ
 62
     2
 10
-402.65
 20
-19.4353899783
 30
0.0
 11
-402.65
 21
-20.6472249081
 31
0.0
  0
LINE
  5
3AC
  8
VIDITELNE
  6
SLD-PLNÁ
 62
     2
 10
-388.65
 20
-20.6472249081
 30
0.0
 11
-388.65
 21
-19.4353899783
 31
0.0
  0
ARC
  5
3AD
  8
VIDITELNE
  6
SLD-PLNÁ
 62
     2
 10
-395.65
 20
-46.6024538385
 30
0.0
 40
131.3283646897418
 50
71.54133344
 51
108.45866656
  0
LINE
  5
3AE
  8
VIDITELNE
  6
SLD-PLNÁ
 62
     2
 10
-354.0687542274
 20
77.9693703116
 30
0.0
 11
-354.7235769955
 21
76.079606532
 31
0.0
  0
LINE
  5
3AF
  8
VIDITELNE
  6
SLD-PLNÁ
 62
     2
 10
-437.2312457726
 20
77.9693703116
 30
0.0
 11
-436.5764230045
 21
76.079606532
 31
0.0
  0
ARC
  5
3B0
  8
VIDITELNE
  6
SLD-PLNÁ
 62
     2
 10
-519.8411611348
 20
-41.9162286737
 30
0.0
 40
249.1911873949194
 50
359.9736961182
 51
7.2640703418
  0
LINE
  5
3B1
  8
VIDITELNE
  6
SLD-PLNÁ
 62
     2
 10
-272.65
 20
-10.4078530868
 30
0.0
 11
-274.587007874
 21
-10.9058495687
 31
0.0
  0
LINE
  5
3B2
  8
VIDITELNE
  6
SLD-PLNÁ
 62
     2
 10
-518.65
 20
-10.4078530868
 30
0.0
 11
-516.712992126
 21
-10.9058495687
 31
0.0
  0
ARC
  5
3B3
  8
VIDITELNE
  6
SLD-PLNÁ
 62
     2
 10
-271.4588388631
 20
-41.9162286739
 30
0.0
 40
249.1911873970324
 50
172.7359296582
 51
180.0263038818
  0
CIRCLE
  5
3B4
  8
VIDITELNE
  6
SLD-PLNÁ
 62
     2
 10
-395.65
 20
-42.0306296884
 30
0.0
 40
125.0
  0
ARC
  5
3B5
  8
VIDITELNE
  6
SLD-PLNÁ
 62
     2
 10
-395.65
 20
-42.0306296884
 30
0.0
 40
127.0000000000001
 50
109.1117321372
 51
165.5817588266
  0
ARC
  5
3B6
  8
VIDITELNE
  6
SLD-PLNÁ
 62
     2
 10
-395.65
 20
-42.0306296884
 30
0.0
 40
127.0
 50
14.4182411734
 51
70.8882678628
  0
LINE
  5
3B7
  8
VIDITELNE
  6
SLD-PLNÁ
 62
     2
 10
-265.65
 20
25.4724665936
 30
0.0
 11
-265.65
 21
132.9693703116
 31
0.0
  0
LINE
  5
3B8
  8
VIDITELNE
  6
SLD-PLNÁ
 62
     2
 10
-268.65
 20
25.4724665936
 30
0.0
 11
-265.65
 21
25.4724665936
 31
0.0
  0
LINE
  5
3B9
  8
VIDITELNE
  6
SLD-PLNÁ
 62
     2
 10
-268.65
 20
57.7291995574
 30
0.0
 11
-268.65
 21
25.4724665936
 31
0.0
  0
POLYLINE
  5
3BA
  8
VIDITELNE
  6
SLD-PLNÁ
 62
     2
 66
     1
 10
0.0
 20
0.0
 30
0.0
  0
VERTEX
  5
860
  8
VIDITELNE
  6
SLD-PLNÁ
 62
     2
 10
-272.65
 20
77.9693703116
 30
0.0
  0
VERTEX
  5
861
  8
VIDITELNE
  6
SLD-PLNÁ
 62
     2
 10
-272.6375823126
 20
77.9241392816
 30
0.0
  0
VERTEX
  5
862
  8
VIDITELNE
  6
SLD-PLNÁ
 62
     2
 10
-271.5938625214
 20
74.0902550359
 30
0.0
  0
VERTEX
  5
863
  8
VIDITELNE
  6
SLD-PLNÁ
 62
     2
 10
-270.4450859643
 20
69.6076710673
 30
0.0
  0
VERTEX
  5
864
  8
VIDITELNE
  6
SLD-PLNÁ
 62
     2
 10
-269.4646588335
 20
65.1071333395
 30
0.0
  0
VERTEX
  5
865
  8
VIDITELNE
  6
SLD-PLNÁ
 62
     2
 10
-268.8872713326
 20
61.4161442249
 30
0.0
  0
VERTEX
  5
866
  8
VIDITELNE
  6
SLD-PLNÁ
 62
     2
 10
-268.65
 20
57.7291995574
 30
0.0
  0
SEQEND
  5
867
  8
VIDITELNE
  6
SLD-PLNÁ
 62
     2
  0
LINE
  5
3BB
  8
VIDITELNE
  6
SLD-PLNÁ
 62
     2
 10
-272.65
 20
77.9693703116
 30
0.0
 11
-354.0687542274
 21
77.9693703116
 31
0.0
  0
LINE
  5
3BC
  8
VIDITELNE
  6
SLD-PLNÁ
 62
     2
 10
-518.65
 20
77.9693703116
 30
0.0
 11
-437.2312457726
 21
77.9693703116
 31
0.0
  0
POLYLINE
  5
3BD
  8
VIDITELNE
  6
SLD-PLNÁ
 62
     2
 66
     1
 10
0.0
 20
0.0
 30
0.0
  0
VERTEX
  5
868
  8
VIDITELNE
  6
SLD-PLNÁ
 62
     2
 10
-522.65
 20
57.7291995574
 30
0.0
  0
VERTEX
  5
869
  8
VIDITELNE
  6
SLD-PLNÁ
 62
     2
 10
-522.418392374
 20
61.3678949122
 30
0.0
  0
VERTEX
  5
86A
  8
VIDITELNE
  6
SLD-PLNÁ
 62
     2
 10
-521.8353411665
 20
65.1071333395
 30
0.0
  0
VERTEX
  5
86B
  8
VIDITELNE
  6
SLD-PLNÁ
 62
     2
 10
-520.8636334368
 20
69.5715118109
 30
0.0
  0
VERTEX
  5
86C
  8
VIDITELNE
  6
SLD-PLNÁ
 62
     2
 10
-519.7061374786
 20
74.0902550359
 30
0.0
  0
VERTEX
  5
86D
  8
VIDITELNE
  6
SLD-PLNÁ
 62
     2
 10
-518.6624176874
 20
77.9241392816
 30
0.0
  0
VERTEX
  5
86E
  8
VIDITELNE
  6
SLD-PLNÁ
 62
     2
 10
-518.65
 20
77.9693703116
 30
0.0
  0
SEQEND
  5
86F
  8
VIDITELNE
  6
SLD-PLNÁ
 62
     2
  0
LINE
  5
3BE
  8
VIDITELNE
  6
SLD-PLNÁ
 62
     2
 10
-525.65
 20
77.9693703116
 30
0.0
 11
-525.65
 21
132.9693703116
 31
0.0
  0
LINE
  5
3BF
  8
VIDITELNE
  6
SLD-PLNÁ
 62
     2
 10
-525.65
 20
22.9693703116
 30
0.0
 11
-525.65
 21
77.9693703116
 31
0.0
  0
ARC
  5
3C0
  8
VIDITELNE
  6
SLD-PLNÁ
 62
     2
 10
-486.2046945436
 20
189.2948054275
 30
0.0
 40
58.43365669505848
 50
273.4876274061
 51
285.414954933
  0
ARC
  5
3C1
  8
VIDITELNE
  6
SLD-PLNÁ
 62
     2
 10
-485.0566240479
 20
189.5296260242
 30
0.0
 40
58.67040054288589
 50
254.5867379966
 51
266.4886175874
  0
LINE
  5
3C2
  8
VIDITELNE
  6
SLD-PLNÁ
 62
     2
 10
-488.65
 20
130.9693703116
 30
0.0
 11
-482.65
 21
130.9693703116
 31
0.0
  0
ARC
  5
3C3
  8
VIDITELNE
  6
SLD-PLNÁ
 62
     2
 10
-396.2046945436
 20
189.2948054274
 30
0.0
 40
58.4336566950499
 50
273.4876274061
 51
285.414954933
  0
ARC
  5
3C4
  8
VIDITELNE
  6
SLD-PLNÁ
 62
     2
 10
-395.0566240479
 20
189.5296260242
 30
0.0
 40
58.67040054289769
 50
254.5867379966
 51
266.4886175874
  0
LINE
  5
3C5
  8
VIDITELNE
  6
SLD-PLNÁ
 62
     2
 10
-398.65
 20
130.9693703116
 30
0.0
 11
-392.65
 21
130.9693703116
 31
0.0
  0
LINE
  5
3C6
  8
VIDITELNE
  6
SLD-PLNÁ
 62
     2
 10
-272.65
 20
-10.4078530868
 30
0.0
 11
-272.65
 21
77.9693703116
 31
0.0
  0
LINE
  5
3C7
  8
VIDITELNE
  6
SLD-PLNÁ
 62
     2
 10
-518.65
 20
77.9693703116
 30
0.0
 11
-518.65
 21
-10.4078530868
 31
0.0
  0
ARC
  5
3C8
  8
VIDITELNE
  6
SLD-PLNÁ
 62
     2
 10
-499.3543326237
 20
45.7705255733
 30
0.0
 40
228.9795188064257
 50
2.8092871132
 51
8.0836600563
  0
LINE
  5
3C9
  8
VIDITELNE
  6
SLD-PLNÁ
 62
     2
 10
-270.65
 20
56.9931933482
 30
0.0
 11
-270.65
 21
-42.0306296884
 31
0.0
  0
ARC
  5
3CA
  8
VIDITELNE
  6
SLD-PLNÁ
 62
     2
 10
-291.9456673764
 20
45.7705255733
 30
0.0
 40
228.9795188063945
 50
171.9163399437
 51
177.1907128868
  0
POLYLINE
  5
3CB
  8
VIDITELNE
  6
SLD-PLNÁ
 62
     2
 66
     1
 10
0.0
 20
0.0
 30
0.0
  0
VERTEX
  5
870
  8
VIDITELNE
  6
SLD-PLNÁ
 62
     2
 10
-522.65
 20
57.7291995574
 30
0.0
  0
VERTEX
  5
871
  8
VIDITELNE
  6
SLD-PLNÁ
 62
     2
 10
-522.259819356
 20
57.7150574045
 30
0.0
  0
VERTEX
  5
872
  8
VIDITELNE
  6
SLD-PLNÁ
 62
     2
 10
-521.8846331353
 20
57.6731744207
 30
0.0
  0
VERTEX
  5
873
  8
VIDITELNE
  6
SLD-PLNÁ
 62
     2
 10
-521.538859534
 20
57.6051601456
 30
0.0
  0
VERTEX
  5
874
  8
VIDITELNE
  6
SLD-PLNÁ
 62
     2
 10
-521.2357864376
 20
57.5136283297
 30
0.0
  0
VERTEX
  5
875
  8
VIDITELNE
  6
SLD-PLNÁ
 62
     2
 10
-520.9870607754
 20
57.4020964893
 30
0.0
  0
VERTEX
  5
876
  8
VIDITELNE
  6
SLD-PLNÁ
 62
     2
 10
-520.802240935
 20
57.2748507306
 30
0.0
  0
VERTEX
  5
877
  8
VIDITELNE
  6
SLD-PLNÁ
 62
     2
 10
-520.6884294392
 20
57.1367810365
 30
0.0
  0
VERTEX
  5
878
  8
VIDITELNE
  6
SLD-PLNÁ
 62
     2
 10
-520.65
 20
56.9931933482
 30
0.0
  0
SEQEND
  5
879
  8
VIDITELNE
  6
SLD-PLNÁ
 62
     2
  0
LINE
  5
3CC
  8
VIDITELNE
  6
SLD-PLNÁ
 62
     2
 10
-520.65
 20
-42.0306296884
 30
0.0
 11
-520.65
 21
56.9931933482
 31
0.0
  0
POLYLINE
  5
3CD
  8
VIDITELNE
  6
SLD-PLNÁ
 62
     2
 66
     1
 10
0.0
 20
0.0
 30
0.0
  0
VERTEX
  5
87A
  8
VIDITELNE
  6
SLD-PLNÁ
 62
     2
 10
-268.65
 20
57.7291995574
 30
0.0
  0
VERTEX
  5
87B
  8
VIDITELNE
  6
SLD-PLNÁ
 62
     2
 10
-269.040180644
 20
57.7150574045
 30
0.0
  0
VERTEX
  5
87C
  8
VIDITELNE
  6
SLD-PLNÁ
 62
     2
 10
-269.4153668647
 20
57.6731744207
 30
0.0
  0
VERTEX
  5
87D
  8
VIDITELNE
  6
SLD-PLNÁ
 62
     2
 10
-269.761140466
 20
57.6051601456
 30
0.0
  0
VERTEX
  5
87E
  8
VIDITELNE
  6
SLD-PLNÁ
 62
     2
 10
-270.0642135624
 20
57.5136283297
 30
0.0
  0
VERTEX
  5
87F
  8
VIDITELNE
  6
SLD-PLNÁ
 62
     2
 10
-270.3129392246
 20
57.4020964893
 30
0.0
  0
VERTEX
  5
880
  8
VIDITELNE
  6
SLD-PLNÁ
 62
     2
 10
-270.497759065
 20
57.2748507306
 30
0.0
  0
VERTEX
  5
881
  8
VIDITELNE
  6
SLD-PLNÁ
 62
     2
 10
-270.6115705608
 20
57.1367810365
 30
0.0
  0
VERTEX
  5
882
  8
VIDITELNE
  6
SLD-PLNÁ
 62
     2
 10
-270.65
 20
56.9931933482
 30
0.0
  0
SEQEND
  5
883
  8
VIDITELNE
  6
SLD-PLNÁ
 62
     2
  0
ARC
  5
3CE
  8
VIDITELNE
  6
SLD-PLNÁ
 62
     2
 10
-268.6944752231
 20
23.5168924376
 30
0.0
 40
1.956079836075846
 50
88.6971583966
 51
178.635026332
  0
LINE
  5
3CF
  8
VIDITELNE
  6
SLD-PLNÁ
 62
     2
 10
-270.65
 20
-2.0306296884
 30
0.0
 11
-269.15
 21
-2.0306296884
 31
0.0
  0
LINE
  5
3D0
  8
VIDITELNE
  6
SLD-PLNÁ
 62
     2
 10
-269.0811358957
 20
23.5634882766
 30
0.0
 11
-270.65
 21
23.5634882766
 31
0.0
  0
POLYLINE
  5
3D1
  8
VIDITELNE
  6
SLD-PLNÁ
 62
     2
 66
     1
 10
0.0
 20
0.0
 30
0.0
  0
VERTEX
  5
884
  8
VIDITELNE
  6
SLD-PLNÁ
 62
     2
 10
-269.15
 20
22.5015288737
 30
0.0
  0
VERTEX
  5
885
  8
VIDITELNE
  6
SLD-PLNÁ
 62
     2
 10
-269.1403303291
 20
22.9041435054
 30
0.0
  0
VERTEX
  5
886
  8
VIDITELNE
  6
SLD-PLNÁ
 62
     2
 10
-269.0811358957
 20
23.5634882766
 30
0.0
  0
SEQEND
  5
887
  8
VIDITELNE
  6
SLD-PLNÁ
 62
     2
  0
LINE
  5
3D2
  8
VIDITELNE
  6
SLD-PLNÁ
 62
     2
 10
-269.15
 20
-2.0306296884
 30
0.0
 11
-269.15
 21
22.5015288737
 31
0.0
  0
LINE
  5
3D3
  8
VIDITELNE
  6
SLD-PLNÁ
 62
     2
 10
-268.65
 20
24.4271322336
 30
0.0
 11
-268.65
 21
25.4724665936
 31
0.0
  0
POLYLINE
  5
3D4
  8
VIDITELNE
  6
SLD-PLNÁ
 62
     2
 66
     1
 10
0.0
 20
0.0
 30
0.0
  0
VERTEX
  5
888
  8
VIDITELNE
  6
SLD-PLNÁ
 62
     2
 10
-269.0811358957
 20
23.5634882766
 30
0.0
  0
VERTEX
  5
889
  8
VIDITELNE
  6
SLD-PLNÁ
 62
     2
 10
-268.9448449443
 20
23.9386299698
 30
0.0
  0
VERTEX
  5
88A
  8
VIDITELNE
  6
SLD-PLNÁ
 62
     2
 10
-268.65
 20
24.4271322336
 30
0.0
  0
SEQEND
  5
88B
  8
VIDITELNE
  6
SLD-PLNÁ
 62
     2
  0
ARC
  5
3D5
  8
VIDITELNE
  6
SLD-PLNÁ
 62
     2
 10
-264.6181425786
 20
17.6836341038
 30
0.0
 40
7.856884961125185
 50
97.5465482487
 51
120.8747017253
  0
ARC
  5
3D6
  8
VIDITELNE
  6
SLD-PLNÁ
 62
     2
 10
-263.2818373619
 20
21.5452642472
 30
0.0
 40
4.585969096042207
 50
121.0906149335
 51
147.5091983728
  0
ARC
  5
3D7
  8
VIDITELNE
  6
SLD-PLNÁ
 62
     2
 10
-267.4214275267
 20
25.9334277537
 30
0.0
 40
1.943789215959008
 50
230.798450723
 51
278.0269198997
  0
POLYLINE
  5
3D8
  8
VIDITELNE
  6
SLD-PLNÁ
 62
     2
 66
     1
 10
0.0
 20
0.0
 30
0.0
  0
VERTEX
  5
88C
  8
VIDITELNE
  6
SLD-PLNÁ
 62
     2
 10
-267.5811358957
 20
23.0576306325
 30
0.0
  0
VERTEX
  5
88D
  8
VIDITELNE
  6
SLD-PLNÁ
 62
     2
 10
-267.6403303291
 20
22.7130629442
 30
0.0
  0
VERTEX
  5
88E
  8
VIDITELNE
  6
SLD-PLNÁ
 62
     2
 10
-267.65
 20
22.5015288737
 30
0.0
  0
SEQEND
  5
88F
  8
VIDITELNE
  6
SLD-PLNÁ
 62
     2
  0
POLYLINE
  5
3D9
  8
VIDITELNE
  6
SLD-PLNÁ
 62
     2
 66
     1
 10
0.0
 20
0.0
 30
0.0
  0
VERTEX
  5
890
  8
VIDITELNE
  6
SLD-PLNÁ
 62
     2
 10
-267.15
 20
24.008682676
 30
0.0
  0
VERTEX
  5
891
  8
VIDITELNE
  6
SLD-PLNÁ
 62
     2
 10
-267.4448449443
 20
23.4566620438
 30
0.0
  0
VERTEX
  5
892
  8
VIDITELNE
  6
SLD-PLNÁ
 62
     2
 10
-267.5811358957
 20
23.0576306325
 30
0.0
  0
SEQEND
  5
893
  8
VIDITELNE
  6
SLD-PLNÁ
 62
     2
  0
LINE
  5
3DA
  8
VIDITELNE
  6
SLD-PLNÁ
 62
     2
 10
-265.65
 20
22.9693703116
 30
0.0
 11
-265.65
 21
25.4724665936
 31
0.0
  0
ARC
  5
3DB
  8
VIDITELNE
  6
SLD-PLNÁ
 62
     2
 10
-270.7537036547
 20
16.1270134891
 30
0.0
 40
7.62224639950214
 50
65.4035301721
 51
77.3243031631
  0
LINE
  5
3DC
  8
VIDITELNE
  6
SLD-PLNÁ
 62
     2
 10
-269.15
 20
22.5015288737
 30
0.0
 11
-267.65
 21
22.5015288737
 31
0.0
  0
LINE
  5
3DD
  8
VIDITELNE
  6
SLD-PLNÁ
 62
     2
 10
-269.15
 20
-2.0306296884
 30
0.0
 11
-267.65
 21
-2.0306296884
 31
0.0
  0
LINE
  5
3DE
  8
VIDITELNE
  6
SLD-PLNÁ
 62
     2
 10
-267.65
 20
-2.0306296884
 30
0.0
 11
-267.65
 21
-15.1576463422
 31
0.0
  0
LINE
  5
3DF
  8
VIDITELNE
  6
SLD-PLNÁ
 62
     2
 10
-267.65
 20
22.5015288737
 30
0.0
 11
-267.65
 21
-2.0306296884
 31
0.0
  0
LINE
  5
3E0
  8
VIDITELNE
  6
SLD-PLNÁ
 62
     2
 10
-410.65
 20
-170.0306296884
 30
0.0
 11
-380.65
 21
-170.0306296884
 31
0.0
  0
LINE
  5
3E1
  8
VIDITELNE
  6
SLD-PLNÁ
 62
     2
 10
-263.65
 20
7.4693703116
 30
0.0
 11
-263.65
 21
-11.5306287355
 31
0.0
  0
LINE
  5
3E2
  8
VIDITELNE
  6
SLD-PLNÁ
 62
     2
 10
-386.15
 20
-174.0306296884
 30
0.0
 11
-405.149999047
 21
-174.0306296884
 31
0.0
  0
LINE
  5
3E3
  8
VIDITELNE
  6
SLD-PLNÁ
 62
     2
 10
-495.15
 20
134.9693703116
 30
0.0
 11
-476.150000953
 21
134.9693703116
 31
0.0
  0
LINE
  5
3E4
  8
VIDITELNE
  6
SLD-PLNÁ
 62
     2
 10
-547.65
 20
77.9693703116
 30
0.0
 11
-547.65
 21
157.9693703116
 31
0.0
  0
LINE
  5
3E5
  8
VIDITELNE
  6
SLD-PLNÁ
 62
     2
 10
-547.65
 20
-2.0306296884
 30
0.0
 11
-547.65
 21
77.9693703116
 31
0.0
  0
LINE
  5
3E6
  8
VIDITELNE
  6
SLD-PLNÁ
 62
     2
 10
-536.65
 20
77.9693703116
 30
0.0
 11
-536.65
 21
155.6538642975
 31
0.0
  0
LINE
  5
3E7
  8
VIDITELNE
  6
SLD-PLNÁ
 62
     2
 10
-536.65
 20
0.2848763256
 30
0.0
 11
-536.65
 21
77.9693703116
 31
0.0
  0
CIRCLE
  5
3E8
  8
VIDITELNE
  6
SLD-PLNÁ
 62
     2
 10
-395.65
 20
-42.0306296884
 30
0.0
 40
42.49999999999994
  0
CIRCLE
  5
3E9
  8
VIDITELNE
  6
SLD-PLNÁ
 62
     2
 10
-395.65
 20
-42.0306296884
 30
0.0
 40
65.0
  0
ARC
  5
3EA
  8
VIDITELNE
  6
SLD-PLNÁ
 62
     2
 10
-395.65
 20
-42.0306296884
 30
0.0
 40
95.00000000000001
 50
69.9131672646
 51
110.0868327354
  0
ARC
  5
3EB
  8
VIDITELNE
  6
SLD-PLNÁ
 62
     2
 10
-395.65
 20
-42.0306296884
 30
0.0
 40
95.00000000000004
 50
65.0868327354
 51
69.9131672646
  0
ARC
  5
3EC
  8
VIDITELNE
  6
SLD-PLNÁ
 62
     2
 10
-395.65
 20
-42.0306296884
 30
0.0
 40
95.00000000000004
 50
24.9131672646
 51
65.0868327354
  0
ARC
  5
3ED
  8
VIDITELNE
  6
SLD-PLNÁ
 62
     2
 10
-395.65
 20
-42.0306296884
 30
0.0
 40
94.99999999999983
 50
20.0868327354
 51
24.9131672646
  0
ARC
  5
3EE
  8
VIDITELNE
  6
SLD-PLNÁ
 62
     2
 10
-395.65
 20
-42.0306296884
 30
0.0
 40
95.00000000000013
 50
339.9131672646
 51
20.0868327354
  0
ARC
  5
3EF
  8
VIDITELNE
  6
SLD-PLNÁ
 62
     2
 10
-395.65
 20
-42.0306296884
 30
0.0
 40
95.00000000000018
 50
335.0868327354
 51
339.9131672646
  0
ARC
  5
3F0
  8
VIDITELNE
  6
SLD-PLNÁ
 62
     2
 10
-395.65
 20
-42.0306296884
 30
0.0
 40
95.00000000000018
 50
294.9131672646
 51
335.0868327354
  0
ARC
  5
3F1
  8
VIDITELNE
  6
SLD-PLNÁ
 62
     2
 10
-395.65
 20
-42.0306296884
 30
0.0
 40
95.0
 50
290.0868327354
 51
294.9131672646
  0
ARC
  5
3F2
  8
VIDITELNE
  6
SLD-PLNÁ
 62
     2
 10
-395.65
 20
-42.0306296884
 30
0.0
 40
95.00000000000016
 50
249.9131672646
 51
290.0868327354
  0
ARC
  5
3F3
  8
VIDITELNE
  6
SLD-PLNÁ
 62
     2
 10
-395.65
 20
-42.0306296884
 30
0.0
 40
95.00000000000016
 50
245.0868327354
 51
249.9131672646
  0
ARC
  5
3F4
  8
VIDITELNE
  6
SLD-PLNÁ
 62
     2
 10
-395.65
 20
-42.0306296884
 30
0.0
 40
95.00000000000004
 50
204.9131672646
 51
245.0868327354
  0
ARC
  5
3F5
  8
VIDITELNE
  6
SLD-PLNÁ
 62
     2
 10
-395.65
 20
-42.0306296884
 30
0.0
 40
95.00000000000006
 50
200.0868327354
 51
204.9131672646
  0
ARC
  5
3F6
  8
VIDITELNE
  6
SLD-PLNÁ
 62
     2
 10
-395.65
 20
-42.0306296884
 30
0.0
 40
95.00000000000006
 50
159.9131672646
 51
200.0868327354
  0
ARC
  5
3F7
  8
VIDITELNE
  6
SLD-PLNÁ
 62
     2
 10
-395.65
 20
-42.0306296884
 30
0.0
 40
94.99999999999991
 50
155.0868327354
 51
159.9131672646
  0
ARC
  5
3F8
  8
VIDITELNE
  6
SLD-PLNÁ
 62
     2
 10
-395.65
 20
-42.0306296884
 30
0.0
 40
95.00000000000004
 50
114.9131672646
 51
155.0868327354
  0
ARC
  5
3F9
  8
VIDITELNE
  6
SLD-PLNÁ
 62
     2
 10
-395.65
 20
-42.0306296884
 30
0.0
 40
95.00000000000004
 50
110.0868327354
 51
114.9131672646
  0
CIRCLE
  5
3FA
  8
VIDITELNE
  6
SLD-PLNÁ
 62
     2
 10
-337.3136905521
 20
16.3056797595
 30
0.0
 40
6.0
  0
CIRCLE
  5
3FB
  8
VIDITELNE
  6
SLD-PLNÁ
 62
     2
 10
-337.3136905521
 20
-100.3669391363
 30
0.0
 40
6.0
  0
CIRCLE
  5
3FC
  8
VIDITELNE
  6
SLD-PLNÁ
 62
     2
 10
-453.9863094479
 20
-100.3669391363
 30
0.0
 40
6.0
  0
CIRCLE
  5
3FD
  8
VIDITELNE
  6
SLD-PLNÁ
 62
     2
 10
-453.9863094479
 20
16.3056797595
 30
0.0
 40
6.0
  0
CIRCLE
  5
3FE
  8
VIDITELNE
  6
SLD-PLNÁ
 62
     2
 10
-337.3136905521
 20
16.3056797595
 30
0.0
 40
5.249999999999943
  0
LINE
  5
3FF
  8
VIDITELNE
  6
SLD-PLNÁ
 62
     2
 10
-438.6167598754
 20
-156.2140678299
 30
0.0
 11
-428.2771676757
 21
-131.252084112
 31
0.0
  0
ARC
  5
400
  8
VIDITELNE
  6
SLD-PLNÁ
 62
     2
 10
-395.65
 20
-42.0306296884
 30
0.0
 40
122.0000000000001
 50
245.6211131219
 51
249.3788868781
  0
LINE
  5
401
  8
VIDITELNE
  6
SLD-PLNÁ
 62
     2
 10
-435.6682039358
 20
-128.1906166531
 30
0.0
 11
-446.0077961355
 21
-153.152600371
 31
0.0
  0
ARC
  5
402
  8
VIDITELNE
  6
SLD-PLNÁ
 62
     2
 10
-395.65
 20
-42.0306296884
 30
0.0
 40
101.6395280956809
 50
204.7554445434
 51
245.2445554566
  0
LINE
  5
403
  8
VIDITELNE
  6
SLD-PLNÁ
 62
     2
 10
-363.0228323243
 20
-131.252084112
 30
0.0
 11
-352.6832401246
 21
-156.2140678299
 31
0.0
  0
ARC
  5
404
  8
VIDITELNE
  6
SLD-PLNÁ
 62
     2
 10
-395.65
 20
-42.0306296884
 30
0.0
 40
122.0000000000001
 50
290.6211131219
 51
294.3788868781
  0
LINE
  5
405
  8
VIDITELNE
  6
SLD-PLNÁ
 62
     2
 10
-345.2922038645
 20
-153.152600371
 30
0.0
 11
-355.6317960642
 21
-128.1906166531
 31
0.0
  0
CIRCLE
  5
406
  8
VIDITELNE
  6
SLD-PLNÁ
 62
     2
 10
-337.3136905521
 20
-100.3669391363
 30
0.0
 40
5.25
  0
ARC
  5
407
  8
VIDITELNE
  6
SLD-PLNÁ
 62
     2
 10
-395.65
 20
-42.0306296884
 30
0.0
 40
101.6395280956808
 50
294.7554445434
 51
335.2445554566
  0
ARC
  5
408
  8
VIDITELNE
  6
SLD-PLNÁ
 62
     2
 10
-395.65
 20
-42.0306296884
 30
0.0
 40
101.6395280956809
 50
249.7554445434
 51
290.2445554566
  0
ARC
  5
409
  8
VIDITELNE
  6
SLD-PLNÁ
 62
     2
 10
-395.65
 20
-42.0306296884
 30
0.0
 40
101.6395280956808
 50
339.7554445434
 51
20.2445554566
  0
ARC
  5
40A
  8
VIDITELNE
  6
SLD-PLNÁ
 62
     2
 10
-395.65
 20
-42.0306296884
 30
0.0
 40
122.0
 50
335.6211131219
 51
339.3788868781
  0
LINE
  5
40B
  8
VIDITELNE
  6
SLD-PLNÁ
 62
     2
 10
-309.4900130353
 20
-82.0488336243
 30
0.0
 11
-284.5280293174
 21
-92.3884258239
 31
0.0
  0
LINE
  5
40C
  8
VIDITELNE
  6
SLD-PLNÁ
 62
     2
 10
-281.4665618585
 20
-84.9973895639
 30
0.0
 11
-306.4285455764
 21
-74.6577973642
 31
0.0
  0
LINE
  5
40D
  8
VIDITELNE
  6
SLD-PLNÁ
 62
     2
 10
-484.8714544236
 20
-74.6577973642
 30
0.0
 11
-509.8334381415
 21
-84.9973895639
 31
0.0
  0
ARC
  5
40E
  8
VIDITELNE
  6
SLD-PLNÁ
 62
     2
 10
-395.65
 20
-42.0306296884
 30
0.0
 40
122.0000000000001
 50
200.6211131219
 51
204.3788868781
  0
LINE
  5
40F
  8
VIDITELNE
  6
SLD-PLNÁ
 62
     2
 10
-506.7719706826
 20
-92.3884258239
 30
0.0
 11
-481.8099869647
 21
-82.0488336243
 31
0.0
  0
CIRCLE
  5
410
  8
VIDITELNE
  6
SLD-PLNÁ
 62
     2
 10
-453.9863094479
 20
16.3056797595
 30
0.0
 40
5.25
  0
ARC
  5
411
  8
VIDITELNE
  6
SLD-PLNÁ
 62
     2
 10
-395.65
 20
-42.0306296884
 30
0.0
 40
101.6395280956807
 50
159.7554445434
 51
200.2445554566
  0
ARC
  5
412
  8
VIDITELNE
  6
SLD-PLNÁ
 62
     2
 10
-395.65
 20
-42.0306296884
 30
0.0
 40
101.6395280956807
 50
114.7554445434
 51
155.2445554566
  0
ARC
  5
413
  8
VIDITELNE
  6
SLD-PLNÁ
 62
     2
 10
-395.65
 20
-42.0306296884
 30
0.0
 40
101.6395280956806
 50
24.7554445434
 51
65.2445554566
  0
LINE
  5
414
  8
VIDITELNE
  6
SLD-PLNÁ
 62
     2
 10
-446.0077961355
 20
69.0913409941
 30
0.0
 11
-435.6682039358
 21
44.1293572762
 31
0.0
  0
ARC
  5
415
  8
VIDITELNE
  6
SLD-PLNÁ
 62
     2
 10
-395.65
 20
-42.0306296884
 30
0.0
 40
121.9999999999999
 50
110.6211131219
 51
114.3788868781
  0
LINE
  5
416
  8
VIDITELNE
  6
SLD-PLNÁ
 62
     2
 10
-428.2771676757
 20
47.1908247351
 30
0.0
 11
-438.6167598754
 21
72.152808453
 31
0.0
  0
LINE
  5
417
  8
VIDITELNE
  6
SLD-PLNÁ
 62
     2
 10
-355.6317960642
 20
44.1293572762
 30
0.0
 11
-345.2922038645
 21
69.0913409941
 31
0.0
  0
LINE
  5
418
  8
VIDITELNE
  6
SLD-PLNÁ
 62
     2
 10
-352.6832401246
 20
72.152808453
 30
0.0
 11
-363.0228323243
 21
47.1908247351
 31
0.0
  0
ARC
  5
419
  8
VIDITELNE
  6
SLD-PLNÁ
 62
     2
 10
-395.65
 20
-42.0306296884
 30
0.0
 40
121.9999999999999
 50
65.6211131219
 51
69.3788868781
  0
LINE
  5
41A
  8
VIDITELNE
  6
SLD-PLNÁ
 62
     2
 10
-284.5280293174
 20
8.3271664471
 30
0.0
 11
-309.4900130353
 21
-2.0124257526
 31
0.0
  0
ARC
  5
41B
  8
VIDITELNE
  6
SLD-PLNÁ
 62
     2
 10
-395.65
 20
-42.0306296884
 30
0.0
 40
121.9999999999993
 50
20.6211131219
 51
24.3788868781
  0
LINE
  5
41C
  8
VIDITELNE
  6
SLD-PLNÁ
 62
     2
 10
-306.4285455764
 20
-9.4034620127
 30
0.0
 11
-281.4665618585
 21
0.936130187
 31
0.0
  0
ARC
  5
41D
  8
VIDITELNE
  6
SLD-PLNÁ
 62
     2
 10
-395.65
 20
-42.0306296884
 30
0.0
 40
101.6395280956806
 50
69.7554445434
 51
110.2445554566
  0
LINE
  5
41E
  8
VIDITELNE
  6
SLD-PLNÁ
 62
     2
 10
-481.8099869647
 20
-2.0124257526
 30
0.0
 11
-506.7719706826
 21
8.3271664471
 31
0.0
  0
LINE
  5
41F
  8
VIDITELNE
  6
SLD-PLNÁ
 62
     2
 10
-509.8334381415
 20
0.936130187
 30
0.0
 11
-484.8714544236
 21
-9.4034620127
 31
0.0
  0
ARC
  5
420
  8
VIDITELNE
  6
SLD-PLNÁ
 62
     2
 10
-395.65
 20
-42.0306296884
 30
0.0
 40
122.0000000000007
 50
155.6211131219
 51
159.3788868781
  0
CIRCLE
  5
421
  8
VIDITELNE
  6
SLD-PLNÁ
 62
     2
 10
-453.9863094479
 20
-100.3669391363
 30
0.0
 40
5.250000000000057
  0
CIRCLE
  5
422
  8
VIDITELNE
  6
SLD-PLNÁ
 62
     2
 10
-395.65
 20
-157.0306296884
 30
0.0
 40
7.000000000000455
  0
CIRCLE
  5
423
  8
VIDITELNE
  6
SLD-PLNÁ
 62
     2
 10
-395.65
 20
-157.0306296884
 30
0.0
 40
8.000000000000455
  0
CIRCLE
  5
424
  8
VIDITELNE
  6
SLD-PLNÁ
 62
     2
 10
-476.9672798365
 20
-123.3479095249
 30
0.0
 40
7.000000000000853
  0
CIRCLE
  5
425
  8
VIDITELNE
  6
SLD-PLNÁ
 62
     2
 10
-476.9672798365
 20
-123.3479095249
 30
0.0
 40
8.000000000000853
  0
CIRCLE
  5
426
  8
VIDITELNE
  6
SLD-PLNÁ
 62
     2
 10
-510.65
 20
-42.0306296884
 30
0.0
 40
7.000000000003354
  0
CIRCLE
  5
427
  8
VIDITELNE
  6
SLD-PLNÁ
 62
     2
 10
-510.65
 20
-42.0306296884
 30
0.0
 40
8.00000000000324
  0
CIRCLE
  5
428
  8
VIDITELNE
  6
SLD-PLNÁ
 62
     2
 10
-314.3327201635
 20
-123.3479095249
 30
0.0
 40
7.000000000000171
  0
CIRCLE
  5
429
  8
VIDITELNE
  6
SLD-PLNÁ
 62
     2
 10
-314.3327201635
 20
-123.3479095249
 30
0.0
 40
8.00000000000017
  0
CIRCLE
  5
42A
  8
VIDITELNE
  6
SLD-PLNÁ
 62
     2
 10
-476.9672798365
 20
39.286650148
 30
0.0
 40
7.000000000001307
  0
CIRCLE
  5
42B
  8
VIDITELNE
  6
SLD-PLNÁ
 62
     2
 10
-476.9672798365
 20
39.286650148
 30
0.0
 40
8.000000000001307
  0
CIRCLE
  5
42C
  8
VIDITELNE
  6
SLD-PLNÁ
 62
     2
 10
-280.65
 20
-42.0306296884
 30
0.0
 40
7.000000000000057
  0
CIRCLE
  5
42D
  8
VIDITELNE
  6
SLD-PLNÁ
 62
     2
 10
-280.65
 20
-42.0306296884
 30
0.0
 40
8.000000000000057
  0
CIRCLE
  5
42E
  8
VIDITELNE
  6
SLD-PLNÁ
 62
     2
 10
-395.65
 20
72.9693703116
 30
0.0
 40
7.0
  0
CIRCLE
  5
42F
  8
VIDITELNE
  6
SLD-PLNÁ
 62
     2
 10
-395.65
 20
72.9693703116
 30
0.0
 40
8.0
  0
CIRCLE
  5
430
  8
VIDITELNE
  6
SLD-PLNÁ
 62
     2
 10
-314.3327201635
 20
39.286650148
 30
0.0
 40
7.0
  0
CIRCLE
  5
431
  8
VIDITELNE
  6
SLD-PLNÁ
 62
     2
 10
-314.3327201635
 20
39.286650148
 30
0.0
 40
8.0
  0
CIRCLE
  5
432
  8
VIDITELNE
  6
SLD-PLNÁ
 62
     2
 10
-395.65
 20
-42.0306296884
 30
0.0
 40
124.6158715355908
  0
POLYLINE
  5
433
  8
VIDITELNE
  6
SLD-PLNÁ
 62
     2
 66
     1
 10
0.0
 20
0.0
 30
0.0
  0
VERTEX
  5
894
  8
VIDITELNE
  6
SLD-PLNÁ
 62
     2
 10
-404.1692554554
 20
138.1608097761
 30
0.0
  0
VERTEX
  5
895
  8
VIDITELNE
  6
SLD-PLNÁ
 62
     2
 10
-404.6487081846
 20
136.5971459141
 30
0.0
  0
VERTEX
  5
896
  8
VIDITELNE
  6
SLD-PLNÁ
 62
     2
 10
-405.3041849041
 20
135.257389972
 30
0.0
  0
VERTEX
  5
897
  8
VIDITELNE
  6
SLD-PLNÁ
 62
     2
 10
-405.9889337185
 20
134.1939678722
 30
0.0
  0
VERTEX
  5
898
  8
VIDITELNE
  6
SLD-PLNÁ
 62
     2
 10
-406.5419378384
 20
133.4634448142
 30
0.0
  0
VERTEX
  5
899
  8
VIDITELNE
  6
SLD-PLNÁ
 62
     2
 10
-406.7563948069
 20
133.2012534347
 30
0.0
  0
VERTEX
  5
89A
  8
VIDITELNE
  6
SLD-PLNÁ
 62
     2
 10
-406.752505923
 20
133.2059993208
 30
0.0
  0
SEQEND
  5
89B
  8
VIDITELNE
  6
SLD-PLNÁ
 62
     2
  0
LINE
  5
434
  8
VIDITELNE
  6
SLD-PLNÁ
 62
     2
 10
-387.1307445446
 20
138.1608097761
 30
0.0
 11
-404.1692554554
 21
138.1608097761
 31
0.0
  0
ARC
  5
435
  8
VIDITELNE
  6
SLD-PLNÁ
 62
     2
 10
-375.6802414125
 20
140.9798559713
 30
0.0
 40
11.7924146564026
 50
193.8308250074
 51
221.2409797489
  0
ARC
  5
436
  8
VIDITELNE
  6
SLD-PLNÁ
 62
     2
 10
-401.1692358746
 20
137.620060516
 30
0.0
 40
3.048364684108869
 50
102.6620759841
 51
169.7822314405
  0
LINE
  5
437
  8
VIDITELNE
  6
SLD-PLNÁ
 62
     2
 10
-389.4625612119
 20
140.5942885021
 30
0.0
 11
-401.8374387881
 21
140.5942885021
 31
0.0
  0
ARC
  5
438
  8
VIDITELNE
  6
SLD-PLNÁ
 62
     2
 10
-390.0964800131
 20
137.6529123604
 30
0.0
 40
3.008911207379321
 50
9.7179245609
 51
77.8377680145
  0
ARC
  5
439
  8
VIDITELNE
  6
SLD-PLNÁ
 62
     2
 10
-386.0577489244
 20
63.6327291729
 30
0.0
 40
78.56258795747844
 50
97.0131380634
 51
101.5869624879
  0
ARC
  5
43A
  8
VIDITELNE
  6
SLD-PLNÁ
 62
     2
 10
-399.6265383251
 20
97.9256543013
 30
0.0
 40
43.8624985074937
 50
76.6014300383
 51
84.7984694104
  0
LINE
  5
43B
  8
VIDITELNE
  6
SLD-PLNÁ
 62
     2
 10
-395.65
 20
141.6075260363
 30
0.0
 11
-395.65
 21
141.9693703116
 31
0.0
  0
LINE
  5
43C
  8
VIDITELNE
  6
SLD-PLNÁ
 62
     2
 10
-395.65
 20
165.9693749684
 30
0.0
 11
-395.65
 21
173.9693703116
 31
0.0
  0
LINE
  5
43D
  8
VIDITELNE
  6
SLD-PLNÁ
 62
     2
 10
-257.65
 20
104.8472890181
 30
0.0
 11
-257.65
 21
130.2517056429
 31
0.0
  0
LINE
  5
43E
  8
VIDITELNE
  6
SLD-PLNÁ
 62
     2
 10
-257.65
 20
52.5649536867
 30
0.0
 11
-257.65
 21
103.3737869364
 31
0.0
  0
LINE
  5
43F
  8
VIDITELNE
  6
SLD-PLNÁ
 62
     2
 10
-257.65
 20
25.6870349802
 30
0.0
 11
-257.65
 21
51.0914516051
 31
0.0
  0
LINE
  5
440
  8
VIDITELNE
  6
SLD-PLNÁ
 62
     2
 10
-252.35
 20
57.3561216575
 30
0.0
 11
-257.65
 21
57.3561216575
 31
0.0
  0
LINE
  5
441
  8
VIDITELNE
  6
SLD-PLNÁ
 62
     2
 10
-252.35
 20
57.3561216575
 30
0.0
 11
-252.35
 21
51.5826189656
 31
0.0
  0
LINE
  5
442
  8
VIDITELNE
  6
SLD-PLNÁ
 62
     2
 10
-252.35
 20
51.5826189656
 30
0.0
 11
-257.65
 21
51.5826189656
 31
0.0
  0
LINE
  5
443
  8
VIDITELNE
  6
SLD-PLNÁ
 62
     2
 10
-257.65
 20
52.5649536867
 30
0.0
 11
-257.65
 21
51.5826189656
 31
0.0
  0
LINE
  5
444
  8
VIDITELNE
  6
SLD-PLNÁ
 62
     2
 10
-252.35
 20
48.6958676197
 30
0.0
 11
-257.65
 21
48.6958676197
 31
0.0
  0
LINE
  5
445
  8
VIDITELNE
  6
SLD-PLNÁ
 62
     2
 10
-257.65
 20
51.5826189656
 30
0.0
 11
-257.65
 21
51.0914516051
 31
0.0
  0
LINE
  5
446
  8
VIDITELNE
  6
SLD-PLNÁ
 62
     2
 10
-252.35
 20
51.5826189656
 30
0.0
 11
-252.35
 21
48.6958676197
 31
0.0
  0
LINE
  5
447
  8
VIDITELNE
  6
SLD-PLNÁ
 62
     2
 10
-252.35
 20
60.2428730035
 30
0.0
 11
-257.65
 21
60.2428730035
 31
0.0
  0
LINE
  5
448
  8
VIDITELNE
  6
SLD-PLNÁ
 62
     2
 10
-252.35
 20
60.2428730035
 30
0.0
 11
-252.35
 21
57.3561216575
 31
0.0
  0
LINE
  5
449
  8
VIDITELNE
  6
SLD-PLNÁ
 62
     2
 10
-252.35
 20
98.5826189656
 30
0.0
 11
-257.65
 21
98.5826189656
 31
0.0
  0
LINE
  5
44A
  8
VIDITELNE
  6
SLD-PLNÁ
 62
     2
 10
-252.35
 20
95.6958676197
 30
0.0
 11
-257.65
 21
95.6958676197
 31
0.0
  0
LINE
  5
44B
  8
VIDITELNE
  6
SLD-PLNÁ
 62
     2
 10
-252.35
 20
98.5826189656
 30
0.0
 11
-252.35
 21
95.6958676197
 31
0.0
  0
LINE
  5
44C
  8
VIDITELNE
  6
SLD-PLNÁ
 62
     2
 10
-252.35
 20
104.3561216575
 30
0.0
 11
-257.65
 21
104.3561216575
 31
0.0
  0
LINE
  5
44D
  8
VIDITELNE
  6
SLD-PLNÁ
 62
     2
 10
-257.65
 20
104.3561216575
 30
0.0
 11
-257.65
 21
103.3737869364
 31
0.0
  0
LINE
  5
44E
  8
VIDITELNE
  6
SLD-PLNÁ
 62
     2
 10
-252.35
 20
104.3561216575
 30
0.0
 11
-252.35
 21
98.5826189656
 31
0.0
  0
LINE
  5
44F
  8
VIDITELNE
  6
SLD-PLNÁ
 62
     2
 10
-252.35
 20
107.2428730035
 30
0.0
 11
-257.65
 21
107.2428730035
 31
0.0
  0
LINE
  5
450
  8
VIDITELNE
  6
SLD-PLNÁ
 62
     2
 10
-257.65
 20
104.8472890181
 30
0.0
 11
-257.65
 21
104.3561216575
 31
0.0
  0
LINE
  5
451
  8
VIDITELNE
  6
SLD-PLNÁ
 62
     2
 10
-252.35
 20
107.2428730035
 30
0.0
 11
-252.35
 21
104.3561216575
 31
0.0
  0
LINE
  5
452
  8
VIDITELNE
  6
SLD-PLNÁ
 62
     2
 10
-252.35
 20
33.8561216575
 30
0.0
 11
-257.65
 21
33.8561216575
 31
0.0
  0
LINE
  5
453
  8
VIDITELNE
  6
SLD-PLNÁ
 62
     2
 10
-252.35
 20
28.0826189656
 30
0.0
 11
-257.65
 21
28.0826189656
 31
0.0
  0
LINE
  5
454
  8
VIDITELNE
  6
SLD-PLNÁ
 62
     2
 10
-252.35
 20
33.8561216575
 30
0.0
 11
-252.35
 21
28.0826189656
 31
0.0
  0
LINE
  5
455
  8
VIDITELNE
  6
SLD-PLNÁ
 62
     2
 10
-252.35
 20
36.7428730035
 30
0.0
 11
-257.65
 21
36.7428730035
 31
0.0
  0
LINE
  5
456
  8
VIDITELNE
  6
SLD-PLNÁ
 62
     2
 10
-252.35
 20
36.7428730035
 30
0.0
 11
-252.35
 21
33.8561216575
 31
0.0
  0
LINE
  5
457
  8
VIDITELNE
  6
SLD-PLNÁ
 62
     2
 10
-252.35
 20
25.1958676197
 30
0.0
 11
-257.65
 21
25.1958676197
 31
0.0
  0
LINE
  5
458
  8
VIDITELNE
  6
SLD-PLNÁ
 62
     2
 10
-257.65
 20
25.6870349802
 30
0.0
 11
-257.65
 21
25.1958676197
 31
0.0
  0
LINE
  5
459
  8
VIDITELNE
  6
SLD-PLNÁ
 62
     2
 10
-252.35
 20
28.0826189656
 30
0.0
 11
-252.35
 21
25.1958676197
 31
0.0
  0
LINE
  5
45A
  8
VIDITELNE
  6
SLD-PLNÁ
 62
     2
 10
-252.35
 20
130.7428730035
 30
0.0
 11
-257.65
 21
130.7428730035
 31
0.0
  0
LINE
  5
45B
  8
VIDITELNE
  6
SLD-PLNÁ
 62
     2
 10
-252.35
 20
130.7428730035
 30
0.0
 11
-252.35
 21
127.8561216575
 31
0.0
  0
LINE
  5
45C
  8
VIDITELNE
  6
SLD-PLNÁ
 62
     2
 10
-252.35
 20
127.8561216575
 30
0.0
 11
-257.65
 21
127.8561216575
 31
0.0
  0
LINE
  5
45D
  8
VIDITELNE
  6
SLD-PLNÁ
 62
     2
 10
-257.65
 20
130.7428730035
 30
0.0
 11
-257.65
 21
130.2517056429
 31
0.0
  0
LINE
  5
45E
  8
VIDITELNE
  6
SLD-PLNÁ
 62
     2
 10
-252.35
 20
127.8561216575
 30
0.0
 11
-252.35
 21
122.0826189656
 31
0.0
  0
LINE
  5
45F
  8
VIDITELNE
  6
SLD-PLNÁ
 62
     2
 10
-252.35
 20
122.0826189656
 30
0.0
 11
-257.65
 21
122.0826189656
 31
0.0
  0
LINE
  5
460
  8
VIDITELNE
  6
SLD-PLNÁ
 62
     2
 10
-252.35
 20
122.0826189656
 30
0.0
 11
-252.35
 21
119.1958676197
 31
0.0
  0
LINE
  5
461
  8
VIDITELNE
  6
SLD-PLNÁ
 62
     2
 10
-252.35
 20
119.1958676197
 30
0.0
 11
-257.65
 21
119.1958676197
 31
0.0
  0
LINE
  5
462
  8
VIDITELNE
  6
SLD-PLNÁ
 62
     2
 10
-522.65
 20
22.9693703116
 30
0.0
 11
-522.65
 21
57.7291995574
 31
0.0
  0
ARC
  5
463
  8
VIDITELNE
  6
SLD-PLNÁ
 62
     2
 10
-395.6495527201
 20
-69.9645519229
 30
0.0
 40
99.0654060564389
 50
261.2907947568
 51
278.6803528065
  0
LINE
  5
464
  8
VIDITELNE
  6
SLD-PLNÁ
 62
     2
 10
-269.15
 20
-17.0941380153
 30
0.0
 11
-269.15
 21
-2.0306296884
 31
0.0
  0
LINE
  5
465
  8
VIDITELNE
  6
SLD-PLNÁ
 62
     2
 10
-406.15
 20
-173.0306296884
 30
0.0
 11
-385.15
 21
-173.0306296884
 31
0.0
  0
LINE
  5
466
  8
VIDITELNE
  6
SLD-PLNÁ
 62
     2
 10
-264.65
 20
-12.5306296884
 30
0.0
 11
-264.65
 21
8.4693703116
 31
0.0
  0
LINE
  5
467
  8
VIDITELNE
  6
SLD-PLNÁ
 62
     2
 10
-475.15
 20
133.9693703116
 30
0.0
 11
-496.15
 21
133.9693703116
 31
0.0
  0
LINE
  5
468
  8
VIDITELNE
  6
SLD-PLNÁ
 62
     2
 10
-538.5802010066
 20
77.9693703116
 30
0.0
 11
-538.5802010066
 21
157.6526459516
 31
0.0
  0
LINE
  5
469
  8
VIDITELNE
  6
SLD-PLNÁ
 62
     2
 10
-538.5802010066
 20
-1.7139053284
 30
0.0
 11
-538.5802010066
 21
77.9693703116
 31
0.0
  0
LINE
  5
46A
  8
VIDITELNE
  6
SLD-PLNÁ
 62
     2
 10
-533.7546984901
 20
77.9693703116
 30
0.0
 11
-533.7546984901
 21
133.2523926193
 31
0.0
  0
LINE
  5
46B
  8
VIDITELNE
  6
SLD-PLNÁ
 62
     2
 10
-533.7546984901
 20
22.6863480038
 30
0.0
 11
-533.7546984901
 21
77.9693703116
 31
0.0
  0
LINE
  5
46C
  8
VIDITELNE
  6
SLD-PLNÁ
 62
     2
 10
-259.5802010066
 20
77.9693703116
 30
0.0
 11
-259.5802010066
 21
132.2574082601
 31
0.0
  0
LINE
  5
46D
  8
VIDITELNE
  6
SLD-PLNÁ
 62
     2
 10
-259.5802010066
 20
23.6813323631
 30
0.0
 11
-259.5802010066
 21
77.9693703116
 31
0.0
  0
LINE
  5
46E
  8
VIDITELNE
  6
SLD-PLNÁ
 62
     2
 10
522.65
 20
22.9693703116
 30
0.0
 11
525.65
 21
22.9693703116
 31
0.0
  0
LINE
  5
46F
  8
VIDITELNE
  6
SLD-PLNÁ
 62
     2
 10
380.6725757509
 20
132.9693703116
 30
0.0
 11
265.65
 21
132.9693703116
 31
0.0
  0
LINE
  5
470
  8
VIDITELNE
  6
SLD-PLNÁ
 62
     2
 10
470.6725757509
 20
132.9693703116
 30
0.0
 11
410.65
 21
132.9693703116
 31
0.0
  0
LINE
  5
471
  8
VIDITELNE
  6
SLD-PLNÁ
 62
     2
 10
525.65
 20
132.9693703116
 30
0.0
 11
500.65
 21
132.9693703116
 31
0.0
  0
ARC
  5
472
  8
VIDITELNE
  6
SLD-PLNÁ
 62
     2
 10
522.65
 20
20.9693703116
 30
0.0
 40
2.000000000000004
 50
90.0
 51
180.0
  0
ARC
  5
473
  8
VIDITELNE
  6
SLD-PLNÁ
 62
     2
 10
412.6092447226
 20
-167.6332437773
 30
0.0
 40
1.742179769731947
 50
97.9218781916
 51
107.2312735669
  0
ARC
  5
474
  8
VIDITELNE
  6
SLD-PLNÁ
 62
     2
 10
412.624503548
 20
-167.8673639045
 30
0.0
 40
1.971073302655194
 50
105.638726301
 51
180.3841125818
  0
ARC
  5
475
  8
VIDITELNE
  6
SLD-PLNÁ
 62
     2
 10
378.8225934019
 20
-167.7539878247
 30
0.0
 40
1.819238496140565
 50
355.813255925
 51
74.5804969811
  0
ARC
  5
476
  8
VIDITELNE
  6
SLD-PLNÁ
 62
     2
 10
268.65
 20
-19.0306296884
 30
0.0
 40
2.0
 50
0.0
 51
75.5224878141
  0
ARC
  5
477
  8
VIDITELNE
  6
SLD-PLNÁ
 62
     2
 10
265.65
 20
20.9693703116
 30
0.0
 40
2.000000000000004
 50
0.0
 51
90.0
  0
ARC
  5
478
  8
VIDITELNE
  6
SLD-PLNÁ
 62
     2
 10
269.65
 20
-15.1576463422
 30
0.0
 40
2.000000000000016
 50
180.0
 51
255.5224878141
  0
LINE
  5
479
  8
VIDITELNE
  6
SLD-PLNÁ
 62
     2
 10
380.65
 20
-167.8951841183
 30
0.0
 11
380.65
 21
-170.0306296884
 31
0.0
  0
LINE
  5
47A
  8
VIDITELNE
  6
SLD-PLNÁ
 62
     2
 10
410.65
 20
-170.0306296884
 30
0.0
 11
410.65
 21
-167.8876914689
 31
0.0
  0
LINE
  5
47B
  8
VIDITELNE
  6
SLD-PLNÁ
 62
     2
 10
385.15
 20
-170.0306296884
 30
0.0
 11
385.15
 21
-173.0306296884
 31
0.0
  0
LINE
  5
47C
  8
VIDITELNE
  6
SLD-PLNÁ
 62
     2
 10
406.15
 20
-173.0306296884
 30
0.0
 11
406.15
 21
-170.0306296884
 31
0.0
  0
LINE
  5
47D
  8
VIDITELNE
  6
SLD-PLNÁ
 62
     2
 10
267.65
 20
8.4693703116
 30
0.0
 11
264.65
 21
8.4693703116
 31
0.0
  0
LINE
  5
47E
  8
VIDITELNE
  6
SLD-PLNÁ
 62
     2
 10
264.65
 20
-12.5306296884
 30
0.0
 11
267.65
 21
-12.5306296884
 31
0.0
  0
ARC
  5
47F
  8
VIDITELNE
  6
SLD-PLNÁ
 62
     2
 10
264.65
 20
-11.5306296884
 30
0.0
 40
1.000000000000002
 50
180.0
 51
270.0
  0
ARC
  5
480
  8
VIDITELNE
  6
SLD-PLNÁ
 62
     2
 10
264.65
 20
7.4693703116
 30
0.0
 40
1.0
 50
90.0
 51
180.0
  0
ARC
  5
481
  8
VIDITELNE
  6
SLD-PLNÁ
 62
     2
 10
405.15
 20
-173.0306296884
 30
0.0
 40
1.0
 50
270.0
 51
0.0
  0
ARC
  5
482
  8
VIDITELNE
  6
SLD-PLNÁ
 62
     2
 10
386.15
 20
-173.0306296884
 30
0.0
 40
1.0
 50
180.0
 51
270.0
  0
ARC
  5
483
  8
VIDITELNE
  6
SLD-PLNÁ
 62
     2
 10
476.15
 20
133.9693703116
 30
0.0
 40
1.0
 50
90.0
 51
180.0
  0
ARC
  5
484
  8
VIDITELNE
  6
SLD-PLNÁ
 62
     2
 10
495.15
 20
133.9693703116
 30
0.0
 40
1.0
 50
0.0
 51
90.0
  0
LINE
  5
485
  8
VIDITELNE
  6
SLD-PLNÁ
 62
     2
 10
496.15
 20
131.9197558321
 30
0.0
 11
496.15
 21
133.9693703116
 31
0.0
  0
LINE
  5
486
  8
VIDITELNE
  6
SLD-PLNÁ
 62
     2
 10
475.15
 20
133.9693703116
 30
0.0
 11
475.15
 21
131.9231907798
 31
0.0
  0
LINE
  5
487
  8
VIDITELNE
  6
SLD-PLNÁ
 62
     2
 10
547.65
 20
157.9693703116
 30
0.0
 11
538.5802010066
 21
157.6526459516
 31
0.0
  0
LINE
  5
488
  8
VIDITELNE
  6
SLD-PLNÁ
 62
     2
 10
538.5802010066
 20
-1.7139053284
 30
0.0
 11
547.65
 21
-2.0306296884
 31
0.0
  0
ARC
  5
489
  8
VIDITELNE
  6
SLD-PLNÁ
 62
     2
 10
538.65
 20
155.6538642975
 30
0.0
 40
2.000000000000002
 50
92.0
 51
180.0
  0
ARC
  5
48A
  8
VIDITELNE
  6
SLD-PLNÁ
 62
     2
 10
538.65
 20
0.2848763256
 30
0.0
 40
2.0
 50
180.0
 51
268.0
  0
ARC
  5
48B
  8
VIDITELNE
  6
SLD-PLNÁ
 62
     2
 10
533.65
 20
136.2505651004
 30
0.0
 40
3.0
 50
272.0
 51
0.0
  0
ARC
  5
48C
  8
VIDITELNE
  6
SLD-PLNÁ
 62
     2
 10
533.65
 20
19.6881755227
 30
0.0
 40
3.0
 50
0.0
 51
88.0
  0
LINE
  5
48D
  8
VIDITELNE
  6
SLD-PLNÁ
 62
     2
 10
533.7546984901
 20
133.2523926193
 30
0.0
 11
525.65
 21
132.9693703116
 31
0.0
  0
LINE
  5
48E
  8
VIDITELNE
  6
SLD-PLNÁ
 62
     2
 10
525.65
 20
22.9693703116
 30
0.0
 11
533.7546984901
 21
22.6863480038
 31
0.0
  0
LINE
  5
48F
  8
VIDITELNE
  6
SLD-PLNÁ
 62
     2
 10
406.9535078104
 20
132.0837328943
 30
0.0
 11
406.7555279998
 21
133.2065321945
 31
0.0
  0
LINE
  5
490
  8
VIDITELNE
  6
SLD-PLNÁ
 62
     2
 10
384.5444667725
 20
133.2065025466
 30
0.0
 11
384.3459515414
 21
132.0806667258
 31
0.0
  0
POLYLINE
  5
491
  8
VIDITELNE
  6
SLD-PLNÁ
 62
     2
 66
     1
 10
0.0
 20
0.0
 30
0.0
  0
VERTEX
  5
89C
  8
VIDITELNE
  6
SLD-PLNÁ
 62
     2
 10
395.65
 20
141.969367316
 30
0.0
  0
VERTEX
  5
89D
  8
VIDITELNE
  6
SLD-PLNÁ
 62
     2
 10
393.5571808081
 20
142.0444870367
 30
0.0
  0
VERTEX
  5
89E
  8
VIDITELNE
  6
SLD-PLNÁ
 62
     2
 10
391.737942639
 20
142.4472908267
 30
0.0
  0
VERTEX
  5
89F
  8
VIDITELNE
  6
SLD-PLNÁ
 62
     2
 10
390.2266253041
 20
143.0348934578
 30
0.0
  0
VERTEX
  5
8A0
  8
VIDITELNE
  6
SLD-PLNÁ
 62
     2
 10
389.0222162617
 20
143.699773228
 30
0.0
  0
VERTEX
  5
8A1
  8
VIDITELNE
  6
SLD-PLNÁ
 62
     2
 10
387.3382754892
 20
145.0020426762
 30
0.0
  0
VERTEX
  5
8A2
  8
VIDITELNE
  6
SLD-PLNÁ
 62
     2
 10
386.0347317433
 20
146.4436662941
 30
0.0
  0
VERTEX
  5
8A3
  8
VIDITELNE
  6
SLD-PLNÁ
 62
     2
 10
384.2851959955
 20
149.7118429675
 30
0.0
  0
VERTEX
  5
8A4
  8
VIDITELNE
  6
SLD-PLNÁ
 62
     2
 10
383.8054055538
 20
151.5803132739
 30
0.0
  0
VERTEX
  5
8A5
  8
VIDITELNE
  6
SLD-PLNÁ
 62
     2
 10
383.633662094
 20
153.7241479769
 30
0.0
  0
VERTEX
  5
8A6
  8
VIDITELNE
  6
SLD-PLNÁ
 62
     2
 10
383.8620970784
 20
155.9440916712
 30
0.0
  0
VERTEX
  5
8A7
  8
VIDITELNE
  6
SLD-PLNÁ
 62
     2
 10
384.4127371346
 20
157.8772895207
 30
0.0
  0
VERTEX
  5
8A8
  8
VIDITELNE
  6
SLD-PLNÁ
 62
     2
 10
385.207252952
 20
159.5805099574
 30
0.0
  0
VERTEX
  5
8A9
  8
VIDITELNE
  6
SLD-PLNÁ
 62
     2
 10
386.3315750317
 20
161.2445803156
 30
0.0
  0
VERTEX
  5
8AA
  8
VIDITELNE
  6
SLD-PLNÁ
 62
     2
 10
387.8257636668
 20
162.8104183859
 30
0.0
  0
VERTEX
  5
8AB
  8
VIDITELNE
  6
SLD-PLNÁ
 62
     2
 10
389.7217008332
 20
164.1905655313
 30
0.0
  0
VERTEX
  5
8AC
  8
VIDITELNE
  6
SLD-PLNÁ
 62
     2
 10
392.2733981945
 20
165.3484858181
 30
0.0
  0
VERTEX
  5
8AD
  8
VIDITELNE
  6
SLD-PLNÁ
 62
     2
 10
395.65
 20
165.9693703116
 30
0.0
  0
SEQEND
  5
8AE
  8
VIDITELNE
  6
SLD-PLNÁ
 62
     2
  0
POLYLINE
  5
492
  8
VIDITELNE
  6
SLD-PLNÁ
 62
     2
 66
     1
 10
0.0
 20
0.0
 30
0.0
  0
VERTEX
  5
8AF
  8
VIDITELNE
  6
SLD-PLNÁ
 62
     2
 10
395.65
 20
173.9693703116
 30
0.0
  0
VERTEX
  5
8B0
  8
VIDITELNE
  6
SLD-PLNÁ
 62
     2
 10
392.4991226135
 20
173.8313852467
 30
0.0
  0
VERTEX
  5
8B1
  8
VIDITELNE
  6
SLD-PLNÁ
 62
     2
 10
389.6766767468
 20
173.2914107613
 30
0.0
  0
VERTEX
  5
8B2
  8
VIDITELNE
  6
SLD-PLNÁ
 62
     2
 10
387.2174352274
 20
172.4839093594
 30
0.0
  0
VERTEX
  5
8B3
  8
VIDITELNE
  6
SLD-PLNÁ
 62
     2
 10
385.1282147876
 20
171.5221266604
 30
0.0
  0
VERTEX
  5
8B4
  8
VIDITELNE
  6
SLD-PLNÁ
 62
     2
 10
381.6589229761
 20
169.2311183556
 30
0.0
  0
VERTEX
  5
8B5
  8
VIDITELNE
  6
SLD-PLNÁ
 62
     2
 10
378.9104395465
 20
166.5655818784
 30
0.0
  0
VERTEX
  5
8B6
  8
VIDITELNE
  6
SLD-PLNÁ
 62
     2
 10
376.8215370211
 20
163.696821071
 30
0.0
  0
VERTEX
  5
8B7
  8
VIDITELNE
  6
SLD-PLNÁ
 62
     2
 10
375.2863329183
 20
160.6664199398
 30
0.0
  0
VERTEX
  5
8B8
  8
VIDITELNE
  6
SLD-PLNÁ
 62
     2
 10
374.1579645079
 20
157.0706736296
 30
0.0
  0
VERTEX
  5
8B9
  8
VIDITELNE
  6
SLD-PLNÁ
 62
     2
 10
373.6513230676
 20
153.0101750625
 30
0.0
  0
VERTEX
  5
8BA
  8
VIDITELNE
  6
SLD-PLNÁ
 62
     2
 10
373.8617947717
 20
149.2208263874
 30
0.0
  0
VERTEX
  5
8BB
  8
VIDITELNE
  6
SLD-PLNÁ
 62
     2
 10
374.6148328989
 20
145.849444146
 30
0.0
  0
VERTEX
  5
8BC
  8
VIDITELNE
  6
SLD-PLNÁ
 62
     2
 10
375.8834735818
 20
142.6319872629
 30
0.0
  0
VERTEX
  5
8BD
  8
VIDITELNE
  6
SLD-PLNÁ
 62
     2
 10
377.6501420062
 20
139.6266387049
 30
0.0
  0
VERTEX
  5
8BE
  8
VIDITELNE
  6
SLD-PLNÁ
 62
     2
 10
379.0437448305
 20
137.8315704125
 30
0.0
  0
VERTEX
  5
8BF
  8
VIDITELNE
  6
SLD-PLNÁ
 62
     2
 10
380.5803134642
 20
136.2164247467
 30
0.0
  0
VERTEX
  5
8C0
  8
VIDITELNE
  6
SLD-PLNÁ
 62
     2
 10
382.6892034427
 20
134.4411761135
 30
0.0
  0
VERTEX
  5
8C1
  8
VIDITELNE
  6
SLD-PLNÁ
 62
     2
 10
384.5558318611
 20
133.219791748
 30
0.0
  0
SEQEND
  5
8C2
  8
VIDITELNE
  6
SLD-PLNÁ
 62
     2
  0
POLYLINE
  5
493
  8
VIDITELNE
  6
SLD-PLNÁ
 62
     2
 66
     1
 10
0.0
 20
0.0
 30
0.0
  0
VERTEX
  5
8C3
  8
VIDITELNE
  6
SLD-PLNÁ
 62
     2
 10
406.7443251103
 20
133.2187829902
 30
0.0
  0
VERTEX
  5
8C4
  8
VIDITELNE
  6
SLD-PLNÁ
 62
     2
 10
407.6107212613
 20
133.7395395936
 30
0.0
  0
VERTEX
  5
8C5
  8
VIDITELNE
  6
SLD-PLNÁ
 62
     2
 10
409.2337081912
 20
134.9206617398
 30
0.0
  0
VERTEX
  5
8C6
  8
VIDITELNE
  6
SLD-PLNÁ
 62
     2
 10
411.0454240341
 20
136.5328347147
 30
0.0
  0
VERTEX
  5
8C7
  8
VIDITELNE
  6
SLD-PLNÁ
 62
     2
 10
412.9491748817
 20
138.6773634889
 30
0.0
  0
VERTEX
  5
8C8
  8
VIDITELNE
  6
SLD-PLNÁ
 62
     2
 10
414.5727056866
 20
141.0622319609
 30
0.0
  0
VERTEX
  5
8C9
  8
VIDITELNE
  6
SLD-PLNÁ
 62
     2
 10
415.6514491075
 20
143.1296139797
 30
0.0
  0
VERTEX
  5
8CA
  8
VIDITELNE
  6
SLD-PLNÁ
 62
     2
 10
416.3315501681
 20
144.7920096573
 30
0.0
  0
VERTEX
  5
8CB
  8
VIDITELNE
  6
SLD-PLNÁ
 62
     2
 10
416.9036935154
 20
146.6096279
 30
0.0
  0
VERTEX
  5
8CC
  8
VIDITELNE
  6
SLD-PLNÁ
 62
     2
 10
417.3911404179
 20
148.9070599239
 30
0.0
  0
VERTEX
  5
8CD
  8
VIDITELNE
  6
SLD-PLNÁ
 62
     2
 10
417.6479081086
 20
151.6347475503
 30
0.0
  0
VERTEX
  5
8CE
  8
VIDITELNE
  6
SLD-PLNÁ
 62
     2
 10
417.3795021427
 20
155.826602678
 30
0.0
  0
VERTEX
  5
8CF
  8
VIDITELNE
  6
SLD-PLNÁ
 62
     2
 10
416.3155725343
 20
159.8911897718
 30
0.0
  0
VERTEX
  5
8D0
  8
VIDITELNE
  6
SLD-PLNÁ
 62
     2
 10
415.283015128
 20
162.2558323398
 30
0.0
  0
VERTEX
  5
8D1
  8
VIDITELNE
  6
SLD-PLNÁ
 62
     2
 10
414.2243470378
 20
164.1038726326
 30
0.0
  0
VERTEX
  5
8D2
  8
VIDITELNE
  6
SLD-PLNÁ
 62
     2
 10
413.2270618559
 20
165.5317946101
 30
0.0
  0
VERTEX
  5
8D3
  8
VIDITELNE
  6
SLD-PLNÁ
 62
     2
 10
411.9643191231
 20
167.0442160452
 30
0.0
  0
VERTEX
  5
8D4
  8
VIDITELNE
  6
SLD-PLNÁ
 62
     2
 10
410.2773754862
 20
168.6948974146
 30
0.0
  0
VERTEX
  5
8D5
  8
VIDITELNE
  6
SLD-PLNÁ
 62
     2
 10
408.003871677
 20
170.4334901218
 30
0.0
  0
VERTEX
  5
8D6
  8
VIDITELNE
  6
SLD-PLNÁ
 62
     2
 10
405.7210386612
 20
171.7534397497
 30
0.0
  0
VERTEX
  5
8D7
  8
VIDITELNE
  6
SLD-PLNÁ
 62
     2
 10
402.8950948637
 20
172.9140940347
 30
0.0
  0
VERTEX
  5
8D8
  8
VIDITELNE
  6
SLD-PLNÁ
 62
     2
 10
399.5208407288
 20
173.7349295512
 30
0.0
  0
VERTEX
  5
8D9
  8
VIDITELNE
  6
SLD-PLNÁ
 62
     2
 10
395.65
 20
173.9693703116
 30
0.0
  0
SEQEND
  5
8DA
  8
VIDITELNE
  6
SLD-PLNÁ
 62
     2
  0
POLYLINE
  5
494
  8
VIDITELNE
  6
SLD-PLNÁ
 62
     2
 66
     1
 10
0.0
 20
0.0
 30
0.0
  0
VERTEX
  5
8DB
  8
VIDITELNE
  6
SLD-PLNÁ
 62
     2
 10
395.65
 20
165.9693703116
 30
0.0
  0
VERTEX
  5
8DC
  8
VIDITELNE
  6
SLD-PLNÁ
 62
     2
 10
397.4387238306
 20
165.7571923654
 30
0.0
  0
VERTEX
  5
8DD
  8
VIDITELNE
  6
SLD-PLNÁ
 62
     2
 10
399.0266018055
 20
165.3484858181
 30
0.0
  0
VERTEX
  5
8DE
  8
VIDITELNE
  6
SLD-PLNÁ
 62
     2
 10
401.5782991668
 20
164.1905655313
 30
0.0
  0
VERTEX
  5
8DF
  8
VIDITELNE
  6
SLD-PLNÁ
 62
     2
 10
403.4742363332
 20
162.8104183859
 30
0.0
  0
VERTEX
  5
8E0
  8
VIDITELNE
  6
SLD-PLNÁ
 62
     2
 10
404.9684249683
 20
161.2445803156
 30
0.0
  0
VERTEX
  5
8E1
  8
VIDITELNE
  6
SLD-PLNÁ
 62
     2
 10
406.092747048
 20
159.5805099574
 30
0.0
  0
VERTEX
  5
8E2
  8
VIDITELNE
  6
SLD-PLNÁ
 62
     2
 10
406.8872628654
 20
157.8772895207
 30
0.0
  0
VERTEX
  5
8E3
  8
VIDITELNE
  6
SLD-PLNÁ
 62
     2
 10
407.4379029216
 20
155.9440916712
 30
0.0
  0
VERTEX
  5
8E4
  8
VIDITELNE
  6
SLD-PLNÁ
 62
     2
 10
407.666337906
 20
153.7241479769
 30
0.0
  0
VERTEX
  5
8E5
  8
VIDITELNE
  6
SLD-PLNÁ
 62
     2
 10
407.4945944462
 20
151.5803132739
 30
0.0
  0
VERTEX
  5
8E6
  8
VIDITELNE
  6
SLD-PLNÁ
 62
     2
 10
407.0148040045
 20
149.7118429675
 30
0.0
  0
VERTEX
  5
8E7
  8
VIDITELNE
  6
SLD-PLNÁ
 62
     2
 10
405.2652682567
 20
146.4436662941
 30
0.0
  0
VERTEX
  5
8E8
  8
VIDITELNE
  6
SLD-PLNÁ
 62
     2
 10
403.9617245108
 20
145.0020426762
 30
0.0
  0
VERTEX
  5
8E9
  8
VIDITELNE
  6
SLD-PLNÁ
 62
     2
 10
402.2777837383
 20
143.699773228
 30
0.0
  0
VERTEX
  5
8EA
  8
VIDITELNE
  6
SLD-PLNÁ
 62
     2
 10
401.0733746959
 20
143.0348934578
 30
0.0
  0
VERTEX
  5
8EB
  8
VIDITELNE
  6
SLD-PLNÁ
 62
     2
 10
399.562057361
 20
142.4472908267
 30
0.0
  0
VERTEX
  5
8EC
  8
VIDITELNE
  6
SLD-PLNÁ
 62
     2
 10
397.7428191919
 20
142.0444870367
 30
0.0
  0
VERTEX
  5
8ED
  8
VIDITELNE
  6
SLD-PLNÁ
 62
     2
 10
395.65
 20
141.969367316
 30
0.0
  0
SEQEND
  5
8EE
  8
VIDITELNE
  6
SLD-PLNÁ
 62
     2
  0
LINE
  5
495
  8
VIDITELNE
  6
SLD-PLNÁ
 62
     2
 10
265.65
 20
132.4693703116
 30
0.0
 11
259.5802010066
 21
132.2574082601
 31
0.0
  0
LINE
  5
496
  8
VIDITELNE
  6
SLD-PLNÁ
 62
     2
 10
259.5802010066
 20
23.6813323631
 30
0.0
 11
265.65
 21
23.4693703116
 31
0.0
  0
ARC
  5
497
  8
VIDITELNE
  6
SLD-PLNÁ
 62
     2
 10
259.65
 20
130.258626606
 30
0.0
 40
2.000000000000004
 50
92.0
 51
180.0
  0
ARC
  5
498
  8
VIDITELNE
  6
SLD-PLNÁ
 62
     2
 10
259.65
 20
25.6801140171
 30
0.0
 40
2.000000000000008
 50
180.0
 51
268.0
  0
CIRCLE
  5
499
  8
VIDITELNE
  6
SLD-PLNÁ
 62
     2
 10
395.65
 20
-42.0306296884
 30
0.0
 40
30.50000000000006
  0
LINE
  5
49A
  8
VIDITELNE
  6
SLD-PLNÁ
 62
     2
 10
402.65
 20
-15.7306296884
 30
0.0
 11
388.65
 21
-15.7306296884
 31
0.0
  0
LINE
  5
49B
  8
VIDITELNE
  6
SLD-PLNÁ
 62
     2
 10
388.65
 20
-15.7306296884
 30
0.0
 11
388.65
 21
-19.4353899783
 31
0.0
  0
ARC
  5
49C
  8
VIDITELNE
  6
SLD-PLNÁ
 62
     2
 10
395.65
 20
-42.0306296884
 30
0.0
 40
23.65470053837925
 50
107.2129689444
 51
72.7870310556
  0
LINE
  5
49D
  8
VIDITELNE
  6
SLD-PLNÁ
 62
     2
 10
402.65
 20
-19.4353899783
 30
0.0
 11
402.65
 21
-15.7306296884
 31
0.0
  0
ARC
  5
49E
  8
VIDITELNE
  6
SLD-PLNÁ
 62
     2
 10
395.65
 20
-42.0306296884
 30
0.0
 40
22.50000000000001
 50
108.1262039606
 51
71.8737960394
  0
LINE
  5
49F
  8
VIDITELNE
  6
SLD-PLNÁ
 62
     2
 10
402.65
 20
-20.6472249081
 30
0.0
 11
402.65
 21
-19.4353899783
 31
0.0
  0
LINE
  5
4A0
  8
VIDITELNE
  6
SLD-PLNÁ
 62
     2
 10
388.65
 20
-19.4353899783
 30
0.0
 11
388.65
 21
-20.6472249081
 31
0.0
  0
CIRCLE
  5
4A1
  8
VIDITELNE
  6
SLD-PLNÁ
 62
     2
 10
395.65
 20
-42.0306296884
 30
0.0
 40
32.50000000000006
  0
LINE
  5
4A2
  8
VIDITELNE
  6
SLD-PLNÁ
 62
     2
 10
354.7235769955
 20
76.079606532
 30
0.0
 11
354.0687542274
 21
77.9693703116
 31
0.0
  0
ARC
  5
4A3
  8
VIDITELNE
  6
SLD-PLNÁ
 62
     2
 10
395.65
 20
-46.6024538385
 30
0.0
 40
131.3283646897413
 50
71.54133344
 51
108.45866656
  0
LINE
  5
4A4
  8
VIDITELNE
  6
SLD-PLNÁ
 62
     2
 10
436.5764230045
 20
76.079606532
 30
0.0
 11
437.2312457726
 21
77.9693703116
 31
0.0
  0
LINE
  5
4A5
  8
VIDITELNE
  6
SLD-PLNÁ
 62
     2
 10
274.587007874
 20
-10.9058495687
 30
0.0
 11
272.65
 21
-10.4078530868
 31
0.0
  0
LINE
  5
4A6
  8
VIDITELNE
  6
SLD-PLNÁ
 62
     2
 10
516.712992126
 20
-10.9058495687
 30
0.0
 11
518.65
 21
-10.4078530868
 31
0.0
  0
ARC
  5
4A7
  8
VIDITELNE
  6
SLD-PLNÁ
 62
     2
 10
271.4571175436
 20
-41.9163375397
 30
0.0
 40
249.1929086664468
 50
359.9737213309
 51
7.264045129
  0
ARC
  5
4A8
  8
VIDITELNE
  6
SLD-PLNÁ
 62
     2
 10
395.65
 20
-42.0306296884
 30
0.0
 40
127.0
 50
109.1117321372
 51
165.5817588266
  0
ARC
  5
4A9
  8
VIDITELNE
  6
SLD-PLNÁ
 62
     2
 10
395.65
 20
-42.0306296884
 30
0.0
 40
127.0000000000001
 50
14.4182411734
 51
70.8882678628
  0
POLYLINE
  5
4AA
  8
VIDITELNE
  6
SLD-PLNÁ
 62
     2
 66
     1
 10
0.0
 20
0.0
 30
0.0
  0
VERTEX
  5
8EF
  8
VIDITELNE
  6
SLD-PLNÁ
 62
     2
 10
268.65
 20
57.7291995574
 30
0.0
  0
VERTEX
  5
8F0
  8
VIDITELNE
  6
SLD-PLNÁ
 62
     2
 10
268.881607626
 20
61.3678949122
 30
0.0
  0
VERTEX
  5
8F1
  8
VIDITELNE
  6
SLD-PLNÁ
 62
     2
 10
269.4646588335
 20
65.1071333395
 30
0.0
  0
VERTEX
  5
8F2
  8
VIDITELNE
  6
SLD-PLNÁ
 62
     2
 10
270.4363665632
 20
69.5715118109
 30
0.0
  0
VERTEX
  5
8F3
  8
VIDITELNE
  6
SLD-PLNÁ
 62
     2
 10
271.5938625214
 20
74.0902550359
 30
0.0
  0
VERTEX
  5
8F4
  8
VIDITELNE
  6
SLD-PLNÁ
 62
     2
 10
272.6375823126
 20
77.9241392816
 30
0.0
  0
VERTEX
  5
8F5
  8
VIDITELNE
  6
SLD-PLNÁ
 62
     2
 10
272.65
 20
77.9693703116
 30
0.0
  0
SEQEND
  5
8F6
  8
VIDITELNE
  6
SLD-PLNÁ
 62
     2
  0
LINE
  5
4AB
  8
VIDITELNE
  6
SLD-PLNÁ
 62
     2
 10
268.65
 20
25.4724665936
 30
0.0
 11
268.65
 21
57.7291995574
 31
0.0
  0
LINE
  5
4AC
  8
VIDITELNE
  6
SLD-PLNÁ
 62
     2
 10
265.65
 20
25.4724665936
 30
0.0
 11
268.65
 21
25.4724665936
 31
0.0
  0
LINE
  5
4AD
  8
VIDITELNE
  6
SLD-PLNÁ
 62
     2
 10
265.65
 20
132.9693703116
 30
0.0
 11
265.65
 21
25.4724665936
 31
0.0
  0
POLYLINE
  5
4AE
  8
VIDITELNE
  6
SLD-PLNÁ
 62
     2
 66
     1
 10
0.0
 20
0.0
 30
0.0
  0
VERTEX
  5
8F7
  8
VIDITELNE
  6
SLD-PLNÁ
 62
     2
 10
518.65
 20
77.9693703116
 30
0.0
  0
VERTEX
  5
8F8
  8
VIDITELNE
  6
SLD-PLNÁ
 62
     2
 10
518.6624176874
 20
77.9241392816
 30
0.0
  0
VERTEX
  5
8F9
  8
VIDITELNE
  6
SLD-PLNÁ
 62
     2
 10
519.7061374786
 20
74.0902550359
 30
0.0
  0
VERTEX
  5
8FA
  8
VIDITELNE
  6
SLD-PLNÁ
 62
     2
 10
520.8549140357
 20
69.6076710673
 30
0.0
  0
VERTEX
  5
8FB
  8
VIDITELNE
  6
SLD-PLNÁ
 62
     2
 10
521.8353411665
 20
65.1071333395
 30
0.0
  0
VERTEX
  5
8FC
  8
VIDITELNE
  6
SLD-PLNÁ
 62
     2
 10
522.4127286674
 20
61.4161442249
 30
0.0
  0
VERTEX
  5
8FD
  8
VIDITELNE
  6
SLD-PLNÁ
 62
     2
 10
522.65
 20
57.7291995574
 30
0.0
  0
SEQEND
  5
8FE
  8
VIDITELNE
  6
SLD-PLNÁ
 62
     2
  0
LINE
  5
4AF
  8
VIDITELNE
  6
SLD-PLNÁ
 62
     2
 10
518.65
 20
77.9693703116
 30
0.0
 11
437.2312457726
 21
77.9693703116
 31
0.0
  0
LINE
  5
4B0
  8
VIDITELNE
  6
SLD-PLNÁ
 62
     2
 10
272.65
 20
77.9693703116
 30
0.0
 11
354.0687542274
 21
77.9693703116
 31
0.0
  0
LINE
  5
4B1
  8
VIDITELNE
  6
SLD-PLNÁ
 62
     2
 10
525.65
 20
132.9693703116
 30
0.0
 11
525.65
 21
22.9693703116
 31
0.0
  0
POLYLINE
  5
4B2
  8
VIDITELNE
  6
SLD-PLNÁ
 62
     2
 66
     1
 10
0.0
 20
0.0
 30
0.0
  0
VERTEX
  5
8FF
  8
VIDITELNE
  6
SLD-PLNÁ
 62
     2
 10
482.65
 20
130.9693703116
 30
0.0
  0
VERTEX
  5
900
  8
VIDITELNE
  6
SLD-PLNÁ
 62
     2
 10
480.2707620186
 20
131.1571151525
 30
0.0
  0
VERTEX
  5
901
  8
VIDITELNE
  6
SLD-PLNÁ
 62
     2
 10
477.9816440011
 20
131.4371520472
 30
0.0
  0
VERTEX
  5
902
  8
VIDITELNE
  6
SLD-PLNÁ
 62
     2
 10
475.9747534306
 20
131.7616596863
 30
0.0
  0
VERTEX
  5
903
  8
VIDITELNE
  6
SLD-PLNÁ
 62
     2
 10
474.1857750952
 20
132.1120378915
 30
0.0
  0
VERTEX
  5
904
  8
VIDITELNE
  6
SLD-PLNÁ
 62
     2
 10
472.7326400132
 20
132.4382438911
 30
0.0
  0
VERTEX
  5
905
  8
VIDITELNE
  6
SLD-PLNÁ
 62
     2
 10
471.6126164061
 20
132.7146727417
 30
0.0
  0
VERTEX
  5
906
  8
VIDITELNE
  6
SLD-PLNÁ
 62
     2
 10
470.9301726762
 20
132.8936210251
 30
0.0
  0
VERTEX
  5
907
  8
VIDITELNE
  6
SLD-PLNÁ
 62
     2
 10
470.6534433167
 20
132.968431325
 30
0.0
  0
VERTEX
  5
908
  8
VIDITELNE
  6
SLD-PLNÁ
 62
     2
 10
470.6725757509
 20
132.9632377184
 30
0.0
  0
SEQEND
  5
909
  8
VIDITELNE
  6
SLD-PLNÁ
 62
     2
  0
LINE
  5
4B3
  8
VIDITELNE
  6
SLD-PLNÁ
 62
     2
 10
482.65
 20
130.9693703116
 30
0.0
 11
488.65
 21
130.9693703116
 31
0.0
  0
ARC
  5
4B4
  8
VIDITELNE
  6
SLD-PLNÁ
 62
     2
 10
485.034659165
 20
189.6614153218
 30
0.0
 40
58.80328933688492
 50
273.5248792676
 51
285.3997651485
  0
POLYLINE
  5
4B5
  8
VIDITELNE
  6
SLD-PLNÁ
 62
     2
 66
     1
 10
0.0
 20
0.0
 30
0.0
  0
VERTEX
  5
90A
  8
VIDITELNE
  6
SLD-PLNÁ
 62
     2
 10
392.65
 20
130.9693703116
 30
0.0
  0
VERTEX
  5
90B
  8
VIDITELNE
  6
SLD-PLNÁ
 62
     2
 10
390.2707620186
 20
131.1571151525
 30
0.0
  0
VERTEX
  5
90C
  8
VIDITELNE
  6
SLD-PLNÁ
 62
     2
 10
387.9816440011
 20
131.4371520472
 30
0.0
  0
VERTEX
  5
90D
  8
VIDITELNE
  6
SLD-PLNÁ
 62
     2
 10
385.9747534306
 20
131.7616596863
 30
0.0
  0
VERTEX
  5
90E
  8
VIDITELNE
  6
SLD-PLNÁ
 62
     2
 10
384.1857750952
 20
132.1120378915
 30
0.0
  0
VERTEX
  5
90F
  8
VIDITELNE
  6
SLD-PLNÁ
 62
     2
 10
382.7326400132
 20
132.4382438911
 30
0.0
  0
VERTEX
  5
910
  8
VIDITELNE
  6
SLD-PLNÁ
 62
     2
 10
381.6126164061
 20
132.7146727417
 30
0.0
  0
VERTEX
  5
911
  8
VIDITELNE
  6
SLD-PLNÁ
 62
     2
 10
380.9301726762
 20
132.8936210251
 30
0.0
  0
VERTEX
  5
912
  8
VIDITELNE
  6
SLD-PLNÁ
 62
     2
 10
380.6534433167
 20
132.968431325
 30
0.0
  0
VERTEX
  5
913
  8
VIDITELNE
  6
SLD-PLNÁ
 62
     2
 10
380.6725757509
 20
132.9632377184
 30
0.0
  0
SEQEND
  5
914
  8
VIDITELNE
  6
SLD-PLNÁ
 62
     2
  0
LINE
  5
4B6
  8
VIDITELNE
  6
SLD-PLNÁ
 62
     2
 10
392.65
 20
130.9693703116
 30
0.0
 11
398.65
 21
130.9693703116
 31
0.0
  0
ARC
  5
4B7
  8
VIDITELNE
  6
SLD-PLNÁ
 62
     2
 10
395.034659165
 20
189.6614153218
 30
0.0
 40
58.80328933688426
 50
273.5248792676
 51
285.3997651485
  0
LINE
  5
4B8
  8
VIDITELNE
  6
SLD-PLNÁ
 62
     2
 10
520.65
 20
56.9931933482
 30
0.0
 11
520.65
 21
-42.0306296884
 31
0.0
  0
LINE
  5
4B9
  8
VIDITELNE
  6
SLD-PLNÁ
 62
     2
 10
518.65
 20
-10.4078530868
 30
0.0
 11
518.65
 21
77.9693703116
 31
0.0
  0
ARC
  5
4BA
  8
VIDITELNE
  6
SLD-PLNÁ
 62
     2
 10
291.9456673764
 20
45.7705255733
 30
0.0
 40
228.9795188063945
 50
2.8092871132
 51
8.0836600563
  0
LINE
  5
4BB
  8
VIDITELNE
  6
SLD-PLNÁ
 62
     2
 10
270.65
 20
-42.0306296884
 30
0.0
 11
270.65
 21
56.9931933482
 31
0.0
  0
ARC
  5
4BC
  8
VIDITELNE
  6
SLD-PLNÁ
 62
     2
 10
499.3543326237
 20
45.7705255733
 30
0.0
 40
228.9795188064348
 50
171.9163399437
 51
177.1907128868
  0
LINE
  5
4BD
  8
VIDITELNE
  6
SLD-PLNÁ
 62
     2
 10
272.65
 20
77.9693703116
 30
0.0
 11
272.65
 21
-10.4078530868
 31
0.0
  0
POLYLINE
  5
4BE
  8
VIDITELNE
  6
SLD-PLNÁ
 62
     2
 66
     1
 10
0.0
 20
0.0
 30
0.0
  0
VERTEX
  5
915
  8
VIDITELNE
  6
SLD-PLNÁ
 62
     2
 10
270.65
 20
56.9931933482
 30
0.0
  0
VERTEX
  5
916
  8
VIDITELNE
  6
SLD-PLNÁ
 62
     2
 10
270.6115705608
 20
57.1367810365
 30
0.0
  0
VERTEX
  5
917
  8
VIDITELNE
  6
SLD-PLNÁ
 62
     2
 10
270.497759065
 20
57.2748507306
 30
0.0
  0
VERTEX
  5
918
  8
VIDITELNE
  6
SLD-PLNÁ
 62
     2
 10
270.3129392246
 20
57.4020964893
 30
0.0
  0
VERTEX
  5
919
  8
VIDITELNE
  6
SLD-PLNÁ
 62
     2
 10
270.0642135624
 20
57.5136283297
 30
0.0
  0
VERTEX
  5
91A
  8
VIDITELNE
  6
SLD-PLNÁ
 62
     2
 10
269.761140466
 20
57.6051601456
 30
0.0
  0
VERTEX
  5
91B
  8
VIDITELNE
  6
SLD-PLNÁ
 62
     2
 10
269.4153668647
 20
57.6731744207
 30
0.0
  0
VERTEX
  5
91C
  8
VIDITELNE
  6
SLD-PLNÁ
 62
     2
 10
269.040180644
 20
57.7150574045
 30
0.0
  0
VERTEX
  5
91D
  8
VIDITELNE
  6
SLD-PLNÁ
 62
     2
 10
268.65
 20
57.7291995574
 30
0.0
  0
SEQEND
  5
91E
  8
VIDITELNE
  6
SLD-PLNÁ
 62
     2
  0
POLYLINE
  5
4BF
  8
VIDITELNE
  6
SLD-PLNÁ
 62
     2
 66
     1
 10
0.0
 20
0.0
 30
0.0
  0
VERTEX
  5
91F
  8
VIDITELNE
  6
SLD-PLNÁ
 62
     2
 10
522.65
 20
57.7291995574
 30
0.0
  0
VERTEX
  5
920
  8
VIDITELNE
  6
SLD-PLNÁ
 62
     2
 10
522.259819356
 20
57.7150574045
 30
0.0
  0
VERTEX
  5
921
  8
VIDITELNE
  6
SLD-PLNÁ
 62
     2
 10
521.8846331353
 20
57.6731744207
 30
0.0
  0
VERTEX
  5
922
  8
VIDITELNE
  6
SLD-PLNÁ
 62
     2
 10
521.538859534
 20
57.6051601456
 30
0.0
  0
VERTEX
  5
923
  8
VIDITELNE
  6
SLD-PLNÁ
 62
     2
 10
521.2357864376
 20
57.5136283297
 30
0.0
  0
VERTEX
  5
924
  8
VIDITELNE
  6
SLD-PLNÁ
 62
     2
 10
520.9870607754
 20
57.4020964893
 30
0.0
  0
VERTEX
  5
925
  8
VIDITELNE
  6
SLD-PLNÁ
 62
     2
 10
520.802240935
 20
57.2748507306
 30
0.0
  0
VERTEX
  5
926
  8
VIDITELNE
  6
SLD-PLNÁ
 62
     2
 10
520.6884294392
 20
57.1367810365
 30
0.0
  0
VERTEX
  5
927
  8
VIDITELNE
  6
SLD-PLNÁ
 62
     2
 10
520.65
 20
56.9931933482
 30
0.0
  0
SEQEND
  5
928
  8
VIDITELNE
  6
SLD-PLNÁ
 62
     2
  0
ARC
  5
4C0
  8
VIDITELNE
  6
SLD-PLNÁ
 62
     2
 10
268.6944752231
 20
23.5168924376
 30
0.0
 40
1.956079836075846
 50
1.364973668
 51
91.3028416034
  0
LINE
  5
4C1
  8
VIDITELNE
  6
SLD-PLNÁ
 62
     2
 10
270.65
 20
23.5634882766
 30
0.0
 11
269.0811358957
 21
23.5634882766
 31
0.0
  0
POLYLINE
  5
4C2
  8
VIDITELNE
  6
SLD-PLNÁ
 62
     2
 66
     1
 10
0.0
 20
0.0
 30
0.0
  0
VERTEX
  5
929
  8
VIDITELNE
  6
SLD-PLNÁ
 62
     2
 10
268.65
 20
24.4271322336
 30
0.0
  0
VERTEX
  5
92A
  8
VIDITELNE
  6
SLD-PLNÁ
 62
     2
 10
268.8601812454
 20
24.1048238227
 30
0.0
  0
VERTEX
  5
92B
  8
VIDITELNE
  6
SLD-PLNÁ
 62
     2
 10
269.0811358957
 20
23.5634882766
 30
0.0
  0
SEQEND
  5
92C
  8
VIDITELNE
  6
SLD-PLNÁ
 62
     2
  0
LINE
  5
4C3
  8
VIDITELNE
  6
SLD-PLNÁ
 62
     2
 10
268.65
 20
25.4724665936
 30
0.0
 11
268.65
 21
24.4271322336
 31
0.0
  0
LINE
  5
4C4
  8
VIDITELNE
  6
SLD-PLNÁ
 62
     2
 10
270.65
 20
-2.0306296884
 30
0.0
 11
269.15
 21
-2.0306296884
 31
0.0
  0
LINE
  5
4C5
  8
VIDITELNE
  6
SLD-PLNÁ
 62
     2
 10
269.15
 20
22.5015288737
 30
0.0
 11
269.15
 21
-2.0306296884
 31
0.0
  0
LINE
  5
4C6
  8
VIDITELNE
  6
SLD-PLNÁ
 62
     2
 10
269.0811358957
 20
23.5634882766
 30
0.0
 11
269.15
 21
22.5015288737
 31
0.0
  0
ARC
  5
4C7
  8
VIDITELNE
  6
SLD-PLNÁ
 62
     2
 10
264.6181425786
 20
17.6836341038
 30
0.0
 40
7.856884961125185
 50
59.1252982747
 51
82.4534517513
  0
ARC
  5
4C8
  8
VIDITELNE
  6
SLD-PLNÁ
 62
     2
 10
267.4214275267
 20
25.9334277537
 30
0.0
 40
1.943789215959008
 50
261.9730801003
 51
309.201549277
  0
ARC
  5
4C9
  8
VIDITELNE
  6
SLD-PLNÁ
 62
     2
 10
263.2818373619
 20
21.5452642472
 30
0.0
 40
4.585969096042207
 50
32.4908016272
 51
58.9093850665
  0
LINE
  5
4CA
  8
VIDITELNE
  6
SLD-PLNÁ
 62
     2
 10
267.65
 20
22.5015288737
 30
0.0
 11
267.5811358957
 21
23.0576306325
 31
0.0
  0
ARC
  5
4CB
  8
VIDITELNE
  6
SLD-PLNÁ
 62
     2
 10
264.3448018362
 20
22.1637671323
 30
0.0
 40
3.357506530471175
 50
15.4399556874
 51
33.3320171732
  0
LINE
  5
4CC
  8
VIDITELNE
  6
SLD-PLNÁ
 62
     2
 10
265.65
 20
25.4724665936
 30
0.0
 11
265.65
 21
22.9693703116
 31
0.0
  0
ARC
  5
4CD
  8
VIDITELNE
  6
SLD-PLNÁ
 62
     2
 10
270.7537036547
 20
16.1270134891
 30
0.0
 40
7.62224639950214
 50
102.6756968369
 51
114.5964698279
  0
LINE
  5
4CE
  8
VIDITELNE
  6
SLD-PLNÁ
 62
     2
 10
269.15
 20
22.5015288737
 30
0.0
 11
267.65
 21
22.5015288737
 31
0.0
  0
LINE
  5
4CF
  8
VIDITELNE
  6
SLD-PLNÁ
 62
     2
 10
267.65
 20
-15.1576463422
 30
0.0
 11
267.65
 21
-2.0306296884
 31
0.0
  0
LINE
  5
4D0
  8
VIDITELNE
  6
SLD-PLNÁ
 62
     2
 10
269.15
 20
-2.0306296884
 30
0.0
 11
267.65
 21
-2.0306296884
 31
0.0
  0
LINE
  5
4D1
  8
VIDITELNE
  6
SLD-PLNÁ
 62
     2
 10
267.65
 20
-2.0306296884
 30
0.0
 11
267.65
 21
22.5015288737
 31
0.0
  0
LINE
  5
4D2
  8
VIDITELNE
  6
SLD-PLNÁ
 62
     2
 10
380.65
 20
-170.0306296884
 30
0.0
 11
410.65
 21
-170.0306296884
 31
0.0
  0
LINE
  5
4D3
  8
VIDITELNE
  6
SLD-PLNÁ
 62
     2
 10
263.65
 20
7.4693703116
 30
0.0
 11
263.65
 21
-11.5306296884
 31
0.0
  0
LINE
  5
4D4
  8
VIDITELNE
  6
SLD-PLNÁ
 62
     2
 10
386.15
 20
-174.0306296884
 30
0.0
 11
405.15
 21
-174.0306296884
 31
0.0
  0
LINE
  5
4D5
  8
VIDITELNE
  6
SLD-PLNÁ
 62
     2
 10
495.15
 20
134.9693703116
 30
0.0
 11
476.15
 21
134.9693703116
 31
0.0
  0
CIRCLE
  5
4D6
  8
VIDITELNE
  6
SLD-PLNÁ
 62
     2
 10
395.65
 20
-42.0306296884
 30
0.0
 40
125.0
  0
CIRCLE
  5
4D7
  8
VIDITELNE
  6
SLD-PLNÁ
 62
     2
 10
395.65
 20
-42.0306296884
 30
0.0
 40
90.0
  0
CIRCLE
  5
4D8
  8
VIDITELNE
  6
SLD-PLNÁ
 62
     2
 10
319.6360210224
 20
33.9833492891
 30
0.0
 40
6.500000000000004
  0
CIRCLE
  5
4D9
  8
VIDITELNE
  6
SLD-PLNÁ
 62
     2
 10
471.6639789776
 20
33.9833492891
 30
0.0
 40
6.500000000000004
  0
CIRCLE
  5
4DA
  8
VIDITELNE
  6
SLD-PLNÁ
 62
     2
 10
471.6639789776
 20
-118.044608666
 30
0.0
 40
6.5
  0
CIRCLE
  5
4DB
  8
VIDITELNE
  6
SLD-PLNÁ
 62
     2
 10
319.6360210224
 20
-118.044608666
 30
0.0
 40
6.500000000000014
  0
CIRCLE
  5
4DC
  8
VIDITELNE
  6
SLD-PLNÁ
 62
     2
 10
395.65
 20
-42.0306296884
 30
0.0
 40
84.30159333182249
  0
CIRCLE
  5
4DD
  8
VIDITELNE
  6
SLD-PLNÁ
 62
     2
 10
395.65
 20
-42.0306296884
 30
0.0
 40
45.98572617329036
  0
CIRCLE
  5
4DE
  8
VIDITELNE
  6
SLD-PLNÁ
 62
     2
 10
395.65
 20
-42.0306296884
 30
0.0
 40
43.52827004042337
  0
CIRCLE
  5
4DF
  8
VIDITELNE
  6
SLD-PLNÁ
 62
     2
 10
395.65
 20
-42.0306296884
 30
0.0
 40
42.49999999999999
  0
ARC
  5
4E0
  8
VIDITELNE
  6
SLD-PLNÁ
 62
     2
 10
476.9672798365
 20
39.286650148
 30
0.0
 40
8.000000000000004
 50
175.5416018733
 51
274.4583981268
  0
ARC
  5
4E1
  8
VIDITELNE
  6
SLD-PLNÁ
 62
     2
 10
314.3327201635
 20
39.286650148
 30
0.0
 40
8.000000000000002
 50
265.5416018737
 51
4.4583981263
  0
ARC
  5
4E2
  8
VIDITELNE
  6
SLD-PLNÁ
 62
     2
 10
314.3327201635
 20
-123.3479095249
 30
0.0
 40
8.000000000000016
 50
355.5416018736
 51
94.4583981264
  0
LINE
  5
4E3
  8
VIDITELNE
  6
SLD-PLNÁ
 62
     2
 10
476.9672798365
 20
-115.3479095249
 30
0.0
 11
477.5891616263
 21
-115.3721172107
 31
0.0
  0
ARC
  5
4E4
  8
VIDITELNE
  6
SLD-PLNÁ
 62
     2
 10
476.9672798365
 20
-123.3479095249
 30
0.0
 40
8.000000000000021
 50
90.0
 51
184.4583981265
  0
LINE
  5
4E5
  8
VIDITELNE
  6
SLD-PLNÁ
 62
     2
 10
547.65
 20
157.9693703116
 30
0.0
 11
547.65
 21
-2.0306296884
 31
0.0
  0
LINE
  5
4E6
  8
VIDITELNE
  6
SLD-PLNÁ
 62
     2
 10
536.65
 20
155.6538642975
 30
0.0
 11
536.65
 21
0.2848763256
 31
0.0
  0
ARC
  5
4E7
  8
VIDITELNE
  6
SLD-PLNÁ
 62
     2
 10
415.6210376872
 20
140.9805212299
 30
0.0
 40
11.79381391100136
 50
193.8324798594
 51
221.2391457448
  0
POLYLINE
  5
4E8
  8
VIDITELNE
  6
SLD-PLNÁ
 62
     2
 66
     1
 10
0.0
 20
0.0
 30
0.0
  0
VERTEX
  5
92D
  8
VIDITELNE
  6
SLD-PLNÁ
 62
     2
 10
387.1307426933
 20
138.1608097761
 30
0.0
  0
VERTEX
  5
92E
  8
VIDITELNE
  6
SLD-PLNÁ
 62
     2
 10
386.651268429
 20
136.5971315388
 30
0.0
  0
VERTEX
  5
92F
  8
VIDITELNE
  6
SLD-PLNÁ
 62
     2
 10
385.9957775024
 20
135.2573719879
 30
0.0
  0
VERTEX
  5
930
  8
VIDITELNE
  6
SLD-PLNÁ
 62
     2
 10
385.3110239878
 20
134.1939493877
 30
0.0
  0
VERTEX
  5
931
  8
VIDITELNE
  6
SLD-PLNÁ
 62
     2
 10
384.7580299
 20
133.4634287573
 30
0.0
  0
VERTEX
  5
932
  8
VIDITELNE
  6
SLD-PLNÁ
 62
     2
 10
384.5436043883
 20
133.201252955
 30
0.0
  0
VERTEX
  5
933
  8
VIDITELNE
  6
SLD-PLNÁ
 62
     2
 10
384.5474721538
 20
133.2059726168
 30
0.0
  0
SEQEND
  5
934
  8
VIDITELNE
  6
SLD-PLNÁ
 62
     2
  0
LINE
  5
4E9
  8
VIDITELNE
  6
SLD-PLNÁ
 62
     2
 10
404.1692573067
 20
138.1608097761
 30
0.0
 11
387.1307426933
 21
138.1608097761
 31
0.0
  0
ARC
  5
4EA
  8
VIDITELNE
  6
SLD-PLNÁ
 62
     2
 10
401.2034729824
 20
137.6528628213
 30
0.0
 40
3.008967724451009
 50
9.7186973008
 51
77.8372519959
  0
ARC
  5
4EB
  8
VIDITELNE
  6
SLD-PLNÁ
 62
     2
 10
390.1308160818
 20
137.6200060844
 30
0.0
 40
3.048427294392111
 50
102.6626466901
 51
169.7814040133
  0
LINE
  5
4EC
  8
VIDITELNE
  6
SLD-PLNÁ
 62
     2
 10
401.8374301818
 20
140.5942885021
 30
0.0
 11
389.4625698182
 21
140.5942885021
 31
0.0
  0
ARC
  5
4ED
  8
VIDITELNE
  6
SLD-PLNÁ
 62
     2
 10
405.1657628038
 20
64.0999460198
 30
0.0
 40
78.08953003923624
 50
96.999292596
 51
101.6008333747
  0
ARC
  5
4EE
  8
VIDITELNE
  6
SLD-PLNÁ
 62
     2
 10
391.6757789155
 20
97.9398910796
 30
0.0
 40
43.84811028922819
 50
76.6000757132
 51
84.7997983161
  0
LINE
  5
4EF
  8
VIDITELNE
  6
SLD-PLNÁ
 62
     2
 10
395.65
 20
141.969365603
 30
0.0
 11
395.65
 21
141.6075260363
 31
0.0
  0
LINE
  5
4F0
  8
VIDITELNE
  6
SLD-PLNÁ
 62
     2
 10
395.65
 20
173.9693703116
 30
0.0
 11
395.65
 21
165.9693749684
 31
0.0
  0
LINE
  5
4F1
  8
VIDITELNE
  6
SLD-PLNÁ
 62
     2
 10
257.65
 20
51.0914516051
 30
0.0
 11
257.65
 21
25.6870349802
 31
0.0
  0
LINE
  5
4F2
  8
VIDITELNE
  6
SLD-PLNÁ
 62
     2
 10
257.65
 20
103.3737869364
 30
0.0
 11
257.65
 21
52.5649536867
 31
0.0
  0
LINE
  5
4F3
  8
VIDITELNE
  6
SLD-PLNÁ
 62
     2
 10
257.65
 20
130.2517056429
 30
0.0
 11
257.65
 21
104.8472890181
 31
0.0
  0
LINE
  5
4F4
  8
VIDITELNE
  6
SLD-PLNÁ
 62
     2
 10
252.35
 20
98.5826189656
 30
0.0
 11
257.65
 21
98.5826189656
 31
0.0
  0
LINE
  5
4F5
  8
VIDITELNE
  6
SLD-PLNÁ
 62
     2
 10
252.35
 20
98.5826189656
 30
0.0
 11
252.35
 21
104.3561216575
 31
0.0
  0
LINE
  5
4F6
  8
VIDITELNE
  6
SLD-PLNÁ
 62
     2
 10
252.35
 20
104.3561216575
 30
0.0
 11
257.65
 21
104.3561216575
 31
0.0
  0
LINE
  5
4F7
  8
VIDITELNE
  6
SLD-PLNÁ
 62
     2
 10
257.65
 20
103.3737869364
 30
0.0
 11
257.65
 21
104.3561216575
 31
0.0
  0
LINE
  5
4F8
  8
VIDITELNE
  6
SLD-PLNÁ
 62
     2
 10
252.35
 20
95.6958676197
 30
0.0
 11
257.65
 21
95.6958676197
 31
0.0
  0
LINE
  5
4F9
  8
VIDITELNE
  6
SLD-PLNÁ
 62
     2
 10
252.35
 20
95.6958676197
 30
0.0
 11
252.35
 21
98.5826189656
 31
0.0
  0
LINE
  5
4FA
  8
VIDITELNE
  6
SLD-PLNÁ
 62
     2
 10
252.35
 20
107.2428730035
 30
0.0
 11
257.65
 21
107.2428730035
 31
0.0
  0
LINE
  5
4FB
  8
VIDITELNE
  6
SLD-PLNÁ
 62
     2
 10
252.35
 20
104.3561216575
 30
0.0
 11
252.35
 21
107.2428730035
 31
0.0
  0
LINE
  5
4FC
  8
VIDITELNE
  6
SLD-PLNÁ
 62
     2
 10
257.65
 20
104.3561216575
 30
0.0
 11
257.65
 21
104.8472890181
 31
0.0
  0
LINE
  5
4FD
  8
VIDITELNE
  6
SLD-PLNÁ
 62
     2
 10
252.35
 20
57.3561216575
 30
0.0
 11
257.65
 21
57.3561216575
 31
0.0
  0
LINE
  5
4FE
  8
VIDITELNE
  6
SLD-PLNÁ
 62
     2
 10
252.35
 20
60.2428730035
 30
0.0
 11
257.65
 21
60.2428730035
 31
0.0
  0
LINE
  5
4FF
  8
VIDITELNE
  6
SLD-PLNÁ
 62
     2
 10
252.35
 20
57.3561216575
 30
0.0
 11
252.35
 21
60.2428730035
 31
0.0
  0
LINE
  5
500
  8
VIDITELNE
  6
SLD-PLNÁ
 62
     2
 10
252.35
 20
51.5826189656
 30
0.0
 11
257.65
 21
51.5826189656
 31
0.0
  0
LINE
  5
501
  8
VIDITELNE
  6
SLD-PLNÁ
 62
     2
 10
257.65
 20
51.5826189656
 30
0.0
 11
257.65
 21
52.5649536867
 31
0.0
  0
LINE
  5
502
  8
VIDITELNE
  6
SLD-PLNÁ
 62
     2
 10
252.35
 20
51.5826189656
 30
0.0
 11
252.35
 21
57.3561216575
 31
0.0
  0
LINE
  5
503
  8
VIDITELNE
  6
SLD-PLNÁ
 62
     2
 10
252.35
 20
48.6958676197
 30
0.0
 11
257.65
 21
48.6958676197
 31
0.0
  0
LINE
  5
504
  8
VIDITELNE
  6
SLD-PLNÁ
 62
     2
 10
257.65
 20
51.0914516051
 30
0.0
 11
257.65
 21
51.5826189656
 31
0.0
  0
LINE
  5
505
  8
VIDITELNE
  6
SLD-PLNÁ
 62
     2
 10
252.35
 20
48.6958676197
 30
0.0
 11
252.35
 21
51.5826189656
 31
0.0
  0
LINE
  5
506
  8
VIDITELNE
  6
SLD-PLNÁ
 62
     2
 10
252.35
 20
119.1958676197
 30
0.0
 11
257.65
 21
119.1958676197
 31
0.0
  0
LINE
  5
507
  8
VIDITELNE
  6
SLD-PLNÁ
 62
     2
 10
252.35
 20
119.1958676197
 30
0.0
 11
252.35
 21
122.0826189656
 31
0.0
  0
LINE
  5
508
  8
VIDITELNE
  6
SLD-PLNÁ
 62
     2
 10
252.35
 20
122.0826189656
 30
0.0
 11
257.65
 21
122.0826189656
 31
0.0
  0
LINE
  5
509
  8
VIDITELNE
  6
SLD-PLNÁ
 62
     2
 10
252.35
 20
122.0826189656
 30
0.0
 11
252.35
 21
127.8561216575
 31
0.0
  0
LINE
  5
50A
  8
VIDITELNE
  6
SLD-PLNÁ
 62
     2
 10
252.35
 20
127.8561216575
 30
0.0
 11
257.65
 21
127.8561216575
 31
0.0
  0
LINE
  5
50B
  8
VIDITELNE
  6
SLD-PLNÁ
 62
     2
 10
252.35
 20
130.7428730035
 30
0.0
 11
257.65
 21
130.7428730035
 31
0.0
  0
LINE
  5
50C
  8
VIDITELNE
  6
SLD-PLNÁ
 62
     2
 10
257.65
 20
130.2517056429
 30
0.0
 11
257.65
 21
130.7428730035
 31
0.0
  0
LINE
  5
50D
  8
VIDITELNE
  6
SLD-PLNÁ
 62
     2
 10
252.35
 20
127.8561216575
 30
0.0
 11
252.35
 21
130.7428730035
 31
0.0
  0
LINE
  5
50E
  8
VIDITELNE
  6
SLD-PLNÁ
 62
     2
 10
252.35
 20
25.1958676197
 30
0.0
 11
257.65
 21
25.1958676197
 31
0.0
  0
LINE
  5
50F
  8
VIDITELNE
  6
SLD-PLNÁ
 62
     2
 10
252.35
 20
25.1958676197
 30
0.0
 11
252.35
 21
28.0826189656
 31
0.0
  0
LINE
  5
510
  8
VIDITELNE
  6
SLD-PLNÁ
 62
     2
 10
252.35
 20
28.0826189656
 30
0.0
 11
257.65
 21
28.0826189656
 31
0.0
  0
LINE
  5
511
  8
VIDITELNE
  6
SLD-PLNÁ
 62
     2
 10
257.65
 20
25.1958676197
 30
0.0
 11
257.65
 21
25.6870349802
 31
0.0
  0
LINE
  5
512
  8
VIDITELNE
  6
SLD-PLNÁ
 62
     2
 10
252.35
 20
33.8561216575
 30
0.0
 11
257.65
 21
33.8561216575
 31
0.0
  0
LINE
  5
513
  8
VIDITELNE
  6
SLD-PLNÁ
 62
     2
 10
252.35
 20
28.0826189656
 30
0.0
 11
252.35
 21
33.8561216575
 31
0.0
  0
LINE
  5
514
  8
VIDITELNE
  6
SLD-PLNÁ
 62
     2
 10
252.35
 20
36.7428730035
 30
0.0
 11
257.65
 21
36.7428730035
 31
0.0
  0
LINE
  5
515
  8
VIDITELNE
  6
SLD-PLNÁ
 62
     2
 10
252.35
 20
33.8561216575
 30
0.0
 11
252.35
 21
36.7428730035
 31
0.0
  0
POLYLINE
  5
516
  8
VIDITELNE
  6
SLD-PLNÁ
 62
     2
 66
     1
 10
0.0
 20
0.0
 30
0.0
  0
VERTEX
  5
935
  8
VIDITELNE
  6
SLD-PLNÁ
 62
     2
 10
270.65
 20
-42.0306296884
 30
0.0
  0
VERTEX
  5
936
  8
VIDITELNE
  6
SLD-PLNÁ
 62
     2
 10
270.650009935
 20
-41.9595876391
 30
0.0
  0
VERTEX
  5
937
  8
VIDITELNE
  6
SLD-PLNÁ
 62
     2
 10
270.7764885946
 20
-36.6180653583
 30
0.0
  0
SEQEND
  5
938
  8
VIDITELNE
  6
SLD-PLNÁ
 62
     2
  0
ARC
  5
517
  8
VIDITELNE
  6
SLD-PLNÁ
 62
     2
 10
488.2245732804
 20
-38.9633696447
 30
0.0
 40
217.4576146537543
 50
172.4543936865
 51
179.3153157936
  0
LINE
  5
518
  8
VIDITELNE
  6
SLD-PLNÁ
 62
     2
 10
522.65
 20
57.7291995574
 30
0.0
 11
522.65
 21
22.9693703116
 31
0.0
  0
POLYLINE
  5
519
  8
VIDITELNE
  6
SLD-PLNÁ
 62
     2
 66
     1
 10
0.0
 20
0.0
 30
0.0
  0
VERTEX
  5
939
  8
VIDITELNE
  6
SLD-PLNÁ
 62
     2
 10
410.65
 20
-167.8876914689
 30
0.0
  0
VERTEX
  5
93A
  8
VIDITELNE
  6
SLD-PLNÁ
 62
     2
 10
410.2660171155
 20
-167.9457072539
 30
0.0
  0
VERTEX
  5
93B
  8
VIDITELNE
  6
SLD-PLNÁ
 62
     2
 10
409.4898591322
 20
-168.0584287115
 30
0.0
  0
VERTEX
  5
93C
  8
VIDITELNE
  6
SLD-PLNÁ
 62
     2
 10
408.3238798069
 20
-168.2157446887
 30
0.0
  0
VERTEX
  5
93D
  8
VIDITELNE
  6
SLD-PLNÁ
 62
     2
 10
408.317531557
 20
-168.2165634562
 30
0.0
  0
VERTEX
  5
93E
  8
VIDITELNE
  6
SLD-PLNÁ
 62
     2
 10
406.7910093215
 20
-168.401319482
 30
0.0
  0
VERTEX
  5
93F
  8
VIDITELNE
  6
SLD-PLNÁ
 62
     2
 10
404.9518247486
 20
-168.5923332218
 30
0.0
  0
VERTEX
  5
940
  8
VIDITELNE
  6
SLD-PLNÁ
 62
     2
 10
402.8640693802
 20
-168.766896485
 30
0.0
  0
VERTEX
  5
941
  8
VIDITELNE
  6
SLD-PLNÁ
 62
     2
 10
400.5747750034
 20
-168.9079241259
 30
0.0
  0
VERTEX
  5
942
  8
VIDITELNE
  6
SLD-PLNÁ
 62
     2
 10
398.1446946624
 20
-168.9987261978
 30
0.0
  0
VERTEX
  5
943
  8
VIDITELNE
  6
SLD-PLNÁ
 62
     2
 10
395.643989353
 20
-169.0306295057
 30
0.0
  0
VERTEX
  5
944
  8
VIDITELNE
  6
SLD-PLNÁ
 62
     2
 10
393.1238900176
 20
-168.9979152915
 30
0.0
  0
VERTEX
  5
945
  8
VIDITELNE
  6
SLD-PLNÁ
 62
     2
 10
390.6764231561
 20
-168.9054789805
 30
0.0
  0
VERTEX
  5
946
  8
VIDITELNE
  6
SLD-PLNÁ
 62
     2
 10
388.3655414012
 20
-168.7617147529
 30
0.0
  0
VERTEX
  5
947
  8
VIDITELNE
  6
SLD-PLNÁ
 62
     2
 10
386.2627698547
 20
-168.5842335099
 30
0.0
  0
VERTEX
  5
948
  8
VIDITELNE
  6
SLD-PLNÁ
 62
     2
 10
384.440794193
 20
-168.3935784683
 30
0.0
  0
VERTEX
  5
949
  8
VIDITELNE
  6
SLD-PLNÁ
 62
     2
 10
382.9316554315
 20
-168.2099981834
 30
0.0
  0
VERTEX
  5
94A
  8
VIDITELNE
  6
SLD-PLNÁ
 62
     2
 10
381.7866971456
 20
-168.0551168245
 30
0.0
  0
VERTEX
  5
94B
  8
VIDITELNE
  6
SLD-PLNÁ
 62
     2
 10
381.0253793931
 20
-167.9444241218
 30
0.0
  0
VERTEX
  5
94C
  8
VIDITELNE
  6
SLD-PLNÁ
 62
     2
 10
380.6756297536
 20
-167.8918347629
 30
0.0
  0
VERTEX
  5
94D
  8
VIDITELNE
  6
SLD-PLNÁ
 62
     2
 10
380.6984105707
 20
-167.8952316463
 30
0.0
  0
SEQEND
  5
94E
  8
VIDITELNE
  6
SLD-PLNÁ
 62
     2
  0
LINE
  5
51A
  8
VIDITELNE
  6
SLD-PLNÁ
 62
     2
 10
269.15
 20
-2.0306296884
 30
0.0
 11
269.15
 21
-17.0941380153
 31
0.0
  0
LINE
  5
51B
  8
VIDITELNE
  6
SLD-PLNÁ
 62
     2
 10
385.15
 20
-173.0306296884
 30
0.0
 11
406.15
 21
-173.0306296884
 31
0.0
  0
LINE
  5
51C
  8
VIDITELNE
  6
SLD-PLNÁ
 62
     2
 10
264.65
 20
8.4693703116
 30
0.0
 11
264.65
 21
-12.5306296884
 31
0.0
  0
LINE
  5
51D
  8
VIDITELNE
  6
SLD-PLNÁ
 62
     2
 10
496.15
 20
133.9693703116
 30
0.0
 11
475.15
 21
133.9693703116
 31
0.0
  0
ARC
  5
51E
  8
VIDITELNE
  6
SLD-PLNÁ
 62
     2
 10
476.9672798365
 20
39.286650148
 30
0.0
 40
7.000000000000015
 50
171.8698976456
 51
278.1301023544
  0
ARC
  5
51F
  8
VIDITELNE
  6
SLD-PLNÁ
 62
     2
 10
314.3327201635
 20
39.286650148
 30
0.0
 40
7.000000000000005
 50
261.8698976459
 51
8.1301023541
  0
LINE
  5
520
  8
VIDITELNE
  6
SLD-PLNÁ
 62
     2
 10
314.3327201635
 20
-116.3479095249
 30
0.0
 11
313.3427706699
 21
-116.4182630693
 31
0.0
  0
ARC
  5
521
  8
VIDITELNE
  6
SLD-PLNÁ
 62
     2
 10
314.3327201635
 20
-123.3479095249
 30
0.0
 40
7.0
 50
351.8698976458
 51
90.0
  0
ARC
  5
522
  8
VIDITELNE
  6
SLD-PLNÁ
 62
     2
 10
476.9672798365
 20
-123.3479095249
 30
0.0
 40
6.999999999999998
 50
81.8698976458
 51
188.1301023542
  0
LINE
  5
523
  8
VIDITELNE
  6
SLD-PLNÁ
 62
     2
 10
538.5802010066
 20
157.6526459516
 30
0.0
 11
538.5802010066
 21
-1.7139053284
 31
0.0
  0
LINE
  5
524
  8
VIDITELNE
  6
SLD-PLNÁ
 62
     2
 10
533.7546984901
 20
133.2523926193
 30
0.0
 11
533.7546984901
 21
22.6863480038
 31
0.0
  0
LINE
  5
525
  8
VIDITELNE
  6
SLD-PLNÁ
 62
     2
 10
259.5802010066
 20
132.2574082601
 30
0.0
 11
259.5802010066
 21
23.6813323631
 31
0.0
  0
LINE
  5
526
  8
VIDITELNE
  6
SLD-PLNÁ
 62
     2
 10
82.5
 20
270.65
 30
0.0
 11
87.5
 21
270.65
 31
0.0
  0
LINE
  5
527
  8
VIDITELNE
  6
SLD-PLNÁ
 62
     2
 10
-28.5
 20
270.65
 30
0.0
 11
-23.5
 21
270.65
 31
0.0
  0
LINE
  5
528
  8
VIDITELNE
  6
SLD-PLNÁ
 62
     2
 10
-23.5
 20
520.65
 30
0.0
 11
-28.5
 21
520.65
 31
0.0
  0
LINE
  5
529
  8
VIDITELNE
  6
SLD-PLNÁ
 62
     2
 10
87.5
 20
520.65
 30
0.0
 11
82.5
 21
520.65
 31
0.0
  0
ARC
  5
52A
  8
VIDITELNE
  6
SLD-PLNÁ
 62
     2
 10
113.5
 20
426.15
 30
0.0
 40
2.0
 50
0.0
 51
90.0
  0
ARC
  5
52B
  8
VIDITELNE
  6
SLD-PLNÁ
 62
     2
 10
113.5
 20
365.15
 30
0.0
 40
2.0
 50
270.0
 51
0.0
  0
ARC
  5
52C
  8
VIDITELNE
  6
SLD-PLNÁ
 62
     2
 10
39.0
 20
264.65
 30
0.0
 40
1.0
 50
270.0
 51
0.0
  0
ARC
  5
52D
  8
VIDITELNE
  6
SLD-PLNÁ
 62
     2
 10
20.0
 20
264.65
 30
0.0
 40
1.0
 50
180.0
 51
270.0
  0
LINE
  5
52E
  8
VIDITELNE
  6
SLD-PLNÁ
 62
     2
 10
19.0
 20
267.65
 30
0.0
 11
19.0
 21
264.65
 31
0.0
  0
LINE
  5
52F
  8
VIDITELNE
  6
SLD-PLNÁ
 62
     2
 10
40.0
 20
264.65
 30
0.0
 11
40.0
 21
267.65
 31
0.0
  0
LINE
  5
530
  8
VIDITELNE
  6
SLD-PLNÁ
 62
     2
 10
84.5
 20
520.65
 30
0.0
 11
84.5
 21
525.65
 31
0.0
  0
LINE
  5
531
  8
VIDITELNE
  6
SLD-PLNÁ
 62
     2
 10
84.5
 20
265.65
 30
0.0
 11
84.5
 21
270.65
 31
0.0
  0
LINE
  5
532
  8
VIDITELNE
  6
SLD-PLNÁ
 62
     2
 10
-25.5
 20
270.65
 30
0.0
 11
-25.5
 21
265.65
 31
0.0
  0
LINE
  5
533
  8
VIDITELNE
  6
SLD-PLNÁ
 62
     2
 10
-25.5
 20
525.65
 30
0.0
 11
-25.5
 21
520.65
 31
0.0
  0
LINE
  5
534
  8
VIDITELNE
  6
SLD-PLNÁ
 62
     2
 10
-28.5
 20
520.65
 30
0.0
 11
-37.5844928937
 21
520.3327625177
 31
0.0
  0
LINE
  5
535
  8
VIDITELNE
  6
SLD-PLNÁ
 62
     2
 10
-37.5844928937
 20
270.9672374823
 30
0.0
 11
-28.5
 21
270.65
 31
0.0
  0
LINE
  5
536
  8
VIDITELNE
  6
SLD-PLNÁ
 62
     2
 10
-102.5
 20
520.65
 30
0.0
 11
-115.5
 21
520.65
 31
0.0
  0
LINE
  5
537
  8
VIDITELNE
  6
SLD-PLNÁ
 62
     2
 10
-115.5
 20
270.65
 30
0.0
 11
-102.5
 21
270.65
 31
0.0
  0
ARC
  5
538
  8
VIDITELNE
  6
SLD-PLNÁ
 62
     2
 10
-102.5
 20
518.65
 30
0.0
 40
2.000000000000014
 50
0.0
 51
90.0
  0
ARC
  5
539
  8
VIDITELNE
  6
SLD-PLNÁ
 62
     2
 10
-102.5
 20
272.65
 30
0.0
 40
2.000000000000014
 50
270.0
 51
0.0
  0
LINE
  5
53A
  8
VIDITELNE
  6
SLD-PLNÁ
 62
     2
 10
-39.5
 20
403.65
 30
0.0
 11
-48.5
 21
403.65
 31
0.0
  0
LINE
  5
53B
  8
VIDITELNE
  6
SLD-PLNÁ
 62
     2
 10
-48.5
 20
387.65
 30
0.0
 11
-39.5
 21
387.65
 31
0.0
  0
ARC
  5
53C
  8
VIDITELNE
  6
SLD-PLNÁ
 62
     2
 10
-48.5
 20
402.65
 30
0.0
 40
1.0
 50
90.0
 51
180.0
  0
ARC
  5
53D
  8
VIDITELNE
  6
SLD-PLNÁ
 62
     2
 10
-48.5
 20
388.65
 30
0.0
 40
1.0
 50
180.0
 51
270.0
  0
ARC
  5
53E
  8
VIDITELNE
  6
SLD-PLNÁ
 62
     2
 10
-98.5
 20
486.1983979384
 30
0.0
 40
2.000000000000051
 50
180.0
 51
235.0
  0
ARC
  5
53F
  8
VIDITELNE
  6
SLD-PLNÁ
 62
     2
 10
-98.5
 20
305.1016020616
 30
0.0
 40
2.000000000000051
 50
125.0
 51
180.0
  0
ARC
  5
540
  8
VIDITELNE
  6
SLD-PLNÁ
 62
     2
 10
-48.5
 20
321.3327201635
 30
0.0
 40
1.0
 50
90.0
 51
180.0
  0
ARC
  5
541
  8
VIDITELNE
  6
SLD-PLNÁ
 62
     2
 10
-48.5
 20
307.3327201635
 30
0.0
 40
1.0
 50
180.0
 51
270.0
  0
LINE
  5
542
  8
VIDITELNE
  6
SLD-PLNÁ
 62
     2
 10
-39.5
 20
322.3327201635
 30
0.0
 11
-48.5
 21
322.3327201635
 31
0.0
  0
LINE
  5
543
  8
VIDITELNE
  6
SLD-PLNÁ
 62
     2
 10
-48.5
 20
306.3327201635
 30
0.0
 11
-39.5
 21
306.3327201635
 31
0.0
  0
LINE
  5
544
  8
VIDITELNE
  6
SLD-PLNÁ
 62
     2
 10
-39.5
 20
484.9672798365
 30
0.0
 11
-48.5
 21
484.9672798365
 31
0.0
  0
LINE
  5
545
  8
VIDITELNE
  6
SLD-PLNÁ
 62
     2
 10
-48.5
 20
468.9672798365
 30
0.0
 11
-39.5
 21
468.9672798365
 31
0.0
  0
ARC
  5
546
  8
VIDITELNE
  6
SLD-PLNÁ
 62
     2
 10
-48.5
 20
483.9672798365
 30
0.0
 40
1.0
 50
90.0
 51
180.0
  0
ARC
  5
547
  8
VIDITELNE
  6
SLD-PLNÁ
 62
     2
 10
-48.5
 20
469.9672798365
 30
0.0
 40
1.0
 50
180.0
 51
270.0
  0
LINE
  5
548
  8
VIDITELNE
  6
SLD-PLNÁ
 62
     2
 10
-99.6471528727
 20
306.7399061501
 30
0.0
 11
-66.7913882374
 21
329.7457602214
 31
0.0
  0
LINE
  5
549
  8
VIDITELNE
  6
SLD-PLNÁ
 62
     2
 10
-66.7913882374
 20
461.5542397786
 30
0.0
 11
-99.6471528727
 21
484.5600938499
 31
0.0
  0
ARC
  5
54A
  8
VIDITELNE
  6
SLD-PLNÁ
 62
     2
 10
-41.5
 20
328.65
 30
0.0
 40
2.0
 50
0.0
 51
90.0
  0
ARC
  5
54B
  8
VIDITELNE
  6
SLD-PLNÁ
 62
     2
 10
-41.5
 20
462.65
 30
0.0
 40
2.0
 50
270.0
 51
0.0
  0
ARC
  5
54C
  8
VIDITELNE
  6
SLD-PLNÁ
 62
     2
 10
-63.9235060556
 20
465.65
 30
0.0
 40
5.000000000000057
 50
235.0
 51
270.0
  0
ARC
  5
54D
  8
VIDITELNE
  6
SLD-PLNÁ
 62
     2
 10
-63.9235060556
 20
325.65
 30
0.0
 40
5.000000000000044
 50
90.0
 51
125.0
  0
LINE
  5
54E
  8
VIDITELNE
  6
SLD-PLNÁ
 62
     2
 10
-41.5
 20
460.65
 30
0.0
 11
-63.9235060556
 21
460.65
 31
0.0
  0
LINE
  5
54F
  8
VIDITELNE
  6
SLD-PLNÁ
 62
     2
 10
-63.9235060556
 20
330.65
 30
0.0
 11
-41.5
 21
330.65
 31
0.0
  0
ARC
  5
550
  8
VIDITELNE
  6
SLD-PLNÁ
 62
     2
 10
-48.5
 20
287.65
 30
0.0
 40
1.0
 50
90.0
 51
180.0
  0
ARC
  5
551
  8
VIDITELNE
  6
SLD-PLNÁ
 62
     2
 10
-48.5
 20
273.65
 30
0.0
 40
1.0
 50
180.0
 51
270.0
  0
LINE
  5
552
  8
VIDITELNE
  6
SLD-PLNÁ
 62
     2
 10
-39.5
 20
288.65
 30
0.0
 11
-48.5
 21
288.65
 31
0.0
  0
LINE
  5
553
  8
VIDITELNE
  6
SLD-PLNÁ
 62
     2
 10
-48.5
 20
272.65
 30
0.0
 11
-39.5
 21
272.65
 31
0.0
  0
ARC
  5
554
  8
VIDITELNE
  6
SLD-PLNÁ
 62
     2
 10
-48.5
 20
517.65
 30
0.0
 40
1.0
 50
90.0
 51
180.0
  0
ARC
  5
555
  8
VIDITELNE
  6
SLD-PLNÁ
 62
     2
 10
-48.5
 20
503.65
 30
0.0
 40
1.0
 50
180.0
 51
270.0
  0
LINE
  5
556
  8
VIDITELNE
  6
SLD-PLNÁ
 62
     2
 10
-39.5
 20
518.65
 30
0.0
 11
-48.5
 21
518.65
 31
0.0
  0
LINE
  5
557
  8
VIDITELNE
  6
SLD-PLNÁ
 62
     2
 10
-48.5
 20
502.65
 30
0.0
 11
-39.5
 21
502.65
 31
0.0
  0
ARC
  5
558
  8
VIDITELNE
  6
SLD-PLNÁ
 62
     2
 10
-37.6186702394
 20
272.8377371549
 30
0.0
 40
1.862806297933656
 50
182.3936316531
 51
271.0617173588
  0
ARC
  5
559
  8
VIDITELNE
  6
SLD-PLNÁ
 62
     2
 10
-37.5974073159
 20
518.4413462981
 30
0.0
 40
1.884184594854508
 50
89.5987235769
 51
177.0253359783
  0
LINE
  5
55A
  8
VIDITELNE
  6
SLD-PLNÁ
 62
     2
 10
-50.5
 20
547.65
 30
0.0
 11
-50.18327564
 21
538.5802010066
 31
0.0
  0
LINE
  5
55B
  8
VIDITELNE
  6
SLD-PLNÁ
 62
     2
 10
109.18327564
 20
538.5802010066
 30
0.0
 11
109.5
 21
547.65
 31
0.0
  0
ARC
  5
55C
  8
VIDITELNE
  6
SLD-PLNÁ
 62
     2
 10
-48.184493986
 20
538.65
 30
0.0
 40
2.000000000000455
 50
182.0
 51
270.0
  0
ARC
  5
55D
  8
VIDITELNE
  6
SLD-PLNÁ
 62
     2
 10
107.184493986
 20
538.65
 30
0.0
 40
1.999999999999972
 50
270.0
 51
358.0
  0
ARC
  5
55E
  8
VIDITELNE
  6
SLD-PLNÁ
 62
     2
 10
-28.7811947888
 20
533.65
 30
0.0
 40
2.999999999999985
 50
2.0
 51
90.0
  0
ARC
  5
55F
  8
VIDITELNE
  6
SLD-PLNÁ
 62
     2
 10
87.7811947888
 20
533.65
 30
0.0
 40
3.000000000000341
 50
90.0
 51
178.0
  0
LINE
  5
560
  8
VIDITELNE
  6
SLD-PLNÁ
 62
     2
 10
-25.7830223078
 20
533.7546984901
 30
0.0
 11
-25.5
 21
525.65
 31
0.0
  0
LINE
  5
561
  8
VIDITELNE
  6
SLD-PLNÁ
 62
     2
 10
84.5
 20
525.65
 30
0.0
 11
84.7830223078
 21
533.7546984901
 31
0.0
  0
LINE
  5
562
  8
VIDITELNE
  6
SLD-PLNÁ
 62
     2
 10
87.5
 20
270.65
 30
0.0
 11
98.5
 21
271.0341284644
 31
0.0
  0
LINE
  5
563
  8
VIDITELNE
  6
SLD-PLNÁ
 62
     2
 10
98.5
 20
520.2658715356
 30
0.0
 11
87.5
 21
520.65
 31
0.0
  0
LINE
  5
564
  8
VIDITELNE
  6
SLD-PLNÁ
 62
     2
 10
98.5
 20
387.65
 30
0.0
 11
107.5
 21
387.65
 31
0.0
  0
LINE
  5
565
  8
VIDITELNE
  6
SLD-PLNÁ
 62
     2
 10
107.5
 20
403.65
 30
0.0
 11
98.5
 21
403.65
 31
0.0
  0
ARC
  5
566
  8
VIDITELNE
  6
SLD-PLNÁ
 62
     2
 10
107.5
 20
402.65
 30
0.0
 40
1.0
 50
0.0
 51
90.0
  0
ARC
  5
567
  8
VIDITELNE
  6
SLD-PLNÁ
 62
     2
 10
107.5
 20
388.65
 30
0.0
 40
1.0
 50
270.0
 51
0.0
  0
LINE
  5
568
  8
VIDITELNE
  6
SLD-PLNÁ
 62
     2
 10
98.5
 20
468.9672798365
 30
0.0
 11
107.5
 21
468.9672798365
 31
0.0
  0
LINE
  5
569
  8
VIDITELNE
  6
SLD-PLNÁ
 62
     2
 10
107.5
 20
484.9672798365
 30
0.0
 11
98.5
 21
484.9672798365
 31
0.0
  0
ARC
  5
56A
  8
VIDITELNE
  6
SLD-PLNÁ
 62
     2
 10
107.5
 20
483.9672798365
 30
0.0
 40
1.0
 50
0.0
 51
90.0
  0
ARC
  5
56B
  8
VIDITELNE
  6
SLD-PLNÁ
 62
     2
 10
107.5
 20
469.9672798365
 30
0.0
 40
1.0
 50
270.0
 51
0.0
  0
LINE
  5
56C
  8
VIDITELNE
  6
SLD-PLNÁ
 62
     2
 10
98.5
 20
306.3327201635
 30
0.0
 11
107.5
 21
306.3327201635
 31
0.0
  0
LINE
  5
56D
  8
VIDITELNE
  6
SLD-PLNÁ
 62
     2
 10
107.5
 20
322.3327201635
 30
0.0
 11
98.5
 21
322.3327201635
 31
0.0
  0
ARC
  5
56E
  8
VIDITELNE
  6
SLD-PLNÁ
 62
     2
 10
107.5
 20
321.3327201635
 30
0.0
 40
1.0
 50
0.0
 51
90.0
  0
ARC
  5
56F
  8
VIDITELNE
  6
SLD-PLNÁ
 62
     2
 10
107.5
 20
307.3327201635
 30
0.0
 40
1.0
 50
270.0
 51
0.0
  0
LINE
  5
570
  8
VIDITELNE
  6
SLD-PLNÁ
 62
     2
 10
113.5
 20
460.65
 30
0.0
 11
110.0
 21
460.65
 31
0.0
  0
LINE
  5
571
  8
VIDITELNE
  6
SLD-PLNÁ
 62
     2
 10
110.0
 20
330.65
 30
0.0
 11
113.5
 21
330.65
 31
0.0
  0
LINE
  5
572
  8
VIDITELNE
  6
SLD-PLNÁ
 62
     2
 10
110.0
 20
490.65
 30
0.0
 11
106.3731240234
 21
492.7439778214
 31
0.0
  0
LINE
  5
573
  8
VIDITELNE
  6
SLD-PLNÁ
 62
     2
 10
106.3731240234
 20
298.5560221786
 30
0.0
 11
110.0
 21
300.65
 31
0.0
  0
LINE
  5
574
  8
VIDITELNE
  6
SLD-PLNÁ
 62
     2
 10
101.8094140097
 20
502.65
 30
0.0
 11
107.5
 21
502.65
 31
0.0
  0
LINE
  5
575
  8
VIDITELNE
  6
SLD-PLNÁ
 62
     2
 10
107.5
 20
518.65
 30
0.0
 11
98.5
 21
518.65
 31
0.0
  0
ARC
  5
576
  8
VIDITELNE
  6
SLD-PLNÁ
 62
     2
 10
107.5
 20
517.65
 30
0.0
 40
1.0
 50
0.0
 51
90.0
  0
ARC
  5
577
  8
VIDITELNE
  6
SLD-PLNÁ
 62
     2
 10
107.5
 20
503.65
 30
0.0
 40
1.0
 50
270.0
 51
0.0
  0
LINE
  5
578
  8
VIDITELNE
  6
SLD-PLNÁ
 62
     2
 10
98.5
 20
272.65
 30
0.0
 11
107.5
 21
272.65
 31
0.0
  0
LINE
  5
579
  8
VIDITELNE
  6
SLD-PLNÁ
 62
     2
 10
107.5
 20
288.65
 30
0.0
 11
101.8094140097
 21
288.65
 31
0.0
  0
ARC
  5
57A
  8
VIDITELNE
  6
SLD-PLNÁ
 62
     2
 10
107.5
 20
287.65
 30
0.0
 40
1.0
 50
0.0
 51
90.0
  0
ARC
  5
57B
  8
VIDITELNE
  6
SLD-PLNÁ
 62
     2
 10
107.5
 20
273.65
 30
0.0
 40
1.0
 50
270.0
 51
0.0
  0
LINE
  5
57C
  8
VIDITELNE
  6
SLD-PLNÁ
 62
     2
 10
-25.0
 20
265.65
 30
0.0
 11
-24.7880379485
 21
259.5802010066
 31
0.0
  0
LINE
  5
57D
  8
VIDITELNE
  6
SLD-PLNÁ
 62
     2
 10
83.7880379485
 20
259.5802010066
 30
0.0
 11
84.0
 21
265.65
 31
0.0
  0
ARC
  5
57E
  8
VIDITELNE
  6
SLD-PLNÁ
 62
     2
 10
-22.7892562945
 20
259.65
 30
0.0
 40
2.000000000000011
 50
182.0
 51
270.0
  0
ARC
  5
57F
  8
VIDITELNE
  6
SLD-PLNÁ
 62
     2
 10
81.7892562945
 20
259.65
 30
0.0
 40
2.0
 50
270.0
 51
358.0
  0
CIRCLE
  5
580
  8
VIDITELNE
  6
SLD-PLNÁ
 62
     2
 10
29.5
 20
395.65
 30
0.0
 40
9.5
  0
CIRCLE
  5
581
  8
VIDITELNE
  6
SLD-PLNÁ
 62
     2
 10
29.5
 20
395.65
 30
0.0
 40
10.5
  0
CIRCLE
  5
582
  8
VIDITELNE
  6
SLD-PLNÁ
 62
     2
 10
29.5
 20
395.65
 30
0.0
 40
15.00000000000006
  0
POLYLINE
  5
583
  8
VIDITELNE
  6
SLD-PLNÁ
 62
     2
 66
     1
 10
0.0
 20
0.0
 30
0.0
  0
VERTEX
  5
94F
  8
VIDITELNE
  6
SLD-PLNÁ
 62
     2
 10
29.5
 20
412.3822834646
 30
0.0
  0
VERTEX
  5
950
  8
VIDITELNE
  6
SLD-PLNÁ
 62
     2
 10
31.3657836043
 20
412.2812038237
 30
0.0
  0
VERTEX
  5
951
  8
VIDITELNE
  6
SLD-PLNÁ
 62
     2
 10
34.1122414471
 20
411.7546971923
 30
0.0
  0
VERTEX
  5
952
  8
VIDITELNE
  6
SLD-PLNÁ
 62
     2
 10
36.806772763
 20
410.7579013199
 30
0.0
  0
VERTEX
  5
953
  8
VIDITELNE
  6
SLD-PLNÁ
 62
     2
 10
39.2282675314
 20
409.371786038
 30
0.0
  0
VERTEX
  5
954
  8
VIDITELNE
  6
SLD-PLNÁ
 62
     2
 10
41.4462296926
 20
407.5544694206
 30
0.0
  0
VERTEX
  5
955
  8
VIDITELNE
  6
SLD-PLNÁ
 62
     2
 10
43.2817328465
 20
405.4463404746
 30
0.0
  0
VERTEX
  5
956
  8
VIDITELNE
  6
SLD-PLNÁ
 62
     2
 10
44.7780433489
 20
402.98788666
 30
0.0
  0
VERTEX
  5
957
  8
VIDITELNE
  6
SLD-PLNÁ
 62
     2
 10
45.8018276398
 20
400.3959335397
 30
0.0
  0
VERTEX
  5
958
  8
VIDITELNE
  6
SLD-PLNÁ
 62
     2
 10
46.3861593759
 20
397.5831524342
 30
0.0
  0
VERTEX
  5
959
  8
VIDITELNE
  6
SLD-PLNÁ
 62
     2
 10
46.4790631037
 20
394.819827882
 30
0.0
  0
VERTEX
  5
95A
  8
VIDITELNE
  6
SLD-PLNÁ
 62
     2
 10
46.0902768437
 20
391.9986090193
 30
0.0
  0
VERTEX
  5
95B
  8
VIDITELNE
  6
SLD-PLNÁ
 62
     2
 10
45.2564330389
 20
389.3681265729
 30
0.0
  0
VERTEX
  5
95C
  8
VIDITELNE
  6
SLD-PLNÁ
 62
     2
 10
43.9558852249
 20
386.8450762798
 30
0.0
  0
VERTEX
  5
95D
  8
VIDITELNE
  6
SLD-PLNÁ
 62
     2
 10
42.2819557024
 20
384.6184009976
 30
0.0
  0
VERTEX
  5
95E
  8
VIDITELNE
  6
SLD-PLNÁ
 62
     2
 10
40.2009629574
 20
382.6485794482
 30
0.0
  0
VERTEX
  5
95F
  8
VIDITELNE
  6
SLD-PLNÁ
 62
     2
 10
37.8589573015
 20
381.080150563
 30
0.0
  0
VERTEX
  5
960
  8
VIDITELNE
  6
SLD-PLNÁ
 62
     2
 10
35.2124277974
 20
379.8906484872
 30
0.0
  0
VERTEX
  5
961
  8
VIDITELNE
  6
SLD-PLNÁ
 62
     2
 10
31.3804076526
 20
379.0203918251
 30
0.0
  0
VERTEX
  5
962
  8
VIDITELNE
  6
SLD-PLNÁ
 62
     2
 10
28.5768361167
 20
378.9424056499
 30
0.0
  0
VERTEX
  5
963
  8
VIDITELNE
  6
SLD-PLNÁ
 62
     2
 10
25.7206311883
 20
379.3364468296
 30
0.0
  0
VERTEX
  5
964
  8
VIDITELNE
  6
SLD-PLNÁ
 62
     2
 10
23.0512202124
 20
380.1683316504
 30
0.0
  0
VERTEX
  5
965
  8
VIDITELNE
  6
SLD-PLNÁ
 62
     2
 10
20.4870629759
 20
381.4628702319
 30
0.0
  0
VERTEX
  5
966
  8
VIDITELNE
  6
SLD-PLNÁ
 62
     2
 10
18.2375626881
 20
383.1164291632
 30
0.0
  0
VERTEX
  5
967
  8
VIDITELNE
  6
SLD-PLNÁ
 62
     2
 10
16.2404886888
 20
385.1786802841
 30
0.0
  0
VERTEX
  5
968
  8
VIDITELNE
  6
SLD-PLNÁ
 62
     2
 10
14.6616223948
 20
387.484708903
 30
0.0
  0
VERTEX
  5
969
  8
VIDITELNE
  6
SLD-PLNÁ
 62
     2
 10
13.4616901491
 20
390.1020468277
 30
0.0
  0
VERTEX
  5
96A
  8
VIDITELNE
  6
SLD-PLNÁ
 62
     2
 10
12.7503393602
 20
392.7890809726
 30
0.0
  0
VERTEX
  5
96B
  8
VIDITELNE
  6
SLD-PLNÁ
 62
     2
 10
12.5000013648
 20
395.64329521
 30
0.0
  0
VERTEX
  5
96C
  8
VIDITELNE
  6
SLD-PLNÁ
 62
     2
 10
12.7300409949
 20
398.3933055199
 30
0.0
  0
VERTEX
  5
96D
  8
VIDITELNE
  6
SLD-PLNÁ
 62
     2
 10
13.4423587111
 20
401.1435154238
 30
0.0
  0
VERTEX
  5
96E
  8
VIDITELNE
  6
SLD-PLNÁ
 62
     2
 10
14.5774091165
 20
403.6652371156
 30
0.0
  0
VERTEX
  5
96F
  8
VIDITELNE
  6
SLD-PLNÁ
 62
     2
 10
16.1634036852
 20
406.0260512288
 30
0.0
  0
VERTEX
  5
970
  8
VIDITELNE
  6
SLD-PLNÁ
 62
     2
 10
18.0910541401
 20
408.054541045
 30
0.0
  0
VERTEX
  5
971
  8
VIDITELNE
  6
SLD-PLNÁ
 62
     2
 10
20.3956120008
 20
409.7804485872
 30
0.0
  0
VERTEX
  5
972
  8
VIDITELNE
  6
SLD-PLNÁ
 62
     2
 10
22.9071071623
 20
411.0727529847
 30
0.0
  0
VERTEX
  5
973
  8
VIDITELNE
  6
SLD-PLNÁ
 62
     2
 10
25.6781211001
 20
411.9539561
 30
0.0
  0
VERTEX
  5
974
  8
VIDITELNE
  6
SLD-PLNÁ
 62
     2
 10
29.5
 20
412.3822834646
 30
0.0
  0
SEQEND
  5
975
  8
VIDITELNE
  6
SLD-PLNÁ
 62
     2
  0
LINE
  5
584
  8
VIDITELNE
  6
SLD-PLNÁ
 62
     2
 10
-28.5
 20
520.65
 30
0.0
 11
-28.5
 21
270.65
 31
0.0
  0
LINE
  5
585
  8
VIDITELNE
  6
SLD-PLNÁ
 62
     2
 10
87.5
 20
520.65
 30
0.0
 11
87.5
 21
270.65
 31
0.0
  0
LINE
  5
586
  8
VIDITELNE
  6
SLD-PLNÁ
 62
     2
 10
82.5
 20
520.65
 30
0.0
 11
-23.5
 21
520.65
 31
0.0
  0
LINE
  5
587
  8
VIDITELNE
  6
SLD-PLNÁ
 62
     2
 10
82.5
 20
270.65
 30
0.0
 11
-23.5
 21
270.65
 31
0.0
  0
LINE
  5
588
  8
VIDITELNE
  6
SLD-PLNÁ
 62
     2
 10
115.5
 20
426.1499999401
 30
0.0
 11
115.5
 21
365.15
 31
0.0
  0
ARC
  5
589
  8
VIDITELNE
  6
SLD-PLNÁ
 62
     2
 10
46.5
 20
268.65
 30
0.0
 40
1.999999999999987
 50
90.0
 51
165.5224878141
  0
LINE
  5
58A
  8
VIDITELNE
  6
SLD-PLNÁ
 62
     2
 10
14.4364916731
 20
269.15
 30
0.0
 11
44.5635083269
 21
269.15
 31
0.0
  0
ARC
  5
58B
  8
VIDITELNE
  6
SLD-PLNÁ
 62
     2
 10
12.5
 20
268.65
 30
0.0
 40
1.999999999999987
 50
14.4775121859
 51
90.0
  0
ARC
  5
58C
  8
VIDITELNE
  6
SLD-PLNÁ
 62
     2
 10
42.6270166538
 20
269.65
 30
0.0
 40
2.000000000000016
 50
270.0
 51
345.5224878141
  0
LINE
  5
58D
  8
VIDITELNE
  6
SLD-PLNÁ
 62
     2
 10
42.6270166538
 20
267.65
 30
0.0
 11
16.3729833462
 21
267.65
 31
0.0
  0
ARC
  5
58E
  8
VIDITELNE
  6
SLD-PLNÁ
 62
     2
 10
16.3729833462
 20
269.65
 30
0.0
 40
2.000000000000017
 50
194.4775121859
 51
270.0
  0
LINE
  5
58F
  8
VIDITELNE
  6
SLD-PLNÁ
 62
     2
 10
39.0
 20
263.65
 30
0.0
 11
20.0
 21
263.65
 31
0.0
  0
POLYLINE
  5
590
  8
VIDITELNE
  6
SLD-PLNÁ
 62
     2
 66
     1
 10
0.0
 20
0.0
 30
0.0
  0
VERTEX
  5
976
  8
VIDITELNE
  6
SLD-PLNÁ
 62
     2
 10
43.2181035559
 20
267.15
 30
0.0
  0
VERTEX
  5
977
  8
VIDITELNE
  6
SLD-PLNÁ
 62
     2
 10
42.825010629
 20
267.4448449443
 30
0.0
  0
VERTEX
  5
978
  8
VIDITELNE
  6
SLD-PLNÁ
 62
     2
 10
42.7157910714
 20
267.5811358957
 30
0.0
  0
SEQEND
  5
979
  8
VIDITELNE
  6
SLD-PLNÁ
 62
     2
  0
ARC
  5
591
  8
VIDITELNE
  6
SLD-PLNÁ
 62
     2
 10
68.9346120058
 20
310.0356968947
 30
0.0
 40
50.00521777774193
 50
239.0508924142
 51
242.575847044
  0
LINE
  5
592
  8
VIDITELNE
  6
SLD-PLNÁ
 62
     2
 10
13.0964912281
 20
265.65
 30
0.0
 11
19.0
 21
265.65
 31
0.0
  0
LINE
  5
593
  8
VIDITELNE
  6
SLD-PLNÁ
 62
     2
 10
40.0
 20
265.65
 30
0.0
 11
45.9035087719
 21
265.65
 31
0.0
  0
POLYLINE
  5
594
  8
VIDITELNE
  6
SLD-PLNÁ
 62
     2
 66
     1
 10
0.0
 20
0.0
 30
0.0
  0
VERTEX
  5
97A
  8
VIDITELNE
  6
SLD-PLNÁ
 62
     2
 10
15.7818964441
 20
267.15
 30
0.0
  0
VERTEX
  5
97B
  8
VIDITELNE
  6
SLD-PLNÁ
 62
     2
 10
14.8008908835
 20
266.5729198154
 30
0.0
  0
VERTEX
  5
97C
  8
VIDITELNE
  6
SLD-PLNÁ
 62
     2
 10
13.10740883
 20
265.6557163898
 30
0.0
  0
VERTEX
  5
97D
  8
VIDITELNE
  6
SLD-PLNÁ
 62
     2
 10
13.0964912281
 20
265.65
 30
0.0
  0
SEQEND
  5
97E
  8
VIDITELNE
  6
SLD-PLNÁ
 62
     2
  0
ARC
  5
595
  8
VIDITELNE
  6
SLD-PLNÁ
 62
     2
 10
15.0482537002
 20
268.5129482294
 30
0.0
 40
1.547856437724462
 50
298.2925277769
 51
322.9866003527
  0
LINE
  5
596
  8
VIDITELNE
  6
SLD-PLNÁ
 62
     2
 10
-21.6403508772
 20
522.65
 30
0.0
 11
80.6403508772
 21
522.65
 31
0.0
  0
ARC
  5
597
  8
VIDITELNE
  6
SLD-PLNÁ
 62
     2
 10
82.5728235684
 20
522.5822868575
 30
0.0
 40
1.933658649233087
 50
177.9931976903
 51
267.8416717502
  0
ARC
  5
598
  8
VIDITELNE
  6
SLD-PLNÁ
 62
     2
 10
-23.5728235684
 20
522.5822868575
 30
0.0
 40
1.933658649233076
 50
272.1583282498
 51
2.0068023097
  0
ARC
  5
599
  8
VIDITELNE
  6
SLD-PLNÁ
 62
     2
 10
16.3444649422
 20
269.5225003143
 30
0.0
 40
1.942299305736774
 50
193.1345219316
 51
268.2222259523
  0
ARC
  5
59A
  8
VIDITELNE
  6
SLD-PLNÁ
 62
     2
 10
42.6555350578
 20
269.5225003143
 30
0.0
 40
1.942299305736776
 50
271.7777740477
 51
346.8654780684
  0
LINE
  5
59B
  8
VIDITELNE
  6
SLD-PLNÁ
 62
     2
 10
13.0964912281
 20
268.65
 30
0.0
 11
-21.6403508772
 21
268.65
 31
0.0
  0
LINE
  5
59C
  8
VIDITELNE
  6
SLD-PLNÁ
 62
     2
 10
13.0964912281
 20
265.65
 30
0.0
 11
13.0964912281
 21
268.65
 31
0.0
  0
LINE
  5
59D
  8
VIDITELNE
  6
SLD-PLNÁ
 62
     2
 10
45.9035087719
 20
268.65
 30
0.0
 11
45.9035087719
 21
265.65
 31
0.0
  0
LINE
  5
59E
  8
VIDITELNE
  6
SLD-PLNÁ
 62
     2
 10
80.6403508772
 20
268.65
 30
0.0
 11
45.9035087719
 21
268.65
 31
0.0
  0
LINE
  5
59F
  8
VIDITELNE
  6
SLD-PLNÁ
 62
     2
 10
45.9035087719
 20
265.65
 30
0.0
 11
84.5
 21
265.65
 31
0.0
  0
LINE
  5
5A0
  8
VIDITELNE
  6
SLD-PLNÁ
 62
     2
 10
-25.5
 20
265.65
 30
0.0
 11
13.0964912281
 21
265.65
 31
0.0
  0
LINE
  5
5A1
  8
VIDITELNE
  6
SLD-PLNÁ
 62
     2
 10
-25.5
 20
525.65
 30
0.0
 11
84.5
 21
525.65
 31
0.0
  0
POLYLINE
  5
5A2
  8
VIDITELNE
  6
SLD-PLNÁ
 62
     2
 66
     1
 10
0.0
 20
0.0
 30
0.0
  0
VERTEX
  5
97F
  8
VIDITELNE
  6
SLD-PLNÁ
 62
     2
 10
44.5470223147
 20
269.0811358957
 30
0.0
  0
VERTEX
  5
980
  8
VIDITELNE
  6
SLD-PLNÁ
 62
     2
 10
44.5577499726
 20
268.9448449443
 30
0.0
  0
VERTEX
  5
981
  8
VIDITELNE
  6
SLD-PLNÁ
 62
     2
 10
44.6960822869
 20
268.65
 30
0.0
  0
SEQEND
  5
982
  8
VIDITELNE
  6
SLD-PLNÁ
 62
     2
  0
ARC
  5
5A3
  8
VIDITELNE
  6
SLD-PLNÁ
 62
     2
 10
42.3940542318
 20
269.4400919593
 30
0.0
 40
2.433840272163791
 50
289.790375707
 51
341.056979422
  0
POLYLINE
  5
5A4
  8
VIDITELNE
  6
SLD-PLNÁ
 62
     2
 66
     1
 10
0.0
 20
0.0
 30
0.0
  0
VERTEX
  5
983
  8
VIDITELNE
  6
SLD-PLNÁ
 62
     2
 10
14.3039177131
 20
268.65
 30
0.0
  0
VERTEX
  5
984
  8
VIDITELNE
  6
SLD-PLNÁ
 62
     2
 10
14.4138389876
 20
268.8601812454
 30
0.0
  0
VERTEX
  5
985
  8
VIDITELNE
  6
SLD-PLNÁ
 62
     2
 10
14.4529776853
 20
269.0811358957
 30
0.0
  0
SEQEND
  5
986
  8
VIDITELNE
  6
SLD-PLNÁ
 62
     2
  0
ARC
  5
5A5
  8
VIDITELNE
  6
SLD-PLNÁ
 62
     2
 10
16.6059457682
 20
269.4400919593
 30
0.0
 40
2.433840272163733
 50
198.943020578
 51
250.209624293
  0
POLYLINE
  5
5A6
  8
VIDITELNE
  6
SLD-PLNÁ
 62
     2
 66
     1
 10
0.0
 20
0.0
 30
0.0
  0
VERTEX
  5
987
  8
VIDITELNE
  6
SLD-PLNÁ
 62
     2
 10
45.9035087719
 20
268.65
 30
0.0
  0
VERTEX
  5
988
  8
VIDITELNE
  6
SLD-PLNÁ
 62
     2
 10
45.9149701836
 20
269.040180644
 30
0.0
  0
VERTEX
  5
989
  8
VIDITELNE
  6
SLD-PLNÁ
 62
     2
 10
45.9489139631
 20
269.4153668647
 30
0.0
  0
VERTEX
  5
98A
  8
VIDITELNE
  6
SLD-PLNÁ
 62
     2
 10
46.0040356699
 20
269.761140466
 30
0.0
  0
VERTEX
  5
98B
  8
VIDITELNE
  6
SLD-PLNÁ
 62
     2
 10
46.0782170077
 20
270.0642135624
 30
0.0
  0
VERTEX
  5
98C
  8
VIDITELNE
  6
SLD-PLNÁ
 62
     2
 10
46.1686072294
 20
270.3129392246
 30
0.0
  0
VERTEX
  5
98D
  8
VIDITELNE
  6
SLD-PLNÁ
 62
     2
 10
46.2717326895
 20
270.497759065
 30
0.0
  0
VERTEX
  5
98E
  8
VIDITELNE
  6
SLD-PLNÁ
 62
     2
 10
46.3836303342
 20
270.6115705608
 30
0.0
  0
VERTEX
  5
98F
  8
VIDITELNE
  6
SLD-PLNÁ
 62
     2
 10
46.5
 20
270.65
 30
0.0
  0
SEQEND
  5
990
  8
VIDITELNE
  6
SLD-PLNÁ
 62
     2
  0
ARC
  5
5A7
  8
VIDITELNE
  6
SLD-PLNÁ
 62
     2
 10
82.5728235684
 20
268.7177131425
 30
0.0
 40
1.933658649233123
 50
92.1583282498
 51
182.0068023097
  0
POLYLINE
  5
5A8
  8
VIDITELNE
  6
SLD-PLNÁ
 62
     2
 66
     1
 10
0.0
 20
0.0
 30
0.0
  0
VERTEX
  5
991
  8
VIDITELNE
  6
SLD-PLNÁ
 62
     2
 10
12.5
 20
270.65
 30
0.0
  0
VERTEX
  5
992
  8
VIDITELNE
  6
SLD-PLNÁ
 62
     2
 10
12.6163696658
 20
270.6115705608
 30
0.0
  0
VERTEX
  5
993
  8
VIDITELNE
  6
SLD-PLNÁ
 62
     2
 10
12.7282673105
 20
270.497759065
 30
0.0
  0
VERTEX
  5
994
  8
VIDITELNE
  6
SLD-PLNÁ
 62
     2
 10
12.8313927706
 20
270.3129392246
 30
0.0
  0
VERTEX
  5
995
  8
VIDITELNE
  6
SLD-PLNÁ
 62
     2
 10
12.9217829923
 20
270.0642135624
 30
0.0
  0
VERTEX
  5
996
  8
VIDITELNE
  6
SLD-PLNÁ
 62
     2
 10
12.9959643301
 20
269.761140466
 30
0.0
  0
VERTEX
  5
997
  8
VIDITELNE
  6
SLD-PLNÁ
 62
     2
 10
13.0510860369
 20
269.4153668647
 30
0.0
  0
VERTEX
  5
998
  8
VIDITELNE
  6
SLD-PLNÁ
 62
     2
 10
13.0850298164
 20
269.040180644
 30
0.0
  0
VERTEX
  5
999
  8
VIDITELNE
  6
SLD-PLNÁ
 62
     2
 10
13.0964912281
 20
268.65
 30
0.0
  0
SEQEND
  5
99A
  8
VIDITELNE
  6
SLD-PLNÁ
 62
     2
  0
LINE
  5
5A9
  8
VIDITELNE
  6
SLD-PLNÁ
 62
     2
 10
13.0964912281
 20
268.65
 30
0.0
 11
14.3039177131
 21
268.65
 31
0.0
  0
LINE
  5
5AA
  8
VIDITELNE
  6
SLD-PLNÁ
 62
     2
 10
44.6960822869
 20
268.65
 30
0.0
 11
45.9035087719
 21
268.65
 31
0.0
  0
ARC
  5
5AB
  8
VIDITELNE
  6
SLD-PLNÁ
 62
     2
 10
-23.5728235684
 20
268.7177131425
 30
0.0
 40
1.933658649233123
 50
357.9931976903
 51
87.8416717502
  0
ARC
  5
5AC
  8
VIDITELNE
  6
SLD-PLNÁ
 62
     2
 10
73.7281742885
 20
278.5917258133
 30
0.0
 40
30.68713538497182
 50
198.9032131713
 51
204.9439406828
  0
ARC
  5
5AD
  8
VIDITELNE
  6
SLD-PLNÁ
 62
     2
 10
-14.7281742885
 20
278.5917258133
 30
0.0
 40
30.68713538496542
 50
335.0560593172
 51
341.0967868287
  0
LINE
  5
5AE
  8
VIDITELNE
  6
SLD-PLNÁ
 62
     2
 10
-37.5697989934
 20
305.8499866801
 30
0.0
 11
-37.5697989934
 21
270.9885903349
 31
0.0
  0
POLYLINE
  5
5AF
  8
VIDITELNE
  6
SLD-PLNÁ
 62
     2
 66
     1
 10
0.0
 20
0.0
 30
0.0
  0
VERTEX
  5
99B
  8
VIDITELNE
  6
SLD-PLNÁ
 62
     2
 10
-37.5697989934
 20
309.152157067
 30
0.0
  0
VERTEX
  5
99C
  8
VIDITELNE
  6
SLD-PLNÁ
 62
     2
 10
-37.5892079691
 20
308.0575455954
 30
0.0
  0
VERTEX
  5
99D
  8
VIDITELNE
  6
SLD-PLNÁ
 62
     2
 10
-37.5697989934
 20
305.8499866801
 30
0.0
  0
SEQEND
  5
99E
  8
VIDITELNE
  6
SLD-PLNÁ
 62
     2
  0
LINE
  5
5B0
  8
VIDITELNE
  6
SLD-PLNÁ
 62
     2
 10
-37.5697989934
 20
393.3150129268
 30
0.0
 11
-37.5697989934
 21
309.152157067
 31
0.0
  0
POLYLINE
  5
5B1
  8
VIDITELNE
  6
SLD-PLNÁ
 62
     2
 66
     1
 10
0.0
 20
0.0
 30
0.0
  0
VERTEX
  5
99F
  8
VIDITELNE
  6
SLD-PLNÁ
 62
     2
 10
-37.5697989934
 20
397.9849870732
 30
0.0
  0
VERTEX
  5
9A0
  8
VIDITELNE
  6
SLD-PLNÁ
 62
     2
 10
-37.5892079691
 20
396.4555585499
 30
0.0
  0
VERTEX
  5
9A1
  8
VIDITELNE
  6
SLD-PLNÁ
 62
     2
 10
-37.5697989934
 20
393.3150129268
 30
0.0
  0
SEQEND
  5
9A2
  8
VIDITELNE
  6
SLD-PLNÁ
 62
     2
  0
LINE
  5
5B2
  8
VIDITELNE
  6
SLD-PLNÁ
 62
     2
 10
-37.5697989934
 20
482.147842933
 30
0.0
 11
-37.5697989934
 21
397.9849870732
 31
0.0
  0
POLYLINE
  5
5B3
  8
VIDITELNE
  6
SLD-PLNÁ
 62
     2
 66
     1
 10
0.0
 20
0.0
 30
0.0
  0
VERTEX
  5
9A3
  8
VIDITELNE
  6
SLD-PLNÁ
 62
     2
 10
-37.5697989934
 20
485.4500133199
 30
0.0
  0
VERTEX
  5
9A4
  8
VIDITELNE
  6
SLD-PLNÁ
 62
     2
 10
-37.5892079691
 20
484.3816862311
 30
0.0
  0
VERTEX
  5
9A5
  8
VIDITELNE
  6
SLD-PLNÁ
 62
     2
 10
-37.5697989934
 20
482.147842933
 30
0.0
  0
SEQEND
  5
9A6
  8
VIDITELNE
  6
SLD-PLNÁ
 62
     2
  0
LINE
  5
5B4
  8
VIDITELNE
  6
SLD-PLNÁ
 62
     2
 10
-37.5697989934
 20
520.3114096651
 30
0.0
 11
-37.5697989934
 21
485.4500133199
 31
0.0
  0
LINE
  5
5B5
  8
VIDITELNE
  6
SLD-PLNÁ
 62
     2
 10
-115.5
 20
520.65
 30
0.0
 11
-115.5
 21
270.65
 31
0.0
  0
LINE
  5
5B6
  8
VIDITELNE
  6
SLD-PLNÁ
 62
     2
 10
-100.5
 20
518.65
 30
0.0
 11
-100.5
 21
272.65
 31
0.0
  0
ARC
  5
5B7
  8
VIDITELNE
  6
SLD-PLNÁ
 62
     2
 10
-38.0411458116
 20
418.7944825836
 30
0.0
 40
25.48382902576921
 50
266.7182361343
 51
271.0597984854
  0
LINE
  5
5B8
  8
VIDITELNE
  6
SLD-PLNÁ
 62
     2
 10
-39.5
 20
393.3524448061
 30
0.0
 11
-39.5
 21
397.9475551939
 31
0.0
  0
ARC
  5
5B9
  8
VIDITELNE
  6
SLD-PLNÁ
 62
     2
 10
-38.0411458116
 20
372.5055174165
 30
0.0
 40
25.48382902567376
 50
88.9402015146
 51
93.2817638657
  0
ARC
  5
5BA
  8
VIDITELNE
  6
SLD-PLNÁ
 62
     2
 10
-37.7808038361
 20
310.8951782709
 30
0.0
 40
1.755746553724602
 50
191.7114058078
 51
276.9024654221
  0
LINE
  5
5BB
  8
VIDITELNE
  6
SLD-PLNÁ
 62
     2
 10
-39.5
 20
310.5387929304
 30
0.0
 11
-39.5
 21
393.3524448061
 31
0.0
  0
LINE
  5
5BC
  8
VIDITELNE
  6
SLD-PLNÁ
 62
     2
 10
-39.5
 20
397.9475551939
 30
0.0
 11
-39.5
 21
480.7612070696
 31
0.0
  0
ARC
  5
5BD
  8
VIDITELNE
  6
SLD-PLNÁ
 62
     2
 10
-37.7808038361
 20
480.4048217291
 30
0.0
 40
1.755746553723813
 50
83.0975345779
 51
168.2885941922
  0
LINE
  5
5BE
  8
VIDITELNE
  6
SLD-PLNÁ
 62
     2
 10
-49.5
 20
388.65
 30
0.0
 11
-49.5
 21
402.65
 31
0.0
  0
ARC
  5
5BF
  8
VIDITELNE
  6
SLD-PLNÁ
 62
     2
 10
-37.7605318293
 20
307.6080570318
 30
0.0
 40
1.768386376468022
 50
190.3759610839
 51
276.1917952532
  0
LINE
  5
5C0
  8
VIDITELNE
  6
SLD-PLNÁ
 62
     2
 10
-39.5
 20
307.2895592148
 30
0.0
 11
-39.5
 21
310.5387929304
 31
0.0
  0
LINE
  5
5C1
  8
VIDITELNE
  6
SLD-PLNÁ
 62
     2
 10
-39.5
 20
480.7612070696
 30
0.0
 11
-39.5
 21
484.0104407852
 31
0.0
  0
ARC
  5
5C2
  8
VIDITELNE
  6
SLD-PLNÁ
 62
     2
 10
-37.7605318293
 20
483.6919429682
 30
0.0
 40
1.76838637646806
 50
83.8082047468
 51
169.6240389161
  0
LINE
  5
5C3
  8
VIDITELNE
  6
SLD-PLNÁ
 62
     2
 10
-49.5
 20
307.3327201635
 30
0.0
 11
-49.5
 21
321.3327201635
 31
0.0
  0
LINE
  5
5C4
  8
VIDITELNE
  6
SLD-PLNÁ
 62
     2
 10
-49.5
 20
469.9672798365
 30
0.0
 11
-49.5
 21
483.9672798365
 31
0.0
  0
ARC
  5
5C5
  8
VIDITELNE
  6
SLD-PLNÁ
 62
     2
 10
-37.5001898538
 20
272.9871886479
 30
0.0
 40
1.999810153232789
 50
180.0047900837
 51
268.005252791
  0
LINE
  5
5C6
  8
VIDITELNE
  6
SLD-PLNÁ
 62
     2
 10
-39.5
 20
272.9870214583
 30
0.0
 11
-39.5
 21
307.2895592148
 31
0.0
  0
ARC
  5
5C7
  8
VIDITELNE
  6
SLD-PLNÁ
 62
     2
 10
-37.5001898538
 20
518.3128113521
 30
0.0
 40
1.99981015323214
 50
91.9947472089
 51
179.9952099163
  0
LINE
  5
5C8
  8
VIDITELNE
  6
SLD-PLNÁ
 62
     2
 10
-39.5
 20
484.0104407852
 30
0.0
 11
-39.5
 21
518.3129785417
 31
0.0
  0
LINE
  5
5C9
  8
VIDITELNE
  6
SLD-PLNÁ
 62
     2
 10
-49.5
 20
273.65
 30
0.0
 11
-49.5
 21
287.65
 31
0.0
  0
LINE
  5
5CA
  8
VIDITELNE
  6
SLD-PLNÁ
 62
     2
 10
-39.5
 20
272.6527882488
 30
0.0
 11
-39.5
 21
272.9870214583
 31
0.0
  0
LINE
  5
5CB
  8
VIDITELNE
  6
SLD-PLNÁ
 62
     2
 10
-49.5
 20
503.65
 30
0.0
 11
-49.5
 21
517.65
 31
0.0
  0
LINE
  5
5CC
  8
VIDITELNE
  6
SLD-PLNÁ
 62
     2
 10
-39.5
 20
518.3129785417
 30
0.0
 11
-39.5
 21
518.65
 31
0.0
  0
LINE
  5
5CD
  8
VIDITELNE
  6
SLD-PLNÁ
 62
     2
 10
-50.5
 20
547.65
 30
0.0
 11
109.5
 21
547.65
 31
0.0
  0
LINE
  5
5CE
  8
VIDITELNE
  6
SLD-PLNÁ
 62
     2
 10
-48.1844939839
 20
536.65
 30
0.0
 11
107.184493986
 21
536.65
 31
0.0
  0
LINE
  5
5CF
  8
VIDITELNE
  6
SLD-PLNÁ
 62
     2
 10
98.5
 20
520.2658715356
 30
0.0
 11
98.5
 21
271.0341284644
 31
0.0
  0
LINE
  5
5D0
  8
VIDITELNE
  6
SLD-PLNÁ
 62
     2
 10
108.5
 20
402.6499991568
 30
0.0
 11
108.5
 21
388.65
 31
0.0
  0
LINE
  5
5D1
  8
VIDITELNE
  6
SLD-PLNÁ
 62
     2
 10
110.0
 20
363.0228323243
 30
0.0
 11
98.5
 21
352.6832401246
 31
0.0
  0
LINE
  5
5D2
  8
VIDITELNE
  6
SLD-PLNÁ
 62
     2
 10
110.0
 20
363.0228323243
 30
0.0
 11
110.0
 21
355.6317960642
 31
0.0
  0
LINE
  5
5D3
  8
VIDITELNE
  6
SLD-PLNÁ
 62
     2
 10
98.5
 20
345.2922038645
 30
0.0
 11
110.0
 21
355.6317960642
 31
0.0
  0
LINE
  5
5D4
  8
VIDITELNE
  6
SLD-PLNÁ
 62
     2
 10
98.5
 20
360.4798871613
 30
0.0
 11
110.0
 21
363.0228323243
 31
0.0
  0
LINE
  5
5D5
  8
VIDITELNE
  6
SLD-PLNÁ
 62
     2
 10
98.5
 20
438.6167598754
 30
0.0
 11
110.0
 21
428.2771676757
 31
0.0
  0
LINE
  5
5D6
  8
VIDITELNE
  6
SLD-PLNÁ
 62
     2
 10
110.0
 20
435.6682039358
 30
0.0
 11
98.5
 21
446.0077961355
 31
0.0
  0
LINE
  5
5D7
  8
VIDITELNE
  6
SLD-PLNÁ
 62
     2
 10
110.0
 20
435.6682039358
 30
0.0
 11
110.0
 21
428.2771676757
 31
0.0
  0
LINE
  5
5D8
  8
VIDITELNE
  6
SLD-PLNÁ
 62
     2
 10
110.0
 20
428.2771676757
 30
0.0
 11
98.5
 21
430.8201128387
 31
0.0
  0
LINE
  5
5D9
  8
VIDITELNE
  6
SLD-PLNÁ
 62
     2
 10
110.0
 20
428.2771676757
 30
0.0
 11
110.0
 21
363.0228323243
 31
0.0
  0
LINE
  5
5DA
  8
VIDITELNE
  6
SLD-PLNÁ
 62
     2
 10
98.5
 20
303.3508003345
 30
0.0
 11
104.0857452259
 21
306.3327201635
 31
0.0
  0
LINE
  5
5DB
  8
VIDITELNE
  6
SLD-PLNÁ
 62
     2
 10
108.5
 20
308.6892461613
 30
0.0
 11
110.0
 21
309.4900130353
 31
0.0
  0
LINE
  5
5DC
  8
VIDITELNE
  6
SLD-PLNÁ
 62
     2
 10
110.0
 20
355.6317960642
 30
0.0
 11
110.0
 21
309.4900130353
 31
0.0
  0
LINE
  5
5DD
  8
VIDITELNE
  6
SLD-PLNÁ
 62
     2
 10
110.0
 20
481.8099869647
 30
0.0
 11
108.5
 21
482.6107538387
 31
0.0
  0
LINE
  5
5DE
  8
VIDITELNE
  6
SLD-PLNÁ
 62
     2
 10
104.0857452259
 20
484.9672798365
 30
0.0
 11
98.5
 21
487.9491996655
 31
0.0
  0
LINE
  5
5DF
  8
VIDITELNE
  6
SLD-PLNÁ
 62
     2
 10
110.0
 20
481.8099869647
 30
0.0
 11
110.0
 21
435.6682039358
 31
0.0
  0
LINE
  5
5E0
  8
VIDITELNE
  6
SLD-PLNÁ
 62
     2
 10
108.5
 20
483.9672789933
 30
0.0
 11
108.5
 21
469.9672798365
 31
0.0
  0
LINE
  5
5E1
  8
VIDITELNE
  6
SLD-PLNÁ
 62
     2
 10
108.5
 20
321.3327193204
 30
0.0
 11
108.5
 21
307.3327201635
 31
0.0
  0
LINE
  5
5E2
  8
VIDITELNE
  6
SLD-PLNÁ
 62
     2
 10
113.5
 20
460.65
 30
0.0
 11
113.5
 21
330.65
 31
0.0
  0
LINE
  5
5E3
  8
VIDITELNE
  6
SLD-PLNÁ
 62
     2
 10
98.5
 20
506.7719706826
 30
0.0
 11
110.0
 21
481.8099869647
 31
0.0
  0
LINE
  5
5E4
  8
VIDITELNE
  6
SLD-PLNÁ
 62
     2
 10
110.0
 20
484.8714544236
 30
0.0
 11
98.5
 21
509.8334381415
 31
0.0
  0
LINE
  5
5E5
  8
VIDITELNE
  6
SLD-PLNÁ
 62
     2
 10
110.0
 20
484.8714544236
 30
0.0
 11
110.0
 21
481.8099869647
 31
0.0
  0
LINE
  5
5E6
  8
VIDITELNE
  6
SLD-PLNÁ
 62
     2
 10
110.0
 20
309.4900130353
 30
0.0
 11
98.5
 21
284.5280293174
 31
0.0
  0
LINE
  5
5E7
  8
VIDITELNE
  6
SLD-PLNÁ
 62
     2
 10
98.5
 20
281.4665618585
 30
0.0
 11
110.0
 21
306.4285455764
 31
0.0
  0
LINE
  5
5E8
  8
VIDITELNE
  6
SLD-PLNÁ
 62
     2
 10
110.0
 20
309.4900130353
 30
0.0
 11
110.0
 21
306.4285455764
 31
0.0
  0
LINE
  5
5E9
  8
VIDITELNE
  6
SLD-PLNÁ
 62
     2
 10
110.0
 20
490.65
 30
0.0
 11
110.0
 21
484.8714544236
 31
0.0
  0
LINE
  5
5EA
  8
VIDITELNE
  6
SLD-PLNÁ
 62
     2
 10
110.0
 20
306.4285455764
 30
0.0
 11
110.0
 21
300.65
 31
0.0
  0
LINE
  5
5EB
  8
VIDITELNE
  6
SLD-PLNÁ
 62
     2
 10
108.5
 20
517.6499991568
 30
0.0
 11
108.5
 21
503.65
 31
0.0
  0
LINE
  5
5EC
  8
VIDITELNE
  6
SLD-PLNÁ
 62
     2
 10
108.5
 20
287.6499991568
 30
0.0
 11
108.5
 21
273.65
 31
0.0
  0
LINE
  5
5ED
  8
VIDITELNE
  6
SLD-PLNÁ
 62
     2
 10
75.2031939779
 20
257.65
 30
0.0
 11
81.7892562945
 21
257.65
 31
0.0
  0
LINE
  5
5EE
  8
VIDITELNE
  6
SLD-PLNÁ
 62
     2
 10
30.3507268235
 20
257.65
 30
0.0
 11
74.3524671544
 21
257.65
 31
0.0
  0
LINE
  5
5EF
  8
VIDITELNE
  6
SLD-PLNÁ
 62
     2
 10
-15.3524671544
 20
257.65
 30
0.0
 11
28.6492731765
 21
257.65
 31
0.0
  0
LINE
  5
5F0
  8
VIDITELNE
  6
SLD-PLNÁ
 62
     2
 10
-22.7892562945
 20
257.65
 30
0.0
 11
-16.2031939779
 21
257.65
 31
0.0
  0
LINE
  5
5F1
  8
VIDITELNE
  6
SLD-PLNÁ
 62
     2
 10
29.5
 20
252.35
 30
0.0
 11
29.5
 21
257.65
 31
0.0
  0
LINE
  5
5F2
  8
VIDITELNE
  6
SLD-PLNÁ
 62
     2
 10
29.5
 20
252.35
 30
0.0
 11
24.5
 21
252.35
 31
0.0
  0
LINE
  5
5F3
  8
VIDITELNE
  6
SLD-PLNÁ
 62
     2
 10
24.5
 20
252.35
 30
0.0
 11
24.5
 21
257.65
 31
0.0
  0
LINE
  5
5F4
  8
VIDITELNE
  6
SLD-PLNÁ
 62
     2
 10
29.5
 20
257.65
 30
0.0
 11
28.6492731765
 21
257.65
 31
0.0
  0
LINE
  5
5F5
  8
VIDITELNE
  6
SLD-PLNÁ
 62
     2
 10
34.5
 20
252.35
 30
0.0
 11
34.5
 21
257.65
 31
0.0
  0
LINE
  5
5F6
  8
VIDITELNE
  6
SLD-PLNÁ
 62
     2
 10
34.5
 20
252.35
 30
0.0
 11
29.5
 21
252.35
 31
0.0
  0
LINE
  5
5F7
  8
VIDITELNE
  6
SLD-PLNÁ
 62
     2
 10
30.3507268235
 20
257.65
 30
0.0
 11
29.5
 21
257.65
 31
0.0
  0
LINE
  5
5F8
  8
VIDITELNE
  6
SLD-PLNÁ
 62
     2
 10
-11.2031939779
 20
252.35
 30
0.0
 11
-11.2031939779
 21
257.65
 31
0.0
  0
LINE
  5
5F9
  8
VIDITELNE
  6
SLD-PLNÁ
 62
     2
 10
-16.2031939779
 20
252.35
 30
0.0
 11
-16.2031939779
 21
257.65
 31
0.0
  0
LINE
  5
5FA
  8
VIDITELNE
  6
SLD-PLNÁ
 62
     2
 10
-15.3524671544
 20
257.65
 30
0.0
 11
-16.2031939779
 21
257.65
 31
0.0
  0
LINE
  5
5FB
  8
VIDITELNE
  6
SLD-PLNÁ
 62
     2
 10
-11.2031939779
 20
252.35
 30
0.0
 11
-16.2031939779
 21
252.35
 31
0.0
  0
LINE
  5
5FC
  8
VIDITELNE
  6
SLD-PLNÁ
 62
     2
 10
-6.2031939779
 20
252.35
 30
0.0
 11
-6.2031939779
 21
257.65
 31
0.0
  0
LINE
  5
5FD
  8
VIDITELNE
  6
SLD-PLNÁ
 62
     2
 10
-6.2031939779
 20
252.35
 30
0.0
 11
-11.2031939779
 21
252.35
 31
0.0
  0
LINE
  5
5FE
  8
VIDITELNE
  6
SLD-PLNÁ
 62
     2
 10
70.2031939779
 20
252.35
 30
0.0
 11
70.2031939779
 21
257.65
 31
0.0
  0
LINE
  5
5FF
  8
VIDITELNE
  6
SLD-PLNÁ
 62
     2
 10
70.2031939779
 20
252.35
 30
0.0
 11
65.2031939779
 21
252.35
 31
0.0
  0
LINE
  5
600
  8
VIDITELNE
  6
SLD-PLNÁ
 62
     2
 10
65.2031939779
 20
252.35
 30
0.0
 11
65.2031939779
 21
257.65
 31
0.0
  0
LINE
  5
601
  8
VIDITELNE
  6
SLD-PLNÁ
 62
     2
 10
75.2031939779
 20
252.35
 30
0.0
 11
75.2031939779
 21
257.65
 31
0.0
  0
LINE
  5
602
  8
VIDITELNE
  6
SLD-PLNÁ
 62
     2
 10
75.2031939779
 20
252.35
 30
0.0
 11
70.2031939779
 21
252.35
 31
0.0
  0
LINE
  5
603
  8
VIDITELNE
  6
SLD-PLNÁ
 62
     2
 10
75.2031939779
 20
257.65
 30
0.0
 11
74.3524671544
 21
257.65
 31
0.0
  0
LINE
  5
604
  8
VIDITELNE
  6
SLD-PLNÁ
 62
     2
 10
19.0
 20
264.65
 30
0.0
 11
40.0
 21
264.65
 31
0.0
  0
ARC
  5
605
  8
VIDITELNE
  6
SLD-PLNÁ
 62
     2
 10
-21.7573344869
 20
272.1930054716
 30
0.0
 40
3.544936238730681
 50
205.8024949382
 51
271.8911156085
  0
ARC
  5
606
  8
VIDITELNE
  6
SLD-PLNÁ
 62
     2
 10
80.7566761971
 20
272.1963872092
 30
0.0
 40
3.548294494215425
 50
268.1213102984
 51
334.1630639129
  0
ARC
  5
607
  8
VIDITELNE
  6
SLD-PLNÁ
 62
     2
 10
80.7573344869
 20
519.1069945284
 30
0.0
 40
3.544936238731082
 50
25.8024949382
 51
91.8911156084
  0
ARC
  5
608
  8
VIDITELNE
  6
SLD-PLNÁ
 62
     2
 10
-21.7566761971
 20
519.1036127908
 30
0.0
 40
3.548294494215827
 50
88.1213102984
 51
154.1630639129
  0
LINE
  5
609
  8
VIDITELNE
  6
SLD-PLNÁ
 62
     2
 10
-37.5697989934
 20
270.9885903349
 30
0.0
 11
-37.5892079691
 21
270.9700044696
 31
0.0
  0
LINE
  5
60A
  8
VIDITELNE
  6
SLD-PLNÁ
 62
     2
 10
-37.5842297993
 20
520.3252284785
 30
0.0
 11
-37.5697989934
 21
520.3114096651
 31
0.0
  0
LINE
  5
60B
  8
VIDITELNE
  6
SLD-PLNÁ
 62
     2
 10
-102.5
 20
270.65
 30
0.0
 11
-102.5
 21
520.65
 31
0.0
  0
LINE
  5
60C
  8
VIDITELNE
  6
SLD-PLNÁ
 62
     2
 10
-48.5
 20
403.65
 30
0.0
 11
-48.5
 21
387.65
 31
0.0
  0
LINE
  5
60D
  8
VIDITELNE
  6
SLD-PLNÁ
 62
     2
 10
-99.6471528727
 20
395.65
 30
0.0
 11
-99.6471528727
 21
306.7399061501
 31
0.0
  0
LINE
  5
60E
  8
VIDITELNE
  6
SLD-PLNÁ
 62
     2
 10
-99.6471528727
 20
484.5600938499
 30
0.0
 11
-99.6471528727
 21
395.65
 31
0.0
  0
LINE
  5
60F
  8
VIDITELNE
  6
SLD-PLNÁ
 62
     2
 10
-48.5
 20
322.3327201635
 30
0.0
 11
-48.5
 21
306.3327201635
 31
0.0
  0
LINE
  5
610
  8
VIDITELNE
  6
SLD-PLNÁ
 62
     2
 10
-48.5
 20
484.9672798365
 30
0.0
 11
-48.5
 21
468.9672798365
 31
0.0
  0
LINE
  5
611
  8
VIDITELNE
  6
SLD-PLNÁ
 62
     2
 10
-66.7913882374
 20
461.5542397786
 30
0.0
 11
-66.7913882374
 21
329.7457602214
 31
0.0
  0
LINE
  5
612
  8
VIDITELNE
  6
SLD-PLNÁ
 62
     2
 10
-41.5
 20
403.65
 30
0.0
 11
-41.5
 21
460.65
 31
0.0
  0
LINE
  5
613
  8
VIDITELNE
  6
SLD-PLNÁ
 62
     2
 10
-41.5
 20
330.65
 30
0.0
 11
-41.5
 21
387.65
 31
0.0
  0
LINE
  5
614
  8
VIDITELNE
  6
SLD-PLNÁ
 62
     2
 10
-63.9235060556
 20
460.65
 30
0.0
 11
-63.9235060556
 21
330.65
 31
0.0
  0
LINE
  5
615
  8
VIDITELNE
  6
SLD-PLNÁ
 62
     2
 10
-48.5
 20
288.65
 30
0.0
 11
-48.5
 21
272.65
 31
0.0
  0
LINE
  5
616
  8
VIDITELNE
  6
SLD-PLNÁ
 62
     2
 10
-48.5
 20
518.65
 30
0.0
 11
-48.5
 21
502.65
 31
0.0
  0
LINE
  5
617
  8
VIDITELNE
  6
SLD-PLNÁ
 62
     2
 10
-50.18327564
 20
538.5802010066
 30
0.0
 11
109.18327564
 21
538.5802010066
 31
0.0
  0
LINE
  5
618
  8
VIDITELNE
  6
SLD-PLNÁ
 62
     2
 10
-25.7830223078
 20
533.7546984901
 30
0.0
 11
84.7830223078
 21
533.7546984901
 31
0.0
  0
LINE
  5
619
  8
VIDITELNE
  6
SLD-PLNÁ
 62
     2
 10
107.5
 20
387.65
 30
0.0
 11
107.5
 21
403.65
 31
0.0
  0
LINE
  5
61A
  8
VIDITELNE
  6
SLD-PLNÁ
 62
     2
 10
107.5
 20
468.9672798365
 30
0.0
 11
107.5
 21
484.9672798365
 31
0.0
  0
LINE
  5
61B
  8
VIDITELNE
  6
SLD-PLNÁ
 62
     2
 10
107.5
 20
306.3327201635
 30
0.0
 11
107.5
 21
322.3327201635
 31
0.0
  0
LINE
  5
61C
  8
VIDITELNE
  6
SLD-PLNÁ
 62
     2
 10
107.5
 20
502.65
 30
0.0
 11
107.5
 21
518.65
 31
0.0
  0
LINE
  5
61D
  8
VIDITELNE
  6
SLD-PLNÁ
 62
     2
 10
107.5
 20
272.65
 30
0.0
 11
107.5
 21
288.65
 31
0.0
  0
LINE
  5
61E
  8
VIDITELNE
  6
SLD-PLNÁ
 62
     2
 10
-24.7880379485
 20
259.5802010066
 30
0.0
 11
83.7880379485
 21
259.5802010066
 31
0.0
  0
LINE
  5
61F
  8
VIDITELNE
  6
SLD-PLNÁ
 62
     2
 10
-25.5
 20
-518.65
 30
0.0
 11
-25.5
 21
-525.65
 31
0.0
  0
LINE
  5
620
  8
VIDITELNE
  6
SLD-PLNÁ
 62
     2
 10
-25.5
 20
-265.65
 30
0.0
 11
-25.5
 21
-272.65
 31
0.0
  0
LINE
  5
621
  8
VIDITELNE
  6
SLD-PLNÁ
 62
     2
 10
84.5
 20
-272.65
 30
0.0
 11
84.5
 21
-265.65
 31
0.0
  0
LINE
  5
622
  8
VIDITELNE
  6
SLD-PLNÁ
 62
     2
 10
84.5
 20
-525.65
 30
0.0
 11
84.5
 21
-518.65
 31
0.0
  0
LINE
  5
623
  8
VIDITELNE
  6
SLD-PLNÁ
 62
     2
 10
84.5
 20
-520.65
 30
0.0
 11
87.5
 21
-520.65
 31
0.0
  0
LINE
  5
624
  8
VIDITELNE
  6
SLD-PLNÁ
 62
     2
 10
-28.5
 20
-520.65
 30
0.0
 11
-25.5
 21
-520.65
 31
0.0
  0
LINE
  5
625
  8
VIDITELNE
  6
SLD-PLNÁ
 62
     2
 10
-25.5
 20
-270.65
 30
0.0
 11
-28.5
 21
-270.65
 31
0.0
  0
LINE
  5
626
  8
VIDITELNE
  6
SLD-PLNÁ
 62
     2
 10
87.5
 20
-270.65
 30
0.0
 11
84.5
 21
-270.65
 31
0.0
  0
ARC
  5
627
  8
VIDITELNE
  6
SLD-PLNÁ
 62
     2
 10
113.5
 20
-365.15
 30
0.0
 40
2.0
 50
0.0
 51
90.0
  0
ARC
  5
628
  8
VIDITELNE
  6
SLD-PLNÁ
 62
     2
 10
113.5
 20
-426.15
 30
0.0
 40
2.0
 50
270.0
 51
0.0
  0
ARC
  5
629
  8
VIDITELNE
  6
SLD-PLNÁ
 62
     2
 10
-102.5
 20
-272.65
 30
0.0
 40
2.000000000000014
 50
0.0
 51
90.0
  0
ARC
  5
62A
  8
VIDITELNE
  6
SLD-PLNÁ
 62
     2
 10
-102.5
 20
-518.65
 30
0.0
 40
2.000000000000014
 50
270.0
 51
0.0
  0
LINE
  5
62B
  8
VIDITELNE
  6
SLD-PLNÁ
 62
     2
 10
-102.5
 20
-270.65
 30
0.0
 11
-115.5
 21
-270.65
 31
0.0
  0
LINE
  5
62C
  8
VIDITELNE
  6
SLD-PLNÁ
 62
     2
 10
-115.5
 20
-520.65
 30
0.0
 11
-102.5
 21
-520.65
 31
0.0
  0
LINE
  5
62D
  8
VIDITELNE
  6
SLD-PLNÁ
 62
     2
 10
-28.5
 20
-270.65
 30
0.0
 11
-37.5844928937
 21
-270.9672374823
 31
0.0
  0
LINE
  5
62E
  8
VIDITELNE
  6
SLD-PLNÁ
 62
     2
 10
-37.5844928937
 20
-520.3327625177
 30
0.0
 11
-28.5
 21
-520.65
 31
0.0
  0
LINE
  5
62F
  8
VIDITELNE
  6
SLD-PLNÁ
 62
     2
 10
-39.5
 20
-387.65
 30
0.0
 11
-48.5
 21
-387.65
 31
0.0
  0
LINE
  5
630
  8
VIDITELNE
  6
SLD-PLNÁ
 62
     2
 10
-48.5
 20
-403.65
 30
0.0
 11
-39.5
 21
-403.65
 31
0.0
  0
ARC
  5
631
  8
VIDITELNE
  6
SLD-PLNÁ
 62
     2
 10
-48.5
 20
-388.65
 30
0.0
 40
1.0
 50
90.0
 51
180.0
  0
ARC
  5
632
  8
VIDITELNE
  6
SLD-PLNÁ
 62
     2
 10
-48.5
 20
-402.65
 30
0.0
 40
1.0
 50
180.0
 51
270.0
  0
ARC
  5
633
  8
VIDITELNE
  6
SLD-PLNÁ
 62
     2
 10
-98.5
 20
-305.1016020616
 30
0.0
 40
2.000000000000051
 50
180.0
 51
235.0
  0
ARC
  5
634
  8
VIDITELNE
  6
SLD-PLNÁ
 62
     2
 10
-98.5
 20
-486.1983979384
 30
0.0
 40
2.000000000000051
 50
125.0
 51
180.0
  0
LINE
  5
635
  8
VIDITELNE
  6
SLD-PLNÁ
 62
     2
 10
-39.5
 20
-468.9672798365
 30
0.0
 11
-48.5
 21
-468.9672798365
 31
0.0
  0
LINE
  5
636
  8
VIDITELNE
  6
SLD-PLNÁ
 62
     2
 10
-48.5
 20
-484.9672798365
 30
0.0
 11
-39.5
 21
-484.9672798365
 31
0.0
  0
ARC
  5
637
  8
VIDITELNE
  6
SLD-PLNÁ
 62
     2
 10
-48.5
 20
-469.9672798365
 30
0.0
 40
1.0
 50
90.0
 51
180.0
  0
ARC
  5
638
  8
VIDITELNE
  6
SLD-PLNÁ
 62
     2
 10
-48.5
 20
-483.9672798365
 30
0.0
 40
1.0
 50
180.0
 51
270.0
  0
LINE
  5
639
  8
VIDITELNE
  6
SLD-PLNÁ
 62
     2
 10
-39.5
 20
-306.3327201635
 30
0.0
 11
-48.5
 21
-306.3327201635
 31
0.0
  0
LINE
  5
63A
  8
VIDITELNE
  6
SLD-PLNÁ
 62
     2
 10
-48.5
 20
-322.3327201635
 30
0.0
 11
-39.5
 21
-322.3327201635
 31
0.0
  0
ARC
  5
63B
  8
VIDITELNE
  6
SLD-PLNÁ
 62
     2
 10
-48.5
 20
-307.3327201635
 30
0.0
 40
1.0
 50
90.0
 51
180.0
  0
ARC
  5
63C
  8
VIDITELNE
  6
SLD-PLNÁ
 62
     2
 10
-48.5
 20
-321.3327201635
 30
0.0
 40
1.0
 50
180.0
 51
270.0
  0
LINE
  5
63D
  8
VIDITELNE
  6
SLD-PLNÁ
 62
     2
 10
-99.6471528727
 20
-484.5600938499
 30
0.0
 11
-66.7913882374
 21
-461.5542397786
 31
0.0
  0
LINE
  5
63E
  8
VIDITELNE
  6
SLD-PLNÁ
 62
     2
 10
-66.7913882374
 20
-329.7457602214
 30
0.0
 11
-99.6471528727
 21
-306.7399061501
 31
0.0
  0
ARC
  5
63F
  8
VIDITELNE
  6
SLD-PLNÁ
 62
     2
 10
-41.5
 20
-462.65
 30
0.0
 40
2.0
 50
0.0
 51
90.0
  0
ARC
  5
640
  8
VIDITELNE
  6
SLD-PLNÁ
 62
     2
 10
-41.5
 20
-328.65
 30
0.0
 40
2.0
 50
270.0
 51
0.0
  0
ARC
  5
641
  8
VIDITELNE
  6
SLD-PLNÁ
 62
     2
 10
-63.9235060556
 20
-325.65
 30
0.0
 40
5.000000000000044
 50
235.0
 51
270.0
  0
ARC
  5
642
  8
VIDITELNE
  6
SLD-PLNÁ
 62
     2
 10
-63.9235060556
 20
-465.65
 30
0.0
 40
5.000000000000057
 50
90.0
 51
125.0
  0
LINE
  5
643
  8
VIDITELNE
  6
SLD-PLNÁ
 62
     2
 10
-41.5
 20
-330.65
 30
0.0
 11
-63.9235060556
 21
-330.65
 31
0.0
  0
LINE
  5
644
  8
VIDITELNE
  6
SLD-PLNÁ
 62
     2
 10
-63.9235060556
 20
-460.65
 30
0.0
 11
-41.5
 21
-460.65
 31
0.0
  0
LINE
  5
645
  8
VIDITELNE
  6
SLD-PLNÁ
 62
     2
 10
-39.5
 20
-502.65
 30
0.0
 11
-48.5
 21
-502.65
 31
0.0
  0
LINE
  5
646
  8
VIDITELNE
  6
SLD-PLNÁ
 62
     2
 10
-48.5
 20
-518.65
 30
0.0
 11
-39.5
 21
-518.65
 31
0.0
  0
ARC
  5
647
  8
VIDITELNE
  6
SLD-PLNÁ
 62
     2
 10
-48.5
 20
-503.65
 30
0.0
 40
1.0
 50
90.0
 51
180.0
  0
ARC
  5
648
  8
VIDITELNE
  6
SLD-PLNÁ
 62
     2
 10
-48.5
 20
-517.65
 30
0.0
 40
1.0
 50
180.0
 51
270.0
  0
LINE
  5
649
  8
VIDITELNE
  6
SLD-PLNÁ
 62
     2
 10
-39.5
 20
-272.65
 30
0.0
 11
-48.5
 21
-272.65
 31
0.0
  0
LINE
  5
64A
  8
VIDITELNE
  6
SLD-PLNÁ
 62
     2
 10
-48.5
 20
-288.65
 30
0.0
 11
-39.5
 21
-288.65
 31
0.0
  0
ARC
  5
64B
  8
VIDITELNE
  6
SLD-PLNÁ
 62
     2
 10
-48.5
 20
-273.65
 30
0.0
 40
1.0
 50
90.0
 51
180.0
  0
ARC
  5
64C
  8
VIDITELNE
  6
SLD-PLNÁ
 62
     2
 10
-48.5
 20
-287.65
 30
0.0
 40
1.0
 50
180.0
 51
270.0
  0
ARC
  5
64D
  8
VIDITELNE
  6
SLD-PLNÁ
 62
     2
 10
-37.6186702315
 20
-518.4622628368
 30
0.0
 40
1.862806306529363
 50
182.3936318727
 51
271.0617171089
  0
ARC
  5
64E
  8
VIDITELNE
  6
SLD-PLNÁ
 62
     2
 10
-37.5974073159
 20
-272.8586537019
 30
0.0
 40
1.884184594840158
 50
89.5987235766
 51
177.0253359788
  0
LINE
  5
64F
  8
VIDITELNE
  6
SLD-PLNÁ
 62
     2
 10
109.5
 20
-547.65
 30
0.0
 11
109.18327564
 21
-538.5802010066
 31
0.0
  0
LINE
  5
650
  8
VIDITELNE
  6
SLD-PLNÁ
 62
     2
 10
-50.18327564
 20
-538.5802010066
 30
0.0
 11
-50.5
 21
-547.65
 31
0.0
  0
ARC
  5
651
  8
VIDITELNE
  6
SLD-PLNÁ
 62
     2
 10
107.184493986
 20
-538.65
 30
0.0
 40
1.999999999999976
 50
2.0
 51
90.0
  0
ARC
  5
652
  8
VIDITELNE
  6
SLD-PLNÁ
 62
     2
 10
-48.184493986
 20
-538.65
 30
0.0
 40
2.000000000000455
 50
90.0
 51
178.0
  0
ARC
  5
653
  8
VIDITELNE
  6
SLD-PLNÁ
 62
     2
 10
87.7811947888
 20
-533.65
 30
0.0
 40
3.000000000000341
 50
182.0
 51
270.0
  0
ARC
  5
654
  8
VIDITELNE
  6
SLD-PLNÁ
 62
     2
 10
-28.7811947888
 20
-533.65
 30
0.0
 40
2.999999999999981
 50
270.0
 51
358.0
  0
LINE
  5
655
  8
VIDITELNE
  6
SLD-PLNÁ
 62
     2
 10
84.7830223078
 20
-533.7546984901
 30
0.0
 11
84.5
 21
-525.65
 31
0.0
  0
LINE
  5
656
  8
VIDITELNE
  6
SLD-PLNÁ
 62
     2
 10
-25.5
 20
-525.65
 30
0.0
 11
-25.7830223078
 21
-533.7546984901
 31
0.0
  0
LINE
  5
657
  8
VIDITELNE
  6
SLD-PLNÁ
 62
     2
 10
87.5
 20
-520.65
 30
0.0
 11
98.5
 21
-520.2658715356
 31
0.0
  0
LINE
  5
658
  8
VIDITELNE
  6
SLD-PLNÁ
 62
     2
 10
98.5
 20
-271.0341284644
 30
0.0
 11
87.5
 21
-270.65
 31
0.0
  0
ARC
  5
659
  8
VIDITELNE
  6
SLD-PLNÁ
 62
     2
 10
107.5
 20
-388.65
 30
0.0
 40
1.0
 50
0.0
 51
90.0
  0
ARC
  5
65A
  8
VIDITELNE
  6
SLD-PLNÁ
 62
     2
 10
107.5
 20
-402.65
 30
0.0
 40
1.0
 50
270.0
 51
0.0
  0
LINE
  5
65B
  8
VIDITELNE
  6
SLD-PLNÁ
 62
     2
 10
98.5
 20
-403.65
 30
0.0
 11
107.5
 21
-403.65
 31
0.0
  0
LINE
  5
65C
  8
VIDITELNE
  6
SLD-PLNÁ
 62
     2
 10
107.5
 20
-387.65
 30
0.0
 11
98.5
 21
-387.65
 31
0.0
  0
LINE
  5
65D
  8
VIDITELNE
  6
SLD-PLNÁ
 62
     2
 10
98.5
 20
-484.9672798365
 30
0.0
 11
107.5
 21
-484.9672798365
 31
0.0
  0
LINE
  5
65E
  8
VIDITELNE
  6
SLD-PLNÁ
 62
     2
 10
107.5
 20
-468.9672798365
 30
0.0
 11
98.5
 21
-468.9672798365
 31
0.0
  0
ARC
  5
65F
  8
VIDITELNE
  6
SLD-PLNÁ
 62
     2
 10
107.5
 20
-469.9672798365
 30
0.0
 40
1.0
 50
0.0
 51
90.0
  0
ARC
  5
660
  8
VIDITELNE
  6
SLD-PLNÁ
 62
     2
 10
107.5
 20
-483.9672798365
 30
0.0
 40
1.0
 50
270.0
 51
0.0
  0
ARC
  5
661
  8
VIDITELNE
  6
SLD-PLNÁ
 62
     2
 10
107.5
 20
-307.3327201635
 30
0.0
 40
1.0
 50
0.0
 51
90.0
  0
ARC
  5
662
  8
VIDITELNE
  6
SLD-PLNÁ
 62
     2
 10
107.5
 20
-321.3327201635
 30
0.0
 40
1.0
 50
270.0
 51
0.0
  0
LINE
  5
663
  8
VIDITELNE
  6
SLD-PLNÁ
 62
     2
 10
98.5
 20
-322.3327201635
 30
0.0
 11
107.5
 21
-322.3327201635
 31
0.0
  0
LINE
  5
664
  8
VIDITELNE
  6
SLD-PLNÁ
 62
     2
 10
107.5
 20
-306.3327201635
 30
0.0
 11
98.5
 21
-306.3327201635
 31
0.0
  0
LINE
  5
665
  8
VIDITELNE
  6
SLD-PLNÁ
 62
     2
 10
113.5
 20
-330.65
 30
0.0
 11
110.0
 21
-330.65
 31
0.0
  0
LINE
  5
666
  8
VIDITELNE
  6
SLD-PLNÁ
 62
     2
 10
110.0
 20
-460.65
 30
0.0
 11
113.5
 21
-460.65
 31
0.0
  0
LINE
  5
667
  8
VIDITELNE
  6
SLD-PLNÁ
 62
     2
 10
110.0
 20
-300.65
 30
0.0
 11
106.3731240234
 21
-298.5560221786
 31
0.0
  0
LINE
  5
668
  8
VIDITELNE
  6
SLD-PLNÁ
 62
     2
 10
106.3731240234
 20
-492.7439778214
 30
0.0
 11
110.0
 21
-490.65
 31
0.0
  0
ARC
  5
669
  8
VIDITELNE
  6
SLD-PLNÁ
 62
     2
 10
107.5
 20
-503.65
 30
0.0
 40
1.0
 50
0.0
 51
90.0
  0
ARC
  5
66A
  8
VIDITELNE
  6
SLD-PLNÁ
 62
     2
 10
107.5
 20
-517.65
 30
0.0
 40
1.0
 50
270.0
 51
0.0
  0
LINE
  5
66B
  8
VIDITELNE
  6
SLD-PLNÁ
 62
     2
 10
98.5
 20
-518.65
 30
0.0
 11
107.5
 21
-518.65
 31
0.0
  0
LINE
  5
66C
  8
VIDITELNE
  6
SLD-PLNÁ
 62
     2
 10
107.5
 20
-502.65
 30
0.0
 11
101.8094140097
 21
-502.65
 31
0.0
  0
LINE
  5
66D
  8
VIDITELNE
  6
SLD-PLNÁ
 62
     2
 10
101.8094140097
 20
-288.65
 30
0.0
 11
107.5
 21
-288.65
 31
0.0
  0
LINE
  5
66E
  8
VIDITELNE
  6
SLD-PLNÁ
 62
     2
 10
107.5
 20
-272.65
 30
0.0
 11
98.5
 21
-272.65
 31
0.0
  0
ARC
  5
66F
  8
VIDITELNE
  6
SLD-PLNÁ
 62
     2
 10
107.5
 20
-273.65
 30
0.0
 40
1.0
 50
0.0
 51
90.0
  0
ARC
  5
670
  8
VIDITELNE
  6
SLD-PLNÁ
 62
     2
 10
107.5
 20
-287.65
 30
0.0
 40
1.0
 50
270.0
 51
0.0
  0
POLYLINE
  5
671
  8
VIDITELNE
  6
SLD-PLNÁ
 62
     2
 66
     1
 10
0.0
 20
0.0
 30
0.0
  0
VERTEX
  5
9A7
  8
VIDITELNE
  6
SLD-PLNÁ
 62
     2
 10
23.835438039
 20
-404.2228097179
 30
0.0
  0
VERTEX
  5
9A8
  8
VIDITELNE
  6
SLD-PLNÁ
 62
     2
 10
23.8986173201
 20
-405.6533166244
 30
0.0
  0
VERTEX
  5
9A9
  8
VIDITELNE
  6
SLD-PLNÁ
 62
     2
 10
24.0377436526
 20
-408.443823093
 30
0.0
  0
VERTEX
  5
9AA
  8
VIDITELNE
  6
SLD-PLNÁ
 62
     2
 10
24.192815582
 20
-410.8399617699
 30
0.0
  0
VERTEX
  5
9AB
  8
VIDITELNE
  6
SLD-PLNÁ
 62
     2
 10
24.3272204876
 20
-412.2256222653
 30
0.0
  0
VERTEX
  5
9AC
  8
VIDITELNE
  6
SLD-PLNÁ
 62
     2
 10
24.5214089427
 20
-413.4448091929
 30
0.0
  0
VERTEX
  5
9AD
  8
VIDITELNE
  6
SLD-PLNÁ
 62
     2
 10
24.944441165
 20
-414.7328359364
 30
0.0
  0
VERTEX
  5
9AE
  8
VIDITELNE
  6
SLD-PLNÁ
 62
     2
 10
25.5392174944
 20
-415.7177351611
 30
0.0
  0
VERTEX
  5
9AF
  8
VIDITELNE
  6
SLD-PLNÁ
 62
     2
 10
26.3734692148
 20
-416.5662679876
 30
0.0
  0
VERTEX
  5
9B0
  8
VIDITELNE
  6
SLD-PLNÁ
 62
     2
 10
26.9378792379
 20
-416.9561055796
 30
0.0
  0
VERTEX
  5
9B1
  8
VIDITELNE
  6
SLD-PLNÁ
 62
     2
 10
27.664955442
 20
-417.3116991513
 30
0.0
  0
VERTEX
  5
9B2
  8
VIDITELNE
  6
SLD-PLNÁ
 62
     2
 10
29.5257601348
 20
-417.6587524735
 30
0.0
  0
VERTEX
  5
9B3
  8
VIDITELNE
  6
SLD-PLNÁ
 62
     2
 10
31.4181534028
 20
-417.2770431582
 30
0.0
  0
VERTEX
  5
9B4
  8
VIDITELNE
  6
SLD-PLNÁ
 62
     2
 10
32.896082496
 20
-416.3338139172
 30
0.0
  0
VERTEX
  5
9B5
  8
VIDITELNE
  6
SLD-PLNÁ
 62
     2
 10
33.7882497035
 20
-415.2503340916
 30
0.0
  0
VERTEX
  5
9B6
  8
VIDITELNE
  6
SLD-PLNÁ
 62
     2
 10
34.2345654673
 20
-414.3366951236
 30
0.0
  0
VERTEX
  5
9B7
  8
VIDITELNE
  6
SLD-PLNÁ
 62
     2
 10
34.4652466052
 20
-413.5657153042
 30
0.0
  0
VERTEX
  5
9B8
  8
VIDITELNE
  6
SLD-PLNÁ
 62
     2
 10
34.615144877
 20
-412.7497748113
 30
0.0
  0
VERTEX
  5
9B9
  8
VIDITELNE
  6
SLD-PLNÁ
 62
     2
 10
34.7941389348
 20
-411.0328108301
 30
0.0
  0
VERTEX
  5
9BA
  8
VIDITELNE
  6
SLD-PLNÁ
 62
     2
 10
34.8922397945
 20
-409.633288153
 30
0.0
  0
VERTEX
  5
9BB
  8
VIDITELNE
  6
SLD-PLNÁ
 62
     2
 10
34.9848058498
 20
-408.0288062837
 30
0.0
  0
VERTEX
  5
9BC
  8
VIDITELNE
  6
SLD-PLNÁ
 62
     2
 10
35.0695338792
 20
-406.3403937975
 30
0.0
  0
VERTEX
  5
9BD
  8
VIDITELNE
  6
SLD-PLNÁ
 62
     2
 10
35.1469290453
 20
-404.6363060046
 30
0.0
  0
VERTEX
  5
9BE
  8
VIDITELNE
  6
SLD-PLNÁ
 62
     2
 10
35.1666858978
 20
-404.1693607805
 30
0.0
  0
SEQEND
  5
9BF
  8
VIDITELNE
  6
SLD-PLNÁ
 62
     2
  0
POLYLINE
  5
672
  8
VIDITELNE
  6
SLD-PLNÁ
 62
     2
 66
     1
 10
0.0
 20
0.0
 30
0.0
  0
VERTEX
  5
9C0
  8
VIDITELNE
  6
SLD-PLNÁ
 62
     2
 10
25.5
 20
-395.65
 30
0.0
  0
VERTEX
  5
9C1
  8
VIDITELNE
  6
SLD-PLNÁ
 62
     2
 10
25.3901168531
 20
-398.5638219059
 30
0.0
  0
VERTEX
  5
9C2
  8
VIDITELNE
  6
SLD-PLNÁ
 62
     2
 10
25.299557394
 20
-400.9077079532
 30
0.0
  0
VERTEX
  5
9C3
  8
VIDITELNE
  6
SLD-PLNÁ
 62
     2
 10
25.2276415567
 20
-402.6882256102
 30
0.0
  0
VERTEX
  5
9C4
  8
VIDITELNE
  6
SLD-PLNÁ
 62
     2
 10
25.1550048705
 20
-404.3927147306
 30
0.0
  0
VERTEX
  5
9C5
  8
VIDITELNE
  6
SLD-PLNÁ
 62
     2
 10
25.1174315688
 20
-405.2303907904
 30
0.0
  0
VERTEX
  5
9C6
  8
VIDITELNE
  6
SLD-PLNÁ
 62
     2
 10
25.0746876812
 20
-406.1504890719
 30
0.0
  0
VERTEX
  5
9C7
  8
VIDITELNE
  6
SLD-PLNÁ
 62
     2
 10
25.0227950604
 20
-407.2382809195
 30
0.0
  0
VERTEX
  5
9C8
  8
VIDITELNE
  6
SLD-PLNÁ
 62
     2
 10
24.9665698067
 20
-408.3975236039
 30
0.0
  0
VERTEX
  5
9C9
  8
VIDITELNE
  6
SLD-PLNÁ
 62
     2
 10
24.9127170707
 20
-409.5007969912
 30
0.0
  0
VERTEX
  5
9CA
  8
VIDITELNE
  6
SLD-PLNÁ
 62
     2
 10
24.8916906895
 20
-410.2174123604
 30
0.0
  0
VERTEX
  5
9CB
  8
VIDITELNE
  6
SLD-PLNÁ
 62
     2
 10
24.9390593969
 20
-410.3947752955
 30
0.0
  0
SEQEND
  5
9CC
  8
VIDITELNE
  6
SLD-PLNÁ
 62
     2
  0
POLYLINE
  5
673
  8
VIDITELNE
  6
SLD-PLNÁ
 62
     2
 66
     1
 10
0.0
 20
0.0
 30
0.0
  0
VERTEX
  5
9CD
  8
VIDITELNE
  6
SLD-PLNÁ
 62
     2
 10
34.2868066783
 20
-411.4338458598
 30
0.0
  0
VERTEX
  5
9CE
  8
VIDITELNE
  6
SLD-PLNÁ
 62
     2
 10
34.2859590723
 20
-411.437676935
 30
0.0
  0
VERTEX
  5
9CF
  8
VIDITELNE
  6
SLD-PLNÁ
 62
     2
 10
34.2617259821
 20
-411.252816204
 30
0.0
  0
VERTEX
  5
9D0
  8
VIDITELNE
  6
SLD-PLNÁ
 62
     2
 10
34.1398456345
 20
-409.8849659366
 30
0.0
  0
VERTEX
  5
9D1
  8
VIDITELNE
  6
SLD-PLNÁ
 62
     2
 10
34.0712849343
 20
-408.8547595768
 30
0.0
  0
VERTEX
  5
9D2
  8
VIDITELNE
  6
SLD-PLNÁ
 62
     2
 10
34.0030677015
 20
-407.6678456944
 30
0.0
  0
VERTEX
  5
9D3
  8
VIDITELNE
  6
SLD-PLNÁ
 62
     2
 10
33.8967270427
 20
-405.536748718
 30
0.0
  0
VERTEX
  5
9D4
  8
VIDITELNE
  6
SLD-PLNÁ
 62
     2
 10
33.870339666
 20
-404.9611526733
 30
0.0
  0
VERTEX
  5
9D5
  8
VIDITELNE
  6
SLD-PLNÁ
 62
     2
 10
33.8342702199
 20
-404.1478962046
 30
0.0
  0
VERTEX
  5
9D6
  8
VIDITELNE
  6
SLD-PLNÁ
 62
     2
 10
33.7792266692
 20
-402.8542898225
 30
0.0
  0
VERTEX
  5
9D7
  8
VIDITELNE
  6
SLD-PLNÁ
 62
     2
 10
33.7051998722
 20
-401.0294180338
 30
0.0
  0
VERTEX
  5
9D8
  8
VIDITELNE
  6
SLD-PLNÁ
 62
     2
 10
33.6124347247
 20
-398.6295375009
 30
0.0
  0
VERTEX
  5
9D9
  8
VIDITELNE
  6
SLD-PLNÁ
 62
     2
 10
33.5
 20
-395.65
 30
0.0
  0
SEQEND
  5
9DA
  8
VIDITELNE
  6
SLD-PLNÁ
 62
     2
  0
POLYLINE
  5
674
  8
VIDITELNE
  6
SLD-PLNÁ
 62
     2
 66
     1
 10
0.0
 20
0.0
 30
0.0
  0
VERTEX
  5
9DB
  8
VIDITELNE
  6
SLD-PLNÁ
 62
     2
 10
35.1666846725
 20
-387.1306102589
 30
0.0
  0
VERTEX
  5
9DC
  8
VIDITELNE
  6
SLD-PLNÁ
 62
     2
 10
35.1469290453
 20
-386.6636939954
 30
0.0
  0
VERTEX
  5
9DD
  8
VIDITELNE
  6
SLD-PLNÁ
 62
     2
 10
35.0695338792
 20
-384.9596062025
 30
0.0
  0
VERTEX
  5
9DE
  8
VIDITELNE
  6
SLD-PLNÁ
 62
     2
 10
34.9848058498
 20
-383.2711937163
 30
0.0
  0
VERTEX
  5
9DF
  8
VIDITELNE
  6
SLD-PLNÁ
 62
     2
 10
34.8922397945
 20
-381.666711847
 30
0.0
  0
VERTEX
  5
9E0
  8
VIDITELNE
  6
SLD-PLNÁ
 62
     2
 10
34.7941389348
 20
-380.2671891699
 30
0.0
  0
VERTEX
  5
9E1
  8
VIDITELNE
  6
SLD-PLNÁ
 62
     2
 10
34.6840504156
 20
-379.0908963203
 30
0.0
  0
VERTEX
  5
9E2
  8
VIDITELNE
  6
SLD-PLNÁ
 62
     2
 10
34.5568832559
 20
-378.1855286419
 30
0.0
  0
VERTEX
  5
9E3
  8
VIDITELNE
  6
SLD-PLNÁ
 62
     2
 10
34.4253837934
 20
-377.5716119229
 30
0.0
  0
VERTEX
  5
9E4
  8
VIDITELNE
  6
SLD-PLNÁ
 62
     2
 10
34.2345654673
 20
-376.9633048764
 30
0.0
  0
VERTEX
  5
9E5
  8
VIDITELNE
  6
SLD-PLNÁ
 62
     2
 10
33.7882497035
 20
-376.0496659084
 30
0.0
  0
VERTEX
  5
9E6
  8
VIDITELNE
  6
SLD-PLNÁ
 62
     2
 10
32.896082496
 20
-374.9661860828
 30
0.0
  0
VERTEX
  5
9E7
  8
VIDITELNE
  6
SLD-PLNÁ
 62
     2
 10
31.4181534028
 20
-374.0229568418
 30
0.0
  0
VERTEX
  5
9E8
  8
VIDITELNE
  6
SLD-PLNÁ
 62
     2
 10
29.5257601348
 20
-373.6412475265
 30
0.0
  0
VERTEX
  5
9E9
  8
VIDITELNE
  6
SLD-PLNÁ
 62
     2
 10
27.664955442
 20
-373.9883008487
 30
0.0
  0
VERTEX
  5
9EA
  8
VIDITELNE
  6
SLD-PLNÁ
 62
     2
 10
26.9378792379
 20
-374.3438944204
 30
0.0
  0
VERTEX
  5
9EB
  8
VIDITELNE
  6
SLD-PLNÁ
 62
     2
 10
26.3734692148
 20
-374.7337320124
 30
0.0
  0
VERTEX
  5
9EC
  8
VIDITELNE
  6
SLD-PLNÁ
 62
     2
 10
25.5392174944
 20
-375.5822648389
 30
0.0
  0
VERTEX
  5
9ED
  8
VIDITELNE
  6
SLD-PLNÁ
 62
     2
 10
24.944441165
 20
-376.5671640636
 30
0.0
  0
VERTEX
  5
9EE
  8
VIDITELNE
  6
SLD-PLNÁ
 62
     2
 10
24.5214089427
 20
-377.8551908071
 30
0.0
  0
VERTEX
  5
9EF
  8
VIDITELNE
  6
SLD-PLNÁ
 62
     2
 10
24.3272204876
 20
-379.0743777347
 30
0.0
  0
VERTEX
  5
9F0
  8
VIDITELNE
  6
SLD-PLNÁ
 62
     2
 10
24.192815582
 20
-380.4600382301
 30
0.0
  0
VERTEX
  5
9F1
  8
VIDITELNE
  6
SLD-PLNÁ
 62
     2
 10
24.0377436526
 20
-382.856176907
 30
0.0
  0
VERTEX
  5
9F2
  8
VIDITELNE
  6
SLD-PLNÁ
 62
     2
 10
23.8986173201
 20
-385.6466833756
 30
0.0
  0
VERTEX
  5
9F3
  8
VIDITELNE
  6
SLD-PLNÁ
 62
     2
 10
23.8341543341
 20
-387.1062559607
 30
0.0
  0
SEQEND
  5
9F4
  8
VIDITELNE
  6
SLD-PLNÁ
 62
     2
  0
POLYLINE
  5
675
  8
VIDITELNE
  6
SLD-PLNÁ
 62
     2
 66
     1
 10
0.0
 20
0.0
 30
0.0
  0
VERTEX
  5
9F5
  8
VIDITELNE
  6
SLD-PLNÁ
 62
     2
 10
33.5
 20
-395.65
 30
0.0
  0
VERTEX
  5
9F6
  8
VIDITELNE
  6
SLD-PLNÁ
 62
     2
 10
33.6124347247
 20
-392.6704624991
 30
0.0
  0
VERTEX
  5
9F7
  8
VIDITELNE
  6
SLD-PLNÁ
 62
     2
 10
33.7051998722
 20
-390.2705819662
 30
0.0
  0
VERTEX
  5
9F8
  8
VIDITELNE
  6
SLD-PLNÁ
 62
     2
 10
33.7792266692
 20
-388.4457101775
 30
0.0
  0
VERTEX
  5
9F9
  8
VIDITELNE
  6
SLD-PLNÁ
 62
     2
 10
33.8546746922
 20
-386.6884231237
 30
0.0
  0
VERTEX
  5
9FA
  8
VIDITELNE
  6
SLD-PLNÁ
 62
     2
 10
33.8967270427
 20
-385.763251282
 30
0.0
  0
VERTEX
  5
9FB
  8
VIDITELNE
  6
SLD-PLNÁ
 62
     2
 10
34.0030677015
 20
-383.6321543056
 30
0.0
  0
VERTEX
  5
9FC
  8
VIDITELNE
  6
SLD-PLNÁ
 62
     2
 10
34.0712849343
 20
-382.4452404232
 30
0.0
  0
VERTEX
  5
9FD
  8
VIDITELNE
  6
SLD-PLNÁ
 62
     2
 10
34.1398456345
 20
-381.4150340634
 30
0.0
  0
VERTEX
  5
9FE
  8
VIDITELNE
  6
SLD-PLNÁ
 62
     2
 10
34.2617259821
 20
-380.047183796
 30
0.0
  0
VERTEX
  5
9FF
  8
VIDITELNE
  6
SLD-PLNÁ
 62
     2
 10
34.2859590723
 20
-379.862323065
 30
0.0
  0
VERTEX
  5
A00
  8
VIDITELNE
  6
SLD-PLNÁ
 62
     2
 10
34.2868066783
 20
-379.8661541402
 30
0.0
  0
SEQEND
  5
A01
  8
VIDITELNE
  6
SLD-PLNÁ
 62
     2
  0
POLYLINE
  5
676
  8
VIDITELNE
  6
SLD-PLNÁ
 62
     2
 66
     1
 10
0.0
 20
0.0
 30
0.0
  0
VERTEX
  5
A02
  8
VIDITELNE
  6
SLD-PLNÁ
 62
     2
 10
24.9390593969
 20
-380.9052247045
 30
0.0
  0
VERTEX
  5
A03
  8
VIDITELNE
  6
SLD-PLNÁ
 62
     2
 10
24.8916906895
 20
-381.0825876396
 30
0.0
  0
VERTEX
  5
A04
  8
VIDITELNE
  6
SLD-PLNÁ
 62
     2
 10
24.9127170707
 20
-381.7992030088
 30
0.0
  0
VERTEX
  5
A05
  8
VIDITELNE
  6
SLD-PLNÁ
 62
     2
 10
24.9665698067
 20
-382.9024763961
 30
0.0
  0
VERTEX
  5
A06
  8
VIDITELNE
  6
SLD-PLNÁ
 62
     2
 10
25.0227950604
 20
-384.0617190805
 30
0.0
  0
VERTEX
  5
A07
  8
VIDITELNE
  6
SLD-PLNÁ
 62
     2
 10
25.0746876812
 20
-385.1495109281
 30
0.0
  0
VERTEX
  5
A08
  8
VIDITELNE
  6
SLD-PLNÁ
 62
     2
 10
25.1174315688
 20
-386.0696092096
 30
0.0
  0
VERTEX
  5
A09
  8
VIDITELNE
  6
SLD-PLNÁ
 62
     2
 10
25.140130877
 20
-386.5718730035
 30
0.0
  0
VERTEX
  5
A0A
  8
VIDITELNE
  6
SLD-PLNÁ
 62
     2
 10
25.1745334608
 20
-387.355087054
 30
0.0
  0
VERTEX
  5
A0B
  8
VIDITELNE
  6
SLD-PLNÁ
 62
     2
 10
25.2276415567
 20
-388.6117743898
 30
0.0
  0
VERTEX
  5
A0C
  8
VIDITELNE
  6
SLD-PLNÁ
 62
     2
 10
25.299557394
 20
-390.3922920468
 30
0.0
  0
VERTEX
  5
A0D
  8
VIDITELNE
  6
SLD-PLNÁ
 62
     2
 10
25.3901168531
 20
-392.7361780941
 30
0.0
  0
VERTEX
  5
A0E
  8
VIDITELNE
  6
SLD-PLNÁ
 62
     2
 10
25.5
 20
-395.65
 30
0.0
  0
SEQEND
  5
A0F
  8
VIDITELNE
  6
SLD-PLNÁ
 62
     2
  0
LINE
  5
677
  8
VIDITELNE
  6
SLD-PLNÁ
 62
     2
 10
84.0
 20
-265.65
 30
0.0
 11
83.7880379485
 21
-259.5802010066
 31
0.0
  0
LINE
  5
678
  8
VIDITELNE
  6
SLD-PLNÁ
 62
     2
 10
-24.7880379485
 20
-259.5802010066
 30
0.0
 11
-25.0
 21
-265.65
 31
0.0
  0
ARC
  5
679
  8
VIDITELNE
  6
SLD-PLNÁ
 62
     2
 10
81.7892562945
 20
-259.65
 30
0.0
 40
2.0
 50
2.0
 51
90.0
  0
ARC
  5
67A
  8
VIDITELNE
  6
SLD-PLNÁ
 62
     2
 10
-22.7892562945
 20
-259.65
 30
0.0
 40
2.000000000000011
 50
90.0
 51
178.0
  0
CIRCLE
  5
67B
  8
VIDITELNE
  6
SLD-PLNÁ
 62
     2
 10
29.5
 20
-485.65
 30
0.0
 40
9.499999999999943
  0
CIRCLE
  5
67C
  8
VIDITELNE
  6
SLD-PLNÁ
 62
     2
 10
29.5
 20
-485.65
 30
0.0
 40
10.49999999999994
  0
LINE
  5
67D
  8
VIDITELNE
  6
SLD-PLNÁ
 62
     2
 10
84.5
 20
-272.65
 30
0.0
 11
84.5
 21
-354.0687542274
 31
0.0
  0
POLYLINE
  5
67E
  8
VIDITELNE
  6
SLD-PLNÁ
 62
     2
 66
     1
 10
0.0
 20
0.0
 30
0.0
  0
VERTEX
  5
A10
  8
VIDITELNE
  6
SLD-PLNÁ
 62
     2
 10
84.5
 20
-437.2312457726
 30
0.0
  0
VERTEX
  5
A11
  8
VIDITELNE
  6
SLD-PLNÁ
 62
     2
 10
84.4244562995
 20
-427.3253482867
 30
0.0
  0
VERTEX
  5
A12
  8
VIDITELNE
  6
SLD-PLNÁ
 62
     2
 10
84.2737032823
 20
-417.1589070791
 30
0.0
  0
VERTEX
  5
A13
  8
VIDITELNE
  6
SLD-PLNÁ
 62
     2
 10
84.1387595913
 20
-406.6563376722
 30
0.0
  0
VERTEX
  5
A14
  8
VIDITELNE
  6
SLD-PLNÁ
 62
     2
 10
84.0837429017
 20
-396.0118447351
 30
0.0
  0
VERTEX
  5
A15
  8
VIDITELNE
  6
SLD-PLNÁ
 62
     2
 10
84.1304935584
 20
-385.5296635596
 30
0.0
  0
VERTEX
  5
A16
  8
VIDITELNE
  6
SLD-PLNÁ
 62
     2
 10
84.2601596688
 20
-375.0451319364
 30
0.0
  0
VERTEX
  5
A17
  8
VIDITELNE
  6
SLD-PLNÁ
 62
     2
 10
84.4176842556
 20
-364.4872838873
 30
0.0
  0
VERTEX
  5
A18
  8
VIDITELNE
  6
SLD-PLNÁ
 62
     2
 10
84.5
 20
-354.0687542274
 30
0.0
  0
SEQEND
  5
A19
  8
VIDITELNE
  6
SLD-PLNÁ
 62
     2
  0
LINE
  5
67F
  8
VIDITELNE
  6
SLD-PLNÁ
 62
     2
 10
84.5
 20
-518.65
 30
0.0
 11
84.5
 21
-437.2312457726
 31
0.0
  0
LINE
  5
680
  8
VIDITELNE
  6
SLD-PLNÁ
 62
     2
 10
-25.5
 20
-518.65
 30
0.0
 11
-25.5
 21
-437.2312457726
 31
0.0
  0
POLYLINE
  5
681
  8
VIDITELNE
  6
SLD-PLNÁ
 62
     2
 66
     1
 10
0.0
 20
0.0
 30
0.0
  0
VERTEX
  5
A1A
  8
VIDITELNE
  6
SLD-PLNÁ
 62
     2
 10
-25.5
 20
-354.0687542274
 30
0.0
  0
VERTEX
  5
A1B
  8
VIDITELNE
  6
SLD-PLNÁ
 62
     2
 10
-25.4244562995
 20
-363.9746517133
 30
0.0
  0
VERTEX
  5
A1C
  8
VIDITELNE
  6
SLD-PLNÁ
 62
     2
 10
-25.2737032823
 20
-374.1410929209
 30
0.0
  0
VERTEX
  5
A1D
  8
VIDITELNE
  6
SLD-PLNÁ
 62
     2
 10
-25.1387595913
 20
-384.6436623278
 30
0.0
  0
VERTEX
  5
A1E
  8
VIDITELNE
  6
SLD-PLNÁ
 62
     2
 10
-25.0837429017
 20
-395.2881552649
 30
0.0
  0
VERTEX
  5
A1F
  8
VIDITELNE
  6
SLD-PLNÁ
 62
     2
 10
-25.1304935584
 20
-405.7703364404
 30
0.0
  0
VERTEX
  5
A20
  8
VIDITELNE
  6
SLD-PLNÁ
 62
     2
 10
-25.2601596688
 20
-416.2548680636
 30
0.0
  0
VERTEX
  5
A21
  8
VIDITELNE
  6
SLD-PLNÁ
 62
     2
 10
-25.4176842556
 20
-426.8127161127
 30
0.0
  0
VERTEX
  5
A22
  8
VIDITELNE
  6
SLD-PLNÁ
 62
     2
 10
-25.5
 20
-437.2312457726
 30
0.0
  0
SEQEND
  5
A23
  8
VIDITELNE
  6
SLD-PLNÁ
 62
     2
  0
LINE
  5
682
  8
VIDITELNE
  6
SLD-PLNÁ
 62
     2
 10
-25.5
 20
-272.65
 30
0.0
 11
-25.5
 21
-354.0687542274
 31
0.0
  0
LINE
  5
683
  8
VIDITELNE
  6
SLD-PLNÁ
 62
     2
 10
14.8030615433
 20
-482.65
 30
0.0
 11
14.8030615433
 21
-488.65
 31
0.0
  0
LINE
  5
684
  8
VIDITELNE
  6
SLD-PLNÁ
 62
     2
 10
44.1969384567
 20
-488.65
 30
0.0
 11
44.1969384567
 21
-482.65
 31
0.0
  0
LINE
  5
685
  8
VIDITELNE
  6
SLD-PLNÁ
 62
     2
 10
14.8030615433
 20
-392.65
 30
0.0
 11
14.8030615433
 21
-398.65
 31
0.0
  0
ARC
  5
686
  8
VIDITELNE
  6
SLD-PLNÁ
 62
     2
 10
29.5526373742
 20
-395.681456797
 30
0.0
 40
14.94214853839198
 50
290.9365547945
 51
348.5408575868
  0
ARC
  5
687
  8
VIDITELNE
  6
SLD-PLNÁ
 62
     2
 10
29.2685814131
 20
-395.7982008779
 30
0.0
 40
14.74394870236781
 50
191.1525364468
 51
249.5338957352
  0
LINE
  5
688
  8
VIDITELNE
  6
SLD-PLNÁ
 62
     2
 10
44.1969384567
 20
-398.65
 30
0.0
 11
44.1969384567
 21
-392.65
 31
0.0
  0
ARC
  5
689
  8
VIDITELNE
  6
SLD-PLNÁ
 62
     2
 10
29.5
 20
-485.65
 30
0.0
 40
15.00000000000001
 50
11.5369590328
 51
168.4630409672
  0
ARC
  5
68A
  8
VIDITELNE
  6
SLD-PLNÁ
 62
     2
 10
29.5
 20
-485.65
 30
0.0
 40
15.00000000000003
 50
191.5369590328
 51
348.4630409672
  0
ARC
  5
68B
  8
VIDITELNE
  6
SLD-PLNÁ
 62
     2
 10
29.4509167494
 20
-395.6206744422
 30
0.0
 40
14.94605529163394
 50
110.9160083024
 51
168.5355571455
  0
ARC
  5
68C
  8
VIDITELNE
  6
SLD-PLNÁ
 62
     2
 10
29.6840675937
 20
-395.5563880321
 30
0.0
 40
14.80103077756539
 50
11.3244094782
 51
69.3891184066
  0
LINE
  5
68D
  8
VIDITELNE
  6
SLD-PLNÁ
 62
     2
 10
84.5
 20
-265.65
 30
0.0
 11
-25.5
 21
-265.65
 31
0.0
  0
LINE
  5
68E
  8
VIDITELNE
  6
SLD-PLNÁ
 62
     2
 10
84.5
 20
-525.65
 30
0.0
 11
-25.5
 21
-525.65
 31
0.0
  0
POLYLINE
  5
68F
  8
VIDITELNE
  6
SLD-PLNÁ
 62
     2
 66
     1
 10
0.0
 20
0.0
 30
0.0
  0
VERTEX
  5
A24
  8
VIDITELNE
  6
SLD-PLNÁ
 62
     2
 10
84.5
 20
-354.0687542274
 30
0.0
  0
VERTEX
  5
A25
  8
VIDITELNE
  6
SLD-PLNÁ
 62
     2
 10
84.5384294392
 20
-354.1965038121
 30
0.0
  0
VERTEX
  5
A26
  8
VIDITELNE
  6
SLD-PLNÁ
 62
     2
 10
84.652240935
 20
-354.3193440519
 30
0.0
  0
VERTEX
  5
A27
  8
VIDITELNE
  6
SLD-PLNÁ
 62
     2
 10
84.8370607754
 20
-354.4325542653
 30
0.0
  0
VERTEX
  5
A28
  8
VIDITELNE
  6
SLD-PLNÁ
 62
     2
 10
85.0857864376
 20
-354.5317838472
 30
0.0
  0
VERTEX
  5
A29
  8
VIDITELNE
  6
SLD-PLNÁ
 62
     2
 10
85.388859534
 20
-354.6132194605
 30
0.0
  0
VERTEX
  5
A2A
  8
VIDITELNE
  6
SLD-PLNÁ
 62
     2
 10
85.7346331353
 20
-354.6737315803
 30
0.0
  0
VERTEX
  5
A2B
  8
VIDITELNE
  6
SLD-PLNÁ
 62
     2
 10
86.109819356
 20
-354.7109947596
 30
0.0
  0
VERTEX
  5
A2C
  8
VIDITELNE
  6
SLD-PLNÁ
 62
     2
 10
86.5
 20
-354.7235769955
 30
0.0
  0
SEQEND
  5
A2D
  8
VIDITELNE
  6
SLD-PLNÁ
 62
     2
  0
POLYLINE
  5
690
  8
VIDITELNE
  6
SLD-PLNÁ
 62
     2
 66
     1
 10
0.0
 20
0.0
 30
0.0
  0
VERTEX
  5
A2E
  8
VIDITELNE
  6
SLD-PLNÁ
 62
     2
 10
86.5
 20
-354.7235769955
 30
0.0
  0
VERTEX
  5
A2F
  8
VIDITELNE
  6
SLD-PLNÁ
 62
     2
 10
86.4198240852
 20
-364.6102908637
 30
0.0
  0
VERTEX
  5
A30
  8
VIDITELNE
  6
SLD-PLNÁ
 62
     2
 10
86.2607301576
 20
-374.7791056912
 30
0.0
  0
VERTEX
  5
A31
  8
VIDITELNE
  6
SLD-PLNÁ
 62
     2
 10
86.1206470441
 20
-385.315778591
 30
0.0
  0
VERTEX
  5
A32
  8
VIDITELNE
  6
SLD-PLNÁ
 62
     2
 10
86.0686062799
 20
-396.0061463928
 30
0.0
  0
VERTEX
  5
A33
  8
VIDITELNE
  6
SLD-PLNÁ
 62
     2
 10
86.1223021314
 20
-406.1523842888
 30
0.0
  0
VERTEX
  5
A34
  8
VIDITELNE
  6
SLD-PLNÁ
 62
     2
 10
86.2571835531
 20
-416.2962185974
 30
0.0
  0
VERTEX
  5
A35
  8
VIDITELNE
  6
SLD-PLNÁ
 62
     2
 10
86.4173060719
 20
-426.5084693365
 30
0.0
  0
VERTEX
  5
A36
  8
VIDITELNE
  6
SLD-PLNÁ
 62
     2
 10
86.5
 20
-436.5764230045
 30
0.0
  0
SEQEND
  5
A37
  8
VIDITELNE
  6
SLD-PLNÁ
 62
     2
  0
POLYLINE
  5
691
  8
VIDITELNE
  6
SLD-PLNÁ
 62
     2
 66
     1
 10
0.0
 20
0.0
 30
0.0
  0
VERTEX
  5
A38
  8
VIDITELNE
  6
SLD-PLNÁ
 62
     2
 10
84.5
 20
-437.2312457726
 30
0.0
  0
VERTEX
  5
A39
  8
VIDITELNE
  6
SLD-PLNÁ
 62
     2
 10
84.5384294392
 20
-437.1034961879
 30
0.0
  0
VERTEX
  5
A3A
  8
VIDITELNE
  6
SLD-PLNÁ
 62
     2
 10
84.652240935
 20
-436.9806559481
 30
0.0
  0
VERTEX
  5
A3B
  8
VIDITELNE
  6
SLD-PLNÁ
 62
     2
 10
84.8370607754
 20
-436.8674457347
 30
0.0
  0
VERTEX
  5
A3C
  8
VIDITELNE
  6
SLD-PLNÁ
 62
     2
 10
85.0857864376
 20
-436.7682161528
 30
0.0
  0
VERTEX
  5
A3D
  8
VIDITELNE
  6
SLD-PLNÁ
 62
     2
 10
85.388859534
 20
-436.6867805395
 30
0.0
  0
VERTEX
  5
A3E
  8
VIDITELNE
  6
SLD-PLNÁ
 62
     2
 10
85.7346331353
 20
-436.6262684197
 30
0.0
  0
VERTEX
  5
A3F
  8
VIDITELNE
  6
SLD-PLNÁ
 62
     2
 10
86.109819356
 20
-436.5890052404
 30
0.0
  0
VERTEX
  5
A40
  8
VIDITELNE
  6
SLD-PLNÁ
 62
     2
 10
86.5
 20
-436.5764230045
 30
0.0
  0
SEQEND
  5
A41
  8
VIDITELNE
  6
SLD-PLNÁ
 62
     2
  0
POLYLINE
  5
692
  8
VIDITELNE
  6
SLD-PLNÁ
 62
     2
 66
     1
 10
0.0
 20
0.0
 30
0.0
  0
VERTEX
  5
A42
  8
VIDITELNE
  6
SLD-PLNÁ
 62
     2
 10
-27.5
 20
-436.5764230045
 30
0.0
  0
VERTEX
  5
A43
  8
VIDITELNE
  6
SLD-PLNÁ
 62
     2
 10
-27.4198240852
 20
-426.6897091363
 30
0.0
  0
VERTEX
  5
A44
  8
VIDITELNE
  6
SLD-PLNÁ
 62
     2
 10
-27.2607301576
 20
-416.5208943088
 30
0.0
  0
VERTEX
  5
A45
  8
VIDITELNE
  6
SLD-PLNÁ
 62
     2
 10
-27.1206470441
 20
-405.984221409
 30
0.0
  0
VERTEX
  5
A46
  8
VIDITELNE
  6
SLD-PLNÁ
 62
     2
 10
-27.0686062799
 20
-395.2938536072
 30
0.0
  0
VERTEX
  5
A47
  8
VIDITELNE
  6
SLD-PLNÁ
 62
     2
 10
-27.1223021314
 20
-385.1476157112
 30
0.0
  0
VERTEX
  5
A48
  8
VIDITELNE
  6
SLD-PLNÁ
 62
     2
 10
-27.2571835531
 20
-375.0037814026
 30
0.0
  0
VERTEX
  5
A49
  8
VIDITELNE
  6
SLD-PLNÁ
 62
     2
 10
-27.4173060719
 20
-364.7915306635
 30
0.0
  0
VERTEX
  5
A4A
  8
VIDITELNE
  6
SLD-PLNÁ
 62
     2
 10
-27.5
 20
-354.7235769955
 30
0.0
  0
SEQEND
  5
A4B
  8
VIDITELNE
  6
SLD-PLNÁ
 62
     2
  0
POLYLINE
  5
693
  8
VIDITELNE
  6
SLD-PLNÁ
 62
     2
 66
     1
 10
0.0
 20
0.0
 30
0.0
  0
VERTEX
  5
A4C
  8
VIDITELNE
  6
SLD-PLNÁ
 62
     2
 10
-27.5
 20
-354.7235769955
 30
0.0
  0
VERTEX
  5
A4D
  8
VIDITELNE
  6
SLD-PLNÁ
 62
     2
 10
-27.109819356
 20
-354.7109947596
 30
0.0
  0
VERTEX
  5
A4E
  8
VIDITELNE
  6
SLD-PLNÁ
 62
     2
 10
-26.7346331353
 20
-354.6737315803
 30
0.0
  0
VERTEX
  5
A4F
  8
VIDITELNE
  6
SLD-PLNÁ
 62
     2
 10
-26.388859534
 20
-354.6132194605
 30
0.0
  0
VERTEX
  5
A50
  8
VIDITELNE
  6
SLD-PLNÁ
 62
     2
 10
-26.0857864376
 20
-354.5317838472
 30
0.0
  0
VERTEX
  5
A51
  8
VIDITELNE
  6
SLD-PLNÁ
 62
     2
 10
-25.8370607754
 20
-354.4325542653
 30
0.0
  0
VERTEX
  5
A52
  8
VIDITELNE
  6
SLD-PLNÁ
 62
     2
 10
-25.652240935
 20
-354.3193440519
 30
0.0
  0
VERTEX
  5
A53
  8
VIDITELNE
  6
SLD-PLNÁ
 62
     2
 10
-25.5384294392
 20
-354.1965038121
 30
0.0
  0
VERTEX
  5
A54
  8
VIDITELNE
  6
SLD-PLNÁ
 62
     2
 10
-25.5
 20
-354.0687542274
 30
0.0
  0
SEQEND
  5
A55
  8
VIDITELNE
  6
SLD-PLNÁ
 62
     2
  0
POLYLINE
  5
694
  8
VIDITELNE
  6
SLD-PLNÁ
 62
     2
 66
     1
 10
0.0
 20
0.0
 30
0.0
  0
VERTEX
  5
A56
  8
VIDITELNE
  6
SLD-PLNÁ
 62
     2
 10
-27.5
 20
-436.5764230045
 30
0.0
  0
VERTEX
  5
A57
  8
VIDITELNE
  6
SLD-PLNÁ
 62
     2
 10
-27.109819356
 20
-436.5890052404
 30
0.0
  0
VERTEX
  5
A58
  8
VIDITELNE
  6
SLD-PLNÁ
 62
     2
 10
-26.7346331353
 20
-436.6262684197
 30
0.0
  0
VERTEX
  5
A59
  8
VIDITELNE
  6
SLD-PLNÁ
 62
     2
 10
-26.388859534
 20
-436.6867805395
 30
0.0
  0
VERTEX
  5
A5A
  8
VIDITELNE
  6
SLD-PLNÁ
 62
     2
 10
-26.0857864376
 20
-436.7682161528
 30
0.0
  0
VERTEX
  5
A5B
  8
VIDITELNE
  6
SLD-PLNÁ
 62
     2
 10
-25.8370607754
 20
-436.8674457347
 30
0.0
  0
VERTEX
  5
A5C
  8
VIDITELNE
  6
SLD-PLNÁ
 62
     2
 10
-25.652240935
 20
-436.9806559481
 30
0.0
  0
VERTEX
  5
A5D
  8
VIDITELNE
  6
SLD-PLNÁ
 62
     2
 10
-25.5384294392
 20
-437.1034961879
 30
0.0
  0
VERTEX
  5
A5E
  8
VIDITELNE
  6
SLD-PLNÁ
 62
     2
 10
-25.5
 20
-437.2312457726
 30
0.0
  0
SEQEND
  5
A5F
  8
VIDITELNE
  6
SLD-PLNÁ
 62
     2
  0
LINE
  5
695
  8
VIDITELNE
  6
SLD-PLNÁ
 62
     2
 10
-27.5
 20
-354.7235769955
 30
0.0
 11
-27.5
 21
-274.587007874
 31
0.0
  0
LINE
  5
696
  8
VIDITELNE
  6
SLD-PLNÁ
 62
     2
 10
-27.5
 20
-516.712992126
 30
0.0
 11
-27.5
 21
-436.5764230045
 31
0.0
  0
LINE
  5
697
  8
VIDITELNE
  6
SLD-PLNÁ
 62
     2
 10
86.5
 20
-436.5764230045
 30
0.0
 11
86.5
 21
-516.712992126
 31
0.0
  0
LINE
  5
698
  8
VIDITELNE
  6
SLD-PLNÁ
 62
     2
 10
86.5
 20
-274.587007874
 30
0.0
 11
86.5
 21
-354.7235769955
 31
0.0
  0
LINE
  5
699
  8
VIDITELNE
  6
SLD-PLNÁ
 62
     2
 10
87.5
 20
-270.65
 30
0.0
 11
87.5
 21
-520.65
 31
0.0
  0
LINE
  5
69A
  8
VIDITELNE
  6
SLD-PLNÁ
 62
     2
 10
-28.5
 20
-270.65
 30
0.0
 11
-28.5
 21
-520.65
 31
0.0
  0
ARC
  5
69B
  8
VIDITELNE
  6
SLD-PLNÁ
 62
     2
 10
-27.468999938
 20
-518.6820081941
 30
0.0
 40
1.969260084481595
 50
0.9313219756
 51
90.9019865372
  0
ARC
  5
69C
  8
VIDITELNE
  6
SLD-PLNÁ
 62
     2
 10
-27.468999938
 20
-272.6179918059
 30
0.0
 40
1.969260084481762
 50
269.0980134629
 51
359.0686780244
  0
ARC
  5
69D
  8
VIDITELNE
  6
SLD-PLNÁ
 62
     2
 10
86.468999938
 20
-518.6820081941
 30
0.0
 40
1.969260084481595
 50
89.0980134628
 51
179.0686780244
  0
ARC
  5
69E
  8
VIDITELNE
  6
SLD-PLNÁ
 62
     2
 10
86.468999938
 20
-272.6179918059
 30
0.0
 40
1.969260084481707
 50
180.9313219756
 51
270.9019865372
  0
LINE
  5
69F
  8
VIDITELNE
  6
SLD-PLNÁ
 62
     2
 10
115.5
 20
-365.15
 30
0.0
 11
115.5
 21
-426.15
 31
0.0
  0
LINE
  5
6A0
  8
VIDITELNE
  6
SLD-PLNÁ
 62
     2
 10
-100.5
 20
-395.65
 30
0.0
 11
-100.5
 21
-518.65
 31
0.0
  0
LINE
  5
6A1
  8
VIDITELNE
  6
SLD-PLNÁ
 62
     2
 10
-100.5
 20
-272.65
 30
0.0
 11
-100.5
 21
-395.65
 31
0.0
  0
LINE
  5
6A2
  8
VIDITELNE
  6
SLD-PLNÁ
 62
     2
 10
-115.5
 20
-395.65
 30
0.0
 11
-115.5
 21
-520.65
 31
0.0
  0
LINE
  5
6A3
  8
VIDITELNE
  6
SLD-PLNÁ
 62
     2
 10
-115.5
 20
-270.65
 30
0.0
 11
-115.5
 21
-395.65
 31
0.0
  0
POLYLINE
  5
6A4
  8
VIDITELNE
  6
SLD-PLNÁ
 62
     2
 66
     1
 10
0.0
 20
0.0
 30
0.0
  0
VERTEX
  5
A60
  8
VIDITELNE
  6
SLD-PLNÁ
 62
     2
 10
-37.5697989934
 20
-305.8499866801
 30
0.0
  0
VERTEX
  5
A61
  8
VIDITELNE
  6
SLD-PLNÁ
 62
     2
 10
-37.5892079691
 20
-306.9183137689
 30
0.0
  0
VERTEX
  5
A62
  8
VIDITELNE
  6
SLD-PLNÁ
 62
     2
 10
-37.5697989934
 20
-309.152157067
 30
0.0
  0
SEQEND
  5
A63
  8
VIDITELNE
  6
SLD-PLNÁ
 62
     2
  0
LINE
  5
6A5
  8
VIDITELNE
  6
SLD-PLNÁ
 62
     2
 10
-37.5697989934
 20
-270.9885903349
 30
0.0
 11
-37.5697989934
 21
-305.8499866801
 31
0.0
  0
LINE
  5
6A6
  8
VIDITELNE
  6
SLD-PLNÁ
 62
     2
 10
-37.5697989934
 20
-485.4500133199
 30
0.0
 11
-37.5697989934
 21
-520.3114096651
 31
0.0
  0
POLYLINE
  5
6A7
  8
VIDITELNE
  6
SLD-PLNÁ
 62
     2
 66
     1
 10
0.0
 20
0.0
 30
0.0
  0
VERTEX
  5
A64
  8
VIDITELNE
  6
SLD-PLNÁ
 62
     2
 10
-37.5697989934
 20
-482.147842933
 30
0.0
  0
VERTEX
  5
A65
  8
VIDITELNE
  6
SLD-PLNÁ
 62
     2
 10
-37.5892079691
 20
-483.2424544046
 30
0.0
  0
VERTEX
  5
A66
  8
VIDITELNE
  6
SLD-PLNÁ
 62
     2
 10
-37.5697989934
 20
-485.4500133199
 30
0.0
  0
SEQEND
  5
A67
  8
VIDITELNE
  6
SLD-PLNÁ
 62
     2
  0
LINE
  5
6A8
  8
VIDITELNE
  6
SLD-PLNÁ
 62
     2
 10
-37.5697989934
 20
-397.9849870732
 30
0.0
 11
-37.5697989934
 21
-482.147842933
 31
0.0
  0
POLYLINE
  5
6A9
  8
VIDITELNE
  6
SLD-PLNÁ
 62
     2
 66
     1
 10
0.0
 20
0.0
 30
0.0
  0
VERTEX
  5
A68
  8
VIDITELNE
  6
SLD-PLNÁ
 62
     2
 10
-37.5697989934
 20
-393.3150129268
 30
0.0
  0
VERTEX
  5
A69
  8
VIDITELNE
  6
SLD-PLNÁ
 62
     2
 10
-37.5892079691
 20
-394.8444414501
 30
0.0
  0
VERTEX
  5
A6A
  8
VIDITELNE
  6
SLD-PLNÁ
 62
     2
 10
-37.5697989934
 20
-397.9849870732
 30
0.0
  0
SEQEND
  5
A6B
  8
VIDITELNE
  6
SLD-PLNÁ
 62
     2
  0
LINE
  5
6AA
  8
VIDITELNE
  6
SLD-PLNÁ
 62
     2
 10
-37.5697989934
 20
-309.152157067
 30
0.0
 11
-37.5697989934
 21
-393.3150129268
 31
0.0
  0
LINE
  5
6AB
  8
VIDITELNE
  6
SLD-PLNÁ
 62
     2
 10
-28.5
 20
-395.65
 30
0.0
 11
-28.5
 21
-520.65
 31
0.0
  0
LINE
  5
6AC
  8
VIDITELNE
  6
SLD-PLNÁ
 62
     2
 10
-28.5
 20
-270.65
 30
0.0
 11
-28.5
 21
-395.65
 31
0.0
  0
ARC
  5
6AD
  8
VIDITELNE
  6
SLD-PLNÁ
 62
     2
 10
-38.0411458116
 20
-372.5055174165
 30
0.0
 40
25.48382902574176
 50
266.7182361343
 51
271.0597984854
  0
LINE
  5
6AE
  8
VIDITELNE
  6
SLD-PLNÁ
 62
     2
 10
-39.5
 20
-397.9475551939
 30
0.0
 11
-39.5
 21
-393.3524448061
 31
0.0
  0
ARC
  5
6AF
  8
VIDITELNE
  6
SLD-PLNÁ
 62
     2
 10
-38.0411458116
 20
-418.7944825836
 30
0.0
 40
25.48382902575542
 50
88.9402015146
 51
93.2817638657
  0
LINE
  5
6B0
  8
VIDITELNE
  6
SLD-PLNÁ
 62
     2
 10
-39.5
 20
-480.7612070696
 30
0.0
 11
-39.5
 21
-397.9475551939
 31
0.0
  0
ARC
  5
6B1
  8
VIDITELNE
  6
SLD-PLNÁ
 62
     2
 10
-37.7808038361
 20
-480.4048217291
 30
0.0
 40
1.755746553723645
 50
191.7114058078
 51
276.9024654221
  0
LINE
  5
6B2
  8
VIDITELNE
  6
SLD-PLNÁ
 62
     2
 10
-39.5
 20
-393.3524448061
 30
0.0
 11
-39.5
 21
-310.5387929304
 31
0.0
  0
ARC
  5
6B3
  8
VIDITELNE
  6
SLD-PLNÁ
 62
     2
 10
-37.7808038361
 20
-310.8951782709
 30
0.0
 40
1.755746553723862
 50
83.0975345779
 51
168.2885941922
  0
LINE
  5
6B4
  8
VIDITELNE
  6
SLD-PLNÁ
 62
     2
 10
-49.5
 20
-395.65
 30
0.0
 11
-49.5
 21
-388.65
 31
0.0
  0
LINE
  5
6B5
  8
VIDITELNE
  6
SLD-PLNÁ
 62
     2
 10
-49.5
 20
-402.65
 30
0.0
 11
-49.5
 21
-395.65
 31
0.0
  0
LINE
  5
6B6
  8
VIDITELNE
  6
SLD-PLNÁ
 62
     2
 10
-39.5
 20
-484.0104407852
 30
0.0
 11
-39.5
 21
-480.7612070696
 31
0.0
  0
ARC
  5
6B7
  8
VIDITELNE
  6
SLD-PLNÁ
 62
     2
 10
-37.7605318293
 20
-483.6919429682
 30
0.0
 40
1.768386376468178
 50
190.3759610839
 51
276.1917952532
  0
LINE
  5
6B8
  8
VIDITELNE
  6
SLD-PLNÁ
 62
     2
 10
-39.5
 20
-310.5387929304
 30
0.0
 11
-39.5
 21
-307.2895592148
 31
0.0
  0
ARC
  5
6B9
  8
VIDITELNE
  6
SLD-PLNÁ
 62
     2
 10
-37.7605318293
 20
-307.6080570318
 30
0.0
 40
1.768386376468905
 50
83.8082047469
 51
169.6240389161
  0
LINE
  5
6BA
  8
VIDITELNE
  6
SLD-PLNÁ
 62
     2
 10
-49.5
 20
-476.9672798365
 30
0.0
 11
-49.5
 21
-469.9672798365
 31
0.0
  0
LINE
  5
6BB
  8
VIDITELNE
  6
SLD-PLNÁ
 62
     2
 10
-49.5
 20
-483.9672798365
 30
0.0
 11
-49.5
 21
-476.9672798365
 31
0.0
  0
LINE
  5
6BC
  8
VIDITELNE
  6
SLD-PLNÁ
 62
     2
 10
-49.5
 20
-314.3327201635
 30
0.0
 11
-49.5
 21
-307.3327201635
 31
0.0
  0
LINE
  5
6BD
  8
VIDITELNE
  6
SLD-PLNÁ
 62
     2
 10
-49.5
 20
-321.3327201635
 30
0.0
 11
-49.5
 21
-314.3327201635
 31
0.0
  0
ARC
  5
6BE
  8
VIDITELNE
  6
SLD-PLNÁ
 62
     2
 10
-37.5001898538
 20
-518.3128113521
 30
0.0
 40
1.999810153231784
 50
180.0047900837
 51
268.0052527911
  0
LINE
  5
6BF
  8
VIDITELNE
  6
SLD-PLNÁ
 62
     2
 10
-39.5
 20
-518.3129785417
 30
0.0
 11
-39.5
 21
-484.0104407852
 31
0.0
  0
ARC
  5
6C0
  8
VIDITELNE
  6
SLD-PLNÁ
 62
     2
 10
-37.5001898538
 20
-272.9871886479
 30
0.0
 40
1.999810153231881
 50
91.9947472089
 51
179.9952099163
  0
LINE
  5
6C1
  8
VIDITELNE
  6
SLD-PLNÁ
 62
     2
 10
-39.5
 20
-307.2895592148
 30
0.0
 11
-39.5
 21
-272.9870214583
 31
0.0
  0
LINE
  5
6C2
  8
VIDITELNE
  6
SLD-PLNÁ
 62
     2
 10
-39.5
 20
-518.6472117512
 30
0.0
 11
-39.5
 21
-518.3129785417
 31
0.0
  0
LINE
  5
6C3
  8
VIDITELNE
  6
SLD-PLNÁ
 62
     2
 10
-49.5
 20
-510.65
 30
0.0
 11
-49.5
 21
-503.65
 31
0.0
  0
LINE
  5
6C4
  8
VIDITELNE
  6
SLD-PLNÁ
 62
     2
 10
-49.5
 20
-517.65
 30
0.0
 11
-49.5
 21
-510.65
 31
0.0
  0
LINE
  5
6C5
  8
VIDITELNE
  6
SLD-PLNÁ
 62
     2
 10
-39.5
 20
-272.9870214583
 30
0.0
 11
-39.5
 21
-272.65
 31
0.0
  0
LINE
  5
6C6
  8
VIDITELNE
  6
SLD-PLNÁ
 62
     2
 10
-49.5
 20
-280.65
 30
0.0
 11
-49.5
 21
-273.65
 31
0.0
  0
LINE
  5
6C7
  8
VIDITELNE
  6
SLD-PLNÁ
 62
     2
 10
-49.5
 20
-287.65
 30
0.0
 11
-49.5
 21
-280.65
 31
0.0
  0
LINE
  5
6C8
  8
VIDITELNE
  6
SLD-PLNÁ
 62
     2
 10
109.5
 20
-547.65
 30
0.0
 11
-50.5
 21
-547.65
 31
0.0
  0
LINE
  5
6C9
  8
VIDITELNE
  6
SLD-PLNÁ
 62
     2
 10
107.184493986
 20
-536.65
 30
0.0
 11
-48.1844939839
 21
-536.65
 31
0.0
  0
LINE
  5
6CA
  8
VIDITELNE
  6
SLD-PLNÁ
 62
     2
 10
98.5
 20
-271.0341284644
 30
0.0
 11
98.5
 21
-520.2658715356
 31
0.0
  0
LINE
  5
6CB
  8
VIDITELNE
  6
SLD-PLNÁ
 62
     2
 10
108.5
 20
-388.65
 30
0.0
 11
108.5
 21
-402.65
 31
0.0
  0
LINE
  5
6CC
  8
VIDITELNE
  6
SLD-PLNÁ
 62
     2
 10
98.5
 20
-352.6832401246
 30
0.0
 11
110.0
 21
-363.0228323243
 31
0.0
  0
LINE
  5
6CD
  8
VIDITELNE
  6
SLD-PLNÁ
 62
     2
 10
110.0
 20
-363.0228323243
 30
0.0
 11
98.5
 21
-360.4798871613
 31
0.0
  0
LINE
  5
6CE
  8
VIDITELNE
  6
SLD-PLNÁ
 62
     2
 10
110.0
 20
-428.2771676757
 30
0.0
 11
98.5
 21
-438.6167598754
 31
0.0
  0
LINE
  5
6CF
  8
VIDITELNE
  6
SLD-PLNÁ
 62
     2
 10
98.5
 20
-430.8201128387
 30
0.0
 11
110.0
 21
-428.2771676757
 31
0.0
  0
LINE
  5
6D0
  8
VIDITELNE
  6
SLD-PLNÁ
 62
     2
 10
110.0
 20
-355.6317960642
 30
0.0
 11
98.5
 21
-345.2922038645
 31
0.0
  0
LINE
  5
6D1
  8
VIDITELNE
  6
SLD-PLNÁ
 62
     2
 10
110.0
 20
-355.6317960642
 30
0.0
 11
110.0
 21
-363.0228323243
 31
0.0
  0
LINE
  5
6D2
  8
VIDITELNE
  6
SLD-PLNÁ
 62
     2
 10
110.0
 20
-428.2771676757
 30
0.0
 11
110.0
 21
-435.6682039358
 31
0.0
  0
LINE
  5
6D3
  8
VIDITELNE
  6
SLD-PLNÁ
 62
     2
 10
98.5
 20
-446.0077961355
 30
0.0
 11
110.0
 21
-435.6682039358
 31
0.0
  0
LINE
  5
6D4
  8
VIDITELNE
  6
SLD-PLNÁ
 62
     2
 10
110.0
 20
-363.0228323243
 30
0.0
 11
110.0
 21
-428.2771676757
 31
0.0
  0
LINE
  5
6D5
  8
VIDITELNE
  6
SLD-PLNÁ
 62
     2
 10
98.5
 20
-487.9491996655
 30
0.0
 11
104.0857452259
 21
-484.9672798365
 31
0.0
  0
LINE
  5
6D6
  8
VIDITELNE
  6
SLD-PLNÁ
 62
     2
 10
108.5
 20
-482.6107538387
 30
0.0
 11
110.0
 21
-481.8099869647
 31
0.0
  0
LINE
  5
6D7
  8
VIDITELNE
  6
SLD-PLNÁ
 62
     2
 10
110.0
 20
-435.6682039358
 30
0.0
 11
110.0
 21
-481.8099869647
 31
0.0
  0
LINE
  5
6D8
  8
VIDITELNE
  6
SLD-PLNÁ
 62
     2
 10
110.0
 20
-309.4900130353
 30
0.0
 11
108.5
 21
-308.6892461613
 31
0.0
  0
LINE
  5
6D9
  8
VIDITELNE
  6
SLD-PLNÁ
 62
     2
 10
104.0857452259
 20
-306.3327201635
 30
0.0
 11
98.5
 21
-303.3508003345
 31
0.0
  0
LINE
  5
6DA
  8
VIDITELNE
  6
SLD-PLNÁ
 62
     2
 10
110.0
 20
-309.4900130353
 30
0.0
 11
110.0
 21
-355.6317960642
 31
0.0
  0
LINE
  5
6DB
  8
VIDITELNE
  6
SLD-PLNÁ
 62
     2
 10
108.5
 20
-469.9672798365
 30
0.0
 11
108.5
 21
-483.9672798365
 31
0.0
  0
LINE
  5
6DC
  8
VIDITELNE
  6
SLD-PLNÁ
 62
     2
 10
108.5
 20
-307.3327201635
 30
0.0
 11
108.5
 21
-321.3327201635
 31
0.0
  0
LINE
  5
6DD
  8
VIDITELNE
  6
SLD-PLNÁ
 62
     2
 10
113.5
 20
-330.65
 30
0.0
 11
113.5
 21
-460.65
 31
0.0
  0
LINE
  5
6DE
  8
VIDITELNE
  6
SLD-PLNÁ
 62
     2
 10
98.5
 20
-284.5280293174
 30
0.0
 11
110.0
 21
-309.4900130353
 31
0.0
  0
LINE
  5
6DF
  8
VIDITELNE
  6
SLD-PLNÁ
 62
     2
 10
110.0
 20
-306.4285455764
 30
0.0
 11
98.5
 21
-281.4665618585
 31
0.0
  0
LINE
  5
6E0
  8
VIDITELNE
  6
SLD-PLNÁ
 62
     2
 10
110.0
 20
-306.4285455764
 30
0.0
 11
110.0
 21
-309.4900130353
 31
0.0
  0
LINE
  5
6E1
  8
VIDITELNE
  6
SLD-PLNÁ
 62
     2
 10
110.0
 20
-481.8099869647
 30
0.0
 11
98.5
 21
-506.7719706826
 31
0.0
  0
LINE
  5
6E2
  8
VIDITELNE
  6
SLD-PLNÁ
 62
     2
 10
98.5
 20
-509.8334381415
 30
0.0
 11
110.0
 21
-484.8714544236
 31
0.0
  0
LINE
  5
6E3
  8
VIDITELNE
  6
SLD-PLNÁ
 62
     2
 10
110.0
 20
-481.8099869647
 30
0.0
 11
110.0
 21
-484.8714544236
 31
0.0
  0
LINE
  5
6E4
  8
VIDITELNE
  6
SLD-PLNÁ
 62
     2
 10
110.0
 20
-300.65
 30
0.0
 11
110.0
 21
-306.4285455764
 31
0.0
  0
LINE
  5
6E5
  8
VIDITELNE
  6
SLD-PLNÁ
 62
     2
 10
110.0
 20
-484.8714544236
 30
0.0
 11
110.0
 21
-490.65
 31
0.0
  0
LINE
  5
6E6
  8
VIDITELNE
  6
SLD-PLNÁ
 62
     2
 10
108.5
 20
-503.65
 30
0.0
 11
108.5
 21
-517.65
 31
0.0
  0
LINE
  5
6E7
  8
VIDITELNE
  6
SLD-PLNÁ
 62
     2
 10
108.5
 20
-273.65
 30
0.0
 11
108.5
 21
-287.65
 31
0.0
  0
POLYLINE
  5
6E8
  8
VIDITELNE
  6
SLD-PLNÁ
 62
     2
 66
     1
 10
0.0
 20
0.0
 30
0.0
  0
VERTEX
  5
A6C
  8
VIDITELNE
  6
SLD-PLNÁ
 62
     2
 10
33.6832844796
 20
-400.4624559199
 30
0.0
  0
VERTEX
  5
A6D
  8
VIDITELNE
  6
SLD-PLNÁ
 62
     2
 10
33.7254278412
 20
-400.5461436434
 30
0.0
  0
VERTEX
  5
A6E
  8
VIDITELNE
  6
SLD-PLNÁ
 62
     2
 10
34.2467711593
 20
-401.8374387881
 30
0.0
  0
SEQEND
  5
A6F
  8
VIDITELNE
  6
SLD-PLNÁ
 62
     2
  0
ARC
  5
6E9
  8
VIDITELNE
  6
SLD-PLNÁ
 62
     2
 10
16.9946252571
 20
-409.9935283394
 30
0.0
 40
19.08293308167388
 50
17.7707066334
 51
25.3028163852
  0
ARC
  5
6EA
  8
VIDITELNE
  6
SLD-PLNÁ
 62
     2
 10
87.6767469444
 20
-428.0173243906
 30
0.0
 40
68.1524570585321
 50
157.4098128093
 51
159.5174349925
  0
LINE
  5
6EB
  8
VIDITELNE
  6
SLD-PLNÁ
 62
     2
 10
24.7532176224
 20
-401.8374301818
 30
0.0
 11
25.3103222835
 21
-400.6290879777
 31
0.0
  0
LINE
  5
6EC
  8
VIDITELNE
  6
SLD-PLNÁ
 62
     2
 10
29.5
 20
-395.65
 30
0.0
 11
25.5000228454
 21
-395.65
 31
0.0
  0
LINE
  5
6ED
  8
VIDITELNE
  6
SLD-PLNÁ
 62
     2
 10
33.4999876022
 20
-395.65
 30
0.0
 11
29.5
 21
-395.65
 31
0.0
  0
POLYLINE
  5
6EE
  8
VIDITELNE
  6
SLD-PLNÁ
 62
     2
 66
     1
 10
0.0
 20
0.0
 30
0.0
  0
VERTEX
  5
A70
  8
VIDITELNE
  6
SLD-PLNÁ
 62
     2
 10
25.3168428109
 20
-390.8396781935
 30
0.0
  0
VERTEX
  5
A71
  8
VIDITELNE
  6
SLD-PLNÁ
 62
     2
 10
25.2839307327
 20
-390.7744250205
 30
0.0
  0
VERTEX
  5
A72
  8
VIDITELNE
  6
SLD-PLNÁ
 62
     2
 10
24.7532176224
 20
-389.4625698182
 30
0.0
  0
SEQEND
  5
A73
  8
VIDITELNE
  6
SLD-PLNÁ
 62
     2
  0
ARC
  5
6EF
  8
VIDITELNE
  6
SLD-PLNÁ
 62
     2
 10
41.9820932479
 20
-381.3157989783
 30
0.0
 40
19.05791254143054
 50
197.7653628289
 51
205.3073893692
  0
ARC
  5
6F0
  8
VIDITELNE
  6
SLD-PLNÁ
 62
     2
 10
-29.1403476544
 20
-363.0992202628
 30
0.0
 40
68.65094738966985
 50
337.4170821323
 51
339.509394849
  0
LINE
  5
6F1
  8
VIDITELNE
  6
SLD-PLNÁ
 62
     2
 10
34.2467711593
 20
-389.4625612119
 30
0.0
 11
33.6897357826
 21
-390.6706456602
 31
0.0
  0
ARC
  5
6F2
  8
VIDITELNE
  6
SLD-PLNÁ
 62
     2
 10
29.5
 20
-395.65
 30
0.0
 40
7.798476466232907
 50
307.494068554
 51
52.505931446
  0
ARC
  5
6F3
  8
VIDITELNE
  6
SLD-PLNÁ
 62
     2
 10
29.5
 20
-395.65
 30
0.0
 40
7.798476466232879
 50
127.4941724357
 51
232.5058275643
  0
ARC
  5
6F4
  8
VIDITELNE
  6
SLD-PLNÁ
 62
     2
 10
29.5
 20
-395.65
 30
0.0
 40
10.23195519226863
 50
303.6319354642
 51
56.3680645358
  0
ARC
  5
6F5
  8
VIDITELNE
  6
SLD-PLNÁ
 62
     2
 10
29.5
 20
-395.65
 30
0.0
 40
10.23195519226927
 50
123.6319167472
 51
236.3680832528
  0
ARC
  5
6F6
  8
VIDITELNE
  6
SLD-PLNÁ
 62
     2
 10
29.5
 20
-395.65
 30
0.0
 40
11.49999999999997
 50
119.6876231715
 51
240.3128268315
  0
ARC
  5
6F7
  8
VIDITELNE
  6
SLD-PLNÁ
 62
     2
 10
29.5
 20
-395.65
 30
0.0
 40
11.49999999999994
 50
299.685410047
 51
60.3159313426
  0
LINE
  5
6F8
  8
VIDITELNE
  6
SLD-PLNÁ
 62
     2
 10
74.3524671544
 20
-257.65
 30
0.0
 11
30.3507268235
 21
-257.65
 31
0.0
  0
LINE
  5
6F9
  8
VIDITELNE
  6
SLD-PLNÁ
 62
     2
 10
81.7892562945
 20
-257.65
 30
0.0
 11
75.2031939779
 21
-257.65
 31
0.0
  0
LINE
  5
6FA
  8
VIDITELNE
  6
SLD-PLNÁ
 62
     2
 10
-16.2031939779
 20
-257.65
 30
0.0
 11
-22.7892562945
 21
-257.65
 31
0.0
  0
LINE
  5
6FB
  8
VIDITELNE
  6
SLD-PLNÁ
 62
     2
 10
28.6492731765
 20
-257.65
 30
0.0
 11
-15.3524671544
 21
-257.65
 31
0.0
  0
LINE
  5
6FC
  8
VIDITELNE
  6
SLD-PLNÁ
 62
     2
 10
29.5
 20
-252.35
 30
0.0
 11
29.5
 21
-257.65
 31
0.0
  0
LINE
  5
6FD
  8
VIDITELNE
  6
SLD-PLNÁ
 62
     2
 10
34.5
 20
-252.35
 30
0.0
 11
34.5
 21
-257.65
 31
0.0
  0
LINE
  5
6FE
  8
VIDITELNE
  6
SLD-PLNÁ
 62
     2
 10
29.5
 20
-257.65
 30
0.0
 11
30.3507268235
 21
-257.65
 31
0.0
  0
LINE
  5
6FF
  8
VIDITELNE
  6
SLD-PLNÁ
 62
     2
 10
29.5
 20
-252.35
 30
0.0
 11
34.5
 21
-252.35
 31
0.0
  0
LINE
  5
700
  8
VIDITELNE
  6
SLD-PLNÁ
 62
     2
 10
24.5
 20
-252.35
 30
0.0
 11
24.5
 21
-257.65
 31
0.0
  0
LINE
  5
701
  8
VIDITELNE
  6
SLD-PLNÁ
 62
     2
 10
28.6492731765
 20
-257.65
 30
0.0
 11
29.5
 21
-257.65
 31
0.0
  0
LINE
  5
702
  8
VIDITELNE
  6
SLD-PLNÁ
 62
     2
 10
24.5
 20
-252.35
 30
0.0
 11
29.5
 21
-252.35
 31
0.0
  0
LINE
  5
703
  8
VIDITELNE
  6
SLD-PLNÁ
 62
     2
 10
65.2031939779
 20
-252.35
 30
0.0
 11
65.2031939779
 21
-257.65
 31
0.0
  0
LINE
  5
704
  8
VIDITELNE
  6
SLD-PLNÁ
 62
     2
 10
70.2031939779
 20
-252.35
 30
0.0
 11
70.2031939779
 21
-257.65
 31
0.0
  0
LINE
  5
705
  8
VIDITELNE
  6
SLD-PLNÁ
 62
     2
 10
65.2031939779
 20
-252.35
 30
0.0
 11
70.2031939779
 21
-252.35
 31
0.0
  0
LINE
  5
706
  8
VIDITELNE
  6
SLD-PLNÁ
 62
     2
 10
75.2031939779
 20
-252.35
 30
0.0
 11
75.2031939779
 21
-257.65
 31
0.0
  0
LINE
  5
707
  8
VIDITELNE
  6
SLD-PLNÁ
 62
     2
 10
74.3524671544
 20
-257.65
 30
0.0
 11
75.2031939779
 21
-257.65
 31
0.0
  0
LINE
  5
708
  8
VIDITELNE
  6
SLD-PLNÁ
 62
     2
 10
70.2031939779
 20
-252.35
 30
0.0
 11
75.2031939779
 21
-252.35
 31
0.0
  0
LINE
  5
709
  8
VIDITELNE
  6
SLD-PLNÁ
 62
     2
 10
-11.2031939779
 20
-252.35
 30
0.0
 11
-11.2031939779
 21
-257.65
 31
0.0
  0
LINE
  5
70A
  8
VIDITELNE
  6
SLD-PLNÁ
 62
     2
 10
-6.2031939779
 20
-252.35
 30
0.0
 11
-6.2031939779
 21
-257.65
 31
0.0
  0
LINE
  5
70B
  8
VIDITELNE
  6
SLD-PLNÁ
 62
     2
 10
-11.2031939779
 20
-252.35
 30
0.0
 11
-6.2031939779
 21
-252.35
 31
0.0
  0
LINE
  5
70C
  8
VIDITELNE
  6
SLD-PLNÁ
 62
     2
 10
-16.2031939779
 20
-252.35
 30
0.0
 11
-16.2031939779
 21
-257.65
 31
0.0
  0
LINE
  5
70D
  8
VIDITELNE
  6
SLD-PLNÁ
 62
     2
 10
-16.2031939779
 20
-257.65
 30
0.0
 11
-15.3524671544
 21
-257.65
 31
0.0
  0
LINE
  5
70E
  8
VIDITELNE
  6
SLD-PLNÁ
 62
     2
 10
-16.2031939779
 20
-252.35
 30
0.0
 11
-11.2031939779
 21
-252.35
 31
0.0
  0
ARC
  5
70F
  8
VIDITELNE
  6
SLD-PLNÁ
 62
     2
 10
-24.0249692744
 20
-274.3506492686
 30
0.0
 40
3.483059565159209
 50
115.0549380399
 51
183.8910519421
  0
ARC
  5
710
  8
VIDITELNE
  6
SLD-PLNÁ
 62
     2
 10
-24.007792309
 20
-516.9448599116
 30
0.0
 40
3.499896745190184
 50
176.2013785398
 51
244.7633725658
  0
ARC
  5
711
  8
VIDITELNE
  6
SLD-PLNÁ
 62
     2
 10
83.0249692744
 20
-516.9493507314
 30
0.0
 40
3.483059565160934
 50
295.0549380399
 51
3.8910519421
  0
ARC
  5
712
  8
VIDITELNE
  6
SLD-PLNÁ
 62
     2
 10
83.007792309
 20
-274.3551400884
 30
0.0
 40
3.499896745188804
 50
356.2013785398
 51
64.7633725658
  0
LINE
  5
713
  8
VIDITELNE
  6
SLD-PLNÁ
 62
     2
 10
-102.5
 20
-395.65
 30
0.0
 11
-102.5
 21
-270.65
 31
0.0
  0
LINE
  5
714
  8
VIDITELNE
  6
SLD-PLNÁ
 62
     2
 10
-102.5
 20
-520.65
 30
0.0
 11
-102.5
 21
-395.65
 31
0.0
  0
LINE
  5
715
  8
VIDITELNE
  6
SLD-PLNÁ
 62
     2
 10
-37.5842297993
 20
-270.9747715215
 30
0.0
 11
-37.5697989934
 21
-270.9885903349
 31
0.0
  0
LINE
  5
716
  8
VIDITELNE
  6
SLD-PLNÁ
 62
     2
 10
-37.5697989934
 20
-520.3114096651
 30
0.0
 11
-37.5892079691
 21
-520.3299955304
 31
0.0
  0
LINE
  5
717
  8
VIDITELNE
  6
SLD-PLNÁ
 62
     2
 10
-48.5
 20
-395.65
 30
0.0
 11
-48.5
 21
-403.65
 31
0.0
  0
LINE
  5
718
  8
VIDITELNE
  6
SLD-PLNÁ
 62
     2
 10
-48.5
 20
-387.65
 30
0.0
 11
-48.5
 21
-395.65
 31
0.0
  0
LINE
  5
719
  8
VIDITELNE
  6
SLD-PLNÁ
 62
     2
 10
-99.6471528727
 20
-306.7399061501
 30
0.0
 11
-99.6471528727
 21
-484.5600938499
 31
0.0
  0
LINE
  5
71A
  8
VIDITELNE
  6
SLD-PLNÁ
 62
     2
 10
-48.5
 20
-476.9672798365
 30
0.0
 11
-48.5
 21
-484.9672798365
 31
0.0
  0
LINE
  5
71B
  8
VIDITELNE
  6
SLD-PLNÁ
 62
     2
 10
-48.5
 20
-468.9672798365
 30
0.0
 11
-48.5
 21
-476.9672798365
 31
0.0
  0
LINE
  5
71C
  8
VIDITELNE
  6
SLD-PLNÁ
 62
     2
 10
-48.5
 20
-314.3327201635
 30
0.0
 11
-48.5
 21
-322.3327201635
 31
0.0
  0
LINE
  5
71D
  8
VIDITELNE
  6
SLD-PLNÁ
 62
     2
 10
-48.5
 20
-306.3327201635
 30
0.0
 11
-48.5
 21
-314.3327201635
 31
0.0
  0
LINE
  5
71E
  8
VIDITELNE
  6
SLD-PLNÁ
 62
     2
 10
-66.7913882374
 20
-395.65
 30
0.0
 11
-66.7913882374
 21
-461.5542397786
 31
0.0
  0
LINE
  5
71F
  8
VIDITELNE
  6
SLD-PLNÁ
 62
     2
 10
-66.7913882374
 20
-329.7457602214
 30
0.0
 11
-66.7913882374
 21
-395.65
 31
0.0
  0
LINE
  5
720
  8
VIDITELNE
  6
SLD-PLNÁ
 62
     2
 10
-41.5
 20
-460.65
 30
0.0
 11
-41.5
 21
-403.65
 31
0.0
  0
LINE
  5
721
  8
VIDITELNE
  6
SLD-PLNÁ
 62
     2
 10
-41.5
 20
-387.65
 30
0.0
 11
-41.5
 21
-330.65
 31
0.0
  0
LINE
  5
722
  8
VIDITELNE
  6
SLD-PLNÁ
 62
     2
 10
-63.9235060556
 20
-395.65
 30
0.0
 11
-63.9235060556
 21
-460.65
 31
0.0
  0
LINE
  5
723
  8
VIDITELNE
  6
SLD-PLNÁ
 62
     2
 10
-63.9235060556
 20
-330.65
 30
0.0
 11
-63.9235060556
 21
-395.65
 31
0.0
  0
LINE
  5
724
  8
VIDITELNE
  6
SLD-PLNÁ
 62
     2
 10
-48.5
 20
-510.65
 30
0.0
 11
-48.5
 21
-518.65
 31
0.0
  0
LINE
  5
725
  8
VIDITELNE
  6
SLD-PLNÁ
 62
     2
 10
-48.5
 20
-502.65
 30
0.0
 11
-48.5
 21
-510.65
 31
0.0
  0
LINE
  5
726
  8
VIDITELNE
  6
SLD-PLNÁ
 62
     2
 10
-48.5
 20
-280.65
 30
0.0
 11
-48.5
 21
-288.65
 31
0.0
  0
LINE
  5
727
  8
VIDITELNE
  6
SLD-PLNÁ
 62
     2
 10
-48.5
 20
-272.65
 30
0.0
 11
-48.5
 21
-280.65
 31
0.0
  0
LINE
  5
728
  8
VIDITELNE
  6
SLD-PLNÁ
 62
     2
 10
109.18327564
 20
-538.5802010066
 30
0.0
 11
-50.18327564
 21
-538.5802010066
 31
0.0
  0
LINE
  5
729
  8
VIDITELNE
  6
SLD-PLNÁ
 62
     2
 10
84.7830223078
 20
-533.7546984901
 30
0.0
 11
-25.7830223078
 21
-533.7546984901
 31
0.0
  0
LINE
  5
72A
  8
VIDITELNE
  6
SLD-PLNÁ
 62
     2
 10
107.5
 20
-403.65
 30
0.0
 11
107.5
 21
-387.65
 31
0.0
  0
LINE
  5
72B
  8
VIDITELNE
  6
SLD-PLNÁ
 62
     2
 10
107.5
 20
-484.9672798365
 30
0.0
 11
107.5
 21
-468.9672798365
 31
0.0
  0
LINE
  5
72C
  8
VIDITELNE
  6
SLD-PLNÁ
 62
     2
 10
107.5
 20
-322.3327201635
 30
0.0
 11
107.5
 21
-306.3327201635
 31
0.0
  0
LINE
  5
72D
  8
VIDITELNE
  6
SLD-PLNÁ
 62
     2
 10
107.5
 20
-518.65
 30
0.0
 11
107.5
 21
-502.65
 31
0.0
  0
LINE
  5
72E
  8
VIDITELNE
  6
SLD-PLNÁ
 62
     2
 10
107.5
 20
-288.65
 30
0.0
 11
107.5
 21
-272.65
 31
0.0
  0
LINE
  5
72F
  8
VIDITELNE
  6
SLD-PLNÁ
 62
     2
 10
83.7880379485
 20
-259.5802010066
 30
0.0
 11
-24.7880379485
 21
-259.5802010066
 31
0.0
  0
ENDSEC
  0
EOF
