  0
SECTION
  2
HEADER
  9
$ACADVER
  1
AC1009
  9
$DWGCODEPAGE
  3
ansi_1250
  9
$INSBASE
 10
0.0
 20
0.0
 30
0.0
  9
$EXTMIN
 10
0.0
 20
0.0
 30
0.0
  9
$EXTMAX
 10
279.4
 20
215.9
 30
0.0
  9
$LIMMIN
 10
0.0
 20
0.0
  9
$LIMMAX
 10
279.4
 20
215.9
  9
$ORTHOMODE
 70
     0
  9
$REGENMODE
 70
     1
  9
$FILLMODE
 70
     1
  9
$QTEXTMODE
 70
     0
  9
$MIRRTEXT
 70
     1
  9
$DRAGMODE
 70
     2
  9
$LTSCALE
 40
1.0
  9
$OSMODE
 70
    37
  9
$ATTMODE
 70
     1
  9
$TEXTSIZE
 40
3.5
  9
$TRACEWID
 40
1.0
  9
$TEXTSTYLE
  7
STANDARD
  9
$CLAYER
  8
0
  9
$CELTYPE
  6
BYLAYER
  9
$CECOLOR
 62
   256
  9
$DIMSCALE
 40
1.0
  9
$DIMASZ
 40
6.0
  9
$DIMEXO
 40
1.0
  9
$DIMDLI
 40
3.75
  9
$DIMRND
 40
0.0
  9
$DIMDLE
 40
0.0
  9
$DIMEXE
 40
1.0
  9
$DIMTP
 40
0.0
  9
$DIMTM
 40
0.0
  9
$DIMTXT
 40
3.5
  9
$DIMCEN
 40
2.5
  9
$DIMTSZ
 40
0.0
  9
$DIMTOL
 70
     0
  9
$DIMLIM
 70
     0
  9
$DIMTIH
 70
     1
  9
$DIMTOH
 70
     1
  9
$DIMSE1
 70
     0
  9
$DIMSE2
 70
     0
  9
$DIMTAD
 70
     1
  9
$DIMZIN
 70
     0
  9
$DIMBLK
  1

  9
$DIMASO
 70
     1
  9
$DIMSHO
 70
     1
  9
$DIMPOST
  1

  9
$DIMAPOST
  1

  9
$DIMALT
 70
     0
  9
$DIMALTD
 70
     3
  9
$DIMALTF
 40
0.0393700787
  9
$DIMLFAC
 40
1.0
  9
$DIMTOFL
 70
     1
  9
$DIMTVP
 40
0.0
  9
$DIMTIX
 70
     0
  9
$DIMSOXD
 70
     0
  9
$DIMSAH
 70
     0
  9
$DIMBLK1
  1

  9
$DIMBLK2
  1

  9
$DIMSTYLE
  2
ISO-25
  9
$DIMCLRD
 70
     0
  9
$DIMCLRE
 70
     0
  9
$DIMCLRT
 70
     0
  9
$DIMTFAC
 40
1.0
  9
$DIMGAP
 40
1.524
  9
$LUNITS
 70
     2
  9
$LUPREC
 70
     2
  9
$SKETCHINC
 40
1.0
  9
$FILLETRAD
 40
10.0
  9
$AUNITS
 70
     0
  9
$AUPREC
 70
     2
  9
$MENU
  1
.
  9
$ELEVATION
 40
0.0
  9
$PELEVATION
 40
0.0
  9
$THICKNESS
 40
0.0
  9
$LIMCHECK
 70
     0
  9
$CHAMFERA
 40
10.0
  9
$CHAMFERB
 40
10.0
  9
$SKPOLY
 70
     0
  9
$TDCREATE
 40
2455964.308255741
  9
$TDUPDATE
 40
2455964.308255752
  9
$TDINDWG
 40
0.0000000116
  9
$TDUSRTIMER
 40
0.0000000116
  9
$USRTIMER
 70
     1
  9
$ANGBASE
 50
0.0
  9
$ANGDIR
 70
     0
  9
$PDMODE
 70
     0
  9
$PDSIZE
 40
-1.0
  9
$PLINEWID
 40
0.0
  9
$COORDS
 70
     1
  9
$SPLFRAME
 70
     0
  9
$SPLINETYPE
 70
     6
  9
$SPLINESEGS
 70
     8
  9
$ATTDIA
 70
     0
  9
$ATTREQ
 70
     1
  9
$HANDLING
 70
     1
  9
$HANDSEED
  5
A33
  9
$SURFTAB1
 70
     6
  9
$SURFTAB2
 70
     6
  9
$SURFTYPE
 70
     6
  9
$SURFU
 70
     6
  9
$SURFV
 70
     6
  9
$UCSNAME
  2

  9
$UCSORG
 10
0.0
 20
0.0
 30
0.0
  9
$UCSXDIR
 10
1.0
 20
0.0
 30
0.0
  9
$UCSYDIR
 10
0.0
 20
1.0
 30
0.0
  9
$PUCSNAME
  2

  9
$PUCSORG
 10
0.0
 20
0.0
 30
0.0
  9
$PUCSXDIR
 10
1.0
 20
0.0
 30
0.0
  9
$PUCSYDIR
 10
0.0
 20
1.0
 30
0.0
  9
$USERI1
 70
     0
  9
$USERI2
 70
     0
  9
$USERI3
 70
     0
  9
$USERI4
 70
     0
  9
$USERI5
 70
     0
  9
$USERR1
 40
0.0
  9
$USERR2
 40
0.0
  9
$USERR3
 40
0.0
  9
$USERR4
 40
0.0
  9
$USERR5
 40
0.0
  9
$WORLDVIEW
 70
     1
  9
$SHADEDGE
 70
     3
  9
$SHADEDIF
 70
    70
  9
$TILEMODE
 70
     1
  9
$MAXACTVP
 70
    64
  9
$PLIMCHECK
 70
     0
  9
$PEXTMIN
 10
1.0000000000E+20
 20
1.0000000000E+20
 30
1.0000000000E+20
  9
$PEXTMAX
 10
-1.0000000000E+20
 20
-1.0000000000E+20
 30
-1.0000000000E+20
  9
$PLIMMIN
 10
0.0
 20
0.0
  9
$PLIMMAX
 10
420.0
 20
297.0
  9
$UNITMODE
 70
     0
  9
$VISRETAIN
 70
     1
  9
$PLINEGEN
 70
     0
  9
$PSLTSCALE
 70
     1
  0
ENDSEC
  0
SECTION
  2
TABLES
  0
TABLE
  2
VPORT
 70
     1
  0
VPORT
  2
*ACTIVE
 70
     0
 10
0.0
 20
0.0
 11
1.0
 21
1.0
 12
139.7
 22
107.95
 13
0.0
 23
0.0
 14
10.0
 24
10.0
 15
10.0
 25
10.0
 16
0.0
 26
0.0
 36
1.0
 17
0.0
 27
0.0
 37
0.0
 40
215.9
 41
1.2941176471
 42
50.0
 43
0.0
 44
0.0
 50
0.0
 51
0.0
 71
     0
 72
  2000
 73
     1
 74
     3
 75
     0
 76
     0
 77
     0
 78
     0
  0
ENDTAB
  0
TABLE
  2
LTYPE
 70
    10
  0
LTYPE
  2
CONTINUOUS
 70
     0
  3
Solid line
 72
    65
 73
     0
 40
0.0
  0
LTYPE
  2
SLD-PLNÁ
 70
     0
  3
SolidWorks Line Style
 72
    65
 73
     0
 40
0.0
  0
LTYPE
  2
SLD-ČÁRKOVANÁ
 70
     0
  3
SolidWorks Line Style
 72
    65
 73
     2
 40
1.905
 49
1.27
 49
-0.635
  0
LTYPE
  2
SLD-DVOJITĚ-ČERCHOVANÁ
 70
     0
  3
SolidWorks Line Style
 72
    65
 73
     6
 40
12.7
 49
6.35
 49
-1.27
 49
1.27
 49
-1.27
 49
1.27
 49
-1.27
  0
LTYPE
  2
SLD-ČERCHOVANÁ
 70
     0
  3
SolidWorks Line Style
 72
    65
 73
     4
 40
10.16
 49
6.35
 49
-1.27
 49
1.27
 49
-1.27
  0
LTYPE
  2
SLD-OSA
 70
     0
  3
SolidWorks Line Style
 72
    65
 73
     4
 40
19.05
 49
15.24
 49
-1.27
 49
1.27
 49
-1.27
  0
LTYPE
  2
SLD-TEČKOVANÁ
 70
     0
  3
SolidWorks Line Style
 72
    65
 73
     2
 40
0.635
 49
0.0
 49
-0.635
  0
LTYPE
  2
SLD-HRUBÁ-TENKÁ-ČERCHOVANÁ
 70
     0
  3
SolidWorks Line Style
 72
    65
 73
     4
 40
10.16
 49
6.35
 49
-1.27
 49
1.27
 49
-1.27
  0
LTYPE
  2
SLD-ŘEZ-1
 70
     0
  3
SolidWorks Line Style
 72
    65
 73
     4
 40
8.128
 49
5.08
 49
-1.016
 49
1.016
 49
-1.016
  0
LTYPE
  2
SLD-ŘEZ-2
 70
     0
  3
SolidWorks Line Style
 72
    65
 73
     2
 40
5080.0
 49
0.0
 49
-5080.0
  0
ENDTAB
  0
TABLE
  2
LAYER
 70
    15
  0
LAYER
  2
0
 70
     0
 62
     7
  6
CONTINUOUS
  0
LAYER
  2
DEFPOINTS
 70
     0
 62
     7
  6
CONTINUOUS
  0
LAYER
  2
VIDITELNE
 70
     0
 62
     2
  6
SLD-PLNÁ
  0
LAYER
  2
SKRYTE
 70
     0
 62
     4
  6
SLD-ČÁRKOVANÁ
  0
LAYER
  2
SKICA
 70
     0
 62
     6
  6
SLD-PLNÁ
  0
LAYER
  2
DETAIL
 70
     0
 62
     7
  6
SLD-PLNÁ
  0
LAYER
  2
REZY
 70
     0
 62
     1
  6
SLD-HRUBÁ-TENKÁ-ČERCHOVANÁ
  0
LAYER
  2
KOTY
 70
     0
 62
     3
  6
SLD-PLNÁ
  0
LAYER
  2
OSY
 70
     0
 62
     7
  6
SLD-OSA
  0
LAYER
  2
SRAF
 70
     0
 62
     7
  6
SLD-PLNÁ
  0
LAYER
  2
TECNE
 70
     0
 62
     7
  6
SLD-DVOJITĚ-ČERCHOVANÁ
  0
LAYER
  2
HRANICE
 70
     0
 62
     4
  6
SLD-PLNÁ
  0
LAYER
  2
UZ-1
 70
     0
 62
    11
  6
SLD-DVOJITĚ-ČERCHOVANÁ
  0
LAYER
  2
UZ-2
 70
     0
 62
    11
  6
SLD-DVOJITĚ-ČERCHOVANÁ
  0
LAYER
  2
UZ-3
 70
     0
 62
    11
  6
SLD-ČÁRKOVANÁ
  0
ENDTAB
  0
TABLE
  2
STYLE
 70
     1
  0
STYLE
  2
STANDARD
 70
     0
 40
0.0
 41
1.0
 50
0.0
 71
     0
 42
2.5
  3
txt
  4

  0
ENDTAB
  0
TABLE
  2
VIEW
 70
     0
  0
ENDTAB
  0
TABLE
  2
UCS
 70
     0
  0
ENDTAB
  0
TABLE
  2
APPID
 70
     1
  0
APPID
  2
ACAD
 70
     0
  0
ENDTAB
  0
TABLE
  2
DIMSTYLE
 70
     1
  0
DIMSTYLE
  2
ISO-25
 70
     0
  3

  4

  5

  6

  7

 40
1.0
 41
2.5
 42
0.625
 43
3.75
 44
1.25
 45
0.0
 46
0.0
 47
0.0
 48
0.0
140
2.5
141
2.5
142
0.0
143
0.0393700787
144
1.0
145
0.0
146
1.0
147
0.625
 71
     0
 72
     0
 73
     0
 74
     0
 75
     0
 76
     0
 77
     1
 78
     8
170
     0
171
     3
172
     1
173
     0
174
     0
175
     0
176
     0
177
     0
178
     0
  0
ENDTAB
  0
ENDSEC
  0
SECTION
  2
BLOCKS
  0
BLOCK
  8
0
  2
$MODEL_SPACE
 70
     0
 10
0.0
 20
0.0
 30
0.0
  3
$MODEL_SPACE
  1

  0
ENDBLK
  5
21
  8
0
  0
BLOCK
 67
     1
  8
0
  2
$PAPER_SPACE
 70
     0
 10
0.0
 20
0.0
 30
0.0
  3
$PAPER_SPACE
  1

  0
ENDBLK
  5
1D
 67
     1
  8
0
  0
ENDSEC
  0
SECTION
  2
ENTITIES
  0
LINE
  5
56
  8
VIDITELNE
  6
SLD-PLNÁ
 62
     2
 10
6.9511534421
 20
-181.5
 30
0.0
 11
48.0
 21
-181.5
 31
0.0
  0
LINE
  5
57
  8
VIDITELNE
  6
SLD-PLNÁ
 62
     2
 10
-68.0
 20
-181.5
 30
0.0
 11
-26.9994378438
 21
-181.5
 31
0.0
  0
ARC
  5
58
  8
VIDITELNE
  6
SLD-PLNÁ
 62
     2
 10
-94.0
 20
-87.0
 30
0.0
 40
2.0
 50
180.0
 51
270.0
  0
ARC
  5
59
  8
VIDITELNE
  6
SLD-PLNÁ
 62
     2
 10
-27.0
 20
-183.5
 30
0.0
 40
1.999999999988365
 50
359.9999999996
 51
89.9999999997
  0
ARC
  5
5A
  8
VIDITELNE
  6
SLD-PLNÁ
 62
     2
 10
7.0
 20
-183.5
 30
0.0
 40
2.000000000006163
 50
90.0000000014
 51
180.0
  0
LINE
  5
5B
  8
VIDITELNE
  6
SLD-PLNÁ
 62
     2
 10
-25.0
 20
-183.4999236757
 30
0.0
 11
-25.0
 21
-184.5
 31
0.0
  0
LINE
  5
5C
  8
VIDITELNE
  6
SLD-PLNÁ
 62
     2
 10
5.0
 20
-184.5
 30
0.0
 11
5.0
 21
-183.4928486643
 31
0.0
  0
ARC
  5
5D
  8
VIDITELNE
  6
SLD-PLNÁ
 62
     2
 10
-0.5
 20
-187.5
 30
0.0
 40
1.000000000000001
 50
270.0
 51
0.0
  0
ARC
  5
5E
  8
VIDITELNE
  6
SLD-PLNÁ
 62
     2
 10
-19.5
 20
-187.5
 30
0.0
 40
1.0
 50
180.0
 51
270.0
  0
LINE
  5
5F
  8
VIDITELNE
  6
SLD-PLNÁ
 62
     2
 10
-20.5
 20
-184.5
 30
0.0
 11
-20.5
 21
-187.5
 31
0.0
  0
LINE
  5
60
  8
VIDITELNE
  6
SLD-PLNÁ
 62
     2
 10
0.5
 20
-187.5
 30
0.0
 11
0.5
 21
-184.5
 31
0.0
  0
ARC
  5
61
  8
VIDITELNE
  6
SLD-PLNÁ
 62
     2
 10
122.0
 20
-179.5
 30
0.0
 40
2.0
 50
180.0
 51
270.0
  0
ARC
  5
62
  8
VIDITELNE
  6
SLD-PLNÁ
 62
     2
 10
122.0
 20
66.5
 30
0.0
 40
2.0
 50
90.0
 51
180.0
  0
LINE
  5
63
  8
VIDITELNE
  6
SLD-PLNÁ
 62
     2
 10
122.0
 20
-181.5
 30
0.0
 11
135.0
 21
-181.5
 31
0.0
  0
LINE
  5
64
  8
VIDITELNE
  6
SLD-PLNÁ
 62
     2
 10
135.0
 20
68.5
 30
0.0
 11
122.0
 21
68.5
 31
0.0
  0
LINE
  5
65
  8
VIDITELNE
  6
SLD-PLNÁ
 62
     2
 10
48.0
 20
-181.5
 30
0.0
 11
57.0844928937
 21
-181.1827625177
 31
0.0
  0
LINE
  5
66
  8
VIDITELNE
  6
SLD-PLNÁ
 62
     2
 10
59.0
 20
-64.5
 30
0.0
 11
68.0
 21
-64.5
 31
0.0
  0
LINE
  5
67
  8
VIDITELNE
  6
SLD-PLNÁ
 62
     2
 10
68.0
 20
-48.5
 30
0.0
 11
59.0
 21
-48.5
 31
0.0
  0
ARC
  5
68
  8
VIDITELNE
  6
SLD-PLNÁ
 62
     2
 10
68.0
 20
-63.5
 30
0.0
 40
1.0
 50
270.0
 51
0.0
  0
ARC
  5
69
  8
VIDITELNE
  6
SLD-PLNÁ
 62
     2
 10
68.0
 20
-49.5
 30
0.0
 40
1.0
 50
0.0
 51
90.0
  0
ARC
  5
6A
  8
VIDITELNE
  6
SLD-PLNÁ
 62
     2
 10
118.0
 20
-147.0483979384
 30
0.0
 40
2.0
 50
0.0
 51
55.0
  0
ARC
  5
6B
  8
VIDITELNE
  6
SLD-PLNÁ
 62
     2
 10
118.0
 20
34.0483979384
 30
0.0
 40
2.000000000000002
 50
305.0
 51
0.0
  0
ARC
  5
6C
  8
VIDITELNE
  6
SLD-PLNÁ
 62
     2
 10
68.0
 20
-144.8172798365
 30
0.0
 40
1.0
 50
270.0
 51
0.0
  0
ARC
  5
6D
  8
VIDITELNE
  6
SLD-PLNÁ
 62
     2
 10
68.0
 20
-130.8172798365
 30
0.0
 40
1.0
 50
0.0
 51
90.0
  0
LINE
  5
6E
  8
VIDITELNE
  6
SLD-PLNÁ
 62
     2
 10
59.0
 20
-145.8172798365
 30
0.0
 11
68.0
 21
-145.8172798365
 31
0.0
  0
LINE
  5
6F
  8
VIDITELNE
  6
SLD-PLNÁ
 62
     2
 10
68.0
 20
-129.8172798365
 30
0.0
 11
59.0
 21
-129.8172798365
 31
0.0
  0
LINE
  5
70
  8
VIDITELNE
  6
SLD-PLNÁ
 62
     2
 10
119.1471528727
 20
32.4100938499
 30
0.0
 11
109.0278539366
 21
25.3244844534
 31
0.0
  0
LINE
  5
71
  8
VIDITELNE
  6
SLD-PLNÁ
 62
     2
 10
86.2913882374
 20
-122.4042397786
 30
0.0
 11
119.1471528727
 21
-145.4100938499
 31
0.0
  0
ARC
  5
72
  8
VIDITELNE
  6
SLD-PLNÁ
 62
     2
 10
61.0
 20
-123.5
 30
0.0
 40
2.0
 50
90.0
 51
180.0
  0
ARC
  5
73
  8
VIDITELNE
  6
SLD-PLNÁ
 62
     2
 10
83.4235060556
 20
-126.5
 30
0.0
 40
5.0
 50
55.0
 51
90.0
  0
LINE
  5
74
  8
VIDITELNE
  6
SLD-PLNÁ
 62
     2
 10
61.0
 20
-121.5
 30
0.0
 11
83.4235060556
 21
-121.5
 31
0.0
  0
ARC
  5
75
  8
VIDITELNE
  6
SLD-PLNÁ
 62
     2
 10
68.0
 20
-178.5
 30
0.0
 40
1.0
 50
270.0
 51
0.0
  0
ARC
  5
76
  8
VIDITELNE
  6
SLD-PLNÁ
 62
     2
 10
68.0
 20
-164.5
 30
0.0
 40
1.0
 50
0.0
 51
90.0
  0
LINE
  5
77
  8
VIDITELNE
  6
SLD-PLNÁ
 62
     2
 10
59.0
 20
-179.5
 30
0.0
 11
68.0
 21
-179.5
 31
0.0
  0
LINE
  5
78
  8
VIDITELNE
  6
SLD-PLNÁ
 62
     2
 10
68.0
 20
-163.5
 30
0.0
 11
59.0
 21
-163.5
 31
0.0
  0
ARC
  5
79
  8
VIDITELNE
  6
SLD-PLNÁ
 62
     2
 10
57.0976064935
 20
-179.2917605277
 30
0.0
 40
1.883884728202982
 50
269.5929807366
 51
357.0364006395
  0
LINE
  5
7A
  8
VIDITELNE
  6
SLD-PLNÁ
 62
     2
 10
-79.0
 20
-181.1158715356
 30
0.0
 11
-68.0
 21
-181.5
 31
0.0
  0
LINE
  5
7B
  8
VIDITELNE
  6
SLD-PLNÁ
 62
     2
 10
-79.0
 20
-48.5
 30
0.0
 11
-88.0
 21
-48.5
 31
0.0
  0
LINE
  5
7C
  8
VIDITELNE
  6
SLD-PLNÁ
 62
     2
 10
-88.0
 20
-64.5
 30
0.0
 11
-79.0
 21
-64.5
 31
0.0
  0
ARC
  5
7D
  8
VIDITELNE
  6
SLD-PLNÁ
 62
     2
 10
-88.0
 20
-63.5
 30
0.0
 40
1.000000000000007
 50
180.0
 51
270.0
  0
ARC
  5
7E
  8
VIDITELNE
  6
SLD-PLNÁ
 62
     2
 10
-88.0
 20
-49.5
 30
0.0
 40
1.0
 50
90.0
 51
180.0
  0
ARC
  5
7F
  8
VIDITELNE
  6
SLD-PLNÁ
 62
     2
 10
-88.0
 20
-144.8172798365
 30
0.0
 40
1.0
 50
180.0
 51
270.0
  0
ARC
  5
80
  8
VIDITELNE
  6
SLD-PLNÁ
 62
     2
 10
-88.0
 20
-130.8172798365
 30
0.0
 40
1.0
 50
90.0
 51
180.0
  0
LINE
  5
81
  8
VIDITELNE
  6
SLD-PLNÁ
 62
     2
 10
-79.0
 20
-129.8172798365
 30
0.0
 11
-88.0
 21
-129.8172798365
 31
0.0
  0
LINE
  5
82
  8
VIDITELNE
  6
SLD-PLNÁ
 62
     2
 10
-88.0
 20
-145.8172798365
 30
0.0
 11
-79.0
 21
-145.8172798365
 31
0.0
  0
LINE
  5
83
  8
VIDITELNE
  6
SLD-PLNÁ
 62
     2
 10
-94.0
 20
-121.5
 30
0.0
 11
-90.5
 21
-121.5
 31
0.0
  0
LINE
  5
84
  8
VIDITELNE
  6
SLD-PLNÁ
 62
     2
 10
-90.5
 20
-151.5
 30
0.0
 11
-86.8731240234
 21
-153.5939778214
 31
0.0
  0
ARC
  5
85
  8
VIDITELNE
  6
SLD-PLNÁ
 62
     2
 10
-88.0
 20
-178.5
 30
0.0
 40
1.0
 50
180.0
 51
270.0
  0
ARC
  5
86
  8
VIDITELNE
  6
SLD-PLNÁ
 62
     2
 10
-88.0
 20
-164.5
 30
0.0
 40
1.0
 50
90.0
 51
180.0
  0
LINE
  5
87
  8
VIDITELNE
  6
SLD-PLNÁ
 62
     2
 10
-82.3094140097
 20
-163.5
 30
0.0
 11
-88.0
 21
-163.5
 31
0.0
  0
LINE
  5
88
  8
VIDITELNE
  6
SLD-PLNÁ
 62
     2
 10
-88.0
 20
-179.5
 30
0.0
 11
-79.0
 21
-179.5
 31
0.0
  0
ARC
  5
89
  8
VIDITELNE
  6
SLD-PLNÁ
 62
     2
 10
-10.0
 20
63.5
 30
0.0
 40
119.0
 50
325.9794627391
 51
34.0205372609
  0
LINE
  5
8A
  8
VIDITELNE
  6
SLD-PLNÁ
 62
     2
 10
88.4998510877
 20
-2.990370592
 30
0.0
 11
88.6316125936
 21
-3.079313583
 31
0.0
  0
ARC
  5
8B
  8
VIDITELNE
  6
SLD-PLNÁ
 62
     2
 10
-10.0
 20
63.5
 30
0.0
 40
118.8410284613676
 50
325.9794627391
 51
34.0205372609
  0
LINE
  5
8C
  8
VIDITELNE
  6
SLD-PLNÁ
 62
     2
 10
88.4998510877
 20
129.990370592
 30
0.0
 11
88.6316125936
 21
130.079313583
 31
0.0
  0
CIRCLE
  5
8D
  8
VIDITELNE
  6
SLD-PLNÁ
 62
     2
 10
-10.0
 20
63.5
 30
0.0
 40
90.0
  0
CIRCLE
  5
8E
  8
VIDITELNE
  6
SLD-PLNÁ
 62
     2
 10
-10.0
 20
63.5
 30
0.0
 40
125.0
  0
ARC
  5
8F
  8
VIDITELNE
  6
SLD-PLNÁ
 62
     2
 10
-10.0
 20
63.5
 30
0.0
 40
119.0000000000002
 50
145.9794627391
 51
214.0205372609
  0
ARC
  5
90
  8
VIDITELNE
  6
SLD-PLNÁ
 62
     2
 10
-106.9739384324
 20
-1.9603335227
 30
0.0
 40
2.000000000000033
 50
214.0205372609
 51
305.0
  0
LINE
  5
91
  8
VIDITELNE
  6
SLD-PLNÁ
 62
     2
 10
-105.8267855597
 20
-3.5986376113
 30
0.0
 11
-90.2601812106
 21
7.3012160982
 31
0.0
  0
ARC
  5
92
  8
VIDITELNE
  6
SLD-PLNÁ
 62
     2
 10
-91.4073340833
 20
8.9395201868
 30
0.0
 40
1.999999999999989
 50
305.0
 51
33.8306171944
  0
ARC
  5
93
  8
VIDITELNE
  6
SLD-PLNÁ
 62
     2
 10
-10.0
 20
63.5
 30
0.0
 40
96.00000000000001
 50
146.1693828056
 51
213.8306171944
  0
ARC
  5
94
  8
VIDITELNE
  6
SLD-PLNÁ
 62
     2
 10
-91.4073340833
 20
118.0604798132
 30
0.0
 40
2.0
 50
326.1693828056
 51
55.0
  0
LINE
  5
95
  8
VIDITELNE
  6
SLD-PLNÁ
 62
     2
 10
-90.2601812106
 20
119.6987839018
 30
0.0
 11
-105.8267855597
 21
130.5986376113
 31
0.0
  0
ARC
  5
96
  8
VIDITELNE
  6
SLD-PLNÁ
 62
     2
 10
-106.9739384324
 20
128.9603335227
 30
0.0
 40
2.000000000000003
 50
55.0
 51
145.9794627391
  0
LINE
  5
97
  8
VIDITELNE
  6
SLD-PLNÁ
 62
     2
 10
-77.0986376113
 20
159.3267855597
 30
0.0
 11
-66.1987839018
 21
143.7601812106
 31
0.0
  0
ARC
  5
98
  8
VIDITELNE
  6
SLD-PLNÁ
 62
     2
 10
-64.5604798132
 20
144.9073340833
 30
0.0
 40
1.999999999999983
 50
215.0
 51
303.8306171944
  0
ARC
  5
99
  8
VIDITELNE
  6
SLD-PLNÁ
 62
     2
 10
-10.0
 20
63.5
 30
0.0
 40
96.00000000000001
 50
97.0334613154
 51
123.8306171944
  0
ARC
  5
9A
  8
VIDITELNE
  6
SLD-PLNÁ
 62
     2
 10
-22.0
 20
160.7625313263
 30
0.0
 40
2.000000000000016
 50
277.0334613154
 51
0.0
  0
LINE
  5
9B
  8
VIDITELNE
  6
SLD-PLNÁ
 62
     2
 10
-20.0
 20
160.7625313263
 30
0.0
 11
-20.0
 21
179.8829884476
 31
0.0
  0
ARC
  5
9C
  8
VIDITELNE
  6
SLD-PLNÁ
 62
     2
 10
-22.0
 20
179.8829884476
 30
0.0
 40
2.0
 50
0.0
 51
95.8868421387
  0
ARC
  5
9D
  8
VIDITELNE
  6
SLD-PLNÁ
 62
     2
 10
-10.0
 20
63.5
 30
0.0
 40
119.0
 50
95.8868421387
 51
124.0205372609
  0
ARC
  5
9E
  8
VIDITELNE
  6
SLD-PLNÁ
 62
     2
 10
-75.4603335227
 20
160.4739384324
 30
0.0
 40
2.000000000000016
 50
124.0205372609
 51
215.0
  0
LINE
  5
9F
  8
VIDITELNE
  6
SLD-PLNÁ
 62
     2
 10
0.0
 20
179.8829884476
 30
0.0
 11
0.0
 21
160.7625313263
 31
0.0
  0
ARC
  5
A0
  8
VIDITELNE
  6
SLD-PLNÁ
 62
     2
 10
2.0
 20
160.7625313263
 30
0.0
 40
2.000000000000018
 50
180.0
 51
262.9665386846
  0
ARC
  5
A1
  8
VIDITELNE
  6
SLD-PLNÁ
 62
     2
 10
-10.0
 20
63.5
 30
0.0
 40
96.00000000000001
 50
56.1693828056
 51
82.9665386846
  0
ARC
  5
A2
  8
VIDITELNE
  6
SLD-PLNÁ
 62
     2
 10
44.5604798132
 20
144.9073340833
 30
0.0
 40
2.000000000000003
 50
236.1693828056
 51
325.0
  0
LINE
  5
A3
  8
VIDITELNE
  6
SLD-PLNÁ
 62
     2
 10
46.1987839018
 20
143.7601812106
 30
0.0
 11
57.0986376113
 21
159.3267855597
 31
0.0
  0
ARC
  5
A4
  8
VIDITELNE
  6
SLD-PLNÁ
 62
     2
 10
55.4603335227
 20
160.4739384324
 30
0.0
 40
1.999999999999999
 50
325.0
 51
55.9794627391
  0
ARC
  5
A5
  8
VIDITELNE
  6
SLD-PLNÁ
 62
     2
 10
-10.0
 20
63.5
 30
0.0
 40
119.0
 50
55.9794627391
 51
84.1131578613
  0
ARC
  5
A6
  8
VIDITELNE
  6
SLD-PLNÁ
 62
     2
 10
2.0
 20
179.8829884476
 30
0.0
 40
2.000000000000017
 50
84.1131578613
 51
180.0
  0
ARC
  5
A7
  8
VIDITELNE
  6
SLD-PLNÁ
 62
     2
 10
86.9739384324
 20
128.9603335227
 30
0.0
 40
2.000000000000011
 50
34.0205372609
 51
125.0
  0
LINE
  5
A8
  8
VIDITELNE
  6
SLD-PLNÁ
 62
     2
 10
85.8267855597
 20
130.5986376113
 30
0.0
 11
70.2601812106
 21
119.6987839018
 31
0.0
  0
ARC
  5
A9
  8
VIDITELNE
  6
SLD-PLNÁ
 62
     2
 10
71.4073340833
 20
118.0604798132
 30
0.0
 40
2.0
 50
125.0
 51
213.8306171944
  0
ARC
  5
AA
  8
VIDITELNE
  6
SLD-PLNÁ
 62
     2
 10
-10.0
 20
63.5
 30
0.0
 40
96.00000000000001
 50
326.1693828056
 51
33.8306171944
  0
ARC
  5
AB
  8
VIDITELNE
  6
SLD-PLNÁ
 62
     2
 10
71.4073340833
 20
8.9395201868
 30
0.0
 40
2.000000000000012
 50
146.1693828056
 51
235.0
  0
LINE
  5
AC
  8
VIDITELNE
  6
SLD-PLNÁ
 62
     2
 10
70.2601812106
 20
7.3012160982
 30
0.0
 11
85.8267855597
 21
-3.5986376113
 31
0.0
  0
ARC
  5
AD
  8
VIDITELNE
  6
SLD-PLNÁ
 62
     2
 10
86.9739384324
 20
-1.9603335227
 30
0.0
 40
2.000000000000049
 50
235.0
 51
325.9794627391
  0
LINE
  5
AE
  8
VIDITELNE
  6
SLD-PLNÁ
 62
     2
 10
57.0986376113
 20
-32.3267855597
 30
0.0
 11
46.1987839018
 21
-16.7601812106
 31
0.0
  0
ARC
  5
AF
  8
VIDITELNE
  6
SLD-PLNÁ
 62
     2
 10
44.5604798132
 20
-17.9073340833
 30
0.0
 40
1.999999999999999
 50
35.0
 51
123.8306171944
  0
ARC
  5
B0
  8
VIDITELNE
  6
SLD-PLNÁ
 62
     2
 10
-10.0
 20
63.5
 30
0.0
 40
96.00000000000028
 50
236.1693828056
 51
303.8306171944
  0
ARC
  5
B1
  8
VIDITELNE
  6
SLD-PLNÁ
 62
     2
 10
-64.5604798132
 20
-17.9073340833
 30
0.0
 40
1.999999999999986
 50
56.1693828056
 51
145.0
  0
LINE
  5
B2
  8
VIDITELNE
  6
SLD-PLNÁ
 62
     2
 10
-66.1987839018
 20
-16.7601812106
 30
0.0
 11
-77.0986376113
 21
-32.3267855597
 31
0.0
  0
ARC
  5
B3
  8
VIDITELNE
  6
SLD-PLNÁ
 62
     2
 10
-75.4603335227
 20
-33.4739384324
 30
0.0
 40
2.000000000000035
 50
145.0
 51
235.9794627391
  0
ARC
  5
B4
  8
VIDITELNE
  6
SLD-PLNÁ
 62
     2
 10
-10.0
 20
63.5
 30
0.0
 40
119.0000000000006
 50
235.9794627391
 51
304.0205372609
  0
ARC
  5
B5
  8
VIDITELNE
  6
SLD-PLNÁ
 62
     2
 10
55.4603335227
 20
-33.4739384324
 30
0.0
 40
2.000000000000028
 50
304.0205372609
 51
35.0
  0
CIRCLE
  5
B6
  8
VIDITELNE
  6
SLD-PLNÁ
 62
     2
 10
-86.0139789776
 20
139.5139789776
 30
0.0
 40
8.000000000000014
  0
CIRCLE
  5
B7
  8
VIDITELNE
  6
SLD-PLNÁ
 62
     2
 10
66.0139789776
 20
139.5139789776
 30
0.0
 40
8.000000000000014
  0
CIRCLE
  5
B8
  8
VIDITELNE
  6
SLD-PLNÁ
 62
     2
 10
-86.0139789776
 20
-12.5139789776
 30
0.0
 40
7.999999999999986
  0
CIRCLE
  5
B9
  8
VIDITELNE
  6
SLD-PLNÁ
 62
     2
 10
66.0139789776
 20
-12.5139789776
 30
0.0
 40
7.999999999999972
  0
LINE
  5
BA
  8
VIDITELNE
  6
SLD-PLNÁ
 62
     2
 10
85.9179678883
 20
130.4684157505
 30
0.0
 11
85.8267855597
 21
130.5986376113
 31
0.0
  0
LINE
  5
BB
  8
VIDITELNE
  6
SLD-PLNÁ
 62
     2
 10
70.3513635392
 20
119.5685620409
 30
0.0
 11
85.9179678883
 21
130.4684157505
 31
0.0
  0
LINE
  5
BC
  8
VIDITELNE
  6
SLD-PLNÁ
 62
     2
 10
70.3513635392
 20
119.5685620409
 30
0.0
 11
70.2601812106
 21
119.6987839018
 31
0.0
  0
ARC
  5
BD
  8
VIDITELNE
  6
SLD-PLNÁ
 62
     2
 10
86.9739384324
 20
128.9603335227
 30
0.0
 40
1.841028461367556
 50
34.0205372609
 51
125.0
  0
LINE
  5
BE
  8
VIDITELNE
  6
SLD-PLNÁ
 62
     2
 10
69.878015522
 20
117.0355063826
 30
0.0
 11
69.7459599184
 21
116.9470006333
 31
0.0
  0
ARC
  5
BF
  8
VIDITELNE
  6
SLD-PLNÁ
 62
     2
 10
-10.0
 20
63.5
 30
0.0
 40
96.15897153863249
 50
326.1693828056
 51
33.8306171944
  0
LINE
  5
C0
  8
VIDITELNE
  6
SLD-PLNÁ
 62
     2
 10
69.878015522
 20
9.9644936174
 30
0.0
 11
69.7459599184
 21
10.0529993667
 31
0.0
  0
ARC
  5
C1
  8
VIDITELNE
  6
SLD-PLNÁ
 62
     2
 10
71.4073340833
 20
118.0604798132
 30
0.0
 40
1.841028461367541
 50
125.0
 51
213.8306171944
  0
ARC
  5
C2
  8
VIDITELNE
  6
SLD-PLNÁ
 62
     2
 10
71.4073340833
 20
8.9395201868
 30
0.0
 40
1.84102846136756
 50
146.1693828056
 51
235.0
  0
LINE
  5
C3
  8
VIDITELNE
  6
SLD-PLNÁ
 62
     2
 10
70.3513635392
 20
7.4314379591
 30
0.0
 11
70.2601812106
 21
7.3012160982
 31
0.0
  0
LINE
  5
C4
  8
VIDITELNE
  6
SLD-PLNÁ
 62
     2
 10
56.490370592
 20
-34.9998510877
 30
0.0
 11
56.579313583
 21
-35.1316125936
 31
0.0
  0
ARC
  5
C5
  8
VIDITELNE
  6
SLD-PLNÁ
 62
     2
 10
55.4603335227
 20
-33.4739384324
 30
0.0
 40
1.841028461367546
 50
304.0205372609
 51
35.0
  0
LINE
  5
C6
  8
VIDITELNE
  6
SLD-PLNÁ
 62
     2
 10
56.9684157505
 20
-32.4179678883
 30
0.0
 11
57.0986376113
 21
-32.3267855597
 31
0.0
  0
LINE
  5
C7
  8
VIDITELNE
  6
SLD-PLNÁ
 62
     2
 10
85.9179678883
 20
-3.4684157505
 30
0.0
 11
70.3513635392
 21
7.4314379591
 31
0.0
  0
LINE
  5
C8
  8
VIDITELNE
  6
SLD-PLNÁ
 62
     2
 10
85.9179678883
 20
-3.4684157505
 30
0.0
 11
85.8267855597
 21
-3.5986376113
 31
0.0
  0
LINE
  5
C9
  8
VIDITELNE
  6
SLD-PLNÁ
 62
     2
 10
46.0685620409
 20
-16.8513635392
 30
0.0
 11
46.1987839018
 21
-16.7601812106
 31
0.0
  0
ARC
  5
CA
  8
VIDITELNE
  6
SLD-PLNÁ
 62
     2
 10
44.5604798132
 20
-17.9073340833
 30
0.0
 40
1.841028461367549
 50
35.0
 51
123.8306171944
  0
LINE
  5
CB
  8
VIDITELNE
  6
SLD-PLNÁ
 62
     2
 10
43.5355063826
 20
-16.378015522
 30
0.0
 11
43.4470006333
 21
-16.2459599184
 31
0.0
  0
LINE
  5
CC
  8
VIDITELNE
  6
SLD-PLNÁ
 62
     2
 10
46.0685620409
 20
-16.8513635392
 30
0.0
 11
56.9684157505
 21
-32.4179678883
 31
0.0
  0
ARC
  5
CD
  8
VIDITELNE
  6
SLD-PLNÁ
 62
     2
 10
86.9739384324
 20
-1.9603335227
 30
0.0
 40
1.841028461367596
 50
235.0
 51
325.9794627391
  0
ARC
  5
CE
  8
VIDITELNE
  6
SLD-PLNÁ
 62
     2
 10
-10.0
 20
63.5
 30
0.0
 40
96.15897153863274
 50
236.1693828056
 51
303.8306171944
  0
LINE
  5
CF
  8
VIDITELNE
  6
SLD-PLNÁ
 62
     2
 10
-63.5355063826
 20
-16.378015522
 30
0.0
 11
-63.4470006333
 21
-16.2459599184
 31
0.0
  0
LINE
  5
D0
  8
VIDITELNE
  6
SLD-PLNÁ
 62
     2
 10
-76.490370592
 20
-34.9998510877
 30
0.0
 11
-76.579313583
 21
-35.1316125936
 31
0.0
  0
ARC
  5
D1
  8
VIDITELNE
  6
SLD-PLNÁ
 62
     2
 10
-10.0
 20
63.5
 30
0.0
 40
118.8410284613681
 50
235.9794627391
 51
304.0205372609
  0
LINE
  5
D2
  8
VIDITELNE
  6
SLD-PLNÁ
 62
     2
 10
43.5355063826
 20
143.378015522
 30
0.0
 11
43.4470006333
 21
143.2459599184
 31
0.0
  0
ARC
  5
D3
  8
VIDITELNE
  6
SLD-PLNÁ
 62
     2
 10
44.5604798132
 20
144.9073340833
 30
0.0
 40
1.84102846136753
 50
236.1693828056
 51
325.0
  0
LINE
  5
D4
  8
VIDITELNE
  6
SLD-PLNÁ
 62
     2
 10
46.0685620409
 20
143.8513635392
 30
0.0
 11
46.1987839018
 21
143.7601812106
 31
0.0
  0
LINE
  5
D5
  8
VIDITELNE
  6
SLD-PLNÁ
 62
     2
 10
56.9684157505
 20
159.4179678883
 30
0.0
 11
57.0986376113
 21
159.3267855597
 31
0.0
  0
ARC
  5
D6
  8
VIDITELNE
  6
SLD-PLNÁ
 62
     2
 10
55.4603335227
 20
160.4739384324
 30
0.0
 40
1.841028461367567
 50
325.0
 51
55.9794627391
  0
LINE
  5
D7
  8
VIDITELNE
  6
SLD-PLNÁ
 62
     2
 10
56.490370592
 20
161.9998510877
 30
0.0
 11
56.579313583
 21
162.1316125936
 31
0.0
  0
LINE
  5
D8
  8
VIDITELNE
  6
SLD-PLNÁ
 62
     2
 10
1.7745679435
 20
158.9353569549
 30
0.0
 11
1.7551020408
 21
158.7775817074
 31
0.0
  0
ARC
  5
D9
  8
VIDITELNE
  6
SLD-PLNÁ
 62
     2
 10
-10.0
 20
63.5
 30
0.0
 40
96.1589715386325
 50
56.1693828056
 51
82.9665386846
  0
LINE
  5
DA
  8
VIDITELNE
  6
SLD-PLNÁ
 62
     2
 10
-76.9684157505
 20
-32.4179678883
 30
0.0
 11
-77.0986376113
 21
-32.3267855597
 31
0.0
  0
ARC
  5
DB
  8
VIDITELNE
  6
SLD-PLNÁ
 62
     2
 10
-75.4603335227
 20
-33.4739384324
 30
0.0
 40
1.841028461367588
 50
145.0
 51
235.9794627391
  0
LINE
  5
DC
  8
VIDITELNE
  6
SLD-PLNÁ
 62
     2
 10
-66.0685620409
 20
-16.8513635392
 30
0.0
 11
-66.1987839018
 21
-16.7601812106
 31
0.0
  0
LINE
  5
DD
  8
VIDITELNE
  6
SLD-PLNÁ
 62
     2
 10
-76.9684157505
 20
-32.4179678883
 30
0.0
 11
-66.0685620409
 21
-16.8513635392
 31
0.0
  0
ARC
  5
DE
  8
VIDITELNE
  6
SLD-PLNÁ
 62
     2
 10
-64.5604798132
 20
-17.9073340833
 30
0.0
 40
1.841028461367536
 50
56.1693828056
 51
145.0
  0
LINE
  5
DF
  8
VIDITELNE
  6
SLD-PLNÁ
 62
     2
 10
0.1589715386
 20
179.8829884476
 30
0.0
 11
0.0
 21
179.8829884476
 31
0.0
  0
LINE
  5
E0
  8
VIDITELNE
  6
SLD-PLNÁ
 62
     2
 10
0.1589715386
 20
160.7625313263
 30
0.0
 11
0.1589715386
 21
179.8829884476
 31
0.0
  0
LINE
  5
E1
  8
VIDITELNE
  6
SLD-PLNÁ
 62
     2
 10
0.1589715386
 20
160.7625313263
 30
0.0
 11
0.0
 21
160.7625313263
 31
0.0
  0
LINE
  5
E2
  8
VIDITELNE
  6
SLD-PLNÁ
 62
     2
 10
-21.7745679435
 20
158.9353569549
 30
0.0
 11
-21.7551020408
 21
158.7775817074
 31
0.0
  0
ARC
  5
E3
  8
VIDITELNE
  6
SLD-PLNÁ
 62
     2
 10
-22.0
 20
160.7625313263
 30
0.0
 40
1.841028461367557
 50
277.0334613154
 51
0.0
  0
LINE
  5
E4
  8
VIDITELNE
  6
SLD-PLNÁ
 62
     2
 10
-20.1589715386
 20
160.7625313263
 30
0.0
 11
-20.0
 21
160.7625313263
 31
0.0
  0
LINE
  5
E5
  8
VIDITELNE
  6
SLD-PLNÁ
 62
     2
 10
2.1888234319
 20
181.7143080558
 30
0.0
 11
2.2051282051
 21
181.8724412416
 31
0.0
  0
ARC
  5
E6
  8
VIDITELNE
  6
SLD-PLNÁ
 62
     2
 10
2.0
 20
179.8829884476
 30
0.0
 40
1.841028461367541
 50
84.1131578613
 51
180.0
  0
LINE
  5
E7
  8
VIDITELNE
  6
SLD-PLNÁ
 62
     2
 10
-20.1589715386
 20
179.8829884476
 30
0.0
 11
-20.0
 21
179.8829884476
 31
0.0
  0
ARC
  5
E8
  8
VIDITELNE
  6
SLD-PLNÁ
 62
     2
 10
-22.0
 20
179.8829884476
 30
0.0
 40
1.84102846136755
 50
0.0
 51
95.8868421387
  0
LINE
  5
E9
  8
VIDITELNE
  6
SLD-PLNÁ
 62
     2
 10
-22.1888234319
 20
181.7143080558
 30
0.0
 11
-22.2051282051
 21
181.8724412416
 31
0.0
  0
LINE
  5
EA
  8
VIDITELNE
  6
SLD-PLNÁ
 62
     2
 10
-20.1589715386
 20
179.8829884476
 30
0.0
 11
-20.1589715386
 21
160.7625313263
 31
0.0
  0
LINE
  5
EB
  8
VIDITELNE
  6
SLD-PLNÁ
 62
     2
 10
-63.5355063826
 20
143.378015522
 30
0.0
 11
-63.4470006333
 21
143.2459599184
 31
0.0
  0
ARC
  5
EC
  8
VIDITELNE
  6
SLD-PLNÁ
 62
     2
 10
-10.0
 20
63.5
 30
0.0
 40
96.15897153863246
 50
97.0334613154
 51
123.8306171944
  0
ARC
  5
ED
  8
VIDITELNE
  6
SLD-PLNÁ
 62
     2
 10
2.0
 20
160.7625313263
 30
0.0
 40
1.841028461367546
 50
180.0
 51
262.9665386846
  0
ARC
  5
EE
  8
VIDITELNE
  6
SLD-PLNÁ
 62
     2
 10
-10.0
 20
63.5
 30
0.0
 40
118.8410284613675
 50
95.8868421387
 51
124.0205372609
  0
LINE
  5
EF
  8
VIDITELNE
  6
SLD-PLNÁ
 62
     2
 10
-76.490370592
 20
161.9998510877
 30
0.0
 11
-76.579313583
 21
162.1316125936
 31
0.0
  0
LINE
  5
F0
  8
VIDITELNE
  6
SLD-PLNÁ
 62
     2
 10
56.9684157505
 20
159.4179678883
 30
0.0
 11
46.0685620409
 21
143.8513635392
 31
0.0
  0
ARC
  5
F1
  8
VIDITELNE
  6
SLD-PLNÁ
 62
     2
 10
-10.0
 20
63.5
 30
0.0
 40
118.8410284613676
 50
55.9794627391
 51
84.1131578613
  0
LINE
  5
F2
  8
VIDITELNE
  6
SLD-PLNÁ
 62
     2
 10
-105.9179678883
 20
130.4684157505
 30
0.0
 11
-105.8267855597
 21
130.5986376113
 31
0.0
  0
ARC
  5
F3
  8
VIDITELNE
  6
SLD-PLNÁ
 62
     2
 10
-106.9739384324
 20
128.9603335227
 30
0.0
 40
1.841028461367556
 50
55.0
 51
145.9794627391
  0
LINE
  5
F4
  8
VIDITELNE
  6
SLD-PLNÁ
 62
     2
 10
-108.4998510877
 20
129.990370592
 30
0.0
 11
-108.6316125936
 21
130.079313583
 31
0.0
  0
LINE
  5
F5
  8
VIDITELNE
  6
SLD-PLNÁ
 62
     2
 10
-66.0685620409
 20
143.8513635392
 30
0.0
 11
-66.1987839018
 21
143.7601812106
 31
0.0
  0
ARC
  5
F6
  8
VIDITELNE
  6
SLD-PLNÁ
 62
     2
 10
-64.5604798132
 20
144.9073340833
 30
0.0
 40
1.841028461367534
 50
215.0
 51
303.8306171944
  0
LINE
  5
F7
  8
VIDITELNE
  6
SLD-PLNÁ
 62
     2
 10
-89.878015522
 20
117.0355063826
 30
0.0
 11
-89.7459599184
 21
116.9470006333
 31
0.0
  0
ARC
  5
F8
  8
VIDITELNE
  6
SLD-PLNÁ
 62
     2
 10
-91.4073340833
 20
118.0604798132
 30
0.0
 40
1.841028461367558
 50
326.1693828056
 51
55.0
  0
LINE
  5
F9
  8
VIDITELNE
  6
SLD-PLNÁ
 62
     2
 10
-90.3513635392
 20
119.5685620409
 30
0.0
 11
-90.2601812106
 21
119.6987839018
 31
0.0
  0
LINE
  5
FA
  8
VIDITELNE
  6
SLD-PLNÁ
 62
     2
 10
-76.9684157505
 20
159.4179678883
 30
0.0
 11
-77.0986376113
 21
159.3267855597
 31
0.0
  0
LINE
  5
FB
  8
VIDITELNE
  6
SLD-PLNÁ
 62
     2
 10
-66.0685620409
 20
143.8513635392
 30
0.0
 11
-76.9684157505
 21
159.4179678883
 31
0.0
  0
ARC
  5
FC
  8
VIDITELNE
  6
SLD-PLNÁ
 62
     2
 10
-75.4603335227
 20
160.4739384324
 30
0.0
 40
1.841028461367568
 50
124.0205372609
 51
215.0
  0
LINE
  5
FD
  8
VIDITELNE
  6
SLD-PLNÁ
 62
     2
 10
-89.878015522
 20
9.9644936174
 30
0.0
 11
-89.7459599184
 21
10.0529993667
 31
0.0
  0
ARC
  5
FE
  8
VIDITELNE
  6
SLD-PLNÁ
 62
     2
 10
-10.0
 20
63.5
 30
0.0
 40
96.15897153863247
 50
146.1693828056
 51
213.8306171944
  0
LINE
  5
FF
  8
VIDITELNE
  6
SLD-PLNÁ
 62
     2
 10
-105.9179678883
 20
130.4684157505
 30
0.0
 11
-90.3513635392
 21
119.5685620409
 31
0.0
  0
ARC
  5
100
  8
VIDITELNE
  6
SLD-PLNÁ
 62
     2
 10
-10.0
 20
63.5
 30
0.0
 40
118.8410284613677
 50
145.9794627391
 51
214.0205372609
  0
LINE
  5
101
  8
VIDITELNE
  6
SLD-PLNÁ
 62
     2
 10
-108.4998510877
 20
-2.990370592
 30
0.0
 11
-108.6316125936
 21
-3.079313583
 31
0.0
  0
LINE
  5
102
  8
VIDITELNE
  6
SLD-PLNÁ
 62
     2
 10
-105.9179678883
 20
-3.4684157505
 30
0.0
 11
-105.8267855597
 21
-3.5986376113
 31
0.0
  0
LINE
  5
103
  8
VIDITELNE
  6
SLD-PLNÁ
 62
     2
 10
-90.3513635392
 20
7.4314379591
 30
0.0
 11
-105.9179678883
 21
-3.4684157505
 31
0.0
  0
LINE
  5
104
  8
VIDITELNE
  6
SLD-PLNÁ
 62
     2
 10
-90.3513635392
 20
7.4314379591
 30
0.0
 11
-90.2601812106
 21
7.3012160982
 31
0.0
  0
ARC
  5
105
  8
VIDITELNE
  6
SLD-PLNÁ
 62
     2
 10
-91.4073340833
 20
8.9395201868
 30
0.0
 40
1.841028461367526
 50
305.0
 51
33.8306171944
  0
ARC
  5
106
  8
VIDITELNE
  6
SLD-PLNÁ
 62
     2
 10
-106.9739384324
 20
-1.9603335227
 30
0.0
 40
1.841028461367557
 50
214.0205372609
 51
305.0
  0
CIRCLE
  5
107
  8
VIDITELNE
  6
SLD-PLNÁ
 62
     2
 10
-10.0
 20
63.5
 30
0.0
 40
32.5
  0
CIRCLE
  5
108
  8
VIDITELNE
  6
SLD-PLNÁ
 62
     2
 10
-50.7031939779
 20
87.0
 30
0.0
 40
9.000000000000014
  0
CIRCLE
  5
109
  8
VIDITELNE
  6
SLD-PLNÁ
 62
     2
 10
-10.0
 20
110.5
 30
0.0
 40
8.999999999999995
  0
CIRCLE
  5
10A
  8
VIDITELNE
  6
SLD-PLNÁ
 62
     2
 10
30.7031939779
 20
87.0
 30
0.0
 40
9.000000000000004
  0
CIRCLE
  5
10B
  8
VIDITELNE
  6
SLD-PLNÁ
 62
     2
 10
-50.7031939779
 20
40.0
 30
0.0
 40
9.0
  0
CIRCLE
  5
10C
  8
VIDITELNE
  6
SLD-PLNÁ
 62
     2
 10
-10.0
 20
16.5
 30
0.0
 40
8.999999999999998
  0
CIRCLE
  5
10D
  8
VIDITELNE
  6
SLD-PLNÁ
 62
     2
 10
30.7031939779
 20
40.0
 30
0.0
 40
8.999999999999996
  0
CIRCLE
  5
10E
  8
VIDITELNE
  6
SLD-PLNÁ
 62
     2
 10
-10.0
 20
63.5
 30
0.0
 40
31.0
  0
LINE
  5
10F
  8
VIDITELNE
  6
SLD-PLNÁ
 62
     2
 10
88.4998510877
 20
-2.990370592
 30
0.0
 11
87.2573528245
 21
-2.1516467862
 31
0.0
  0
ARC
  5
110
  8
VIDITELNE
  6
SLD-PLNÁ
 62
     2
 10
-10.0
 20
63.5
 30
0.0
 40
117.3419422208389
 50
325.9794627391
 51
34.0205372609
  0
LINE
  5
111
  8
VIDITELNE
  6
SLD-PLNÁ
 62
     2
 10
88.4998510877
 20
129.990370592
 30
0.0
 11
87.2573528245
 21
129.1516467862
 31
0.0
  0
ARC
  5
112
  8
VIDITELNE
  6
SLD-PLNÁ
 62
     2
 10
86.9739384324
 20
128.9603335227
 30
0.0
 40
0.3419422208388916
 50
34.0205372609
 51
125.0
  0
LINE
  5
113
  8
VIDITELNE
  6
SLD-PLNÁ
 62
     2
 10
85.9179678883
 20
130.4684157505
 30
0.0
 11
86.7778084319
 21
129.240436192
 31
0.0
  0
LINE
  5
114
  8
VIDITELNE
  6
SLD-PLNÁ
 62
     2
 10
86.7778084319
 20
129.240436192
 30
0.0
 11
71.2112040829
 21
118.3405824824
 31
0.0
  0
LINE
  5
115
  8
VIDITELNE
  6
SLD-PLNÁ
 62
     2
 10
70.3513635392
 20
119.5685620409
 30
0.0
 11
71.2112040829
 21
118.3405824824
 31
0.0
  0
ARC
  5
116
  8
VIDITELNE
  6
SLD-PLNÁ
 62
     2
 10
-10.0
 20
63.5
 30
0.0
 40
97.65805777916111
 50
326.1693828056
 51
33.8306171944
  0
LINE
  5
117
  8
VIDITELNE
  6
SLD-PLNÁ
 62
     2
 10
71.1232870975
 20
9.1298929586
 30
0.0
 11
69.878015522
 21
9.9644936174
 31
0.0
  0
LINE
  5
118
  8
VIDITELNE
  6
SLD-PLNÁ
 62
     2
 10
71.1232870975
 20
117.8701070414
 30
0.0
 11
69.878015522
 21
117.0355063826
 31
0.0
  0
ARC
  5
119
  8
VIDITELNE
  6
SLD-PLNÁ
 62
     2
 10
71.4073340833
 20
118.0604798132
 30
0.0
 40
0.3419422208389057
 50
125.0
 51
213.8306171944
  0
LINE
  5
11A
  8
VIDITELNE
  6
SLD-PLNÁ
 62
     2
 10
71.2112040829
 20
8.6594175176
 30
0.0
 11
86.7778084319
 21
-2.240436192
 31
0.0
  0
LINE
  5
11B
  8
VIDITELNE
  6
SLD-PLNÁ
 62
     2
 10
86.7778084319
 20
-2.240436192
 30
0.0
 11
85.9179678883
 21
-3.4684157505
 31
0.0
  0
LINE
  5
11C
  8
VIDITELNE
  6
SLD-PLNÁ
 62
     2
 10
71.2112040829
 20
8.6594175176
 30
0.0
 11
70.3513635392
 21
7.4314379591
 31
0.0
  0
ARC
  5
11D
  8
VIDITELNE
  6
SLD-PLNÁ
 62
     2
 10
86.9739384324
 20
-1.9603335227
 30
0.0
 40
0.3419422208389437
 50
235.0
 51
325.9794627391
  0
ARC
  5
11E
  8
VIDITELNE
  6
SLD-PLNÁ
 62
     2
 10
-10.0
 20
63.5
 30
0.0
 40
117.3419422208389
 50
95.8868421387
 51
124.0205372609
  0
LINE
  5
11F
  8
VIDITELNE
  6
SLD-PLNÁ
 62
     2
 10
-76.490370592
 20
161.9998510877
 30
0.0
 11
-75.6516467862
 21
160.7573528245
 31
0.0
  0
LINE
  5
120
  8
VIDITELNE
  6
SLD-PLNÁ
 62
     2
 10
-22.035070997
 20
180.2231274009
 30
0.0
 11
-22.1888234319
 21
181.7143080558
 31
0.0
  0
ARC
  5
121
  8
VIDITELNE
  6
SLD-PLNÁ
 62
     2
 10
-10.0
 20
63.5
 30
0.0
 40
97.6580577791611
 50
97.0334613154
 51
123.8306171944
  0
LINE
  5
122
  8
VIDITELNE
  6
SLD-PLNÁ
 62
     2
 10
-21.958129524
 20
160.4231622858
 30
0.0
 11
-21.7745679435
 21
158.9353569549
 31
0.0
  0
LINE
  5
123
  8
VIDITELNE
  6
SLD-PLNÁ
 62
     2
 10
-63.5355063826
 20
143.378015522
 30
0.0
 11
-64.3701070414
 21
144.6232870975
 31
0.0
  0
ARC
  5
124
  8
VIDITELNE
  6
SLD-PLNÁ
 62
     2
 10
71.4073340833
 20
8.9395201868
 30
0.0
 40
0.3419422208388909
 50
146.1693828056
 51
235.0
  0
ARC
  5
125
  8
VIDITELNE
  6
SLD-PLNÁ
 62
     2
 10
-10.0
 20
63.5
 30
0.0
 40
117.3419422208394
 50
235.9794627391
 51
304.0205372609
  0
LINE
  5
126
  8
VIDITELNE
  6
SLD-PLNÁ
 62
     2
 10
56.490370592
 20
-34.9998510877
 30
0.0
 11
55.6516467862
 21
-33.7573528245
 31
0.0
  0
LINE
  5
127
  8
VIDITELNE
  6
SLD-PLNÁ
 62
     2
 10
-75.6516467862
 20
-33.7573528245
 30
0.0
 11
-76.490370592
 21
-34.9998510877
 31
0.0
  0
ARC
  5
128
  8
VIDITELNE
  6
SLD-PLNÁ
 62
     2
 10
44.5604798132
 20
144.9073340833
 30
0.0
 40
0.3419422208388972
 50
236.1693828056
 51
325.0
  0
LINE
  5
129
  8
VIDITELNE
  6
SLD-PLNÁ
 62
     2
 10
44.8405824824
 20
144.7112040829
 30
0.0
 11
46.0685620409
 21
143.8513635392
 31
0.0
  0
LINE
  5
12A
  8
VIDITELNE
  6
SLD-PLNÁ
 62
     2
 10
44.3701070414
 20
144.6232870975
 30
0.0
 11
43.5355063826
 21
143.378015522
 31
0.0
  0
ARC
  5
12B
  8
VIDITELNE
  6
SLD-PLNÁ
 62
     2
 10
55.4603335227
 20
160.4739384324
 30
0.0
 40
0.3419422208389311
 50
325.0
 51
55.9794627391
  0
LINE
  5
12C
  8
VIDITELNE
  6
SLD-PLNÁ
 62
     2
 10
55.6516467862
 20
160.7573528245
 30
0.0
 11
56.490370592
 21
161.9998510877
 31
0.0
  0
LINE
  5
12D
  8
VIDITELNE
  6
SLD-PLNÁ
 62
     2
 10
55.740436192
 20
160.2778084319
 30
0.0
 11
56.9684157505
 21
159.4179678883
 31
0.0
  0
LINE
  5
12E
  8
VIDITELNE
  6
SLD-PLNÁ
 62
     2
 10
56.9684157505
 20
-32.4179678883
 30
0.0
 11
55.740436192
 21
-33.2778084319
 31
0.0
  0
LINE
  5
12F
  8
VIDITELNE
  6
SLD-PLNÁ
 62
     2
 10
55.740436192
 20
-33.2778084319
 30
0.0
 11
44.8405824824
 21
-17.7112040829
 31
0.0
  0
LINE
  5
130
  8
VIDITELNE
  6
SLD-PLNÁ
 62
     2
 10
46.0685620409
 20
-16.8513635392
 30
0.0
 11
44.8405824824
 21
-17.7112040829
 31
0.0
  0
ARC
  5
131
  8
VIDITELNE
  6
SLD-PLNÁ
 62
     2
 10
55.4603335227
 20
-33.4739384324
 30
0.0
 40
0.3419422208389107
 50
304.0205372609
 51
35.0
  0
ARC
  5
132
  8
VIDITELNE
  6
SLD-PLNÁ
 62
     2
 10
-10.0
 20
63.5
 30
0.0
 40
97.6580577791614
 50
236.1693828056
 51
303.8306171944
  0
LINE
  5
133
  8
VIDITELNE
  6
SLD-PLNÁ
 62
     2
 10
-64.3701070414
 20
-17.6232870975
 30
0.0
 11
-63.5355063826
 21
-16.378015522
 31
0.0
  0
LINE
  5
134
  8
VIDITELNE
  6
SLD-PLNÁ
 62
     2
 10
43.5355063826
 20
-16.378015522
 30
0.0
 11
44.3701070414
 21
-17.6232870975
 31
0.0
  0
ARC
  5
135
  8
VIDITELNE
  6
SLD-PLNÁ
 62
     2
 10
44.5604798132
 20
-17.9073340833
 30
0.0
 40
0.3419422208388969
 50
35.0
 51
123.8306171944
  0
LINE
  5
136
  8
VIDITELNE
  6
SLD-PLNÁ
 62
     2
 10
44.8405824824
 20
144.7112040829
 30
0.0
 11
55.740436192
 21
160.2778084319
 31
0.0
  0
ARC
  5
137
  8
VIDITELNE
  6
SLD-PLNÁ
 62
     2
 10
-10.0
 20
63.5
 30
0.0
 40
117.3419422208389
 50
55.9794627391
 51
84.1131578613
  0
LINE
  5
138
  8
VIDITELNE
  6
SLD-PLNÁ
 62
     2
 10
2.1888234319
 20
181.7143080558
 30
0.0
 11
2.035070997
 21
180.2231274009
 31
0.0
  0
ARC
  5
139
  8
VIDITELNE
  6
SLD-PLNÁ
 62
     2
 10
-10.0
 20
63.5
 30
0.0
 40
97.6580577791611
 50
56.1693828056
 51
82.9665386846
  0
LINE
  5
13A
  8
VIDITELNE
  6
SLD-PLNÁ
 62
     2
 10
1.7745679435
 20
158.9353569549
 30
0.0
 11
1.958129524
 21
160.4231622858
 31
0.0
  0
LINE
  5
13B
  8
VIDITELNE
  6
SLD-PLNÁ
 62
     2
 10
0.1589715386
 20
160.7625313263
 30
0.0
 11
1.6580577792
 21
160.7625313263
 31
0.0
  0
ARC
  5
13C
  8
VIDITELNE
  6
SLD-PLNÁ
 62
     2
 10
2.0
 20
160.7625313263
 30
0.0
 40
0.3419422208389247
 50
180.0
 51
262.9665386846
  0
LINE
  5
13D
  8
VIDITELNE
  6
SLD-PLNÁ
 62
     2
 10
-91.2112040829
 20
118.3405824824
 30
0.0
 11
-106.7778084319
 21
129.240436192
 31
0.0
  0
LINE
  5
13E
  8
VIDITELNE
  6
SLD-PLNÁ
 62
     2
 10
-105.9179678883
 20
130.4684157505
 30
0.0
 11
-106.7778084319
 21
129.240436192
 31
0.0
  0
LINE
  5
13F
  8
VIDITELNE
  6
SLD-PLNÁ
 62
     2
 10
-91.2112040829
 20
118.3405824824
 30
0.0
 11
-90.3513635392
 21
119.5685620409
 31
0.0
  0
ARC
  5
140
  8
VIDITELNE
  6
SLD-PLNÁ
 62
     2
 10
2.0
 20
179.8829884476
 30
0.0
 40
0.3419422208388934
 50
84.1131578613
 51
180.0
  0
LINE
  5
141
  8
VIDITELNE
  6
SLD-PLNÁ
 62
     2
 10
0.1589715386
 20
179.8829884476
 30
0.0
 11
1.6580577792
 21
179.8829884476
 31
0.0
  0
ARC
  5
142
  8
VIDITELNE
  6
SLD-PLNÁ
 62
     2
 10
-75.4603335227
 20
-33.4739384324
 30
0.0
 40
0.3419422208389251
 50
145.0
 51
235.9794627391
  0
LINE
  5
143
  8
VIDITELNE
  6
SLD-PLNÁ
 62
     2
 10
-75.740436192
 20
-33.2778084319
 30
0.0
 11
-76.9684157505
 21
-32.4179678883
 31
0.0
  0
ARC
  5
144
  8
VIDITELNE
  6
SLD-PLNÁ
 62
     2
 10
-75.4603335227
 20
160.4739384324
 30
0.0
 40
0.3419422208389019
 50
124.0205372609
 51
215.0
  0
LINE
  5
145
  8
VIDITELNE
  6
SLD-PLNÁ
 62
     2
 10
-76.9684157505
 20
159.4179678883
 30
0.0
 11
-75.740436192
 21
160.2778084319
 31
0.0
  0
ARC
  5
146
  8
VIDITELNE
  6
SLD-PLNÁ
 62
     2
 10
-64.5604798132
 20
-17.9073340833
 30
0.0
 40
0.3419422208388876
 50
56.1693828056
 51
145.0
  0
LINE
  5
147
  8
VIDITELNE
  6
SLD-PLNÁ
 62
     2
 10
-64.8405824824
 20
-17.7112040829
 30
0.0
 11
-66.0685620409
 21
-16.8513635392
 31
0.0
  0
ARC
  5
148
  8
VIDITELNE
  6
SLD-PLNÁ
 62
     2
 10
-91.4073340833
 20
118.0604798132
 30
0.0
 40
0.3419422208389216
 50
326.1693828056
 51
55.0
  0
LINE
  5
149
  8
VIDITELNE
  6
SLD-PLNÁ
 62
     2
 10
-91.1232870975
 20
117.8701070414
 30
0.0
 11
-89.878015522
 21
117.0355063826
 31
0.0
  0
LINE
  5
14A
  8
VIDITELNE
  6
SLD-PLNÁ
 62
     2
 10
-21.6580577792
 20
160.7625313263
 30
0.0
 11
-21.6580577792
 21
179.8829884476
 31
0.0
  0
LINE
  5
14B
  8
VIDITELNE
  6
SLD-PLNÁ
 62
     2
 10
-21.6580577792
 20
179.8829884476
 30
0.0
 11
-20.1589715386
 21
179.8829884476
 31
0.0
  0
LINE
  5
14C
  8
VIDITELNE
  6
SLD-PLNÁ
 62
     2
 10
-21.6580577792
 20
160.7625313263
 30
0.0
 11
-20.1589715386
 21
160.7625313263
 31
0.0
  0
LINE
  5
14D
  8
VIDITELNE
  6
SLD-PLNÁ
 62
     2
 10
1.6580577792
 20
179.8829884476
 30
0.0
 11
1.6580577792
 21
160.7625313263
 31
0.0
  0
ARC
  5
14E
  8
VIDITELNE
  6
SLD-PLNÁ
 62
     2
 10
-22.0
 20
179.8829884476
 30
0.0
 40
0.3419422208388987
 50
0.0
 51
95.8868421387
  0
ARC
  5
14F
  8
VIDITELNE
  6
SLD-PLNÁ
 62
     2
 10
-10.0
 20
63.5
 30
0.0
 40
97.65805777916113
 50
146.1693828056
 51
213.8306171944
  0
LINE
  5
150
  8
VIDITELNE
  6
SLD-PLNÁ
 62
     2
 10
-91.1232870975
 20
9.1298929586
 30
0.0
 11
-89.878015522
 21
9.9644936174
 31
0.0
  0
LINE
  5
151
  8
VIDITELNE
  6
SLD-PLNÁ
 62
     2
 10
-66.0685620409
 20
143.8513635392
 30
0.0
 11
-64.8405824824
 21
144.7112040829
 31
0.0
  0
ARC
  5
152
  8
VIDITELNE
  6
SLD-PLNÁ
 62
     2
 10
-64.5604798132
 20
144.9073340833
 30
0.0
 40
0.3419422208389019
 50
215.0
 51
303.8306171944
  0
ARC
  5
153
  8
VIDITELNE
  6
SLD-PLNÁ
 62
     2
 10
-22.0
 20
160.7625313263
 30
0.0
 40
0.3419422208389233
 50
277.0334613154
 51
0.0
  0
LINE
  5
154
  8
VIDITELNE
  6
SLD-PLNÁ
 62
     2
 10
-75.740436192
 20
160.2778084319
 30
0.0
 11
-64.8405824824
 21
144.7112040829
 31
0.0
  0
LINE
  5
155
  8
VIDITELNE
  6
SLD-PLNÁ
 62
     2
 10
-64.8405824824
 20
-17.7112040829
 30
0.0
 11
-75.740436192
 21
-33.2778084319
 31
0.0
  0
LINE
  5
156
  8
VIDITELNE
  6
SLD-PLNÁ
 62
     2
 10
-108.4998510877
 20
129.990370592
 30
0.0
 11
-107.2573528245
 21
129.1516467862
 31
0.0
  0
ARC
  5
157
  8
VIDITELNE
  6
SLD-PLNÁ
 62
     2
 10
-10.0
 20
63.5
 30
0.0
 40
117.3419422208391
 50
145.9794627391
 51
214.0205372609
  0
LINE
  5
158
  8
VIDITELNE
  6
SLD-PLNÁ
 62
     2
 10
-108.4998510877
 20
-2.990370592
 30
0.0
 11
-107.2573528245
 21
-2.1516467862
 31
0.0
  0
ARC
  5
159
  8
VIDITELNE
  6
SLD-PLNÁ
 62
     2
 10
-106.9739384324
 20
128.9603335227
 30
0.0
 40
0.3419422208388999
 50
55.0
 51
145.9794627391
  0
LINE
  5
15A
  8
VIDITELNE
  6
SLD-PLNÁ
 62
     2
 10
-106.7778084319
 20
-2.240436192
 30
0.0
 11
-91.2112040829
 21
8.6594175176
 31
0.0
  0
LINE
  5
15B
  8
VIDITELNE
  6
SLD-PLNÁ
 62
     2
 10
-91.2112040829
 20
8.6594175176
 30
0.0
 11
-90.3513635392
 21
7.4314379591
 31
0.0
  0
LINE
  5
15C
  8
VIDITELNE
  6
SLD-PLNÁ
 62
     2
 10
-105.9179678883
 20
-3.4684157505
 30
0.0
 11
-106.7778084319
 21
-2.240436192
 31
0.0
  0
ARC
  5
15D
  8
VIDITELNE
  6
SLD-PLNÁ
 62
     2
 10
-106.9739384324
 20
-1.9603335227
 30
0.0
 40
0.3419422208389167
 50
214.0205372609
 51
305.0
  0
ARC
  5
15E
  8
VIDITELNE
  6
SLD-PLNÁ
 62
     2
 10
-91.4073340833
 20
8.9395201868
 30
0.0
 40
0.3419422208388831
 50
305.0
 51
33.8306171944
  0
CIRCLE
  5
15F
  8
VIDITELNE
  6
SLD-PLNÁ
 62
     2
 10
-10.0
 20
63.5
 30
0.0
 40
18.0
  0
CIRCLE
  5
160
  8
VIDITELNE
  6
SLD-PLNÁ
 62
     2
 10
-10.0
 20
63.5
 30
0.0
 40
20.0
  0
ARC
  5
161
  8
VIDITELNE
  6
SLD-PLNÁ
 62
     2
 10
-10.0
 20
63.5
 30
0.0
 40
13.99999999999999
 50
106.601549599
 51
73.398450401
  0
LINE
  5
162
  8
VIDITELNE
  6
SLD-PLNÁ
 62
     2
 10
-6.0
 20
76.916407865
 30
0.0
 11
-6.0
 21
78.1172825247
 31
0.0
  0
ARC
  5
163
  8
VIDITELNE
  6
SLD-PLNÁ
 62
     2
 10
-10.0
 20
63.5
 30
0.0
 40
15.15470053837924
 50
105.3042448177
 51
74.6957551823
  0
LINE
  5
164
  8
VIDITELNE
  6
SLD-PLNÁ
 62
     2
 10
-14.0
 20
78.1172825247
 30
0.0
 11
-14.0
 21
76.916407865
 31
0.0
  0
LINE
  5
165
  8
VIDITELNE
  6
SLD-PLNÁ
 62
     2
 10
-6.0
 20
78.1172825247
 30
0.0
 11
-6.0
 21
80.8
 31
0.0
  0
LINE
  5
166
  8
VIDITELNE
  6
SLD-PLNÁ
 62
     2
 10
-6.0
 20
80.8
 30
0.0
 11
-14.0
 21
80.8
 31
0.0
  0
LINE
  5
167
  8
VIDITELNE
  6
SLD-PLNÁ
 62
     2
 10
-14.0
 20
80.8
 30
0.0
 11
-14.0
 21
78.1172825247
 31
0.0
  0
LINE
  5
168
  8
VIDITELNE
  6
SLD-PLNÁ
 62
     2
 10
-68.0
 20
-47.22939989
 30
0.0
 11
-68.0
 21
-181.5
 31
0.0
  0
LINE
  5
169
  8
VIDITELNE
  6
SLD-PLNÁ
 62
     2
 10
48.0
 20
-47.22939989
 30
0.0
 11
48.0
 21
-181.5
 31
0.0
  0
LINE
  5
16A
  8
VIDITELNE
  6
SLD-PLNÁ
 62
     2
 10
-96.0
 20
-56.5
 30
0.0
 11
-96.0
 21
-27.2138357694
 31
0.0
  0
LINE
  5
16B
  8
VIDITELNE
  6
SLD-PLNÁ
 62
     2
 10
-96.0
 20
-87.0
 30
0.0
 11
-96.0
 21
-56.5
 31
0.0
  0
LINE
  5
16C
  8
VIDITELNE
  6
SLD-PLNÁ
 62
     2
 10
-10.0
 20
-184.5
 30
0.0
 11
5.0
 21
-184.5
 31
0.0
  0
LINE
  5
16D
  8
VIDITELNE
  6
SLD-PLNÁ
 62
     2
 10
-25.0
 20
-184.5
 30
0.0
 11
-10.0
 21
-184.5
 31
0.0
  0
LINE
  5
16E
  8
VIDITELNE
  6
SLD-PLNÁ
 62
     2
 10
-0.5
 20
-188.5
 30
0.0
 11
-19.5
 21
-188.5
 31
0.0
  0
LINE
  5
16F
  8
VIDITELNE
  6
SLD-PLNÁ
 62
     2
 10
120.0
 20
-179.4999999995
 30
0.0
 11
120.0
 21
66.5
 31
0.0
  0
LINE
  5
170
  8
VIDITELNE
  6
SLD-PLNÁ
 62
     2
 10
135.0
 20
-181.5
 30
0.0
 11
135.0
 21
68.5
 31
0.0
  0
POLYLINE
  5
171
  8
VIDITELNE
  6
SLD-PLNÁ
 62
     2
 66
     1
 10
0.0
 20
0.0
 30
0.0
  0
VERTEX
  5
707
  8
VIDITELNE
  6
SLD-PLNÁ
 62
     2
 10
57.0697989934
 20
-58.8349870732
 30
0.0
  0
VERTEX
  5
708
  8
VIDITELNE
  6
SLD-PLNÁ
 62
     2
 10
57.0892079691
 20
-57.3055585499
 30
0.0
  0
VERTEX
  5
709
  8
VIDITELNE
  6
SLD-PLNÁ
 62
     2
 10
57.0697989934
 20
-54.1650129268
 30
0.0
  0
SEQEND
  5
70A
  8
VIDITELNE
  6
SLD-PLNÁ
 62
     2
  0
LINE
  5
172
  8
VIDITELNE
  6
SLD-PLNÁ
 62
     2
 10
57.0697989934
 20
-142.997842933
 30
0.0
 11
57.0697989934
 21
-58.8349870732
 31
0.0
  0
POLYLINE
  5
173
  8
VIDITELNE
  6
SLD-PLNÁ
 62
     2
 66
     1
 10
0.0
 20
0.0
 30
0.0
  0
VERTEX
  5
70B
  8
VIDITELNE
  6
SLD-PLNÁ
 62
     2
 10
57.0697989934
 20
-146.3000133199
 30
0.0
  0
VERTEX
  5
70C
  8
VIDITELNE
  6
SLD-PLNÁ
 62
     2
 10
57.0892079691
 20
-145.2316862311
 30
0.0
  0
VERTEX
  5
70D
  8
VIDITELNE
  6
SLD-PLNÁ
 62
     2
 10
57.0697989934
 20
-142.997842933
 30
0.0
  0
SEQEND
  5
70E
  8
VIDITELNE
  6
SLD-PLNÁ
 62
     2
  0
LINE
  5
174
  8
VIDITELNE
  6
SLD-PLNÁ
 62
     2
 10
57.0697989934
 20
-181.1614096651
 30
0.0
 11
57.0697989934
 21
-146.3000133199
 31
0.0
  0
ARC
  5
175
  8
VIDITELNE
  6
SLD-PLNÁ
 62
     2
 10
57.5411458116
 20
-79.6444825835
 30
0.0
 40
25.48382902574723
 50
86.7182361343
 51
91.0597984854
  0
LINE
  5
176
  8
VIDITELNE
  6
SLD-PLNÁ
 62
     2
 10
59.0
 20
-54.2024448061
 30
0.0
 11
59.0
 21
-58.7975551939
 31
0.0
  0
ARC
  5
177
  8
VIDITELNE
  6
SLD-PLNÁ
 62
     2
 10
57.5411458116
 20
-33.3555174165
 30
0.0
 40
25.48382902574202
 50
268.9402015146
 51
273.2817638657
  0
LINE
  5
178
  8
VIDITELNE
  6
SLD-PLNÁ
 62
     2
 10
59.0
 20
-8.6663694726
 30
0.0
 11
59.0
 21
-16.3615884825
 31
0.0
  0
LINE
  5
179
  8
VIDITELNE
  6
SLD-PLNÁ
 62
     2
 10
59.0
 20
-40.7305137664
 30
0.0
 11
59.0
 21
-54.2024448061
 31
0.0
  0
LINE
  5
17A
  8
VIDITELNE
  6
SLD-PLNÁ
 62
     2
 10
59.0
 20
-58.7975551939
 30
0.0
 11
59.0
 21
-141.6112070696
 31
0.0
  0
ARC
  5
17B
  8
VIDITELNE
  6
SLD-PLNÁ
 62
     2
 10
57.2808038361
 20
-141.2548217291
 30
0.0
 40
1.75574655372365
 50
263.0975345779
 51
348.2885941922
  0
LINE
  5
17C
  8
VIDITELNE
  6
SLD-PLNÁ
 62
     2
 10
69.0
 20
-49.5
 30
0.0
 11
69.0
 21
-63.5
 31
0.0
  0
LINE
  5
17D
  8
VIDITELNE
  6
SLD-PLNÁ
 62
     2
 10
59.0
 20
-141.6112070696
 30
0.0
 11
59.0
 21
-144.8604407852
 31
0.0
  0
ARC
  5
17E
  8
VIDITELNE
  6
SLD-PLNÁ
 62
     2
 10
57.2605318293
 20
-144.5419429682
 30
0.0
 40
1.768386376468984
 50
263.8082047469
 51
349.6240389161
  0
LINE
  5
17F
  8
VIDITELNE
  6
SLD-PLNÁ
 62
     2
 10
69.0
 20
-130.8172798365
 30
0.0
 11
69.0
 21
-144.8172798365
 31
0.0
  0
ARC
  5
180
  8
VIDITELNE
  6
SLD-PLNÁ
 62
     2
 10
57.0001898538
 20
-179.1628113521
 30
0.0
 40
1.999810153231881
 50
271.9947472089
 51
359.9952099163
  0
LINE
  5
181
  8
VIDITELNE
  6
SLD-PLNÁ
 62
     2
 10
59.0
 20
-144.8604407852
 30
0.0
 11
59.0
 21
-179.1629785417
 31
0.0
  0
LINE
  5
182
  8
VIDITELNE
  6
SLD-PLNÁ
 62
     2
 10
69.0
 20
-164.5
 30
0.0
 11
69.0
 21
-178.5
 31
0.0
  0
LINE
  5
183
  8
VIDITELNE
  6
SLD-PLNÁ
 62
     2
 10
59.0
 20
-179.1629785417
 30
0.0
 11
59.0
 21
-179.5
 31
0.0
  0
ARC
  5
184
  8
VIDITELNE
  6
SLD-PLNÁ
 62
     2
 10
-50.7031939779
 20
40.0
 30
0.0
 40
3.464101615137586
 50
240.0
 51
300.0
  0
LINE
  5
185
  8
VIDITELNE
  6
SLD-PLNÁ
 62
     2
 10
-48.9711431703
 20
37.0
 30
0.0
 11
-52.4352447854
 21
37.0
 31
0.0
  0
ARC
  5
186
  8
VIDITELNE
  6
SLD-PLNÁ
 62
     2
 10
-50.7031939779
 20
40.0
 30
0.0
 40
3.464101615140907
 50
60.0
 51
120.0
  0
LINE
  5
187
  8
VIDITELNE
  6
SLD-PLNÁ
 62
     2
 10
-52.4352447854
 20
43.0
 30
0.0
 11
-48.9711431703
 21
43.0
 31
0.0
  0
ARC
  5
188
  8
VIDITELNE
  6
SLD-PLNÁ
 62
     2
 10
-50.7031939779
 20
40.0
 30
0.0
 40
3.464101615140907
 50
120.0
 51
180.0
  0
LINE
  5
189
  8
VIDITELNE
  6
SLD-PLNÁ
 62
     2
 10
-54.167295593
 20
40.0
 30
0.0
 11
-52.4352447854
 21
43.0
 31
0.0
  0
ARC
  5
18A
  8
VIDITELNE
  6
SLD-PLNÁ
 62
     2
 10
-50.7031939779
 20
40.0
 30
0.0
 40
3.464101615137025
 50
300.0
 51
0.0
  0
LINE
  5
18B
  8
VIDITELNE
  6
SLD-PLNÁ
 62
     2
 10
-47.2390923627
 20
40.0
 30
0.0
 11
-48.9711431703
 21
37.0
 31
0.0
  0
ARC
  5
18C
  8
VIDITELNE
  6
SLD-PLNÁ
 62
     2
 10
-50.7031939779
 20
40.0
 30
0.0
 40
3.46410161513846
 50
180.0
 51
240.0
  0
LINE
  5
18D
  8
VIDITELNE
  6
SLD-PLNÁ
 62
     2
 10
-52.4352447854
 20
37.0
 30
0.0
 11
-54.167295593
 21
40.0
 31
0.0
  0
ARC
  5
18E
  8
VIDITELNE
  6
SLD-PLNÁ
 62
     2
 10
-50.7031939779
 20
40.0
 30
0.0
 40
3.464101615139211
 50
0.0
 51
60.0
  0
LINE
  5
18F
  8
VIDITELNE
  6
SLD-PLNÁ
 62
     2
 10
-48.9711431703
 20
43.0
 30
0.0
 11
-47.2390923627
 21
40.0
 31
0.0
  0
CIRCLE
  5
190
  8
VIDITELNE
  6
SLD-PLNÁ
 62
     2
 10
-50.7031939779
 20
40.0
 30
0.0
 40
5.700000000000363
  0
CIRCLE
  5
191
  8
VIDITELNE
  6
SLD-PLNÁ
 62
     2
 10
-50.7031939779
 20
40.0
 30
0.0
 40
6.500000000000414
  0
ARC
  5
192
  8
VIDITELNE
  6
SLD-PLNÁ
 62
     2
 10
-10.0
 20
16.5
 30
0.0
 40
3.464101615137582
 50
300.0
 51
0.0
  0
LINE
  5
193
  8
VIDITELNE
  6
SLD-PLNÁ
 62
     2
 10
-6.5358983849
 20
16.5
 30
0.0
 11
-8.2679491924
 21
13.5
 31
0.0
  0
ARC
  5
194
  8
VIDITELNE
  6
SLD-PLNÁ
 62
     2
 10
-10.0
 20
16.5
 30
0.0
 40
3.464101615140908
 50
180.0
 51
240.0
  0
LINE
  5
195
  8
VIDITELNE
  6
SLD-PLNÁ
 62
     2
 10
-11.7320508076
 20
13.5
 30
0.0
 11
-13.4641016151
 21
16.5
 31
0.0
  0
ARC
  5
196
  8
VIDITELNE
  6
SLD-PLNÁ
 62
     2
 10
-10.0
 20
16.5
 30
0.0
 40
3.464101615140908
 50
120.0
 51
180.0
  0
LINE
  5
197
  8
VIDITELNE
  6
SLD-PLNÁ
 62
     2
 10
-13.4641016151
 20
16.5
 30
0.0
 11
-11.7320508076
 21
19.5
 31
0.0
  0
ARC
  5
198
  8
VIDITELNE
  6
SLD-PLNÁ
 62
     2
 10
-10.0
 20
16.5
 30
0.0
 40
3.464101615137016
 50
0.0
 51
60.0
  0
LINE
  5
199
  8
VIDITELNE
  6
SLD-PLNÁ
 62
     2
 10
-8.2679491924
 20
19.5
 30
0.0
 11
-6.5358983849
 21
16.5
 31
0.0
  0
ARC
  5
19A
  8
VIDITELNE
  6
SLD-PLNÁ
 62
     2
 10
-10.0
 20
16.5
 30
0.0
 40
3.464101615138462
 50
240.0
 51
300.0
  0
LINE
  5
19B
  8
VIDITELNE
  6
SLD-PLNÁ
 62
     2
 10
-8.2679491924
 20
13.5
 30
0.0
 11
-11.7320508076
 21
13.5
 31
0.0
  0
ARC
  5
19C
  8
VIDITELNE
  6
SLD-PLNÁ
 62
     2
 10
-10.0
 20
16.5
 30
0.0
 40
3.464101615139214
 50
60.0
 51
120.0
  0
LINE
  5
19D
  8
VIDITELNE
  6
SLD-PLNÁ
 62
     2
 10
-11.7320508076
 20
19.5
 30
0.0
 11
-8.2679491924
 21
19.5
 31
0.0
  0
CIRCLE
  5
19E
  8
VIDITELNE
  6
SLD-PLNÁ
 62
     2
 10
-10.0
 20
16.5
 30
0.0
 40
5.700000000000365
  0
CIRCLE
  5
19F
  8
VIDITELNE
  6
SLD-PLNÁ
 62
     2
 10
-10.0
 20
16.5
 30
0.0
 40
6.500000000000416
  0
ARC
  5
1A0
  8
VIDITELNE
  6
SLD-PLNÁ
 62
     2
 10
-50.7031939779
 20
87.0
 30
0.0
 40
3.464101615137572
 50
180.0
 51
240.0
  0
LINE
  5
1A1
  8
VIDITELNE
  6
SLD-PLNÁ
 62
     2
 10
-52.4352447854
 20
84.0
 30
0.0
 11
-54.167295593
 21
87.0
 31
0.0
  0
ARC
  5
1A2
  8
VIDITELNE
  6
SLD-PLNÁ
 62
     2
 10
-50.7031939779
 20
87.0
 30
0.0
 40
3.464101615140895
 50
0.0
 51
60.0
  0
LINE
  5
1A3
  8
VIDITELNE
  6
SLD-PLNÁ
 62
     2
 10
-48.9711431703
 20
90.0
 30
0.0
 11
-47.2390923627
 21
87.0
 31
0.0
  0
ARC
  5
1A4
  8
VIDITELNE
  6
SLD-PLNÁ
 62
     2
 10
-50.7031939779
 20
87.0
 30
0.0
 40
3.464101615140895
 50
60.0
 51
120.0
  0
LINE
  5
1A5
  8
VIDITELNE
  6
SLD-PLNÁ
 62
     2
 10
-52.4352447854
 20
90.0
 30
0.0
 11
-48.9711431703
 21
90.0
 31
0.0
  0
ARC
  5
1A6
  8
VIDITELNE
  6
SLD-PLNÁ
 62
     2
 10
-50.7031939779
 20
87.0
 30
0.0
 40
3.464101615137025
 50
240.0
 51
300.0
  0
LINE
  5
1A7
  8
VIDITELNE
  6
SLD-PLNÁ
 62
     2
 10
-48.9711431703
 20
84.0
 30
0.0
 11
-52.4352447854
 21
84.0
 31
0.0
  0
ARC
  5
1A8
  8
VIDITELNE
  6
SLD-PLNÁ
 62
     2
 10
-50.7031939779
 20
87.0
 30
0.0
 40
3.46410161513845
 50
120.0
 51
180.0
  0
LINE
  5
1A9
  8
VIDITELNE
  6
SLD-PLNÁ
 62
     2
 10
-54.167295593
 20
87.0
 30
0.0
 11
-52.4352447854
 21
90.0
 31
0.0
  0
ARC
  5
1AA
  8
VIDITELNE
  6
SLD-PLNÁ
 62
     2
 10
-50.7031939779
 20
87.0
 30
0.0
 40
3.464101615139221
 50
300.0
 51
0.0
  0
LINE
  5
1AB
  8
VIDITELNE
  6
SLD-PLNÁ
 62
     2
 10
-47.2390923627
 20
87.0
 30
0.0
 11
-48.9711431703
 21
84.0
 31
0.0
  0
CIRCLE
  5
1AC
  8
VIDITELNE
  6
SLD-PLNÁ
 62
     2
 10
-50.7031939779
 20
87.0
 30
0.0
 40
5.700000000000375
  0
CIRCLE
  5
1AD
  8
VIDITELNE
  6
SLD-PLNÁ
 62
     2
 10
-50.7031939779
 20
87.0
 30
0.0
 40
6.500000000000422
  0
ARC
  5
1AE
  8
VIDITELNE
  6
SLD-PLNÁ
 62
     2
 10
-10.0
 20
110.5
 30
0.0
 40
3.464101615137578
 50
120.0
 51
180.0
  0
LINE
  5
1AF
  8
VIDITELNE
  6
SLD-PLNÁ
 62
     2
 10
-13.4641016151
 20
110.5
 30
0.0
 11
-11.7320508076
 21
113.5
 31
0.0
  0
ARC
  5
1B0
  8
VIDITELNE
  6
SLD-PLNÁ
 62
     2
 10
-10.0
 20
110.5
 30
0.0
 40
3.464101615140908
 50
300.0
 51
360.0
  0
LINE
  5
1B1
  8
VIDITELNE
  6
SLD-PLNÁ
 62
     2
 10
-6.5358983849
 20
110.5
 30
0.0
 11
-8.2679491924
 21
107.5
 31
0.0
  0
ARC
  5
1B2
  8
VIDITELNE
  6
SLD-PLNÁ
 62
     2
 10
-10.0
 20
110.5
 30
0.0
 40
3.464101615140908
 50
360.0
 51
60.0
  0
LINE
  5
1B3
  8
VIDITELNE
  6
SLD-PLNÁ
 62
     2
 10
-8.2679491924
 20
113.5
 30
0.0
 11
-6.5358983849
 21
110.5
 31
0.0
  0
ARC
  5
1B4
  8
VIDITELNE
  6
SLD-PLNÁ
 62
     2
 10
-10.0
 20
110.5
 30
0.0
 40
3.464101615137015
 50
180.0
 51
240.0
  0
LINE
  5
1B5
  8
VIDITELNE
  6
SLD-PLNÁ
 62
     2
 10
-11.7320508076
 20
107.5
 30
0.0
 11
-13.4641016151
 21
110.5
 31
0.0
  0
ARC
  5
1B6
  8
VIDITELNE
  6
SLD-PLNÁ
 62
     2
 10
-10.0
 20
110.5
 30
0.0
 40
3.464101615138474
 50
60.0
 51
120.0
  0
LINE
  5
1B7
  8
VIDITELNE
  6
SLD-PLNÁ
 62
     2
 10
-11.7320508076
 20
113.5
 30
0.0
 11
-8.2679491924
 21
113.5
 31
0.0
  0
ARC
  5
1B8
  8
VIDITELNE
  6
SLD-PLNÁ
 62
     2
 10
-10.0
 20
110.5
 30
0.0
 40
3.464101615139197
 50
240.0
 51
300.0
  0
LINE
  5
1B9
  8
VIDITELNE
  6
SLD-PLNÁ
 62
     2
 10
-8.2679491924
 20
107.5
 30
0.0
 11
-11.7320508076
 21
107.5
 31
0.0
  0
CIRCLE
  5
1BA
  8
VIDITELNE
  6
SLD-PLNÁ
 62
     2
 10
-10.0
 20
110.5
 30
0.0
 40
5.700000000000365
  0
CIRCLE
  5
1BB
  8
VIDITELNE
  6
SLD-PLNÁ
 62
     2
 10
-10.0
 20
110.5
 30
0.0
 40
6.500000000000416
  0
ARC
  5
1BC
  8
VIDITELNE
  6
SLD-PLNÁ
 62
     2
 10
30.7031939779
 20
87.0
 30
0.0
 40
3.464101615137579
 50
60.0
 51
120.0
  0
LINE
  5
1BD
  8
VIDITELNE
  6
SLD-PLNÁ
 62
     2
 10
28.9711431703
 20
90.0
 30
0.0
 11
32.4352447854
 21
90.0
 31
0.0
  0
ARC
  5
1BE
  8
VIDITELNE
  6
SLD-PLNÁ
 62
     2
 10
30.7031939779
 20
87.0
 30
0.0
 40
3.464101615140917
 50
300.0
 51
360.0
  0
LINE
  5
1BF
  8
VIDITELNE
  6
SLD-PLNÁ
 62
     2
 10
34.167295593
 20
87.0
 30
0.0
 11
32.4352447854
 21
84.0
 31
0.0
  0
ARC
  5
1C0
  8
VIDITELNE
  6
SLD-PLNÁ
 62
     2
 10
30.7031939779
 20
87.0
 30
0.0
 40
3.464101615140917
 50
240.0
 51
300.0
  0
LINE
  5
1C1
  8
VIDITELNE
  6
SLD-PLNÁ
 62
     2
 10
32.4352447854
 20
84.0
 30
0.0
 11
28.9711431703
 21
84.0
 31
0.0
  0
ARC
  5
1C2
  8
VIDITELNE
  6
SLD-PLNÁ
 62
     2
 10
30.7031939779
 20
87.0
 30
0.0
 40
3.464101615137018
 50
120.0
 51
180.0
  0
LINE
  5
1C3
  8
VIDITELNE
  6
SLD-PLNÁ
 62
     2
 10
27.2390923627
 20
87.0
 30
0.0
 11
28.9711431703
 21
90.0
 31
0.0
  0
ARC
  5
1C4
  8
VIDITELNE
  6
SLD-PLNÁ
 62
     2
 10
30.7031939779
 20
87.0
 30
0.0
 40
3.464101615138468
 50
360.0
 51
60.0
  0
LINE
  5
1C5
  8
VIDITELNE
  6
SLD-PLNÁ
 62
     2
 10
32.4352447854
 20
90.0
 30
0.0
 11
34.167295593
 21
87.0
 31
0.0
  0
ARC
  5
1C6
  8
VIDITELNE
  6
SLD-PLNÁ
 62
     2
 10
30.7031939779
 20
87.0
 30
0.0
 40
3.464101615139211
 50
180.0
 51
240.0
  0
LINE
  5
1C7
  8
VIDITELNE
  6
SLD-PLNÁ
 62
     2
 10
28.9711431703
 20
84.0
 30
0.0
 11
27.2390923627
 21
87.0
 31
0.0
  0
CIRCLE
  5
1C8
  8
VIDITELNE
  6
SLD-PLNÁ
 62
     2
 10
30.7031939779
 20
87.0
 30
0.0
 40
5.700000000000364
  0
CIRCLE
  5
1C9
  8
VIDITELNE
  6
SLD-PLNÁ
 62
     2
 10
30.7031939779
 20
87.0
 30
0.0
 40
6.500000000000411
  0
ARC
  5
1CA
  8
VIDITELNE
  6
SLD-PLNÁ
 62
     2
 10
30.7031939779
 20
40.0
 30
0.0
 40
3.464101615137583
 50
360.0
 51
60.0
  0
LINE
  5
1CB
  8
VIDITELNE
  6
SLD-PLNÁ
 62
     2
 10
32.4352447854
 20
43.0
 30
0.0
 11
34.167295593
 21
40.0
 31
0.0
  0
ARC
  5
1CC
  8
VIDITELNE
  6
SLD-PLNÁ
 62
     2
 10
30.7031939779
 20
40.0
 30
0.0
 40
3.464101615140915
 50
240.0
 51
300.0
  0
LINE
  5
1CD
  8
VIDITELNE
  6
SLD-PLNÁ
 62
     2
 10
32.4352447854
 20
37.0
 30
0.0
 11
28.9711431703
 21
37.0
 31
0.0
  0
ARC
  5
1CE
  8
VIDITELNE
  6
SLD-PLNÁ
 62
     2
 10
30.7031939779
 20
40.0
 30
0.0
 40
3.464101615140915
 50
180.0
 51
240.0
  0
LINE
  5
1CF
  8
VIDITELNE
  6
SLD-PLNÁ
 62
     2
 10
28.9711431703
 20
37.0
 30
0.0
 11
27.2390923627
 21
40.0
 31
0.0
  0
ARC
  5
1D0
  8
VIDITELNE
  6
SLD-PLNÁ
 62
     2
 10
30.7031939779
 20
40.0
 30
0.0
 40
3.46410161513701
 50
60.0
 51
120.0
  0
LINE
  5
1D1
  8
VIDITELNE
  6
SLD-PLNÁ
 62
     2
 10
28.9711431703
 20
43.0
 30
0.0
 11
32.4352447854
 21
43.0
 31
0.0
  0
ARC
  5
1D2
  8
VIDITELNE
  6
SLD-PLNÁ
 62
     2
 10
30.7031939779
 20
40.0
 30
0.0
 40
3.464101615138472
 50
300.0
 51
360.0
  0
LINE
  5
1D3
  8
VIDITELNE
  6
SLD-PLNÁ
 62
     2
 10
34.167295593
 20
40.0
 30
0.0
 11
32.4352447854
 21
37.0
 31
0.0
  0
ARC
  5
1D4
  8
VIDITELNE
  6
SLD-PLNÁ
 62
     2
 10
30.7031939779
 20
40.0
 30
0.0
 40
3.46410161513921
 50
120.0
 51
180.0
  0
LINE
  5
1D5
  8
VIDITELNE
  6
SLD-PLNÁ
 62
     2
 10
27.2390923627
 20
40.0
 30
0.0
 11
28.9711431703
 21
43.0
 31
0.0
  0
CIRCLE
  5
1D6
  8
VIDITELNE
  6
SLD-PLNÁ
 62
     2
 10
30.7031939779
 20
40.0
 30
0.0
 40
5.700000000000372
  0
CIRCLE
  5
1D7
  8
VIDITELNE
  6
SLD-PLNÁ
 62
     2
 10
30.7031939779
 20
40.0
 30
0.0
 40
6.500000000000415
  0
LINE
  5
1D8
  8
VIDITELNE
  6
SLD-PLNÁ
 62
     2
 10
-79.0
 20
-56.5
 30
0.0
 11
-79.0
 21
-40.7305137664
 31
0.0
  0
LINE
  5
1D9
  8
VIDITELNE
  6
SLD-PLNÁ
 62
     2
 10
-79.0
 20
-16.3615884825
 30
0.0
 11
-79.0
 21
-8.6663694726
 31
0.0
  0
LINE
  5
1DA
  8
VIDITELNE
  6
SLD-PLNÁ
 62
     2
 10
-79.0
 20
-181.1158715356
 30
0.0
 11
-79.0
 21
-56.5
 31
0.0
  0
LINE
  5
1DB
  8
VIDITELNE
  6
SLD-PLNÁ
 62
     2
 10
-68.0
 20
-56.5
 30
0.0
 11
-68.0
 21
-47.22939989
 31
0.0
  0
LINE
  5
1DC
  8
VIDITELNE
  6
SLD-PLNÁ
 62
     2
 10
-68.0
 20
-181.5
 30
0.0
 11
-68.0
 21
-56.5
 31
0.0
  0
LINE
  5
1DD
  8
VIDITELNE
  6
SLD-PLNÁ
 62
     2
 10
-89.0
 20
-56.5
 30
0.0
 11
-89.0
 21
-49.5
 31
0.0
  0
LINE
  5
1DE
  8
VIDITELNE
  6
SLD-PLNÁ
 62
     2
 10
-89.0
 20
-63.5
 30
0.0
 11
-89.0
 21
-56.5
 31
0.0
  0
LINE
  5
1DF
  8
VIDITELNE
  6
SLD-PLNÁ
 62
     2
 10
-79.0
 20
-99.4667598754
 30
0.0
 11
-90.5
 21
-89.1271676757
 31
0.0
  0
LINE
  5
1E0
  8
VIDITELNE
  6
SLD-PLNÁ
 62
     2
 10
-90.5
 20
-89.1271676757
 30
0.0
 11
-79.0
 21
-91.6701128387
 31
0.0
  0
LINE
  5
1E1
  8
VIDITELNE
  6
SLD-PLNÁ
 62
     2
 10
-90.5
 20
-96.5182039358
 30
0.0
 11
-79.0
 21
-106.8577961355
 31
0.0
  0
LINE
  5
1E2
  8
VIDITELNE
  6
SLD-PLNÁ
 62
     2
 10
-90.5
 20
-96.5182039358
 30
0.0
 11
-90.5
 21
-89.1271676757
 31
0.0
  0
LINE
  5
1E3
  8
VIDITELNE
  6
SLD-PLNÁ
 62
     2
 10
-86.5693288845
 20
-20.3387856803
 30
0.0
 11
-79.0
 21
-13.5332401246
 31
0.0
  0
LINE
  5
1E4
  8
VIDITELNE
  6
SLD-PLNÁ
 62
     2
 10
-80.161104044
 20
-7.1861466746
 30
0.0
 11
-90.5
 21
-16.4817960642
 31
0.0
  0
LINE
  5
1E5
  8
VIDITELNE
  6
SLD-PLNÁ
 62
     2
 10
-90.5
 20
-19.1378460796
 30
0.0
 11
-90.5
 21
-16.4817960642
 31
0.0
  0
LINE
  5
1E6
  8
VIDITELNE
  6
SLD-PLNÁ
 62
     2
 10
-90.5
 20
-89.1271676757
 30
0.0
 11
-90.5
 21
-32.1281862214
 31
0.0
  0
LINE
  5
1E7
  8
VIDITELNE
  6
SLD-PLNÁ
 62
     2
 10
-90.5
 20
-142.6599869647
 30
0.0
 11
-89.0
 21
-143.4607538387
 31
0.0
  0
LINE
  5
1E8
  8
VIDITELNE
  6
SLD-PLNÁ
 62
     2
 10
-84.5857452259
 20
-145.8172798365
 30
0.0
 11
-79.0
 21
-148.7991996655
 31
0.0
  0
LINE
  5
1E9
  8
VIDITELNE
  6
SLD-PLNÁ
 62
     2
 10
-90.5
 20
-142.6599869647
 30
0.0
 11
-90.5
 21
-96.5182039358
 31
0.0
  0
LINE
  5
1EA
  8
VIDITELNE
  6
SLD-PLNÁ
 62
     2
 10
-90.5
 20
-16.4817960642
 30
0.0
 11
-90.5
 21
-5.8901118755
 31
0.0
  0
LINE
  5
1EB
  8
VIDITELNE
  6
SLD-PLNÁ
 62
     2
 10
-89.0
 20
-137.8172798365
 30
0.0
 11
-89.0
 21
-130.8172798365
 31
0.0
  0
LINE
  5
1EC
  8
VIDITELNE
  6
SLD-PLNÁ
 62
     2
 10
-89.0
 20
-144.8172798365
 30
0.0
 11
-89.0
 21
-137.8172798365
 31
0.0
  0
LINE
  5
1ED
  8
VIDITELNE
  6
SLD-PLNÁ
 62
     2
 10
-94.0
 20
-56.5
 30
0.0
 11
-94.0
 21
-29.0688932633
 31
0.0
  0
LINE
  5
1EE
  8
VIDITELNE
  6
SLD-PLNÁ
 62
     2
 10
-94.0
 20
-12.9867032408
 30
0.0
 11
-94.0
 21
-12.0412547143
 31
0.0
  0
LINE
  5
1EF
  8
VIDITELNE
  6
SLD-PLNÁ
 62
     2
 10
-94.0
 20
-121.5
 30
0.0
 11
-94.0
 21
-56.5
 31
0.0
  0
LINE
  5
1F0
  8
VIDITELNE
  6
SLD-PLNÁ
 62
     2
 10
-90.5
 20
-145.7214544236
 30
0.0
 11
-79.0
 21
-170.6834381415
 31
0.0
  0
LINE
  5
1F1
  8
VIDITELNE
  6
SLD-PLNÁ
 62
     2
 10
-79.0
 20
-167.6219706826
 30
0.0
 11
-90.5
 21
-142.6599869647
 31
0.0
  0
LINE
  5
1F2
  8
VIDITELNE
  6
SLD-PLNÁ
 62
     2
 10
-90.5
 20
-145.7214544236
 30
0.0
 11
-90.5
 21
-142.6599869647
 31
0.0
  0
LINE
  5
1F3
  8
VIDITELNE
  6
SLD-PLNÁ
 62
     2
 10
-90.5
 20
-151.5
 30
0.0
 11
-90.5
 21
-145.7214544236
 31
0.0
  0
LINE
  5
1F4
  8
VIDITELNE
  6
SLD-PLNÁ
 62
     2
 10
-89.0
 20
-171.5
 30
0.0
 11
-89.0
 21
-164.5
 31
0.0
  0
LINE
  5
1F5
  8
VIDITELNE
  6
SLD-PLNÁ
 62
     2
 10
-89.0
 20
-178.5
 30
0.0
 11
-89.0
 21
-171.5
 31
0.0
  0
LINE
  5
1F6
  8
VIDITELNE
  6
SLD-PLNÁ
 62
     2
 10
-63.0
 20
-49.7077735847
 30
0.0
 11
-63.0
 21
-56.5
 31
0.0
  0
LINE
  5
1F7
  8
VIDITELNE
  6
SLD-PLNÁ
 62
     2
 10
43.0
 20
-56.5
 30
0.0
 11
43.0
 21
-49.7077735847
 31
0.0
  0
LINE
  5
1F8
  8
VIDITELNE
  6
SLD-PLNÁ
 62
     2
 10
43.0
 20
-56.5
 30
0.0
 11
25.0
 21
-56.5
 31
0.0
  0
LINE
  5
1F9
  8
VIDITELNE
  6
SLD-PLNÁ
 62
     2
 10
-45.0
 20
-56.5
 30
0.0
 11
-63.0
 21
-56.5
 31
0.0
  0
POLYLINE
  5
1FA
  8
VIDITELNE
  6
SLD-PLNÁ
 62
     2
 66
     1
 10
0.0
 20
0.0
 30
0.0
  0
VERTEX
  5
70F
  8
VIDITELNE
  6
SLD-PLNÁ
 62
     2
 10
43.6203213021
 20
-49.2578290917
 30
0.0
  0
VERTEX
  5
710
  8
VIDITELNE
  6
SLD-PLNÁ
 62
     2
 10
43.006303955
 20
-56.4289579506
 30
0.0
  0
VERTEX
  5
711
  8
VIDITELNE
  6
SLD-PLNÁ
 62
     2
 10
43.0
 20
-56.5
 30
0.0
  0
SEQEND
  5
712
  8
VIDITELNE
  6
SLD-PLNÁ
 62
     2
  0
POLYLINE
  5
1FB
  8
VIDITELNE
  6
SLD-PLNÁ
 62
     2
 66
     1
 10
0.0
 20
0.0
 30
0.0
  0
VERTEX
  5
713
  8
VIDITELNE
  6
SLD-PLNÁ
 62
     2
 10
-63.0
 20
-56.5
 30
0.0
  0
VERTEX
  5
714
  8
VIDITELNE
  6
SLD-PLNÁ
 62
     2
 10
-63.006303955
 20
-56.4289579506
 30
0.0
  0
VERTEX
  5
715
  8
VIDITELNE
  6
SLD-PLNÁ
 62
     2
 10
-63.6216502673
 20
-49.2437153554
 30
0.0
  0
SEQEND
  5
716
  8
VIDITELNE
  6
SLD-PLNÁ
 62
     2
  0
POLYLINE
  5
1FC
  8
VIDITELNE
  6
SLD-PLNÁ
 62
     2
 66
     1
 10
0.0
 20
0.0
 30
0.0
  0
VERTEX
  5
717
  8
VIDITELNE
  6
SLD-PLNÁ
 62
     2
 10
-63.0
 20
-56.5
 30
0.0
  0
VERTEX
  5
718
  8
VIDITELNE
  6
SLD-PLNÁ
 62
     2
 10
-63.0125475578
 20
-56.4304114354
 30
0.0
  0
VERTEX
  5
719
  8
VIDITELNE
  6
SLD-PLNÁ
 62
     2
 10
-64.3184352375
 20
-48.9277141822
 30
0.0
  0
SEQEND
  5
71A
  8
VIDITELNE
  6
SLD-PLNÁ
 62
     2
  0
POLYLINE
  5
1FD
  8
VIDITELNE
  6
SLD-PLNÁ
 62
     2
 66
     1
 10
0.0
 20
0.0
 30
0.0
  0
VERTEX
  5
71B
  8
VIDITELNE
  6
SLD-PLNÁ
 62
     2
 10
44.3140357283
 20
-48.9472298466
 30
0.0
  0
VERTEX
  5
71C
  8
VIDITELNE
  6
SLD-PLNÁ
 62
     2
 10
43.0125475578
 20
-56.4304114354
 30
0.0
  0
VERTEX
  5
71D
  8
VIDITELNE
  6
SLD-PLNÁ
 62
     2
 10
43.0
 20
-56.5
 30
0.0
  0
SEQEND
  5
71E
  8
VIDITELNE
  6
SLD-PLNÁ
 62
     2
  0
ARC
  5
1FE
  8
VIDITELNE
  6
SLD-PLNÁ
 62
     2
 10
-10.0857815544
 20
-310.6816168021
 30
0.0
 40
130.3065842298743
 50
82.4873545902
 51
89.9622818646
  0
ARC
  5
1FF
  8
VIDITELNE
  6
SLD-PLNÁ
 62
     2
 10
-9.911415389
 20
-310.7275143815
 30
0.0
 40
130.3524836740974
 50
90.0389369238
 51
97.5326349277
  0
ARC
  5
200
  8
VIDITELNE
  6
SLD-PLNÁ
 62
     2
 10
-9.9047757024
 20
-282.6087497586
 30
0.0
 40
100.2517332026746
 50
90.0544225123
 51
98.6598773543
  0
ARC
  5
201
  8
VIDITELNE
  6
SLD-PLNÁ
 62
     2
 10
-10.0913424496
 20
-282.5677022788
 30
0.0
 40
100.2106821278676
 50
81.3652800788
 51
89.9477746537
  0
LINE
  5
202
  8
VIDITELNE
  6
SLD-PLNÁ
 62
     2
 10
-20.5
 20
-187.5
 30
0.0
 11
0.5
 21
-187.5
 31
0.0
  0
LINE
  5
203
  8
VIDITELNE
  6
SLD-PLNÁ
 62
     2
 10
122.0
 20
68.5
 30
0.0
 11
122.0
 21
-181.5
 31
0.0
  0
LINE
  5
204
  8
VIDITELNE
  6
SLD-PLNÁ
 62
     2
 10
57.0697989934
 20
-54.1650129268
 30
0.0
 11
57.0697989934
 21
-41.9828993865
 31
0.0
  0
LINE
  5
205
  8
VIDITELNE
  6
SLD-PLNÁ
 62
     2
 10
57.0842297993
 20
-181.1752284785
 30
0.0
 11
57.0697989934
 21
-181.1614096651
 31
0.0
  0
LINE
  5
206
  8
VIDITELNE
  6
SLD-PLNÁ
 62
     2
 10
68.0
 20
-64.5
 30
0.0
 11
68.0
 21
-48.5
 31
0.0
  0
LINE
  5
207
  8
VIDITELNE
  6
SLD-PLNÁ
 62
     2
 10
119.1471528727
 20
-145.4100938499
 30
0.0
 11
119.1471528727
 21
32.4100938499
 31
0.0
  0
LINE
  5
208
  8
VIDITELNE
  6
SLD-PLNÁ
 62
     2
 10
68.0
 20
-145.8172798365
 30
0.0
 11
68.0
 21
-129.8172798365
 31
0.0
  0
LINE
  5
209
  8
VIDITELNE
  6
SLD-PLNÁ
 62
     2
 10
86.2913882374
 20
-122.4042397786
 30
0.0
 11
86.2913882374
 21
-16.2055114238
 31
0.0
  0
LINE
  5
20A
  8
VIDITELNE
  6
SLD-PLNÁ
 62
     2
 10
61.0
 20
-6.2801988393
 30
0.0
 11
61.0
 21
-18.7477591159
 31
0.0
  0
LINE
  5
20B
  8
VIDITELNE
  6
SLD-PLNÁ
 62
     2
 10
61.0
 20
-39.3785691969
 30
0.0
 11
61.0
 21
-48.5
 31
0.0
  0
LINE
  5
20C
  8
VIDITELNE
  6
SLD-PLNÁ
 62
     2
 10
61.0
 20
-64.5
 30
0.0
 11
61.0
 21
-121.5
 31
0.0
  0
LINE
  5
20D
  8
VIDITELNE
  6
SLD-PLNÁ
 62
     2
 10
83.4235060556
 20
-121.5
 30
0.0
 11
83.4235060556
 21
-19.5484708846
 31
0.0
  0
LINE
  5
20E
  8
VIDITELNE
  6
SLD-PLNÁ
 62
     2
 10
68.0
 20
-179.5
 30
0.0
 11
68.0
 21
-163.5
 31
0.0
  0
LINE
  5
20F
  8
VIDITELNE
  6
SLD-PLNÁ
 62
     2
 10
-88.0
 20
-56.5
 30
0.0
 11
-88.0
 21
-64.5
 31
0.0
  0
LINE
  5
210
  8
VIDITELNE
  6
SLD-PLNÁ
 62
     2
 10
-88.0
 20
-48.5
 30
0.0
 11
-88.0
 21
-56.5
 31
0.0
  0
LINE
  5
211
  8
VIDITELNE
  6
SLD-PLNÁ
 62
     2
 10
-88.0
 20
-137.8172798365
 30
0.0
 11
-88.0
 21
-145.8172798365
 31
0.0
  0
LINE
  5
212
  8
VIDITELNE
  6
SLD-PLNÁ
 62
     2
 10
-88.0
 20
-129.8172798365
 30
0.0
 11
-88.0
 21
-137.8172798365
 31
0.0
  0
LINE
  5
213
  8
VIDITELNE
  6
SLD-PLNÁ
 62
     2
 10
-88.0
 20
-171.5
 30
0.0
 11
-88.0
 21
-179.5
 31
0.0
  0
LINE
  5
214
  8
VIDITELNE
  6
SLD-PLNÁ
 62
     2
 10
-88.0
 20
-163.5
 30
0.0
 11
-88.0
 21
-171.5
 31
0.0
  0
LINE
  5
215
  8
VIDITELNE
  6
SLD-PLNÁ
 62
     2
 10
753.4296628631
 20
68.5
 30
0.0
 11
752.0
 21
68.5
 31
0.0
  0
LINE
  5
216
  8
VIDITELNE
  6
SLD-PLNÁ
 62
     2
 10
868.0
 20
68.5
 30
0.0
 11
866.5703371369
 21
68.5
 31
0.0
  0
LINE
  5
217
  8
VIDITELNE
  6
SLD-PLNÁ
 62
     2
 10
826.9994378438
 20
-181.5
 30
0.0
 11
868.0
 21
-181.5
 31
0.0
  0
LINE
  5
218
  8
VIDITELNE
  6
SLD-PLNÁ
 62
     2
 10
752.0
 20
-181.5
 30
0.0
 11
793.0488465579
 21
-181.5
 31
0.0
  0
ARC
  5
219
  8
VIDITELNE
  6
SLD-PLNÁ
 62
     2
 10
866.5333863183
 20
70.4471235538
 30
0.0
 40
1.940226775944327
 50
196.5289869542
 51
271.1750696011
  0
ARC
  5
21A
  8
VIDITELNE
  6
SLD-PLNÁ
 62
     2
 10
753.5407801663
 20
70.3336526223
 30
0.0
 40
1.840896264729896
 50
266.5947431914
 51
346.2118605738
  0
ARC
  5
21B
  8
VIDITELNE
  6
SLD-PLNÁ
 62
     2
 10
894.0
 20
-26.0
 30
0.0
 40
2.000000000000004
 50
0.0
 51
90.0
  0
ARC
  5
21C
  8
VIDITELNE
  6
SLD-PLNÁ
 62
     2
 10
894.0
 20
-87.0
 30
0.0
 40
2.0
 50
270.0
 51
0.0
  0
ARC
  5
21D
  8
VIDITELNE
  6
SLD-PLNÁ
 62
     2
 10
793.0
 20
-183.5
 30
0.0
 40
2.000000000006253
 50
0.0
 51
89.9999999986
  0
ARC
  5
21E
  8
VIDITELNE
  6
SLD-PLNÁ
 62
     2
 10
827.0
 20
-183.5
 30
0.0
 40
1.999999999988347
 50
90.0000000003
 51
180.0000000004
  0
LINE
  5
21F
  8
VIDITELNE
  6
SLD-PLNÁ
 62
     2
 10
795.0
 20
-183.4928486643
 30
0.0
 11
795.0
 21
-184.5
 31
0.0
  0
LINE
  5
220
  8
VIDITELNE
  6
SLD-PLNÁ
 62
     2
 10
825.0
 20
-184.5
 30
0.0
 11
825.0
 21
-183.4999236757
 31
0.0
  0
LINE
  5
221
  8
VIDITELNE
  6
SLD-PLNÁ
 62
     2
 10
799.5
 20
-184.5
 30
0.0
 11
799.5
 21
-187.5
 31
0.0
  0
LINE
  5
222
  8
VIDITELNE
  6
SLD-PLNÁ
 62
     2
 10
820.5
 20
-187.5
 30
0.0
 11
820.5
 21
-184.5
 31
0.0
  0
ARC
  5
223
  8
VIDITELNE
  6
SLD-PLNÁ
 62
     2
 10
819.5
 20
-187.5
 30
0.0
 40
1.0
 50
270.0
 51
0.0
  0
ARC
  5
224
  8
VIDITELNE
  6
SLD-PLNÁ
 62
     2
 10
800.5
 20
-187.5
 30
0.0
 40
1.0
 50
180.0
 51
270.0
  0
LINE
  5
225
  8
VIDITELNE
  6
SLD-PLNÁ
 62
     2
 10
752.0
 20
68.5
 30
0.0
 11
742.9155071063
 21
68.1827625177
 31
0.0
  0
LINE
  5
226
  8
VIDITELNE
  6
SLD-PLNÁ
 62
     2
 10
742.9155071063
 20
-181.1827625177
 30
0.0
 11
752.0
 21
-181.5
 31
0.0
  0
LINE
  5
227
  8
VIDITELNE
  6
SLD-PLNÁ
 62
     2
 10
678.0
 20
68.5
 30
0.0
 11
665.0
 21
68.5
 31
0.0
  0
LINE
  5
228
  8
VIDITELNE
  6
SLD-PLNÁ
 62
     2
 10
665.0
 20
-181.5
 30
0.0
 11
678.0
 21
-181.5
 31
0.0
  0
ARC
  5
229
  8
VIDITELNE
  6
SLD-PLNÁ
 62
     2
 10
678.0
 20
66.5
 30
0.0
 40
2.0
 50
0.0
 51
90.0
  0
ARC
  5
22A
  8
VIDITELNE
  6
SLD-PLNÁ
 62
     2
 10
678.0
 20
-179.5
 30
0.0
 40
2.0
 50
270.0
 51
0.0
  0
ARC
  5
22B
  8
VIDITELNE
  6
SLD-PLNÁ
 62
     2
 10
732.0
 20
-49.5
 30
0.0
 40
1.0
 50
90.0
 51
180.0
  0
ARC
  5
22C
  8
VIDITELNE
  6
SLD-PLNÁ
 62
     2
 10
732.0
 20
-63.5
 30
0.0
 40
1.000000000000007
 50
180.0
 51
270.0
  0
LINE
  5
22D
  8
VIDITELNE
  6
SLD-PLNÁ
 62
     2
 10
741.0
 20
-48.5
 30
0.0
 11
732.0
 21
-48.5
 31
0.0
  0
LINE
  5
22E
  8
VIDITELNE
  6
SLD-PLNÁ
 62
     2
 10
732.0
 20
-64.5
 30
0.0
 11
741.0
 21
-64.5
 31
0.0
  0
ARC
  5
22F
  8
VIDITELNE
  6
SLD-PLNÁ
 62
     2
 10
682.0
 20
34.0483979384
 30
0.0
 40
2.0
 50
180.0
 51
235.0
  0
ARC
  5
230
  8
VIDITELNE
  6
SLD-PLNÁ
 62
     2
 10
682.0
 20
-147.0483979384
 30
0.0
 40
2.0
 50
125.0
 51
180.0
  0
ARC
  5
231
  8
VIDITELNE
  6
SLD-PLNÁ
 62
     2
 10
732.0
 20
-130.8172798365
 30
0.0
 40
1.0
 50
90.0
 51
180.0
  0
ARC
  5
232
  8
VIDITELNE
  6
SLD-PLNÁ
 62
     2
 10
732.0
 20
-144.8172798365
 30
0.0
 40
1.0
 50
180.0
 51
270.0
  0
LINE
  5
233
  8
VIDITELNE
  6
SLD-PLNÁ
 62
     2
 10
741.0
 20
-129.8172798365
 30
0.0
 11
732.0
 21
-129.8172798365
 31
0.0
  0
LINE
  5
234
  8
VIDITELNE
  6
SLD-PLNÁ
 62
     2
 10
732.0
 20
-145.8172798365
 30
0.0
 11
741.0
 21
-145.8172798365
 31
0.0
  0
LINE
  5
235
  8
VIDITELNE
  6
SLD-PLNÁ
 62
     2
 10
741.0
 20
32.8172798365
 30
0.0
 11
732.0
 21
32.8172798365
 31
0.0
  0
LINE
  5
236
  8
VIDITELNE
  6
SLD-PLNÁ
 62
     2
 10
732.0
 20
16.8172798365
 30
0.0
 11
741.0
 21
16.8172798365
 31
0.0
  0
ARC
  5
237
  8
VIDITELNE
  6
SLD-PLNÁ
 62
     2
 10
732.0
 20
31.8172798365
 30
0.0
 40
1.0
 50
90.0
 51
180.0
  0
ARC
  5
238
  8
VIDITELNE
  6
SLD-PLNÁ
 62
     2
 10
732.0
 20
17.8172798365
 30
0.0
 40
1.000000000000004
 50
180.0
 51
270.0
  0
LINE
  5
239
  8
VIDITELNE
  6
SLD-PLNÁ
 62
     2
 10
680.8528471273
 20
-145.4100938499
 30
0.0
 11
713.7086117626
 21
-122.4042397786
 31
0.0
  0
LINE
  5
23A
  8
VIDITELNE
  6
SLD-PLNÁ
 62
     2
 10
713.7086117626
 20
9.4042397786
 30
0.0
 11
680.8528471273
 21
32.4100938499
 31
0.0
  0
ARC
  5
23B
  8
VIDITELNE
  6
SLD-PLNÁ
 62
     2
 10
739.0
 20
-123.5
 30
0.0
 40
2.0
 50
0.0
 51
90.0
  0
ARC
  5
23C
  8
VIDITELNE
  6
SLD-PLNÁ
 62
     2
 10
739.0
 20
10.5
 30
0.0
 40
2.000000000000002
 50
270.0
 51
0.0
  0
ARC
  5
23D
  8
VIDITELNE
  6
SLD-PLNÁ
 62
     2
 10
716.5764939444
 20
13.5
 30
0.0
 40
5.000000000000005
 50
235.0
 51
270.0
  0
ARC
  5
23E
  8
VIDITELNE
  6
SLD-PLNÁ
 62
     2
 10
716.5764939444
 20
-126.5
 30
0.0
 40
5.000000000000002
 50
90.0
 51
125.0
  0
LINE
  5
23F
  8
VIDITELNE
  6
SLD-PLNÁ
 62
     2
 10
739.0
 20
8.5
 30
0.0
 11
716.5764939444
 21
8.5
 31
0.0
  0
LINE
  5
240
  8
VIDITELNE
  6
SLD-PLNÁ
 62
     2
 10
716.5764939444
 20
-121.5
 30
0.0
 11
739.0
 21
-121.5
 31
0.0
  0
LINE
  5
241
  8
VIDITELNE
  6
SLD-PLNÁ
 62
     2
 10
741.0
 20
66.5
 30
0.0
 11
732.0
 21
66.5
 31
0.0
  0
LINE
  5
242
  8
VIDITELNE
  6
SLD-PLNÁ
 62
     2
 10
732.0
 20
50.5
 30
0.0
 11
741.0
 21
50.5
 31
0.0
  0
ARC
  5
243
  8
VIDITELNE
  6
SLD-PLNÁ
 62
     2
 10
732.0
 20
65.5
 30
0.0
 40
1.0
 50
90.0
 51
180.0
  0
ARC
  5
244
  8
VIDITELNE
  6
SLD-PLNÁ
 62
     2
 10
732.0
 20
51.5
 30
0.0
 40
1.000000000000007
 50
180.0
 51
270.0
  0
LINE
  5
245
  8
VIDITELNE
  6
SLD-PLNÁ
 62
     2
 10
741.0
 20
-163.5
 30
0.0
 11
732.0
 21
-163.5
 31
0.0
  0
LINE
  5
246
  8
VIDITELNE
  6
SLD-PLNÁ
 62
     2
 10
732.0
 20
-179.5
 30
0.0
 11
741.0
 21
-179.5
 31
0.0
  0
ARC
  5
247
  8
VIDITELNE
  6
SLD-PLNÁ
 62
     2
 10
732.0
 20
-164.5
 30
0.0
 40
1.0
 50
90.0
 51
180.0
  0
ARC
  5
248
  8
VIDITELNE
  6
SLD-PLNÁ
 62
     2
 10
732.0
 20
-178.5
 30
0.0
 40
1.0
 50
180.0
 51
270.0
  0
ARC
  5
249
  8
VIDITELNE
  6
SLD-PLNÁ
 62
     2
 10
742.9023935066
 20
66.2917605277
 30
0.0
 40
1.883884728218082
 50
89.592980737
 51
177.036400639
  0
ARC
  5
24A
  8
VIDITELNE
  6
SLD-PLNÁ
 62
     2
 10
742.8813852988
 20
-179.3122048556
 30
0.0
 40
1.862866478576074
 50
182.3951697979
 51
271.0599704909
  0
LINE
  5
24B
  8
VIDITELNE
  6
SLD-PLNÁ
 62
     2
 10
868.0
 20
-181.5
 30
0.0
 11
879.0
 21
-181.1158715356
 31
0.0
  0
LINE
  5
24C
  8
VIDITELNE
  6
SLD-PLNÁ
 62
     2
 10
879.0
 20
68.1158715356
 30
0.0
 11
868.0
 21
68.5
 31
0.0
  0
ARC
  5
24D
  8
VIDITELNE
  6
SLD-PLNÁ
 62
     2
 10
888.0
 20
-49.5
 30
0.0
 40
1.0
 50
360.0
 51
90.0
  0
ARC
  5
24E
  8
VIDITELNE
  6
SLD-PLNÁ
 62
     2
 10
888.0
 20
-63.5
 30
0.0
 40
1.0
 50
270.0
 51
360.0
  0
LINE
  5
24F
  8
VIDITELNE
  6
SLD-PLNÁ
 62
     2
 10
879.0
 20
-64.5
 30
0.0
 11
888.0
 21
-64.5
 31
0.0
  0
LINE
  5
250
  8
VIDITELNE
  6
SLD-PLNÁ
 62
     2
 10
888.0
 20
-48.5
 30
0.0
 11
879.0
 21
-48.5
 31
0.0
  0
LINE
  5
251
  8
VIDITELNE
  6
SLD-PLNÁ
 62
     2
 10
879.0
 20
16.8172798365
 30
0.0
 11
888.0
 21
16.8172798365
 31
0.0
  0
LINE
  5
252
  8
VIDITELNE
  6
SLD-PLNÁ
 62
     2
 10
888.0
 20
32.8172798365
 30
0.0
 11
879.0
 21
32.8172798365
 31
0.0
  0
ARC
  5
253
  8
VIDITELNE
  6
SLD-PLNÁ
 62
     2
 10
888.0
 20
31.8172798365
 30
0.0
 40
1.0
 50
0.0
 51
90.0
  0
ARC
  5
254
  8
VIDITELNE
  6
SLD-PLNÁ
 62
     2
 10
888.0
 20
17.8172798365
 30
0.0
 40
1.0
 50
270.0
 51
0.0
  0
LINE
  5
255
  8
VIDITELNE
  6
SLD-PLNÁ
 62
     2
 10
879.0
 20
-145.8172798365
 30
0.0
 11
888.0
 21
-145.8172798365
 31
0.0
  0
LINE
  5
256
  8
VIDITELNE
  6
SLD-PLNÁ
 62
     2
 10
888.0
 20
-129.8172798365
 30
0.0
 11
879.0
 21
-129.8172798365
 31
0.0
  0
ARC
  5
257
  8
VIDITELNE
  6
SLD-PLNÁ
 62
     2
 10
888.0
 20
-130.8172798365
 30
0.0
 40
1.000000000000028
 50
0.0
 51
90.0
  0
ARC
  5
258
  8
VIDITELNE
  6
SLD-PLNÁ
 62
     2
 10
888.0
 20
-144.8172798365
 30
0.0
 40
1.000000000000028
 50
270.0
 51
0.0
  0
LINE
  5
259
  8
VIDITELNE
  6
SLD-PLNÁ
 62
     2
 10
894.0
 20
8.5
 30
0.0
 11
890.5
 21
8.5
 31
0.0
  0
LINE
  5
25A
  8
VIDITELNE
  6
SLD-PLNÁ
 62
     2
 10
890.5
 20
-121.5
 30
0.0
 11
894.0
 21
-121.5
 31
0.0
  0
LINE
  5
25B
  8
VIDITELNE
  6
SLD-PLNÁ
 62
     2
 10
886.8731240234
 20
-153.5939778214
 30
0.0
 11
890.5
 21
-151.5
 31
0.0
  0
LINE
  5
25C
  8
VIDITELNE
  6
SLD-PLNÁ
 62
     2
 10
890.5
 20
38.5
 30
0.0
 11
886.8731240234
 21
40.5939778214
 31
0.0
  0
LINE
  5
25D
  8
VIDITELNE
  6
SLD-PLNÁ
 62
     2
 10
879.0
 20
-179.5
 30
0.0
 11
888.0
 21
-179.5
 31
0.0
  0
LINE
  5
25E
  8
VIDITELNE
  6
SLD-PLNÁ
 62
     2
 10
888.0
 20
-163.5
 30
0.0
 11
882.3094140097
 21
-163.5
 31
0.0
  0
ARC
  5
25F
  8
VIDITELNE
  6
SLD-PLNÁ
 62
     2
 10
888.0
 20
-164.5
 30
0.0
 40
1.0
 50
0.0
 51
90.0
  0
ARC
  5
260
  8
VIDITELNE
  6
SLD-PLNÁ
 62
     2
 10
888.0
 20
-178.5
 30
0.0
 40
1.0
 50
270.0
 51
0.0
  0
LINE
  5
261
  8
VIDITELNE
  6
SLD-PLNÁ
 62
     2
 10
882.3094140097
 20
50.5
 30
0.0
 11
888.0
 21
50.5
 31
0.0
  0
LINE
  5
262
  8
VIDITELNE
  6
SLD-PLNÁ
 62
     2
 10
888.0
 20
66.5
 30
0.0
 11
879.0
 21
66.5
 31
0.0
  0
ARC
  5
263
  8
VIDITELNE
  6
SLD-PLNÁ
 62
     2
 10
888.0
 20
65.5
 30
0.0
 40
1.0
 50
0.0
 51
90.0
  0
ARC
  5
264
  8
VIDITELNE
  6
SLD-PLNÁ
 62
     2
 10
888.0
 20
51.5
 30
0.0
 40
1.000000000000007
 50
270.0
 51
0.0
  0
POLYLINE
  5
265
  8
VIDITELNE
  6
SLD-PLNÁ
 62
     2
 66
     1
 10
0.0
 20
0.0
 30
0.0
  0
VERTEX
  5
71F
  8
VIDITELNE
  6
SLD-PLNÁ
 62
     2
 10
815.4965663235
 20
125.0127558956
 30
0.0
  0
VERTEX
  5
720
  8
VIDITELNE
  6
SLD-PLNÁ
 62
     2
 10
815.4989132655
 20
125.8189299994
 30
0.0
  0
VERTEX
  5
721
  8
VIDITELNE
  6
SLD-PLNÁ
 62
     2
 10
815.4629457425
 20
126.9872205429
 30
0.0
  0
VERTEX
  5
722
  8
VIDITELNE
  6
SLD-PLNÁ
 62
     2
 10
815.4074947443
 20
128.3264789914
 30
0.0
  0
VERTEX
  5
723
  8
VIDITELNE
  6
SLD-PLNÁ
 62
     2
 10
815.3456105008
 20
129.7416521024
 30
0.0
  0
VERTEX
  5
724
  8
VIDITELNE
  6
SLD-PLNÁ
 62
     2
 10
815.2853262406
 20
131.1529731589
 30
0.0
  0
VERTEX
  5
725
  8
VIDITELNE
  6
SLD-PLNÁ
 62
     2
 10
815.1679915233
 20
134.0727797203
 30
0.0
  0
VERTEX
  5
726
  8
VIDITELNE
  6
SLD-PLNÁ
 62
     2
 10
815.0513084054
 20
137.1305586972
 30
0.0
  0
VERTEX
  5
727
  8
VIDITELNE
  6
SLD-PLNÁ
 62
     2
 10
814.9415346167
 20
140.056509244
 30
0.0
  0
VERTEX
  5
728
  8
VIDITELNE
  6
SLD-PLNÁ
 62
     2
 10
814.8373493163
 20
142.8003687326
 30
0.0
  0
VERTEX
  5
729
  8
VIDITELNE
  6
SLD-PLNÁ
 62
     2
 10
814.7212060487
 20
145.7254611869
 30
0.0
  0
VERTEX
  5
72A
  8
VIDITELNE
  6
SLD-PLNÁ
 62
     2
 10
814.5982264029
 20
148.5661396346
 30
0.0
  0
VERTEX
  5
72B
  8
VIDITELNE
  6
SLD-PLNÁ
 62
     2
 10
814.5205136478
 20
150.178476277
 30
0.0
  0
VERTEX
  5
72C
  8
VIDITELNE
  6
SLD-PLNÁ
 62
     2
 10
814.4462149658
 20
151.5617933701
 30
0.0
  0
VERTEX
  5
72D
  8
VIDITELNE
  6
SLD-PLNÁ
 62
     2
 10
814.3438292241
 20
153.0844981544
 30
0.0
  0
VERTEX
  5
72E
  8
VIDITELNE
  6
SLD-PLNÁ
 62
     2
 10
814.1844227782
 20
154.541502078
 30
0.0
  0
VERTEX
  5
72F
  8
VIDITELNE
  6
SLD-PLNÁ
 62
     2
 10
813.8741748529
 20
156.1282883263
 30
0.0
  0
VERTEX
  5
730
  8
VIDITELNE
  6
SLD-PLNÁ
 62
     2
 10
813.3320236952
 20
157.6149776903
 30
0.0
  0
VERTEX
  5
731
  8
VIDITELNE
  6
SLD-PLNÁ
 62
     2
 10
812.5151621247
 20
158.6102989385
 30
0.0
  0
SEQEND
  5
732
  8
VIDITELNE
  6
SLD-PLNÁ
 62
     2
  0
POLYLINE
  5
266
  8
VIDITELNE
  6
SLD-PLNÁ
 62
     2
 66
     1
 10
0.0
 20
0.0
 30
0.0
  0
VERTEX
  5
733
  8
VIDITELNE
  6
SLD-PLNÁ
 62
     2
 10
807.486156296
 20
158.6113646253
 30
0.0
  0
VERTEX
  5
734
  8
VIDITELNE
  6
SLD-PLNÁ
 62
     2
 10
806.4191530504
 20
157.2119413804
 30
0.0
  0
VERTEX
  5
735
  8
VIDITELNE
  6
SLD-PLNÁ
 62
     2
 10
805.8922896275
 20
155.341812038
 30
0.0
  0
VERTEX
  5
736
  8
VIDITELNE
  6
SLD-PLNÁ
 62
     2
 10
805.6761986548
 20
153.4421086991
 30
0.0
  0
VERTEX
  5
737
  8
VIDITELNE
  6
SLD-PLNÁ
 62
     2
 10
805.5213062541
 20
150.9754605799
 30
0.0
  0
VERTEX
  5
738
  8
VIDITELNE
  6
SLD-PLNÁ
 62
     2
 10
805.3638230753
 20
147.7238174556
 30
0.0
  0
VERTEX
  5
739
  8
VIDITELNE
  6
SLD-PLNÁ
 62
     2
 10
805.2156820524
 20
144.1598100934
 30
0.0
  0
VERTEX
  5
73A
  8
VIDITELNE
  6
SLD-PLNÁ
 62
     2
 10
805.0867118758
 20
140.8082814101
 30
0.0
  0
VERTEX
  5
73B
  8
VIDITELNE
  6
SLD-PLNÁ
 62
     2
 10
804.9948828587
 20
138.3616824328
 30
0.0
  0
VERTEX
  5
73C
  8
VIDITELNE
  6
SLD-PLNÁ
 62
     2
 10
804.9328172793
 20
136.7096024678
 30
0.0
  0
VERTEX
  5
73D
  8
VIDITELNE
  6
SLD-PLNÁ
 62
     2
 10
804.8514470318
 20
134.5742974074
 30
0.0
  0
VERTEX
  5
73E
  8
VIDITELNE
  6
SLD-PLNÁ
 62
     2
 10
804.7541378341
 20
132.1117153019
 30
0.0
  0
VERTEX
  5
73F
  8
VIDITELNE
  6
SLD-PLNÁ
 62
     2
 10
804.5996839162
 20
128.5383411127
 30
0.0
  0
VERTEX
  5
740
  8
VIDITELNE
  6
SLD-PLNÁ
 62
     2
 10
804.5214373987
 20
126.9351355417
 30
0.0
  0
VERTEX
  5
741
  8
VIDITELNE
  6
SLD-PLNÁ
 62
     2
 10
804.4540352491
 20
125.6485871687
 30
0.0
  0
VERTEX
  5
742
  8
VIDITELNE
  6
SLD-PLNÁ
 62
     2
 10
804.4084589003
 20
124.7287202082
 30
0.0
  0
VERTEX
  5
743
  8
VIDITELNE
  6
SLD-PLNÁ
 62
     2
 10
804.4055629571
 20
124.6033359695
 30
0.0
  0
SEQEND
  5
744
  8
VIDITELNE
  6
SLD-PLNÁ
 62
     2
  0
LINE
  5
267
  8
VIDITELNE
  6
SLD-PLNÁ
 62
     2
 10
821.3563269083
 20
117.3148105929
 30
0.0
 11
820.2319551923
 21
123.6914394645
 31
0.0
  0
LINE
  5
268
  8
VIDITELNE
  6
SLD-PLNÁ
 62
     2
 10
799.7680448077
 20
123.6914394645
 30
0.0
 11
798.6436730917
 21
117.3148105929
 31
0.0
  0
ARC
  5
269
  8
VIDITELNE
  6
SLD-PLNÁ
 62
     2
 10
817.2775319332
 20
123.1704949315
 30
0.0
 40
3.000000000000013
 50
10.0
 51
80.0
  0
ARC
  5
26A
  8
VIDITELNE
  6
SLD-PLNÁ
 62
     2
 10
802.7224680668
 20
123.1704949315
 30
0.0
 40
3.000000000000013
 50
100.0
 51
170.0
  0
LINE
  5
26B
  8
VIDITELNE
  6
SLD-PLNÁ
 62
     2
 10
804.5002250262
 20
126.5302412843
 30
0.0
 11
802.2015235338
 21
126.1249181906
 31
0.0
  0
LINE
  5
26C
  8
VIDITELNE
  6
SLD-PLNÁ
 62
     2
 10
817.7984764662
 20
126.1249181906
 30
0.0
 11
815.4768902843
 21
126.5342764725
 31
0.0
  0
CIRCLE
  5
26D
  8
VIDITELNE
  6
SLD-PLNÁ
 62
     2
 10
886.0139789776
 20
139.5139789776
 30
0.0
 40
8.0
  0
CIRCLE
  5
26E
  8
VIDITELNE
  6
SLD-PLNÁ
 62
     2
 10
733.9860210224
 20
139.5139789776
 30
0.0
 40
8.0
  0
POLYLINE
  5
26F
  8
VIDITELNE
  6
SLD-PLNÁ
 62
     2
 66
     1
 10
0.0
 20
0.0
 30
0.0
  0
VERTEX
  5
745
  8
VIDITELNE
  6
SLD-PLNÁ
 62
     2
 10
894.0
 20
-12.0412547143
 30
0.0
  0
VERTEX
  5
746
  8
VIDITELNE
  6
SLD-PLNÁ
 62
     2
 10
894.0139789776
 20
-12.5139789776
 30
0.0
  0
VERTEX
  5
747
  8
VIDITELNE
  6
SLD-PLNÁ
 62
     2
 10
894.0
 20
-12.9867032408
 30
0.0
  0
SEQEND
  5
748
  8
VIDITELNE
  6
SLD-PLNÁ
 62
     2
  0
ARC
  5
270
  8
VIDITELNE
  6
SLD-PLNÁ
 62
     2
 10
810.0
 20
63.5
 30
0.0
 40
125.0000000000001
 50
313.4719993115
 51
180.0
  0
ARC
  5
271
  8
VIDITELNE
  6
SLD-PLNÁ
 62
     2
 10
810.0
 20
63.5
 30
0.0
 40
125.0
 50
180.0
 51
197.7824786418
  0
CIRCLE
  5
272
  8
VIDITELNE
  6
SLD-PLNÁ
 62
     2
 10
810.0
 20
-16.5
 30
0.0
 40
9.5
  0
CIRCLE
  5
273
  8
VIDITELNE
  6
SLD-PLNÁ
 62
     2
 10
810.0
 20
-16.5
 30
0.0
 40
10.49999999999999
  0
ARC
  5
274
  8
VIDITELNE
  6
SLD-PLNÁ
 62
     2
 10
810.0
 20
63.5
 30
0.0
 40
55.00000000000001
 50
287.3522610682
 51
252.6477389318
  0
ARC
  5
275
  8
VIDITELNE
  6
SLD-PLNÁ
 62
     2
 10
810.0
 20
63.5
 30
0.0
 40
55.00000000000001
 50
252.6477389318
 51
287.3522610682
  0
ARC
  5
276
  8
VIDITELNE
  6
SLD-PLNÁ
 62
     2
 10
824.1699173599
 20
10.7628514478
 30
0.0
 40
1.304294292683731
 50
249.7324263928
 51
321.8836335387
  0
ARC
  5
277
  8
VIDITELNE
  6
SLD-PLNÁ
 62
     2
 10
828.4644068126
 20
4.0270812493
 30
0.0
 40
7.274069457404676
 50
106.4585243505
 51
130.7300761164
  0
ARC
  5
278
  8
VIDITELNE
  6
SLD-PLNÁ
 62
     2
 10
827.0
 20
9.0941179651
 30
0.0
 40
1.999999999944842
 50
107.3522610675
 51
154.4167568453
  0
ARC
  5
279
  8
VIDITELNE
  6
SLD-PLNÁ
 62
     2
 10
791.5355931875
 20
4.0270812494
 30
0.0
 40
7.274069457346147
 50
49.2699238835
 51
73.5414756496
  0
ARC
  5
27A
  8
VIDITELNE
  6
SLD-PLNÁ
 62
     2
 10
795.8300826401
 20
10.7628514478
 30
0.0
 40
1.304294292683908
 50
218.1163664613
 51
290.2675736072
  0
ARC
  5
27B
  8
VIDITELNE
  6
SLD-PLNÁ
 62
     2
 10
793.0
 20
9.0941179651
 30
0.0
 40
1.999999999945245
 50
25.5832431547
 51
72.6477389325
  0
LINE
  5
27C
  8
VIDITELNE
  6
SLD-PLNÁ
 62
     2
 10
823.1270166538
 20
8.0321585622
 30
0.0
 11
823.2157910714
 21
8.5882603209
 31
0.0
  0
ARC
  5
27D
  8
VIDITELNE
  6
SLD-PLNÁ
 62
     2
 10
810.0
 20
63.5
 30
0.0
 40
57.00000000000001
 50
256.6853514544
 51
283.3146485456
  0
POLYLINE
  5
27E
  8
VIDITELNE
  6
SLD-PLNÁ
 62
     2
 66
     1
 10
0.0
 20
0.0
 30
0.0
  0
VERTEX
  5
749
  8
VIDITELNE
  6
SLD-PLNÁ
 62
     2
 10
796.7842089286
 20
8.5882603209
 30
0.0
  0
VERTEX
  5
74A
  8
VIDITELNE
  6
SLD-PLNÁ
 62
     2
 10
796.8323906995
 20
8.2436926326
 30
0.0
  0
VERTEX
  5
74B
  8
VIDITELNE
  6
SLD-PLNÁ
 62
     2
 10
796.8729833462
 20
8.0321585622
 30
0.0
  0
SEQEND
  5
74C
  8
VIDITELNE
  6
SLD-PLNÁ
 62
     2
  0
POLYLINE
  5
27F
  8
VIDITELNE
  6
SLD-PLNÁ
 62
     2
 66
     1
 10
0.0
 20
0.0
 30
0.0
  0
VERTEX
  5
74D
  8
VIDITELNE
  6
SLD-PLNÁ
 62
     2
 10
796.2818964441
 20
9.5393123645
 30
0.0
  0
VERTEX
  5
74E
  8
VIDITELNE
  6
SLD-PLNÁ
 62
     2
 10
796.674989371
 20
8.9872917322
 30
0.0
  0
VERTEX
  5
74F
  8
VIDITELNE
  6
SLD-PLNÁ
 62
     2
 10
796.7842089286
 20
8.5882603209
 30
0.0
  0
SEQEND
  5
750
  8
VIDITELNE
  6
SLD-PLNÁ
 62
     2
  0
ARC
  5
280
  8
VIDITELNE
  6
SLD-PLNÁ
 62
     2
 10
824.8045301242
 20
8.3573218024
 30
0.0
 40
1.605435883814128
 50
132.5876668876
 51
171.7294329098
  0
POLYLINE
  5
281
  8
VIDITELNE
  6
SLD-PLNÁ
 62
     2
 66
     1
 10
0.0
 20
0.0
 30
0.0
  0
VERTEX
  5
751
  8
VIDITELNE
  6
SLD-PLNÁ
 62
     2
 10
794.9529776853
 20
9.0941179651
 30
0.0
  0
VERTEX
  5
752
  8
VIDITELNE
  6
SLD-PLNÁ
 62
     2
 10
794.9422500274
 20
9.4692596582
 30
0.0
  0
VERTEX
  5
753
  8
VIDITELNE
  6
SLD-PLNÁ
 62
     2
 10
794.8039177131
 20
9.957761922
 30
0.0
  0
SEQEND
  5
754
  8
VIDITELNE
  6
SLD-PLNÁ
 62
     2
  0
ARC
  5
282
  8
VIDITELNE
  6
SLD-PLNÁ
 62
     2
 10
796.6911314685
 20
11.8188204939
 30
0.0
 40
3.231900747998597
 50
237.4652096372
 51
271.650323919
  0
POLYLINE
  5
283
  8
VIDITELNE
  6
SLD-PLNÁ
 62
     2
 66
     1
 10
0.0
 20
0.0
 30
0.0
  0
VERTEX
  5
755
  8
VIDITELNE
  6
SLD-PLNÁ
 62
     2
 10
825.1960822869
 20
9.957761922
 30
0.0
  0
VERTEX
  5
756
  8
VIDITELNE
  6
SLD-PLNÁ
 62
     2
 10
825.0861610124
 20
9.6354535111
 30
0.0
  0
VERTEX
  5
757
  8
VIDITELNE
  6
SLD-PLNÁ
 62
     2
 10
825.0470223147
 20
9.0941179651
 30
0.0
  0
SEQEND
  5
758
  8
VIDITELNE
  6
SLD-PLNÁ
 62
     2
  0
ARC
  5
284
  8
VIDITELNE
  6
SLD-PLNÁ
 62
     2
 10
823.3088685315
 20
11.8188204939
 30
0.0
 40
3.231900747998622
 50
268.349676081
 51
302.5347903628
  0
LINE
  5
285
  8
VIDITELNE
  6
SLD-PLNÁ
 62
     2
 10
825.0470223147
 20
9.0941179651
 30
0.0
 11
825.0635083269
 21
8.0321585622
 31
0.0
  0
LINE
  5
286
  8
VIDITELNE
  6
SLD-PLNÁ
 62
     2
 10
825.0635083269
 20
8.0321585622
 30
0.0
 11
823.1270166538
 21
8.0321585622
 31
0.0
  0
POLYLINE
  5
287
  8
VIDITELNE
  6
SLD-PLNÁ
 62
     2
 66
     1
 10
0.0
 20
0.0
 30
0.0
  0
VERTEX
  5
759
  8
VIDITELNE
  6
SLD-PLNÁ
 62
     2
 10
794.9364916731
 20
8.0321585622
 30
0.0
  0
VERTEX
  5
75A
  8
VIDITELNE
  6
SLD-PLNÁ
 62
     2
 10
794.9389626527
 20
8.4347731939
 30
0.0
  0
VERTEX
  5
75B
  8
VIDITELNE
  6
SLD-PLNÁ
 62
     2
 10
794.9529776853
 20
9.0941179651
 30
0.0
  0
SEQEND
  5
75C
  8
VIDITELNE
  6
SLD-PLNÁ
 62
     2
  0
LINE
  5
288
  8
VIDITELNE
  6
SLD-PLNÁ
 62
     2
 10
794.9364916731
 20
8.0321585622
 30
0.0
 11
796.8729833462
 21
8.0321585622
 31
0.0
  0
LINE
  5
289
  8
VIDITELNE
  6
SLD-PLNÁ
 62
     2
 10
825.0635083269
 20
8.0321585622
 30
0.0
 11
825.0635083269
 21
-16.5
 31
0.0
  0
LINE
  5
28A
  8
VIDITELNE
  6
SLD-PLNÁ
 62
     2
 10
825.0635083269
 20
-16.5
 30
0.0
 11
823.1270166538
 21
-16.5
 31
0.0
  0
LINE
  5
28B
  8
VIDITELNE
  6
SLD-PLNÁ
 62
     2
 10
823.1270166538
 20
-16.5
 30
0.0
 11
823.1270166538
 21
8.0321585622
 31
0.0
  0
ARC
  5
28C
  8
VIDITELNE
  6
SLD-PLNÁ
 62
     2
 10
810.0
 20
-16.5
 30
0.0
 40
15.06350832689634
 50
180.0
 51
0.0
  0
LINE
  5
28D
  8
VIDITELNE
  6
SLD-PLNÁ
 62
     2
 10
794.9364916731
 20
-16.5
 30
0.0
 11
796.8729833462
 21
-16.5
 31
0.0
  0
ARC
  5
28E
  8
VIDITELNE
  6
SLD-PLNÁ
 62
     2
 10
810.0
 20
-16.5
 30
0.0
 40
13.12701665379257
 50
180.0
 51
0.0
  0
LINE
  5
28F
  8
VIDITELNE
  6
SLD-PLNÁ
 62
     2
 10
794.9364916731
 20
-16.5
 30
0.0
 11
794.9364916731
 21
8.0321585622
 31
0.0
  0
LINE
  5
290
  8
VIDITELNE
  6
SLD-PLNÁ
 62
     2
 10
796.8729833462
 20
8.0321585622
 30
0.0
 11
796.8729833462
 21
-16.5
 31
0.0
  0
LINE
  5
291
  8
VIDITELNE
  6
SLD-PLNÁ
 62
     2
 10
758.8596491228
 20
43.2598292458
 30
0.0
 11
757.0
 21
42.5238230366
 31
0.0
  0
ARC
  5
292
  8
VIDITELNE
  6
SLD-PLNÁ
 62
     2
 10
864.7841805849
 20
63.3840761672
 30
0.0
 40
109.7842417882786
 50
179.9394999912
 51
190.9534471783
  0
LINE
  5
293
  8
VIDITELNE
  6
SLD-PLNÁ
 62
     2
 10
863.0
 20
42.5238230366
 30
0.0
 11
861.1403508772
 21
43.2598292458
 31
0.0
  0
ARC
  5
294
  8
VIDITELNE
  6
SLD-PLNÁ
 62
     2
 10
755.2158194151
 20
63.3840761672
 30
0.0
 40
109.7842417883061
 50
349.0465528217
 51
0.0605000088
  0
LINE
  5
295
  8
VIDITELNE
  6
SLD-PLNÁ
 62
     2
 10
827.0
 20
9.0941179651
 30
0.0
 11
826.4035087719
 21
11.0030962821
 31
0.0
  0
LINE
  5
296
  8
VIDITELNE
  6
SLD-PLNÁ
 62
     2
 10
827.0
 20
9.0941179651
 30
0.0
 11
825.0470223147
 21
9.0941179651
 31
0.0
  0
LINE
  5
297
  8
VIDITELNE
  6
SLD-PLNÁ
 62
     2
 10
793.5964912281
 20
11.0030962821
 30
0.0
 11
793.0
 21
9.0941179651
 31
0.0
  0
LINE
  5
298
  8
VIDITELNE
  6
SLD-PLNÁ
 62
     2
 10
794.9529776853
 20
9.0941179651
 30
0.0
 11
793.0
 21
9.0941179651
 31
0.0
  0
ARC
  5
299
  8
VIDITELNE
  6
SLD-PLNÁ
 62
     2
 10
810.0
 20
63.5
 30
0.0
 40
57.00000000000001
 50
201.5925161782
 51
252.6477389318
  0
ARC
  5
29A
  8
VIDITELNE
  6
SLD-PLNÁ
 62
     2
 10
810.0
 20
63.5
 30
0.0
 40
57.00000000000011
 50
287.3522610682
 51
338.4074838218
  0
LINE
  5
29B
  8
VIDITELNE
  6
SLD-PLNÁ
 62
     2
 10
827.0
 20
9.0941179651
 30
0.0
 11
827.0
 21
-16.5
 31
0.0
  0
LINE
  5
29C
  8
VIDITELNE
  6
SLD-PLNÁ
 62
     2
 10
827.0
 20
-16.5
 30
0.0
 11
825.0635083269
 21
-16.5
 31
0.0
  0
LINE
  5
29D
  8
VIDITELNE
  6
SLD-PLNÁ
 62
     2
 10
793.0
 20
-16.5
 30
0.0
 11
793.0
 21
9.0941179651
 31
0.0
  0
LINE
  5
29E
  8
VIDITELNE
  6
SLD-PLNÁ
 62
     2
 10
793.0
 20
-16.5
 30
0.0
 11
794.9364916731
 21
-16.5
 31
0.0
  0
ARC
  5
29F
  8
VIDITELNE
  6
SLD-PLNÁ
 62
     2
 10
810.0
 20
-16.5
 30
0.0
 40
17.00000000000011
 50
180.0
 51
0.0
  0
ARC
  5
2A0
  8
VIDITELNE
  6
SLD-PLNÁ
 62
     2
 10
403.4836740581
 20
-11.5630019058
 30
0.0
 40
461.7083360790699
 50
354.4146933406
 51
358.3475401994
  0
ARC
  5
2A1
  8
VIDITELNE
  6
SLD-PLNÁ
 62
     2
 10
866.531000062
 20
-22.9936762046
 30
0.0
 40
2.427284742432382
 50
230.8948199055
 51
281.1407591919
  0
POLYLINE
  5
2A2
  8
VIDITELNE
  6
SLD-PLNÁ
 62
     2
 66
     1
 10
0.0
 20
0.0
 30
0.0
  0
VERTEX
  5
75D
  8
VIDITELNE
  6
SLD-PLNÁ
 62
     2
 10
867.0
 20
-25.3752198802
 30
0.0
  0
VERTEX
  5
75E
  8
VIDITELNE
  6
SLD-PLNÁ
 62
     2
 10
866.597986477
 20
-33.0630481992
 30
0.0
  0
VERTEX
  5
75F
  8
VIDITELNE
  6
SLD-PLNÁ
 62
     2
 10
865.9260824104
 20
-38.847783779
 30
0.0
  0
VERTEX
  5
760
  8
VIDITELNE
  6
SLD-PLNÁ
 62
     2
 10
865.0586030129
 20
-44.6661827184
 30
0.0
  0
VERTEX
  5
761
  8
VIDITELNE
  6
SLD-PLNÁ
 62
     2
 10
863.0125475578
 20
-56.4304114354
 30
0.0
  0
VERTEX
  5
762
  8
VIDITELNE
  6
SLD-PLNÁ
 62
     2
 10
863.0
 20
-56.5
 30
0.0
  0
SEQEND
  5
763
  8
VIDITELNE
  6
SLD-PLNÁ
 62
     2
  0
LINE
  5
2A3
  8
VIDITELNE
  6
SLD-PLNÁ
 62
     2
 10
755.0
 20
-24.8772233983
 30
0.0
 11
755.0
 21
63.5
 31
0.0
  0
LINE
  5
2A4
  8
VIDITELNE
  6
SLD-PLNÁ
 62
     2
 10
757.0
 20
42.5238230366
 30
0.0
 11
757.0
 21
-56.5
 31
0.0
  0
ARC
  5
2A5
  8
VIDITELNE
  6
SLD-PLNÁ
 62
     2
 10
1216.3888040571
 20
-11.5710670979
 30
0.0
 40
461.5806346725367
 50
181.6519155539
 51
185.585850906
  0
POLYLINE
  5
2A6
  8
VIDITELNE
  6
SLD-PLNÁ
 62
     2
 66
     1
 10
0.0
 20
0.0
 30
0.0
  0
VERTEX
  5
764
  8
VIDITELNE
  6
SLD-PLNÁ
 62
     2
 10
757.0
 20
-56.5
 30
0.0
  0
VERTEX
  5
765
  8
VIDITELNE
  6
SLD-PLNÁ
 62
     2
 10
756.9874524422
 20
-56.4304114354
 30
0.0
  0
VERTEX
  5
766
  8
VIDITELNE
  6
SLD-PLNÁ
 62
     2
 10
754.9611180013
 20
-44.7885420161
 30
0.0
  0
VERTEX
  5
767
  8
VIDITELNE
  6
SLD-PLNÁ
 62
     2
 10
754.0847774843
 20
-38.9280447676
 30
0.0
  0
VERTEX
  5
768
  8
VIDITELNE
  6
SLD-PLNÁ
 62
     2
 10
753.402013523
 20
-33.0630481992
 30
0.0
  0
VERTEX
  5
769
  8
VIDITELNE
  6
SLD-PLNÁ
 62
     2
 10
753.0
 20
-25.3752198802
 30
0.0
  0
SEQEND
  5
76A
  8
VIDITELNE
  6
SLD-PLNÁ
 62
     2
  0
ARC
  5
2A7
  8
VIDITELNE
  6
SLD-PLNÁ
 62
     2
 10
753.468999938
 20
-22.9936762046
 30
0.0
 40
2.427284742432803
 50
258.8592408081
 51
309.1051800945
  0
LINE
  5
2A8
  8
VIDITELNE
  6
SLD-PLNÁ
 62
     2
 10
863.0
 20
-56.5
 30
0.0
 11
863.0
 21
42.5238230366
 31
0.0
  0
LINE
  5
2A9
  8
VIDITELNE
  6
SLD-PLNÁ
 62
     2
 10
757.0
 20
-56.5
 30
0.0
 11
863.0
 21
-56.5
 31
0.0
  0
LINE
  5
2AA
  8
VIDITELNE
  6
SLD-PLNÁ
 62
     2
 10
865.0
 20
63.5
 30
0.0
 11
865.0
 21
-24.8772233983
 31
0.0
  0
LINE
  5
2AB
  8
VIDITELNE
  6
SLD-PLNÁ
 62
     2
 10
867.0
 20
61.6102362205
 30
0.0
 11
867.0
 21
-25.3752198802
 31
0.0
  0
LINE
  5
2AC
  8
VIDITELNE
  6
SLD-PLNÁ
 62
     2
 10
753.0
 20
-25.3752198802
 30
0.0
 11
753.0
 21
61.6102362205
 31
0.0
  0
LINE
  5
2AD
  8
VIDITELNE
  6
SLD-PLNÁ
 62
     2
 10
868.0
 20
-56.5
 30
0.0
 11
868.0
 21
68.5
 31
0.0
  0
LINE
  5
2AE
  8
VIDITELNE
  6
SLD-PLNÁ
 62
     2
 10
868.0
 20
-181.5
 30
0.0
 11
868.0
 21
-56.5
 31
0.0
  0
LINE
  5
2AF
  8
VIDITELNE
  6
SLD-PLNÁ
 62
     2
 10
752.0
 20
-56.5
 30
0.0
 11
752.0
 21
68.5
 31
0.0
  0
LINE
  5
2B0
  8
VIDITELNE
  6
SLD-PLNÁ
 62
     2
 10
752.0
 20
-181.5
 30
0.0
 11
752.0
 21
-56.5
 31
0.0
  0
ARC
  5
2B1
  8
VIDITELNE
  6
SLD-PLNÁ
 62
     2
 10
753.0535991072
 20
63.5567257218
 30
0.0
 40
1.947227321863572
 50
268.4226851541
 51
358.3306497957
  0
ARC
  5
2B2
  8
VIDITELNE
  6
SLD-PLNÁ
 62
     2
 10
866.9464008928
 20
63.5567257218
 30
0.0
 40
1.947227321863558
 50
181.6693502043
 51
271.5773148459
  0
LINE
  5
2B3
  8
VIDITELNE
  6
SLD-PLNÁ
 62
     2
 10
896.0
 20
-26.0
 30
0.0
 11
896.0
 21
-87.0
 31
0.0
  0
LINE
  5
2B4
  8
VIDITELNE
  6
SLD-PLNÁ
 62
     2
 10
795.0
 20
-184.5
 30
0.0
 11
825.0
 21
-184.5
 31
0.0
  0
LINE
  5
2B5
  8
VIDITELNE
  6
SLD-PLNÁ
 62
     2
 10
810.0
 20
-188.5
 30
0.0
 11
800.5
 21
-188.5
 31
0.0
  0
LINE
  5
2B6
  8
VIDITELNE
  6
SLD-PLNÁ
 62
     2
 10
819.5
 20
-188.5
 30
0.0
 11
810.0
 21
-188.5
 31
0.0
  0
LINE
  5
2B7
  8
VIDITELNE
  6
SLD-PLNÁ
 62
     2
 10
752.0
 20
68.5
 30
0.0
 11
752.0
 21
-181.5
 31
0.0
  0
LINE
  5
2B8
  8
VIDITELNE
  6
SLD-PLNÁ
 62
     2
 10
742.9302010066
 20
-146.3000133199
 30
0.0
 11
742.9302010066
 21
-181.1614096651
 31
0.0
  0
POLYLINE
  5
2B9
  8
VIDITELNE
  6
SLD-PLNÁ
 62
     2
 66
     1
 10
0.0
 20
0.0
 30
0.0
  0
VERTEX
  5
76B
  8
VIDITELNE
  6
SLD-PLNÁ
 62
     2
 10
742.9302010066
 20
-142.997842933
 30
0.0
  0
VERTEX
  5
76C
  8
VIDITELNE
  6
SLD-PLNÁ
 62
     2
 10
742.9107920309
 20
-144.0924544046
 30
0.0
  0
VERTEX
  5
76D
  8
VIDITELNE
  6
SLD-PLNÁ
 62
     2
 10
742.9302010066
 20
-146.3000133199
 30
0.0
  0
SEQEND
  5
76E
  8
VIDITELNE
  6
SLD-PLNÁ
 62
     2
  0
LINE
  5
2BA
  8
VIDITELNE
  6
SLD-PLNÁ
 62
     2
 10
742.9302010066
 20
-58.8349870732
 30
0.0
 11
742.9302010066
 21
-142.997842933
 31
0.0
  0
POLYLINE
  5
2BB
  8
VIDITELNE
  6
SLD-PLNÁ
 62
     2
 66
     1
 10
0.0
 20
0.0
 30
0.0
  0
VERTEX
  5
76F
  8
VIDITELNE
  6
SLD-PLNÁ
 62
     2
 10
742.9302010066
 20
-54.1650129268
 30
0.0
  0
VERTEX
  5
770
  8
VIDITELNE
  6
SLD-PLNÁ
 62
     2
 10
742.9107920309
 20
-55.6944414501
 30
0.0
  0
VERTEX
  5
771
  8
VIDITELNE
  6
SLD-PLNÁ
 62
     2
 10
742.9302010066
 20
-58.8349870732
 30
0.0
  0
SEQEND
  5
772
  8
VIDITELNE
  6
SLD-PLNÁ
 62
     2
  0
LINE
  5
2BC
  8
VIDITELNE
  6
SLD-PLNÁ
 62
     2
 10
742.9302010066
 20
29.997842933
 30
0.0
 11
742.9302010066
 21
-54.1650129268
 31
0.0
  0
POLYLINE
  5
2BD
  8
VIDITELNE
  6
SLD-PLNÁ
 62
     2
 66
     1
 10
0.0
 20
0.0
 30
0.0
  0
VERTEX
  5
773
  8
VIDITELNE
  6
SLD-PLNÁ
 62
     2
 10
742.9302010066
 20
33.3000133199
 30
0.0
  0
VERTEX
  5
774
  8
VIDITELNE
  6
SLD-PLNÁ
 62
     2
 10
742.9107920309
 20
32.2316862311
 30
0.0
  0
VERTEX
  5
775
  8
VIDITELNE
  6
SLD-PLNÁ
 62
     2
 10
742.9302010066
 20
29.997842933
 30
0.0
  0
SEQEND
  5
776
  8
VIDITELNE
  6
SLD-PLNÁ
 62
     2
  0
LINE
  5
2BE
  8
VIDITELNE
  6
SLD-PLNÁ
 62
     2
 10
742.9302010066
 20
68.1614096651
 30
0.0
 11
742.9302010066
 21
33.3000133199
 31
0.0
  0
LINE
  5
2BF
  8
VIDITELNE
  6
SLD-PLNÁ
 62
     2
 10
665.0
 20
68.5
 30
0.0
 11
665.0
 21
-181.5
 31
0.0
  0
LINE
  5
2C0
  8
VIDITELNE
  6
SLD-PLNÁ
 62
     2
 10
680.0
 20
66.5
 30
0.0
 11
680.0
 21
-179.4999999995
 31
0.0
  0
LINE
  5
2C1
  8
VIDITELNE
  6
SLD-PLNÁ
 62
     2
 10
741.0
 20
-58.7975551939
 30
0.0
 11
741.0
 21
-54.2024448061
 31
0.0
  0
ARC
  5
2C2
  8
VIDITELNE
  6
SLD-PLNÁ
 62
     2
 10
742.4588541884
 20
-79.6444825836
 30
0.0
 40
25.4838290257861
 50
88.9402015146
 51
93.2817638657
  0
ARC
  5
2C3
  8
VIDITELNE
  6
SLD-PLNÁ
 62
     2
 10
742.4588541884
 20
-33.3555174165
 30
0.0
 40
25.48382902569703
 50
266.7182361343
 51
271.0597984854
  0
LINE
  5
2C4
  8
VIDITELNE
  6
SLD-PLNÁ
 62
     2
 10
741.0
 20
-141.6112070696
 30
0.0
 11
741.0
 21
-58.7975551939
 31
0.0
  0
ARC
  5
2C5
  8
VIDITELNE
  6
SLD-PLNÁ
 62
     2
 10
742.7191961639
 20
-141.2548217291
 30
0.0
 40
1.755746553723492
 50
191.7114058078
 51
276.9024654221
  0
LINE
  5
2C6
  8
VIDITELNE
  6
SLD-PLNÁ
 62
     2
 10
741.0
 20
-54.2024448061
 30
0.0
 11
741.0
 21
28.6112070696
 31
0.0
  0
ARC
  5
2C7
  8
VIDITELNE
  6
SLD-PLNÁ
 62
     2
 10
742.7191961639
 20
28.2548217291
 30
0.0
 40
1.755746553723514
 50
83.0975345779
 51
168.2885941922
  0
LINE
  5
2C8
  8
VIDITELNE
  6
SLD-PLNÁ
 62
     2
 10
731.0
 20
-63.4999991568
 30
0.0
 11
731.0
 21
-49.5
 31
0.0
  0
LINE
  5
2C9
  8
VIDITELNE
  6
SLD-PLNÁ
 62
     2
 10
741.0
 20
-144.8604407852
 30
0.0
 11
741.0
 21
-141.6112070696
 31
0.0
  0
ARC
  5
2CA
  8
VIDITELNE
  6
SLD-PLNÁ
 62
     2
 10
742.7394681707
 20
-144.5419429682
 30
0.0
 40
1.768386376468004
 50
190.3759610839
 51
276.1917952532
  0
LINE
  5
2CB
  8
VIDITELNE
  6
SLD-PLNÁ
 62
     2
 10
741.0
 20
28.6112070696
 30
0.0
 11
741.0
 21
31.8604407852
 31
0.0
  0
ARC
  5
2CC
  8
VIDITELNE
  6
SLD-PLNÁ
 62
     2
 10
742.7394681707
 20
31.5419429682
 30
0.0
 40
1.768386376467862
 50
83.8082047468
 51
169.6240389161
  0
LINE
  5
2CD
  8
VIDITELNE
  6
SLD-PLNÁ
 62
     2
 10
731.0
 20
-144.8172789933
 30
0.0
 11
731.0
 21
-130.8172798365
 31
0.0
  0
LINE
  5
2CE
  8
VIDITELNE
  6
SLD-PLNÁ
 62
     2
 10
731.0
 20
17.8172806796
 30
0.0
 11
731.0
 21
31.8172798365
 31
0.0
  0
ARC
  5
2CF
  8
VIDITELNE
  6
SLD-PLNÁ
 62
     2
 10
742.9998101462
 20
-179.1628113521
 30
0.0
 40
1.999810153231732
 50
180.0047900837
 51
268.0052527911
  0
LINE
  5
2D0
  8
VIDITELNE
  6
SLD-PLNÁ
 62
     2
 10
741.0
 20
-179.1629785417
 30
0.0
 11
741.0
 21
-144.8604407852
 31
0.0
  0
ARC
  5
2D1
  8
VIDITELNE
  6
SLD-PLNÁ
 62
     2
 10
742.9998101462
 20
66.1628113521
 30
0.0
 40
1.999810153232002
 50
91.9947472089
 51
179.9952099163
  0
LINE
  5
2D2
  8
VIDITELNE
  6
SLD-PLNÁ
 62
     2
 10
741.0
 20
31.8604407852
 30
0.0
 11
741.0
 21
66.1629785417
 31
0.0
  0
LINE
  5
2D3
  8
VIDITELNE
  6
SLD-PLNÁ
 62
     2
 10
741.0
 20
66.1629785417
 30
0.0
 11
741.0
 21
66.5
 31
0.0
  0
LINE
  5
2D4
  8
VIDITELNE
  6
SLD-PLNÁ
 62
     2
 10
731.0
 20
51.5000008432
 30
0.0
 11
731.0
 21
65.5
 31
0.0
  0
LINE
  5
2D5
  8
VIDITELNE
  6
SLD-PLNÁ
 62
     2
 10
741.0
 20
-179.4972117819
 30
0.0
 11
741.0
 21
-179.1629785417
 31
0.0
  0
LINE
  5
2D6
  8
VIDITELNE
  6
SLD-PLNÁ
 62
     2
 10
731.0
 20
-178.4999991568
 30
0.0
 11
731.0
 21
-164.5
 31
0.0
  0
LINE
  5
2D7
  8
VIDITELNE
  6
SLD-PLNÁ
 62
     2
 10
879.0
 20
68.1158715356
 30
0.0
 11
879.0
 21
-181.1158715356
 31
0.0
  0
LINE
  5
2D8
  8
VIDITELNE
  6
SLD-PLNÁ
 62
     2
 10
868.0
 20
68.5
 30
0.0
 11
868.0
 21
-181.5
 31
0.0
  0
LINE
  5
2D9
  8
VIDITELNE
  6
SLD-PLNÁ
 62
     2
 10
889.0
 20
-49.5
 30
0.0
 11
889.0
 21
-63.5
 31
0.0
  0
LINE
  5
2DA
  8
VIDITELNE
  6
SLD-PLNÁ
 62
     2
 10
890.5
 20
-16.4817960642
 30
0.0
 11
879.0
 21
-6.1422038645
 31
0.0
  0
LINE
  5
2DB
  8
VIDITELNE
  6
SLD-PLNÁ
 62
     2
 10
890.5
 20
-16.4817960642
 30
0.0
 11
890.5
 21
-23.8728323243
 31
0.0
  0
LINE
  5
2DC
  8
VIDITELNE
  6
SLD-PLNÁ
 62
     2
 10
879.0
 20
-13.5332401246
 30
0.0
 11
890.5
 21
-23.8728323243
 31
0.0
  0
LINE
  5
2DD
  8
VIDITELNE
  6
SLD-PLNÁ
 62
     2
 10
890.5
 20
-23.8728323243
 30
0.0
 11
879.0
 21
-21.3298871613
 31
0.0
  0
LINE
  5
2DE
  8
VIDITELNE
  6
SLD-PLNÁ
 62
     2
 10
890.5
 20
-89.1271676757
 30
0.0
 11
879.0
 21
-99.4667598754
 31
0.0
  0
LINE
  5
2DF
  8
VIDITELNE
  6
SLD-PLNÁ
 62
     2
 10
890.5
 20
-89.1271676757
 30
0.0
 11
890.5
 21
-96.5182039358
 31
0.0
  0
LINE
  5
2E0
  8
VIDITELNE
  6
SLD-PLNÁ
 62
     2
 10
879.0
 20
-106.8577961355
 30
0.0
 11
890.5
 21
-96.5182039358
 31
0.0
  0
LINE
  5
2E1
  8
VIDITELNE
  6
SLD-PLNÁ
 62
     2
 10
879.0
 20
-91.6701128387
 30
0.0
 11
890.5
 21
-89.1271676757
 31
0.0
  0
LINE
  5
2E2
  8
VIDITELNE
  6
SLD-PLNÁ
 62
     2
 10
890.5
 20
-23.8728323243
 30
0.0
 11
890.5
 21
-89.1271676757
 31
0.0
  0
LINE
  5
2E3
  8
VIDITELNE
  6
SLD-PLNÁ
 62
     2
 10
890.5
 20
29.6599869647
 30
0.0
 11
889.0
 21
30.4607538387
 31
0.0
  0
LINE
  5
2E4
  8
VIDITELNE
  6
SLD-PLNÁ
 62
     2
 10
884.5857452259
 20
32.8172798365
 30
0.0
 11
879.0
 21
35.7991996655
 31
0.0
  0
LINE
  5
2E5
  8
VIDITELNE
  6
SLD-PLNÁ
 62
     2
 10
890.5
 20
29.6599869647
 30
0.0
 11
890.5
 21
-16.4817960642
 31
0.0
  0
LINE
  5
2E6
  8
VIDITELNE
  6
SLD-PLNÁ
 62
     2
 10
879.0
 20
-148.7991996655
 30
0.0
 11
884.5857452259
 21
-145.8172798365
 31
0.0
  0
LINE
  5
2E7
  8
VIDITELNE
  6
SLD-PLNÁ
 62
     2
 10
889.0
 20
-143.4607538387
 30
0.0
 11
890.5
 21
-142.6599869647
 31
0.0
  0
LINE
  5
2E8
  8
VIDITELNE
  6
SLD-PLNÁ
 62
     2
 10
890.5
 20
-96.5182039358
 30
0.0
 11
890.5
 21
-142.6599869647
 31
0.0
  0
LINE
  5
2E9
  8
VIDITELNE
  6
SLD-PLNÁ
 62
     2
 10
889.0
 20
31.8172798365
 30
0.0
 11
889.0
 21
17.8172798365
 31
0.0
  0
LINE
  5
2EA
  8
VIDITELNE
  6
SLD-PLNÁ
 62
     2
 10
889.0
 20
-130.8172798365
 30
0.0
 11
889.0
 21
-144.8172798365
 31
0.0
  0
LINE
  5
2EB
  8
VIDITELNE
  6
SLD-PLNÁ
 62
     2
 10
894.0
 20
8.5
 30
0.0
 11
894.0
 21
-121.5
 31
0.0
  0
LINE
  5
2EC
  8
VIDITELNE
  6
SLD-PLNÁ
 62
     2
 10
890.5
 20
-142.6599869647
 30
0.0
 11
879.0
 21
-167.6219706826
 31
0.0
  0
LINE
  5
2ED
  8
VIDITELNE
  6
SLD-PLNÁ
 62
     2
 10
879.0
 20
-170.6834381415
 30
0.0
 11
890.5
 21
-145.7214544236
 31
0.0
  0
LINE
  5
2EE
  8
VIDITELNE
  6
SLD-PLNÁ
 62
     2
 10
890.5
 20
-142.6599869647
 30
0.0
 11
890.5
 21
-145.7214544236
 31
0.0
  0
LINE
  5
2EF
  8
VIDITELNE
  6
SLD-PLNÁ
 62
     2
 10
879.0
 20
54.6219706826
 30
0.0
 11
890.5
 21
29.6599869647
 31
0.0
  0
LINE
  5
2F0
  8
VIDITELNE
  6
SLD-PLNÁ
 62
     2
 10
890.5
 20
32.7214544236
 30
0.0
 11
879.0
 21
57.6834381415
 31
0.0
  0
LINE
  5
2F1
  8
VIDITELNE
  6
SLD-PLNÁ
 62
     2
 10
890.5
 20
32.7214544236
 30
0.0
 11
890.5
 21
29.6599869647
 31
0.0
  0
LINE
  5
2F2
  8
VIDITELNE
  6
SLD-PLNÁ
 62
     2
 10
890.5
 20
-145.7214544236
 30
0.0
 11
890.5
 21
-151.5
 31
0.0
  0
LINE
  5
2F3
  8
VIDITELNE
  6
SLD-PLNÁ
 62
     2
 10
890.5
 20
38.5
 30
0.0
 11
890.5
 21
32.7214544236
 31
0.0
  0
LINE
  5
2F4
  8
VIDITELNE
  6
SLD-PLNÁ
 62
     2
 10
889.0
 20
-164.5
 30
0.0
 11
889.0
 21
-178.5
 31
0.0
  0
LINE
  5
2F5
  8
VIDITELNE
  6
SLD-PLNÁ
 62
     2
 10
889.0
 20
65.5
 30
0.0
 11
889.0
 21
51.5
 31
0.0
  0
POLYLINE
  5
2F6
  8
VIDITELNE
  6
SLD-PLNÁ
 62
     2
 66
     1
 10
0.0
 20
0.0
 30
0.0
  0
VERTEX
  5
777
  8
VIDITELNE
  6
SLD-PLNÁ
 62
     2
 10
815.4808531507
 20
125.0099943304
 30
0.0
  0
VERTEX
  5
778
  8
VIDITELNE
  6
SLD-PLNÁ
 62
     2
 10
815.6358776883
 20
124.3074052487
 30
0.0
  0
VERTEX
  5
779
  8
VIDITELNE
  6
SLD-PLNÁ
 62
     2
 10
815.6670240867
 20
123.6914394645
 30
0.0
  0
SEQEND
  5
77A
  8
VIDITELNE
  6
SLD-PLNÁ
 62
     2
  0
POLYLINE
  5
2F7
  8
VIDITELNE
  6
SLD-PLNÁ
 62
     2
 66
     1
 10
0.0
 20
0.0
 30
0.0
  0
VERTEX
  5
77B
  8
VIDITELNE
  6
SLD-PLNÁ
 62
     2
 10
815.6670240867
 20
123.6914394645
 30
0.0
  0
VERTEX
  5
77C
  8
VIDITELNE
  6
SLD-PLNÁ
 62
     2
 10
815.4253147328
 20
122.1277612272
 30
0.0
  0
VERTEX
  5
77D
  8
VIDITELNE
  6
SLD-PLNÁ
 62
     2
 10
814.714613632
 20
120.7880016763
 30
0.0
  0
VERTEX
  5
77E
  8
VIDITELNE
  6
SLD-PLNÁ
 62
     2
 10
813.5498608198
 20
119.7245790761
 30
0.0
  0
VERTEX
  5
77F
  8
VIDITELNE
  6
SLD-PLNÁ
 62
     2
 10
811.9218947729
 20
118.9940584457
 30
0.0
  0
VERTEX
  5
780
  8
VIDITELNE
  6
SLD-PLNÁ
 62
     2
 10
810.0374859569
 20
118.7318826434
 30
0.0
  0
VERTEX
  5
781
  8
VIDITELNE
  6
SLD-PLNÁ
 62
     2
 10
808.1711223755
 20
118.9684125071
 30
0.0
  0
VERTEX
  5
782
  8
VIDITELNE
  6
SLD-PLNÁ
 62
     2
 10
806.5106253617
 20
119.6855581707
 30
0.0
  0
VERTEX
  5
783
  8
VIDITELNE
  6
SLD-PLNÁ
 62
     2
 10
805.2192258409
 20
120.8752672657
 30
0.0
  0
VERTEX
  5
784
  8
VIDITELNE
  6
SLD-PLNÁ
 62
     2
 10
804.4849058526
 20
122.4383145514
 30
0.0
  0
VERTEX
  5
785
  8
VIDITELNE
  6
SLD-PLNÁ
 62
     2
 10
804.3329731302
 20
123.6914394645
 30
0.0
  0
SEQEND
  5
786
  8
VIDITELNE
  6
SLD-PLNÁ
 62
     2
  0
LINE
  5
2F8
  8
VIDITELNE
  6
SLD-PLNÁ
 62
     2
 10
804.3329731302
 20
123.6914394645
 30
0.0
 11
804.4104208147
 21
124.6029551978
 31
0.0
  0
ARC
  5
2F9
  8
VIDITELNE
  6
SLD-PLNÁ
 62
     2
 10
810.0
 20
155.5
 30
0.0
 40
3.999999999999988
 50
47.672818741
 51
90.0
  0
ARC
  5
2FA
  8
VIDITELNE
  6
SLD-PLNÁ
 62
     2
 10
810.0
 20
155.5
 30
0.0
 40
3.999999999999886
 50
90.0
 51
130.3773706636
  0
LINE
  5
2FB
  8
VIDITELNE
  6
SLD-PLNÁ
 62
     2
 10
764.2968060221
 20
84.1132486541
 30
0.0
 11
769.2968060221
 21
81.2264973081
 31
0.0
  0
LINE
  5
2FC
  8
VIDITELNE
  6
SLD-PLNÁ
 62
     2
 10
764.2968060221
 20
89.8867513459
 30
0.0
 11
764.2968060221
 21
84.1132486541
 31
0.0
  0
LINE
  5
2FD
  8
VIDITELNE
  6
SLD-PLNÁ
 62
     2
 10
769.2968060221
 20
92.7735026919
 30
0.0
 11
764.2968060221
 21
89.8867513459
 31
0.0
  0
LINE
  5
2FE
  8
VIDITELNE
  6
SLD-PLNÁ
 62
     2
 10
774.2968060221
 20
89.8867513459
 30
0.0
 11
769.2968060221
 21
92.7735026919
 31
0.0
  0
LINE
  5
2FF
  8
VIDITELNE
  6
SLD-PLNÁ
 62
     2
 10
774.2968060221
 20
84.1132486541
 30
0.0
 11
774.2968060221
 21
89.8867513459
 31
0.0
  0
LINE
  5
300
  8
VIDITELNE
  6
SLD-PLNÁ
 62
     2
 10
769.2968060221
 20
81.2264973081
 30
0.0
 11
774.2968060221
 21
84.1132486541
 31
0.0
  0
LINE
  5
301
  8
VIDITELNE
  6
SLD-PLNÁ
 62
     2
 10
855.7031939779
 20
89.8867513459
 30
0.0
 11
850.7031939779
 21
92.7735026919
 31
0.0
  0
LINE
  5
302
  8
VIDITELNE
  6
SLD-PLNÁ
 62
     2
 10
855.7031939779
 20
84.1132486541
 30
0.0
 11
855.7031939779
 21
89.8867513459
 31
0.0
  0
LINE
  5
303
  8
VIDITELNE
  6
SLD-PLNÁ
 62
     2
 10
850.7031939779
 20
81.2264973081
 30
0.0
 11
855.7031939779
 21
84.1132486541
 31
0.0
  0
LINE
  5
304
  8
VIDITELNE
  6
SLD-PLNÁ
 62
     2
 10
845.7031939779
 20
84.1132486541
 30
0.0
 11
850.7031939779
 21
81.2264973081
 31
0.0
  0
LINE
  5
305
  8
VIDITELNE
  6
SLD-PLNÁ
 62
     2
 10
845.7031939779
 20
89.8867513459
 30
0.0
 11
845.7031939779
 21
84.1132486541
 31
0.0
  0
LINE
  5
306
  8
VIDITELNE
  6
SLD-PLNÁ
 62
     2
 10
850.7031939779
 20
92.7735026919
 30
0.0
 11
845.7031939779
 21
89.8867513459
 31
0.0
  0
LINE
  5
307
  8
VIDITELNE
  6
SLD-PLNÁ
 62
     2
 10
855.7031939779
 20
42.8867513459
 30
0.0
 11
850.7031939779
 21
45.7735026919
 31
0.0
  0
LINE
  5
308
  8
VIDITELNE
  6
SLD-PLNÁ
 62
     2
 10
855.7031939779
 20
37.1132486541
 30
0.0
 11
855.7031939779
 21
42.8867513459
 31
0.0
  0
LINE
  5
309
  8
VIDITELNE
  6
SLD-PLNÁ
 62
     2
 10
850.7031939779
 20
34.2264973081
 30
0.0
 11
855.7031939779
 21
37.1132486541
 31
0.0
  0
LINE
  5
30A
  8
VIDITELNE
  6
SLD-PLNÁ
 62
     2
 10
845.7031939779
 20
37.1132486541
 30
0.0
 11
850.7031939779
 21
34.2264973081
 31
0.0
  0
LINE
  5
30B
  8
VIDITELNE
  6
SLD-PLNÁ
 62
     2
 10
845.7031939779
 20
42.8867513459
 30
0.0
 11
845.7031939779
 21
37.1132486541
 31
0.0
  0
LINE
  5
30C
  8
VIDITELNE
  6
SLD-PLNÁ
 62
     2
 10
850.7031939779
 20
45.7735026919
 30
0.0
 11
845.7031939779
 21
42.8867513459
 31
0.0
  0
LINE
  5
30D
  8
VIDITELNE
  6
SLD-PLNÁ
 62
     2
 10
769.2968060221
 20
34.2264973081
 30
0.0
 11
774.2968060221
 21
37.1132486541
 31
0.0
  0
LINE
  5
30E
  8
VIDITELNE
  6
SLD-PLNÁ
 62
     2
 10
764.2968060221
 20
37.1132486541
 30
0.0
 11
769.2968060221
 21
34.2264973081
 31
0.0
  0
LINE
  5
30F
  8
VIDITELNE
  6
SLD-PLNÁ
 62
     2
 10
764.2968060221
 20
42.8867513459
 30
0.0
 11
764.2968060221
 21
37.1132486541
 31
0.0
  0
LINE
  5
310
  8
VIDITELNE
  6
SLD-PLNÁ
 62
     2
 10
769.2968060221
 20
45.7735026919
 30
0.0
 11
764.2968060221
 21
42.8867513459
 31
0.0
  0
LINE
  5
311
  8
VIDITELNE
  6
SLD-PLNÁ
 62
     2
 10
774.2968060221
 20
42.8867513459
 30
0.0
 11
769.2968060221
 21
45.7735026919
 31
0.0
  0
LINE
  5
312
  8
VIDITELNE
  6
SLD-PLNÁ
 62
     2
 10
774.2968060221
 20
37.1132486541
 30
0.0
 11
774.2968060221
 21
42.8867513459
 31
0.0
  0
LINE
  5
313
  8
VIDITELNE
  6
SLD-PLNÁ
 62
     2
 10
815.0
 20
13.6132486541
 30
0.0
 11
815.0
 21
19.3867513459
 31
0.0
  0
LINE
  5
314
  8
VIDITELNE
  6
SLD-PLNÁ
 62
     2
 10
810.0
 20
10.7264973081
 30
0.0
 11
815.0
 21
13.6132486541
 31
0.0
  0
LINE
  5
315
  8
VIDITELNE
  6
SLD-PLNÁ
 62
     2
 10
805.0
 20
13.6132486541
 30
0.0
 11
810.0
 21
10.7264973081
 31
0.0
  0
LINE
  5
316
  8
VIDITELNE
  6
SLD-PLNÁ
 62
     2
 10
805.0
 20
19.3867513459
 30
0.0
 11
805.0
 21
13.6132486541
 31
0.0
  0
LINE
  5
317
  8
VIDITELNE
  6
SLD-PLNÁ
 62
     2
 10
810.0
 20
22.2735026919
 30
0.0
 11
805.0
 21
19.3867513459
 31
0.0
  0
LINE
  5
318
  8
VIDITELNE
  6
SLD-PLNÁ
 62
     2
 10
815.0
 20
19.3867513459
 30
0.0
 11
810.0
 21
22.2735026919
 31
0.0
  0
LINE
  5
319
  8
VIDITELNE
  6
SLD-PLNÁ
 62
     2
 10
810.0
 20
116.2735026919
 30
0.0
 11
805.0
 21
113.3867513459
 31
0.0
  0
LINE
  5
31A
  8
VIDITELNE
  6
SLD-PLNÁ
 62
     2
 10
815.0
 20
113.3867513459
 30
0.0
 11
810.0
 21
116.2735026919
 31
0.0
  0
LINE
  5
31B
  8
VIDITELNE
  6
SLD-PLNÁ
 62
     2
 10
815.0
 20
107.6132486541
 30
0.0
 11
815.0
 21
113.3867513459
 31
0.0
  0
LINE
  5
31C
  8
VIDITELNE
  6
SLD-PLNÁ
 62
     2
 10
805.0
 20
107.6132486541
 30
0.0
 11
810.0
 21
104.7264973081
 31
0.0
  0
LINE
  5
31D
  8
VIDITELNE
  6
SLD-PLNÁ
 62
     2
 10
810.0
 20
104.7264973081
 30
0.0
 11
815.0
 21
107.6132486541
 31
0.0
  0
LINE
  5
31E
  8
VIDITELNE
  6
SLD-PLNÁ
 62
     2
 10
805.0
 20
113.3867513459
 30
0.0
 11
805.0
 21
107.6132486541
 31
0.0
  0
ARC
  5
31F
  8
VIDITELNE
  6
SLD-PLNÁ
 62
     2
 10
810.0
 20
63.5
 30
0.0
 40
52.28925629445186
 50
90.9322222308
 51
149.0677777692
  0
ARC
  5
320
  8
VIDITELNE
  6
SLD-PLNÁ
 62
     2
 10
810.0
 20
63.5
 30
0.0
 40
52.28925629445178
 50
150.9322222308
 51
209.0677777692
  0
ARC
  5
321
  8
VIDITELNE
  6
SLD-PLNÁ
 62
     2
 10
810.0
 20
63.5
 30
0.0
 40
52.28925629445184
 50
210.9322222308
 51
269.0677777692
  0
ARC
  5
322
  8
VIDITELNE
  6
SLD-PLNÁ
 62
     2
 10
810.0
 20
63.5
 30
0.0
 40
52.28925629445196
 50
270.9322222308
 51
329.0677777692
  0
ARC
  5
323
  8
VIDITELNE
  6
SLD-PLNÁ
 62
     2
 10
810.0
 20
63.5
 30
0.0
 40
52.28925629445195
 50
330.9322222308
 51
29.0677777692
  0
ARC
  5
324
  8
VIDITELNE
  6
SLD-PLNÁ
 62
     2
 10
810.0
 20
63.5
 30
0.0
 40
52.28925629445193
 50
30.9322222308
 51
89.0677777692
  0
CIRCLE
  5
325
  8
VIDITELNE
  6
SLD-PLNÁ
 62
     2
 10
810.0
 20
63.5
 30
0.0
 40
54.28803794849
  0
CIRCLE
  5
326
  8
VIDITELNE
  6
SLD-PLNÁ
 62
     2
 10
810.0
 20
63.5
 30
0.0
 40
54.49999999999989
  0
ARC
  5
327
  8
VIDITELNE
  6
SLD-PLNÁ
 62
     2
 10
810.0
 20
63.5
 30
0.0
 40
55.24810153828135
 50
101.8125937097
 51
173.3370644293
  0
ARC
  5
328
  8
VIDITELNE
  6
SLD-PLNÁ
 62
     2
 10
810.0
 20
63.5
 30
0.0
 40
55.24810153828147
 50
6.1630794429
 51
78.1874062903
  0
ARC
  5
329
  8
VIDITELNE
  6
SLD-PLNÁ
 62
     2
 10
810.0
 20
63.5
 30
0.0
 40
58.24627401933866
 50
100.6369716495
 51
175.0766134817
  0
ARC
  5
32A
  8
VIDITELNE
  6
SLD-PLNÁ
 62
     2
 10
810.0
 20
63.5
 30
0.0
 40
58.24627401933867
 50
4.9233865183
 51
79.3630283505
  0
ARC
  5
32B
  8
VIDITELNE
  6
SLD-PLNÁ
 62
     2
 10
810.0
 20
63.5
 30
0.0
 40
122.649573216485
 50
314.1172082149
 51
180.0
  0
ARC
  5
32C
  8
VIDITELNE
  6
SLD-PLNÁ
 62
     2
 10
810.0
 20
63.5
 30
0.0
 40
122.6495732164848
 50
180.0
 51
199.2531355388
  0
ARC
  5
32D
  8
VIDITELNE
  6
SLD-PLNÁ
 62
     2
 10
810.0
 20
63.5
 30
0.0
 40
124.6483548705231
 50
313.6254319524
 51
180.0
  0
ARC
  5
32E
  8
VIDITELNE
  6
SLD-PLNÁ
 62
     2
 10
810.0
 20
63.5
 30
0.0
 40
124.648354870523
 50
180.0
 51
197.9958157274
  0
POLYLINE
  5
32F
  8
VIDITELNE
  6
SLD-PLNÁ
 62
     2
 66
     1
 10
0.0
 20
0.0
 30
0.0
  0
VERTEX
  5
787
  8
VIDITELNE
  6
SLD-PLNÁ
 62
     2
 10
866.5703371369
 20
68.4852771489
 30
0.0
  0
VERTEX
  5
788
  8
VIDITELNE
  6
SLD-PLNÁ
 62
     2
 10
866.5686062799
 20
68.499492638
 30
0.0
  0
VERTEX
  5
789
  8
VIDITELNE
  6
SLD-PLNÁ
 62
     2
 10
866.6223021314
 20
68.0580183057
 30
0.0
  0
VERTEX
  5
78A
  8
VIDITELNE
  6
SLD-PLNÁ
 62
     2
 10
866.7571835531
 20
66.7831442559
 30
0.0
  0
VERTEX
  5
78B
  8
VIDITELNE
  6
SLD-PLNÁ
 62
     2
 10
866.9173060719
 20
64.631147399
 30
0.0
  0
VERTEX
  5
78C
  8
VIDITELNE
  6
SLD-PLNÁ
 62
     2
 10
867.0
 20
61.6102362205
 30
0.0
  0
SEQEND
  5
78D
  8
VIDITELNE
  6
SLD-PLNÁ
 62
     2
  0
ARC
  5
330
  8
VIDITELNE
  6
SLD-PLNÁ
 62
     2
 10
808.1826552803
 20
61.6124851248
 30
0.0
 40
55.18265532616969
 50
172.8454477425
 51
180.0023350222
  0
POLYLINE
  5
331
  8
VIDITELNE
  6
SLD-PLNÁ
 62
     2
 66
     1
 10
0.0
 20
0.0
 30
0.0
  0
VERTEX
  5
78E
  8
VIDITELNE
  6
SLD-PLNÁ
 62
     2
 10
793.0488465579
 20
-181.4935804382
 30
0.0
  0
VERTEX
  5
78F
  8
VIDITELNE
  6
SLD-PLNÁ
 62
     2
 10
793.0209368963
 20
-181.4972432266
 30
0.0
  0
VERTEX
  5
790
  8
VIDITELNE
  6
SLD-PLNÁ
 62
     2
 10
793.4097231563
 20
-181.4466579941
 30
0.0
  0
VERTEX
  5
791
  8
VIDITELNE
  6
SLD-PLNÁ
 62
     2
 10
794.2435669611
 20
-181.3420524753
 30
0.0
  0
VERTEX
  5
792
  8
VIDITELNE
  6
SLD-PLNÁ
 62
     2
 10
795.5441147751
 20
-181.1895076511
 30
0.0
  0
VERTEX
  5
793
  8
VIDITELNE
  6
SLD-PLNÁ
 62
     2
 10
797.2180442976
 20
-181.0122637472
 30
0.0
  0
VERTEX
  5
794
  8
VIDITELNE
  6
SLD-PLNÁ
 62
     2
 10
799.2990370426
 20
-180.8220135923
 30
0.0
  0
VERTEX
  5
795
  8
VIDITELNE
  6
SLD-PLNÁ
 62
     2
 10
801.6410426985
 20
-180.6479741574
 30
0.0
  0
VERTEX
  5
796
  8
VIDITELNE
  6
SLD-PLNÁ
 62
     2
 10
804.2875722026
 20
-180.5025920693
 30
0.0
  0
VERTEX
  5
797
  8
VIDITELNE
  6
SLD-PLNÁ
 62
     2
 10
808.1195923474
 20
-180.3888862326
 30
0.0
  0
VERTEX
  5
798
  8
VIDITELNE
  6
SLD-PLNÁ
 62
     2
 10
810.9231638833
 20
-180.3783931565
 30
0.0
  0
VERTEX
  5
799
  8
VIDITELNE
  6
SLD-PLNÁ
 62
     2
 10
813.7793688117
 20
-180.4309000329
 30
0.0
  0
VERTEX
  5
79A
  8
VIDITELNE
  6
SLD-PLNÁ
 62
     2
 10
816.4487797876
 20
-180.5375666688
 30
0.0
  0
VERTEX
  5
79B
  8
VIDITELNE
  6
SLD-PLNÁ
 62
     2
 10
819.0129370241
 20
-180.6922918258
 30
0.0
  0
VERTEX
  5
79C
  8
VIDITELNE
  6
SLD-PLNÁ
 62
     2
 10
821.2624373119
 20
-180.8700510657
 30
0.0
  0
VERTEX
  5
79D
  8
VIDITELNE
  6
SLD-PLNÁ
 62
     2
 10
823.2595113112
 20
-181.0606336826
 30
0.0
  0
VERTEX
  5
79E
  8
VIDITELNE
  6
SLD-PLNÁ
 62
     2
 10
824.8383776052
 20
-181.2330269868
 30
0.0
  0
VERTEX
  5
79F
  8
VIDITELNE
  6
SLD-PLNÁ
 62
     2
 10
826.0383098509
 20
-181.3768201693
 30
0.0
  0
VERTEX
  5
7A0
  8
VIDITELNE
  6
SLD-PLNÁ
 62
     2
 10
826.7496606398
 20
-181.4672562807
 30
0.0
  0
VERTEX
  5
7A1
  8
VIDITELNE
  6
SLD-PLNÁ
 62
     2
 10
826.9999986352
 20
-181.4999998202
 30
0.0
  0
VERTEX
  5
7A2
  8
VIDITELNE
  6
SLD-PLNÁ
 62
     2
 10
826.9994378438
 20
-181.4999264268
 30
0.0
  0
SEQEND
  5
7A3
  8
VIDITELNE
  6
SLD-PLNÁ
 62
     2
  0
POLYLINE
  5
332
  8
VIDITELNE
  6
SLD-PLNÁ
 62
     2
 66
     1
 10
0.0
 20
0.0
 30
0.0
  0
VERTEX
  5
7A4
  8
VIDITELNE
  6
SLD-PLNÁ
 62
     2
 10
824.9995356459
 20
-183.4999296042
 30
0.0
  0
VERTEX
  5
7A5
  8
VIDITELNE
  6
SLD-PLNÁ
 62
     2
 10
824.9999987957
 20
-183.4999998173
 30
0.0
  0
VERTEX
  5
7A6
  8
VIDITELNE
  6
SLD-PLNÁ
 62
     2
 10
824.7841711765
 20
-183.467285603
 30
0.0
  0
VERTEX
  5
7A7
  8
VIDITELNE
  6
SLD-PLNÁ
 62
     2
 10
824.1514498684
 20
-183.374849292
 30
0.0
  0
VERTEX
  5
7A8
  8
VIDITELNE
  6
SLD-PLNÁ
 62
     2
 10
823.1107359875
 20
-183.2310850644
 30
0.0
  0
VERTEX
  5
7A9
  8
VIDITELNE
  6
SLD-PLNÁ
 62
     2
 10
821.699568804
 20
-183.0536038215
 30
0.0
  0
VERTEX
  5
7AA
  8
VIDITELNE
  6
SLD-PLNÁ
 62
     2
 10
819.9654718481
 20
-182.8629487798
 30
0.0
  0
VERTEX
  5
7AB
  8
VIDITELNE
  6
SLD-PLNÁ
 62
     2
 10
817.9525914918
 20
-182.679368495
 30
0.0
  0
VERTEX
  5
7AC
  8
VIDITELNE
  6
SLD-PLNÁ
 62
     2
 10
815.724048176
 20
-182.5244871361
 30
0.0
  0
VERTEX
  5
7AD
  8
VIDITELNE
  6
SLD-PLNÁ
 62
     2
 10
813.3347371868
 20
-182.4137944334
 30
0.0
  0
VERTEX
  5
7AE
  8
VIDITELNE
  6
SLD-PLNÁ
 62
     2
 10
810.8498346579
 20
-182.3612050745
 30
0.0
  0
VERTEX
  5
7AF
  8
VIDITELNE
  6
SLD-PLNÁ
 62
     2
 10
808.3408167771
 20
-182.3711084123
 30
0.0
  0
VERTEX
  5
7B0
  8
VIDITELNE
  6
SLD-PLNÁ
 62
     2
 10
804.9596225317
 20
-182.4866335424
 30
0.0
  0
VERTEX
  5
7B1
  8
VIDITELNE
  6
SLD-PLNÁ
 62
     2
 10
802.6539020887
 20
-182.6324222538
 30
0.0
  0
VERTEX
  5
7B2
  8
VIDITELNE
  6
SLD-PLNÁ
 62
     2
 10
800.5579738611
 20
-182.8111658097
 30
0.0
  0
VERTEX
  5
7B3
  8
VIDITELNE
  6
SLD-PLNÁ
 62
     2
 10
798.7443868503
 20
-183.0019390623
 30
0.0
  0
VERTEX
  5
7B4
  8
VIDITELNE
  6
SLD-PLNÁ
 62
     2
 10
797.2448071545
 20
-183.1845397735
 30
0.0
  0
VERTEX
  5
7B5
  8
VIDITELNE
  6
SLD-PLNÁ
 62
     2
 10
796.1115079931
 20
-183.3373986009
 30
0.0
  0
VERTEX
  5
7B6
  8
VIDITELNE
  6
SLD-PLNÁ
 62
     2
 10
795.361520432
 20
-183.4458045221
 30
0.0
  0
VERTEX
  5
7B7
  8
VIDITELNE
  6
SLD-PLNÁ
 62
     2
 10
795.0219109877
 20
-183.4964623519
 30
0.0
  0
VERTEX
  5
7B8
  8
VIDITELNE
  6
SLD-PLNÁ
 62
     2
 10
795.0462638461
 20
-183.4928496554
 30
0.0
  0
SEQEND
  5
7B9
  8
VIDITELNE
  6
SLD-PLNÁ
 62
     2
  0
LINE
  5
333
  8
VIDITELNE
  6
SLD-PLNÁ
 62
     2
 10
810.0
 20
-187.5
 30
0.0
 11
820.5
 21
-187.5
 31
0.0
  0
LINE
  5
334
  8
VIDITELNE
  6
SLD-PLNÁ
 62
     2
 10
799.5
 20
-187.5
 30
0.0
 11
810.0
 21
-187.5
 31
0.0
  0
LINE
  5
335
  8
VIDITELNE
  6
SLD-PLNÁ
 62
     2
 10
742.9302010066
 20
-181.1614096651
 30
0.0
 11
742.9107920309
 21
-181.1799955304
 31
0.0
  0
LINE
  5
336
  8
VIDITELNE
  6
SLD-PLNÁ
 62
     2
 10
742.9157702007
 20
68.1752284785
 30
0.0
 11
742.9302010066
 21
68.1614096651
 31
0.0
  0
LINE
  5
337
  8
VIDITELNE
  6
SLD-PLNÁ
 62
     2
 10
678.0
 20
-181.5
 30
0.0
 11
678.0
 21
68.5
 31
0.0
  0
LINE
  5
338
  8
VIDITELNE
  6
SLD-PLNÁ
 62
     2
 10
732.0
 20
-48.5
 30
0.0
 11
732.0
 21
-64.5
 31
0.0
  0
LINE
  5
339
  8
VIDITELNE
  6
SLD-PLNÁ
 62
     2
 10
680.8528471273
 20
32.4100938499
 30
0.0
 11
680.8528471273
 21
-145.4100938499
 31
0.0
  0
LINE
  5
33A
  8
VIDITELNE
  6
SLD-PLNÁ
 62
     2
 10
732.0
 20
-129.8172798365
 30
0.0
 11
732.0
 21
-145.8172798365
 31
0.0
  0
LINE
  5
33B
  8
VIDITELNE
  6
SLD-PLNÁ
 62
     2
 10
732.0
 20
32.8172798365
 30
0.0
 11
732.0
 21
16.8172798365
 31
0.0
  0
LINE
  5
33C
  8
VIDITELNE
  6
SLD-PLNÁ
 62
     2
 10
713.7086117626
 20
9.4042397786
 30
0.0
 11
713.7086117626
 21
-122.4042397786
 31
0.0
  0
LINE
  5
33D
  8
VIDITELNE
  6
SLD-PLNÁ
 62
     2
 10
739.0
 20
-121.5
 30
0.0
 11
739.0
 21
-64.5
 31
0.0
  0
LINE
  5
33E
  8
VIDITELNE
  6
SLD-PLNÁ
 62
     2
 10
739.0
 20
-48.5
 30
0.0
 11
739.0
 21
8.5
 31
0.0
  0
LINE
  5
33F
  8
VIDITELNE
  6
SLD-PLNÁ
 62
     2
 10
716.5764939444
 20
8.5
 30
0.0
 11
716.5764939444
 21
-121.5
 31
0.0
  0
LINE
  5
340
  8
VIDITELNE
  6
SLD-PLNÁ
 62
     2
 10
732.0
 20
66.5
 30
0.0
 11
732.0
 21
50.5
 31
0.0
  0
LINE
  5
341
  8
VIDITELNE
  6
SLD-PLNÁ
 62
     2
 10
732.0
 20
-163.5
 30
0.0
 11
732.0
 21
-179.5
 31
0.0
  0
LINE
  5
342
  8
VIDITELNE
  6
SLD-PLNÁ
 62
     2
 10
888.0
 20
-64.5
 30
0.0
 11
888.0
 21
-48.5
 31
0.0
  0
LINE
  5
343
  8
VIDITELNE
  6
SLD-PLNÁ
 62
     2
 10
888.0
 20
16.8172798365
 30
0.0
 11
888.0
 21
32.8172798365
 31
0.0
  0
LINE
  5
344
  8
VIDITELNE
  6
SLD-PLNÁ
 62
     2
 10
888.0
 20
-145.8172798365
 30
0.0
 11
888.0
 21
-129.8172798365
 31
0.0
  0
LINE
  5
345
  8
VIDITELNE
  6
SLD-PLNÁ
 62
     2
 10
888.0
 20
-179.5
 30
0.0
 11
888.0
 21
-163.5
 31
0.0
  0
LINE
  5
346
  8
VIDITELNE
  6
SLD-PLNÁ
 62
     2
 10
888.0
 20
50.5
 30
0.0
 11
888.0
 21
66.5
 31
0.0
  0
LINE
  5
347
  8
VIDITELNE
  6
SLD-PLNÁ
 62
     2
 10
804.3329731302
 20
123.6914394645
 30
0.0
 11
799.7680448077
 21
123.6914394645
 31
0.0
  0
LINE
  5
348
  8
VIDITELNE
  6
SLD-PLNÁ
 62
     2
 10
820.2319551923
 20
123.6914394645
 30
0.0
 11
815.6670240867
 21
123.6914394645
 31
0.0
  0
LINE
  5
349
  8
VIDITELNE
  6
SLD-PLNÁ
 62
     2
 10
817.7984764662
 20
126.1249181906
 30
0.0
 11
815.5247218535
 21
126.1249181906
 31
0.0
  0
LINE
  5
34A
  8
VIDITELNE
  6
SLD-PLNÁ
 62
     2
 10
804.3696725292
 20
126.1249181906
 30
0.0
 11
802.2015235338
 21
126.1249181906
 31
0.0
  0
LINE
  5
34B
  8
VIDITELNE
  6
SLD-PLNÁ
 62
     2
 10
-547.65
 20
-61.5
 30
0.0
 11
-537.5802010066
 21
-61.1483548705
 31
0.0
  0
LINE
  5
34C
  8
VIDITELNE
  6
SLD-PLNÁ
 62
     2
 10
-537.5802010066
 20
188.1483548705
 30
0.0
 11
-547.65
 21
188.5
 31
0.0
  0
ARC
  5
34D
  8
VIDITELNE
  6
SLD-PLNÁ
 62
     2
 10
-537.65
 20
-59.1495732165
 30
0.0
 40
2.000000000000003
 50
272.0
 51
0.0
  0
ARC
  5
34E
  8
VIDITELNE
  6
SLD-PLNÁ
 62
     2
 10
-537.65
 20
186.1495732165
 30
0.0
 40
2.0
 50
0.0
 51
88.0
  0
ARC
  5
34F
  8
VIDITELNE
  6
SLD-PLNÁ
 62
     2
 10
-532.65
 20
5.2537259807
 30
0.0
 40
3.00000000000001
 50
92.0
 51
180.0
  0
ARC
  5
350
  8
VIDITELNE
  6
SLD-PLNÁ
 62
     2
 10
-532.65
 20
121.7462740193
 30
0.0
 40
3.000000000000007
 50
180.0
 51
268.0
  0
LINE
  5
351
  8
VIDITELNE
  6
SLD-PLNÁ
 62
     2
 10
-532.7546984901
 20
8.2518984617
 30
0.0
 11
-525.65
 21
8.5
 31
0.0
  0
LINE
  5
352
  8
VIDITELNE
  6
SLD-PLNÁ
 62
     2
 10
-525.65
 20
118.5
 30
0.0
 11
-532.7546984901
 21
118.7481015383
 31
0.0
  0
LINE
  5
353
  8
VIDITELNE
  6
SLD-PLNÁ
 62
     2
 10
-500.65
 20
118.5
 30
0.0
 11
-525.65
 21
118.5
 31
0.0
  0
LINE
  5
354
  8
VIDITELNE
  6
SLD-PLNÁ
 62
     2
 10
-410.65
 20
118.5
 30
0.0
 11
-470.6725757509
 21
118.5
 31
0.0
  0
LINE
  5
355
  8
VIDITELNE
  6
SLD-PLNÁ
 62
     2
 10
-265.65
 20
118.5
 30
0.0
 11
-380.6725757509
 21
118.5
 31
0.0
  0
LINE
  5
356
  8
VIDITELNE
  6
SLD-PLNÁ
 62
     2
 10
-525.65
 20
8.5
 30
0.0
 11
-522.65
 21
8.5
 31
0.0
  0
ARC
  5
357
  8
VIDITELNE
  6
SLD-PLNÁ
 62
     2
 10
-522.65
 20
6.5
 30
0.0
 40
2.000000000000002
 50
0.0
 51
90.0
  0
ARC
  5
358
  8
VIDITELNE
  6
SLD-PLNÁ
 62
     2
 10
-378.7272726163
 20
-182.2816897637
 30
0.0
 40
1.903464853510754
 50
107.7445842121
 51
182.2778371364
  0
POLYLINE
  5
359
  8
VIDITELNE
  6
SLD-PLNÁ
 62
     2
 66
     1
 10
0.0
 20
0.0
 30
0.0
  0
VERTEX
  5
7BA
  8
VIDITELNE
  6
SLD-PLNÁ
 62
     2
 10
-412.3642425581
 20
-180.3777477786
 30
0.0
  0
VERTEX
  5
7BB
  8
VIDITELNE
  6
SLD-PLNÁ
 62
     2
 10
-412.3642691892
 20
-180.3777496439
 30
0.0
  0
VERTEX
  5
7BC
  8
VIDITELNE
  6
SLD-PLNÁ
 62
     2
 10
-412.3539248777
 20
-180.3792601377
 30
0.0
  0
VERTEX
  5
7BD
  8
VIDITELNE
  6
SLD-PLNÁ
 62
     2
 10
-412.3386981413
 20
-180.3815868326
 30
0.0
  0
VERTEX
  5
7BE
  8
VIDITELNE
  6
SLD-PLNÁ
 62
     2
 10
-412.3165299643
 20
-180.385190786
 30
0.0
  0
VERTEX
  5
7BF
  8
VIDITELNE
  6
SLD-PLNÁ
 62
     2
 10
-412.2720672647
 20
-180.3931945803
 30
0.0
  0
VERTEX
  5
7C0
  8
VIDITELNE
  6
SLD-PLNÁ
 62
     2
 10
-412.0409051404
 20
-180.451993877
 30
0.0
  0
VERTEX
  5
7C1
  8
VIDITELNE
  6
SLD-PLNÁ
 62
     2
 10
-411.6227790569
 20
-180.6405632052
 30
0.0
  0
VERTEX
  5
7C2
  8
VIDITELNE
  6
SLD-PLNÁ
 62
     2
 10
-411.0559665208
 20
-181.1477195748
 30
0.0
  0
VERTEX
  5
7C3
  8
VIDITELNE
  6
SLD-PLNÁ
 62
     2
 10
-410.7434584132
 20
-181.7489258257
 30
0.0
  0
VERTEX
  5
7C4
  8
VIDITELNE
  6
SLD-PLNÁ
 62
     2
 10
-410.6638422881
 20
-182.3590552637
 30
0.0
  0
SEQEND
  5
7C5
  8
VIDITELNE
  6
SLD-PLNÁ
 62
     2
  0
ARC
  5
35A
  8
VIDITELNE
  6
SLD-PLNÁ
 62
     2
 10
-268.65
 20
-33.5
 30
0.0
 40
2.0
 50
104.4775121859
 51
180.0
  0
ARC
  5
35B
  8
VIDITELNE
  6
SLD-PLNÁ
 62
     2
 10
-265.65
 20
6.5
 30
0.0
 40
2.000000000000002
 50
90.0
 51
180.0
  0
ARC
  5
35C
  8
VIDITELNE
  6
SLD-PLNÁ
 62
     2
 10
-269.65
 20
-29.6270166538
 30
0.0
 40
2.000000000000016
 50
284.4775121859
 51
0.0
  0
LINE
  5
35D
  8
VIDITELNE
  6
SLD-PLNÁ
 62
     2
 10
-410.65
 20
-182.3570617804
 30
0.0
 11
-410.65
 21
-184.5
 31
0.0
  0
LINE
  5
35E
  8
VIDITELNE
  6
SLD-PLNÁ
 62
     2
 10
-380.65
 20
-184.5
 30
0.0
 11
-380.65
 21
-182.3645544299
 31
0.0
  0
ARC
  5
35F
  8
VIDITELNE
  6
SLD-PLNÁ
 62
     2
 10
-386.15
 20
-187.5
 30
0.0
 40
1.0
 50
270.0
 51
0.0
  0
ARC
  5
360
  8
VIDITELNE
  6
SLD-PLNÁ
 62
     2
 10
-405.15
 20
-187.5
 30
0.0
 40
1.0
 50
180.0
 51
270.0
  0
LINE
  5
361
  8
VIDITELNE
  6
SLD-PLNÁ
 62
     2
 10
-267.65
 20
-27.0
 30
0.0
 11
-264.65
 21
-27.0
 31
0.0
  0
LINE
  5
362
  8
VIDITELNE
  6
SLD-PLNÁ
 62
     2
 10
-264.65
 20
-6.0
 30
0.0
 11
-267.65
 21
-6.0
 31
0.0
  0
ARC
  5
363
  8
VIDITELNE
  6
SLD-PLNÁ
 62
     2
 10
-264.65
 20
-7.0
 30
0.0
 40
1.0
 50
0.0
 51
90.0
  0
ARC
  5
364
  8
VIDITELNE
  6
SLD-PLNÁ
 62
     2
 10
-264.65
 20
-26.0
 30
0.0
 40
1.0
 50
270.0
 51
0.0
  0
LINE
  5
365
  8
VIDITELNE
  6
SLD-PLNÁ
 62
     2
 10
-406.15
 20
-184.5
 30
0.0
 11
-406.15
 21
-187.5
 31
0.0
  0
LINE
  5
366
  8
VIDITELNE
  6
SLD-PLNÁ
 62
     2
 10
-385.15
 20
-187.5
 30
0.0
 11
-385.15
 21
-184.5
 31
0.0
  0
LINE
  5
367
  8
VIDITELNE
  6
SLD-PLNÁ
 62
     2
 10
-475.15
 20
117.4468526219
 30
0.0
 11
-475.15
 21
119.5
 31
0.0
  0
LINE
  5
368
  8
VIDITELNE
  6
SLD-PLNÁ
 62
     2
 10
-496.15
 20
119.5
 30
0.0
 11
-496.15
 21
117.4538204682
 31
0.0
  0
ARC
  5
369
  8
VIDITELNE
  6
SLD-PLNÁ
 62
     2
 10
-495.15
 20
119.5
 30
0.0
 40
1.0
 50
90.0
 51
180.0
  0
ARC
  5
36A
  8
VIDITELNE
  6
SLD-PLNÁ
 62
     2
 10
-476.15
 20
119.5
 30
0.0
 40
1.0
 50
0.0
 51
90.0
  0
LINE
  5
36B
  8
VIDITELNE
  6
SLD-PLNÁ
 62
     2
 10
-384.3465354484
 20
117.6146079153
 30
0.0
 11
-384.5444667725
 21
118.737132235
 31
0.0
  0
LINE
  5
36C
  8
VIDITELNE
  6
SLD-PLNÁ
 62
     2
 10
-406.7555279998
 20
118.737161883
 30
0.0
 11
-406.9540484586
 21
117.6112964142
 31
0.0
  0
POLYLINE
  5
36D
  8
VIDITELNE
  6
SLD-PLNÁ
 62
     2
 66
     1
 10
0.0
 20
0.0
 30
0.0
  0
VERTEX
  5
7C6
  8
VIDITELNE
  6
SLD-PLNÁ
 62
     2
 10
-395.65
 20
127.4999970044
 30
0.0
  0
VERTEX
  5
7C7
  8
VIDITELNE
  6
SLD-PLNÁ
 62
     2
 10
-397.7428191919
 20
127.5751167251
 30
0.0
  0
VERTEX
  5
7C8
  8
VIDITELNE
  6
SLD-PLNÁ
 62
     2
 10
-399.562057361
 20
127.9779205152
 30
0.0
  0
VERTEX
  5
7C9
  8
VIDITELNE
  6
SLD-PLNÁ
 62
     2
 10
-401.0733746959
 20
128.5655231463
 30
0.0
  0
VERTEX
  5
7CA
  8
VIDITELNE
  6
SLD-PLNÁ
 62
     2
 10
-402.2777837383
 20
129.2304029164
 30
0.0
  0
VERTEX
  5
7CB
  8
VIDITELNE
  6
SLD-PLNÁ
 62
     2
 10
-403.9617245108
 20
130.5326723646
 30
0.0
  0
VERTEX
  5
7CC
  8
VIDITELNE
  6
SLD-PLNÁ
 62
     2
 10
-405.2652682567
 20
131.9742959825
 30
0.0
  0
VERTEX
  5
7CD
  8
VIDITELNE
  6
SLD-PLNÁ
 62
     2
 10
-407.0148040045
 20
135.2424726559
 30
0.0
  0
VERTEX
  5
7CE
  8
VIDITELNE
  6
SLD-PLNÁ
 62
     2
 10
-407.4945944462
 20
137.1109429624
 30
0.0
  0
VERTEX
  5
7CF
  8
VIDITELNE
  6
SLD-PLNÁ
 62
     2
 10
-407.666337906
 20
139.2547776654
 30
0.0
  0
VERTEX
  5
7D0
  8
VIDITELNE
  6
SLD-PLNÁ
 62
     2
 10
-407.4379029216
 20
141.4747213596
 30
0.0
  0
VERTEX
  5
7D1
  8
VIDITELNE
  6
SLD-PLNÁ
 62
     2
 10
-406.8872628654
 20
143.4079192091
 30
0.0
  0
VERTEX
  5
7D2
  8
VIDITELNE
  6
SLD-PLNÁ
 62
     2
 10
-406.092747048
 20
145.1111396459
 30
0.0
  0
VERTEX
  5
7D3
  8
VIDITELNE
  6
SLD-PLNÁ
 62
     2
 10
-404.9684249683
 20
146.7752100041
 30
0.0
  0
VERTEX
  5
7D4
  8
VIDITELNE
  6
SLD-PLNÁ
 62
     2
 10
-403.4742363332
 20
148.3410480743
 30
0.0
  0
VERTEX
  5
7D5
  8
VIDITELNE
  6
SLD-PLNÁ
 62
     2
 10
-401.5782991668
 20
149.7211952197
 30
0.0
  0
VERTEX
  5
7D6
  8
VIDITELNE
  6
SLD-PLNÁ
 62
     2
 10
-399.0266018055
 20
150.8791155065
 30
0.0
  0
VERTEX
  5
7D7
  8
VIDITELNE
  6
SLD-PLNÁ
 62
     2
 10
-395.65
 20
151.5
 30
0.0
  0
SEQEND
  5
7D8
  8
VIDITELNE
  6
SLD-PLNÁ
 62
     2
  0
POLYLINE
  5
36E
  8
VIDITELNE
  6
SLD-PLNÁ
 62
     2
 66
     1
 10
0.0
 20
0.0
 30
0.0
  0
VERTEX
  5
7D9
  8
VIDITELNE
  6
SLD-PLNÁ
 62
     2
 10
-395.65
 20
159.5
 30
0.0
  0
VERTEX
  5
7DA
  8
VIDITELNE
  6
SLD-PLNÁ
 62
     2
 10
-398.8008773865
 20
159.3620149352
 30
0.0
  0
VERTEX
  5
7DB
  8
VIDITELNE
  6
SLD-PLNÁ
 62
     2
 10
-401.6233232532
 20
158.8220404497
 30
0.0
  0
VERTEX
  5
7DC
  8
VIDITELNE
  6
SLD-PLNÁ
 62
     2
 10
-404.0825647726
 20
158.0145390478
 30
0.0
  0
VERTEX
  5
7DD
  8
VIDITELNE
  6
SLD-PLNÁ
 62
     2
 10
-406.1717852124
 20
157.0527563489
 30
0.0
  0
VERTEX
  5
7DE
  8
VIDITELNE
  6
SLD-PLNÁ
 62
     2
 10
-409.6410770239
 20
154.761748044
 30
0.0
  0
VERTEX
  5
7DF
  8
VIDITELNE
  6
SLD-PLNÁ
 62
     2
 10
-412.3895604535
 20
152.0962115669
 30
0.0
  0
VERTEX
  5
7E0
  8
VIDITELNE
  6
SLD-PLNÁ
 62
     2
 10
-414.4784629788
 20
149.2274507595
 30
0.0
  0
VERTEX
  5
7E1
  8
VIDITELNE
  6
SLD-PLNÁ
 62
     2
 10
-416.0136670817
 20
146.1970496282
 30
0.0
  0
VERTEX
  5
7E2
  8
VIDITELNE
  6
SLD-PLNÁ
 62
     2
 10
-417.1420354921
 20
142.601303318
 30
0.0
  0
VERTEX
  5
7E3
  8
VIDITELNE
  6
SLD-PLNÁ
 62
     2
 10
-417.6486769324
 20
138.5408047509
 30
0.0
  0
VERTEX
  5
7E4
  8
VIDITELNE
  6
SLD-PLNÁ
 62
     2
 10
-417.4382052283
 20
134.7514560758
 30
0.0
  0
VERTEX
  5
7E5
  8
VIDITELNE
  6
SLD-PLNÁ
 62
     2
 10
-416.6851671011
 20
131.3800738344
 30
0.0
  0
VERTEX
  5
7E6
  8
VIDITELNE
  6
SLD-PLNÁ
 62
     2
 10
-415.4165264182
 20
128.1626169513
 30
0.0
  0
VERTEX
  5
7E7
  8
VIDITELNE
  6
SLD-PLNÁ
 62
     2
 10
-413.6498579938
 20
125.1572683933
 30
0.0
  0
VERTEX
  5
7E8
  8
VIDITELNE
  6
SLD-PLNÁ
 62
     2
 10
-412.2562551695
 20
123.362200101
 30
0.0
  0
VERTEX
  5
7E9
  8
VIDITELNE
  6
SLD-PLNÁ
 62
     2
 10
-410.7196865358
 20
121.7470544351
 30
0.0
  0
VERTEX
  5
7EA
  8
VIDITELNE
  6
SLD-PLNÁ
 62
     2
 10
-408.6107965573
 20
119.9718058019
 30
0.0
  0
VERTEX
  5
7EB
  8
VIDITELNE
  6
SLD-PLNÁ
 62
     2
 10
-406.7431294952
 20
118.7497418244
 30
0.0
  0
SEQEND
  5
7EC
  8
VIDITELNE
  6
SLD-PLNÁ
 62
     2
  0
POLYLINE
  5
36F
  8
VIDITELNE
  6
SLD-PLNÁ
 62
     2
 66
     1
 10
0.0
 20
0.0
 30
0.0
  0
VERTEX
  5
7ED
  8
VIDITELNE
  6
SLD-PLNÁ
 62
     2
 10
-384.5550468142
 20
118.7497901901
 30
0.0
  0
VERTEX
  5
7EE
  8
VIDITELNE
  6
SLD-PLNÁ
 62
     2
 10
-383.6892787387
 20
119.270169282
 30
0.0
  0
VERTEX
  5
7EF
  8
VIDITELNE
  6
SLD-PLNÁ
 62
     2
 10
-382.0662918088
 20
120.4512914282
 30
0.0
  0
VERTEX
  5
7F0
  8
VIDITELNE
  6
SLD-PLNÁ
 62
     2
 10
-380.2545759659
 20
122.0634644032
 30
0.0
  0
VERTEX
  5
7F1
  8
VIDITELNE
  6
SLD-PLNÁ
 62
     2
 10
-378.3508251183
 20
124.2079931773
 30
0.0
  0
VERTEX
  5
7F2
  8
VIDITELNE
  6
SLD-PLNÁ
 62
     2
 10
-376.7272943134
 20
126.5928616493
 30
0.0
  0
VERTEX
  5
7F3
  8
VIDITELNE
  6
SLD-PLNÁ
 62
     2
 10
-375.6485508925
 20
128.6602436682
 30
0.0
  0
VERTEX
  5
7F4
  8
VIDITELNE
  6
SLD-PLNÁ
 62
     2
 10
-374.9684498319
 20
130.3226393457
 30
0.0
  0
VERTEX
  5
7F5
  8
VIDITELNE
  6
SLD-PLNÁ
 62
     2
 10
-374.3963064846
 20
132.1402575884
 30
0.0
  0
VERTEX
  5
7F6
  8
VIDITELNE
  6
SLD-PLNÁ
 62
     2
 10
-373.9088595821
 20
134.4376896123
 30
0.0
  0
VERTEX
  5
7F7
  8
VIDITELNE
  6
SLD-PLNÁ
 62
     2
 10
-373.6520918914
 20
137.1653772388
 30
0.0
  0
VERTEX
  5
7F8
  8
VIDITELNE
  6
SLD-PLNÁ
 62
     2
 10
-373.9204978573
 20
141.3572323665
 30
0.0
  0
VERTEX
  5
7F9
  8
VIDITELNE
  6
SLD-PLNÁ
 62
     2
 10
-374.9844274657
 20
145.4218194602
 30
0.0
  0
VERTEX
  5
7FA
  8
VIDITELNE
  6
SLD-PLNÁ
 62
     2
 10
-376.016984872
 20
147.7864620283
 30
0.0
  0
VERTEX
  5
7FB
  8
VIDITELNE
  6
SLD-PLNÁ
 62
     2
 10
-377.0756529622
 20
149.6345023211
 30
0.0
  0
VERTEX
  5
7FC
  8
VIDITELNE
  6
SLD-PLNÁ
 62
     2
 10
-378.0729381441
 20
151.0624242986
 30
0.0
  0
VERTEX
  5
7FD
  8
VIDITELNE
  6
SLD-PLNÁ
 62
     2
 10
-379.3356808769
 20
152.5748457337
 30
0.0
  0
VERTEX
  5
7FE
  8
VIDITELNE
  6
SLD-PLNÁ
 62
     2
 10
-381.0226245138
 20
154.225527103
 30
0.0
  0
VERTEX
  5
7FF
  8
VIDITELNE
  6
SLD-PLNÁ
 62
     2
 10
-383.296128323
 20
155.9641198102
 30
0.0
  0
VERTEX
  5
800
  8
VIDITELNE
  6
SLD-PLNÁ
 62
     2
 10
-385.5789613388
 20
157.2840694381
 30
0.0
  0
VERTEX
  5
801
  8
VIDITELNE
  6
SLD-PLNÁ
 62
     2
 10
-388.4049051363
 20
158.4447237231
 30
0.0
  0
VERTEX
  5
802
  8
VIDITELNE
  6
SLD-PLNÁ
 62
     2
 10
-391.7791592712
 20
159.2655592397
 30
0.0
  0
VERTEX
  5
803
  8
VIDITELNE
  6
SLD-PLNÁ
 62
     2
 10
-395.65
 20
159.5
 30
0.0
  0
SEQEND
  5
804
  8
VIDITELNE
  6
SLD-PLNÁ
 62
     2
  0
POLYLINE
  5
370
  8
VIDITELNE
  6
SLD-PLNÁ
 62
     2
 66
     1
 10
0.0
 20
0.0
 30
0.0
  0
VERTEX
  5
805
  8
VIDITELNE
  6
SLD-PLNÁ
 62
     2
 10
-395.65
 20
151.5
 30
0.0
  0
VERTEX
  5
806
  8
VIDITELNE
  6
SLD-PLNÁ
 62
     2
 10
-393.8612761694
 20
151.2878220539
 30
0.0
  0
VERTEX
  5
807
  8
VIDITELNE
  6
SLD-PLNÁ
 62
     2
 10
-392.2733981945
 20
150.8791155065
 30
0.0
  0
VERTEX
  5
808
  8
VIDITELNE
  6
SLD-PLNÁ
 62
     2
 10
-389.7217008332
 20
149.7211952197
 30
0.0
  0
VERTEX
  5
809
  8
VIDITELNE
  6
SLD-PLNÁ
 62
     2
 10
-387.8257636668
 20
148.3410480743
 30
0.0
  0
VERTEX
  5
80A
  8
VIDITELNE
  6
SLD-PLNÁ
 62
     2
 10
-386.3315750317
 20
146.7752100041
 30
0.0
  0
VERTEX
  5
80B
  8
VIDITELNE
  6
SLD-PLNÁ
 62
     2
 10
-385.207252952
 20
145.1111396459
 30
0.0
  0
VERTEX
  5
80C
  8
VIDITELNE
  6
SLD-PLNÁ
 62
     2
 10
-384.4127371346
 20
143.4079192091
 30
0.0
  0
VERTEX
  5
80D
  8
VIDITELNE
  6
SLD-PLNÁ
 62
     2
 10
-383.8620970784
 20
141.4747213596
 30
0.0
  0
VERTEX
  5
80E
  8
VIDITELNE
  6
SLD-PLNÁ
 62
     2
 10
-383.633662094
 20
139.2547776654
 30
0.0
  0
VERTEX
  5
80F
  8
VIDITELNE
  6
SLD-PLNÁ
 62
     2
 10
-383.8054055538
 20
137.1109429624
 30
0.0
  0
VERTEX
  5
810
  8
VIDITELNE
  6
SLD-PLNÁ
 62
     2
 10
-384.2851959955
 20
135.2424726559
 30
0.0
  0
VERTEX
  5
811
  8
VIDITELNE
  6
SLD-PLNÁ
 62
     2
 10
-386.0347317433
 20
131.9742959825
 30
0.0
  0
VERTEX
  5
812
  8
VIDITELNE
  6
SLD-PLNÁ
 62
     2
 10
-387.3382754892
 20
130.5326723646
 30
0.0
  0
VERTEX
  5
813
  8
VIDITELNE
  6
SLD-PLNÁ
 62
     2
 10
-389.0222162617
 20
129.2304029164
 30
0.0
  0
VERTEX
  5
814
  8
VIDITELNE
  6
SLD-PLNÁ
 62
     2
 10
-390.2266253041
 20
128.5655231463
 30
0.0
  0
VERTEX
  5
815
  8
VIDITELNE
  6
SLD-PLNÁ
 62
     2
 10
-391.737942639
 20
127.9779205152
 30
0.0
  0
VERTEX
  5
816
  8
VIDITELNE
  6
SLD-PLNÁ
 62
     2
 10
-393.5571808081
 20
127.5751167251
 30
0.0
  0
VERTEX
  5
817
  8
VIDITELNE
  6
SLD-PLNÁ
 62
     2
 10
-395.65
 20
127.4999970044
 30
0.0
  0
SEQEND
  5
818
  8
VIDITELNE
  6
SLD-PLNÁ
 62
     2
  0
LINE
  5
371
  8
VIDITELNE
  6
SLD-PLNÁ
 62
     2
 10
-265.65
 20
9.0
 30
0.0
 11
-259.5802010066
 21
9.2119620515
 31
0.0
  0
LINE
  5
372
  8
VIDITELNE
  6
SLD-PLNÁ
 62
     2
 10
-259.5802010066
 20
117.7880379485
 30
0.0
 11
-265.65
 21
118.0
 31
0.0
  0
ARC
  5
373
  8
VIDITELNE
  6
SLD-PLNÁ
 62
     2
 10
-259.65
 20
11.2107437055
 30
0.0
 40
2.000000000000011
 50
272.0
 51
0.0
  0
ARC
  5
374
  8
VIDITELNE
  6
SLD-PLNÁ
 62
     2
 10
-259.65
 20
115.7892562945
 30
0.0
 40
2.0
 50
0.0
 51
88.0
  0
LINE
  5
375
  8
VIDITELNE
  6
SLD-PLNÁ
 62
     2
 10
-547.65
 20
63.5
 30
0.0
 11
-547.65
 21
188.5
 31
0.0
  0
LINE
  5
376
  8
VIDITELNE
  6
SLD-PLNÁ
 62
     2
 10
-547.65
 20
-61.5
 30
0.0
 11
-547.65
 21
63.5
 31
0.0
  0
LINE
  5
377
  8
VIDITELNE
  6
SLD-PLNÁ
 62
     2
 10
-535.65
 20
63.5
 30
0.0
 11
-535.65
 21
186.1495732165
 31
0.0
  0
LINE
  5
378
  8
VIDITELNE
  6
SLD-PLNÁ
 62
     2
 10
-535.65
 20
-59.1495732165
 30
0.0
 11
-535.65
 21
63.5
 31
0.0
  0
LINE
  5
379
  8
VIDITELNE
  6
SLD-PLNÁ
 62
     2
 10
-525.65
 20
63.5
 30
0.0
 11
-525.65
 21
118.5
 31
0.0
  0
LINE
  5
37A
  8
VIDITELNE
  6
SLD-PLNÁ
 62
     2
 10
-525.65
 20
8.5
 30
0.0
 11
-525.65
 21
63.5
 31
0.0
  0
CIRCLE
  5
37B
  8
VIDITELNE
  6
SLD-PLNÁ
 62
     2
 10
-395.65
 20
-56.5
 30
0.0
 40
32.5
  0
CIRCLE
  5
37C
  8
VIDITELNE
  6
SLD-PLNÁ
 62
     2
 10
-395.65
 20
-56.5
 30
0.0
 40
30.5
  0
LINE
  5
37D
  8
VIDITELNE
  6
SLD-PLNÁ
 62
     2
 10
-402.65
 20
-30.2
 30
0.0
 11
-388.65
 21
-30.2
 31
0.0
  0
ARC
  5
37E
  8
VIDITELNE
  6
SLD-PLNÁ
 62
     2
 10
-395.65
 20
-56.5
 30
0.0
 40
23.65470053837927
 50
107.2129689444
 51
72.7870310556
  0
LINE
  5
37F
  8
VIDITELNE
  6
SLD-PLNÁ
 62
     2
 10
-388.65
 20
-30.2
 30
0.0
 11
-388.65
 21
-33.9047602898
 31
0.0
  0
LINE
  5
380
  8
VIDITELNE
  6
SLD-PLNÁ
 62
     2
 10
-402.65
 20
-33.9047602898
 30
0.0
 11
-402.65
 21
-30.2
 31
0.0
  0
ARC
  5
381
  8
VIDITELNE
  6
SLD-PLNÁ
 62
     2
 10
-395.65
 20
-56.5
 30
0.0
 40
22.50000000000001
 50
108.1262039606
 51
71.8737960394
  0
LINE
  5
382
  8
VIDITELNE
  6
SLD-PLNÁ
 62
     2
 10
-388.65
 20
-35.1165952197
 30
0.0
 11
-388.65
 21
-33.9047602898
 31
0.0
  0
LINE
  5
383
  8
VIDITELNE
  6
SLD-PLNÁ
 62
     2
 10
-402.65
 20
-33.9047602898
 30
0.0
 11
-402.65
 21
-35.1165952197
 31
0.0
  0
ARC
  5
384
  8
VIDITELNE
  6
SLD-PLNÁ
 62
     2
 10
-395.65
 20
-61.0718241501
 30
0.0
 40
131.3283646897416
 50
71.54133344
 51
108.45866656
  0
LINE
  5
385
  8
VIDITELNE
  6
SLD-PLNÁ
 62
     2
 10
-354.0687542274
 20
63.5
 30
0.0
 11
-354.7235769955
 21
61.6102362205
 31
0.0
  0
LINE
  5
386
  8
VIDITELNE
  6
SLD-PLNÁ
 62
     2
 10
-437.2312457726
 20
63.5
 30
0.0
 11
-436.5764230045
 21
61.6102362205
 31
0.0
  0
ARC
  5
387
  8
VIDITELNE
  6
SLD-PLNÁ
 62
     2
 10
-519.8411611348
 20
-56.3855989853
 30
0.0
 40
249.1911873949194
 50
359.9736961182
 51
7.2640703418
  0
LINE
  5
388
  8
VIDITELNE
  6
SLD-PLNÁ
 62
     2
 10
-272.65
 20
-24.8772233983
 30
0.0
 11
-274.587007874
 21
-25.3752198802
 31
0.0
  0
LINE
  5
389
  8
VIDITELNE
  6
SLD-PLNÁ
 62
     2
 10
-518.65
 20
-24.8772233983
 30
0.0
 11
-516.712992126
 21
-25.3752198802
 31
0.0
  0
ARC
  5
38A
  8
VIDITELNE
  6
SLD-PLNÁ
 62
     2
 10
-271.4588388631
 20
-56.3855989854
 30
0.0
 40
249.1911873970316
 50
172.7359296582
 51
180.0263038818
  0
ARC
  5
38B
  8
VIDITELNE
  6
SLD-PLNÁ
 62
     2
 10
-395.65
 20
-56.5
 30
0.0
 40
127.0
 50
14.4182411734
 51
70.8882678628
  0
ARC
  5
38C
  8
VIDITELNE
  6
SLD-PLNÁ
 62
     2
 10
-395.65
 20
-56.5
 30
0.0
 40
127.0000000000001
 50
109.1117321372
 51
165.5817588266
  0
ARC
  5
38D
  8
VIDITELNE
  6
SLD-PLNÁ
 62
     2
 10
-291.9456673764
 20
31.3011552617
 30
0.0
 40
228.9795188063939
 50
171.9163399437
 51
177.1907128868
  0
POLYLINE
  5
38E
  8
VIDITELNE
  6
SLD-PLNÁ
 62
     2
 66
     1
 10
0.0
 20
0.0
 30
0.0
  0
VERTEX
  5
819
  8
VIDITELNE
  6
SLD-PLNÁ
 62
     2
 10
-522.65
 20
43.2598292458
 30
0.0
  0
VERTEX
  5
81A
  8
VIDITELNE
  6
SLD-PLNÁ
 62
     2
 10
-522.259819356
 20
43.2456870929
 30
0.0
  0
VERTEX
  5
81B
  8
VIDITELNE
  6
SLD-PLNÁ
 62
     2
 10
-521.8846331353
 20
43.2038041091
 30
0.0
  0
VERTEX
  5
81C
  8
VIDITELNE
  6
SLD-PLNÁ
 62
     2
 10
-521.538859534
 20
43.135789834
 30
0.0
  0
VERTEX
  5
81D
  8
VIDITELNE
  6
SLD-PLNÁ
 62
     2
 10
-521.2357864376
 20
43.0442580181
 30
0.0
  0
VERTEX
  5
81E
  8
VIDITELNE
  6
SLD-PLNÁ
 62
     2
 10
-520.9870607754
 20
42.9327261778
 30
0.0
  0
VERTEX
  5
81F
  8
VIDITELNE
  6
SLD-PLNÁ
 62
     2
 10
-520.802240935
 20
42.805480419
 30
0.0
  0
VERTEX
  5
820
  8
VIDITELNE
  6
SLD-PLNÁ
 62
     2
 10
-520.6884294392
 20
42.667410725
 30
0.0
  0
VERTEX
  5
821
  8
VIDITELNE
  6
SLD-PLNÁ
 62
     2
 10
-520.65
 20
42.5238230366
 30
0.0
  0
SEQEND
  5
822
  8
VIDITELNE
  6
SLD-PLNÁ
 62
     2
  0
POLYLINE
  5
38F
  8
VIDITELNE
  6
SLD-PLNÁ
 62
     2
 66
     1
 10
0.0
 20
0.0
 30
0.0
  0
VERTEX
  5
823
  8
VIDITELNE
  6
SLD-PLNÁ
 62
     2
 10
-522.65
 20
43.2598292458
 30
0.0
  0
VERTEX
  5
824
  8
VIDITELNE
  6
SLD-PLNÁ
 62
     2
 10
-522.418392374
 20
46.8985246006
 30
0.0
  0
VERTEX
  5
825
  8
VIDITELNE
  6
SLD-PLNÁ
 62
     2
 10
-521.8353411665
 20
50.6377630279
 30
0.0
  0
VERTEX
  5
826
  8
VIDITELNE
  6
SLD-PLNÁ
 62
     2
 10
-520.8636334368
 20
55.1021414993
 30
0.0
  0
VERTEX
  5
827
  8
VIDITELNE
  6
SLD-PLNÁ
 62
     2
 10
-519.7061374786
 20
59.6208847243
 30
0.0
  0
VERTEX
  5
828
  8
VIDITELNE
  6
SLD-PLNÁ
 62
     2
 10
-518.6624176874
 20
63.4547689701
 30
0.0
  0
VERTEX
  5
829
  8
VIDITELNE
  6
SLD-PLNÁ
 62
     2
 10
-518.65
 20
63.5
 30
0.0
  0
SEQEND
  5
82A
  8
VIDITELNE
  6
SLD-PLNÁ
 62
     2
  0
LINE
  5
390
  8
VIDITELNE
  6
SLD-PLNÁ
 62
     2
 10
-272.65
 20
-24.8772233983
 30
0.0
 11
-272.65
 21
63.5
 31
0.0
  0
ARC
  5
391
  8
VIDITELNE
  6
SLD-PLNÁ
 62
     2
 10
-499.3543326237
 20
31.3011552617
 30
0.0
 40
228.9795188064257
 50
2.8092871132
 51
8.0836600563
  0
LINE
  5
392
  8
VIDITELNE
  6
SLD-PLNÁ
 62
     2
 10
-270.65
 20
42.5238230366
 30
0.0
 11
-270.65
 21
-56.5
 31
0.0
  0
LINE
  5
393
  8
VIDITELNE
  6
SLD-PLNÁ
 62
     2
 10
-268.65
 20
11.0030962821
 30
0.0
 11
-265.65
 21
11.0030962821
 31
0.0
  0
LINE
  5
394
  8
VIDITELNE
  6
SLD-PLNÁ
 62
     2
 10
-268.65
 20
43.2598292458
 30
0.0
 11
-268.65
 21
11.0030962821
 31
0.0
  0
POLYLINE
  5
395
  8
VIDITELNE
  6
SLD-PLNÁ
 62
     2
 66
     1
 10
0.0
 20
0.0
 30
0.0
  0
VERTEX
  5
82B
  8
VIDITELNE
  6
SLD-PLNÁ
 62
     2
 10
-272.65
 20
63.5
 30
0.0
  0
VERTEX
  5
82C
  8
VIDITELNE
  6
SLD-PLNÁ
 62
     2
 10
-272.6375823126
 20
63.4547689701
 30
0.0
  0
VERTEX
  5
82D
  8
VIDITELNE
  6
SLD-PLNÁ
 62
     2
 10
-271.5938625214
 20
59.6208847243
 30
0.0
  0
VERTEX
  5
82E
  8
VIDITELNE
  6
SLD-PLNÁ
 62
     2
 10
-270.4450859643
 20
55.1383007558
 30
0.0
  0
VERTEX
  5
82F
  8
VIDITELNE
  6
SLD-PLNÁ
 62
     2
 10
-269.4646588335
 20
50.6377630279
 30
0.0
  0
VERTEX
  5
830
  8
VIDITELNE
  6
SLD-PLNÁ
 62
     2
 10
-268.8872713326
 20
46.9467739134
 30
0.0
  0
VERTEX
  5
831
  8
VIDITELNE
  6
SLD-PLNÁ
 62
     2
 10
-268.65
 20
43.2598292458
 30
0.0
  0
SEQEND
  5
832
  8
VIDITELNE
  6
SLD-PLNÁ
 62
     2
  0
LINE
  5
396
  8
VIDITELNE
  6
SLD-PLNÁ
 62
     2
 10
-272.65
 20
63.5
 30
0.0
 11
-354.0687542274
 21
63.5
 31
0.0
  0
LINE
  5
397
  8
VIDITELNE
  6
SLD-PLNÁ
 62
     2
 10
-518.65
 20
63.5
 30
0.0
 11
-437.2312457726
 21
63.5
 31
0.0
  0
ARC
  5
398
  8
VIDITELNE
  6
SLD-PLNÁ
 62
     2
 10
-486.2046945436
 20
174.8254351159
 30
0.0
 40
58.43365669505977
 50
273.4876274061
 51
285.414954933
  0
ARC
  5
399
  8
VIDITELNE
  6
SLD-PLNÁ
 62
     2
 10
-485.0566240479
 20
175.0602557126
 30
0.0
 40
58.67040054288588
 50
254.5867379966
 51
266.4886175874
  0
LINE
  5
39A
  8
VIDITELNE
  6
SLD-PLNÁ
 62
     2
 10
-488.65
 20
116.5
 30
0.0
 11
-482.65
 21
116.5
 31
0.0
  0
ARC
  5
39B
  8
VIDITELNE
  6
SLD-PLNÁ
 62
     2
 10
-396.2046945436
 20
174.8254351159
 30
0.0
 40
58.43365669505225
 50
273.4876274061
 51
285.414954933
  0
ARC
  5
39C
  8
VIDITELNE
  6
SLD-PLNÁ
 62
     2
 10
-395.0566240479
 20
175.0602557127
 30
0.0
 40
58.67040054289867
 50
254.5867379966
 51
266.4886175874
  0
LINE
  5
39D
  8
VIDITELNE
  6
SLD-PLNÁ
 62
     2
 10
-398.65
 20
116.5
 30
0.0
 11
-392.65
 21
116.5
 31
0.0
  0
LINE
  5
39E
  8
VIDITELNE
  6
SLD-PLNÁ
 62
     2
 10
-265.65
 20
11.0030962821
 30
0.0
 11
-265.65
 21
118.5
 31
0.0
  0
LINE
  5
39F
  8
VIDITELNE
  6
SLD-PLNÁ
 62
     2
 10
-518.65
 20
63.5
 30
0.0
 11
-518.65
 21
-24.8772233983
 31
0.0
  0
LINE
  5
3A0
  8
VIDITELNE
  6
SLD-PLNÁ
 62
     2
 10
-520.65
 20
-56.5
 30
0.0
 11
-520.65
 21
42.5238230366
 31
0.0
  0
POLYLINE
  5
3A1
  8
VIDITELNE
  6
SLD-PLNÁ
 62
     2
 66
     1
 10
0.0
 20
0.0
 30
0.0
  0
VERTEX
  5
833
  8
VIDITELNE
  6
SLD-PLNÁ
 62
     2
 10
-268.65
 20
43.2598292458
 30
0.0
  0
VERTEX
  5
834
  8
VIDITELNE
  6
SLD-PLNÁ
 62
     2
 10
-269.040180644
 20
43.2456870929
 30
0.0
  0
VERTEX
  5
835
  8
VIDITELNE
  6
SLD-PLNÁ
 62
     2
 10
-269.4153668647
 20
43.2038041091
 30
0.0
  0
VERTEX
  5
836
  8
VIDITELNE
  6
SLD-PLNÁ
 62
     2
 10
-269.761140466
 20
43.135789834
 30
0.0
  0
VERTEX
  5
837
  8
VIDITELNE
  6
SLD-PLNÁ
 62
     2
 10
-270.0642135624
 20
43.0442580181
 30
0.0
  0
VERTEX
  5
838
  8
VIDITELNE
  6
SLD-PLNÁ
 62
     2
 10
-270.3129392246
 20
42.9327261778
 30
0.0
  0
VERTEX
  5
839
  8
VIDITELNE
  6
SLD-PLNÁ
 62
     2
 10
-270.497759065
 20
42.805480419
 30
0.0
  0
VERTEX
  5
83A
  8
VIDITELNE
  6
SLD-PLNÁ
 62
     2
 10
-270.6115705608
 20
42.667410725
 30
0.0
  0
VERTEX
  5
83B
  8
VIDITELNE
  6
SLD-PLNÁ
 62
     2
 10
-270.65
 20
42.5238230366
 30
0.0
  0
SEQEND
  5
83C
  8
VIDITELNE
  6
SLD-PLNÁ
 62
     2
  0
ARC
  5
3A2
  8
VIDITELNE
  6
SLD-PLNÁ
 62
     2
 10
-268.6944752231
 20
9.0475221261
 30
0.0
 40
1.956079836075846
 50
88.6971583966
 51
178.635026332
  0
LINE
  5
3A3
  8
VIDITELNE
  6
SLD-PLNÁ
 62
     2
 10
-270.65
 20
-16.5
 30
0.0
 11
-269.15
 21
-16.5
 31
0.0
  0
LINE
  5
3A4
  8
VIDITELNE
  6
SLD-PLNÁ
 62
     2
 10
-269.0811358957
 20
9.0941179651
 30
0.0
 11
-270.65
 21
9.0941179651
 31
0.0
  0
POLYLINE
  5
3A5
  8
VIDITELNE
  6
SLD-PLNÁ
 62
     2
 66
     1
 10
0.0
 20
0.0
 30
0.0
  0
VERTEX
  5
83D
  8
VIDITELNE
  6
SLD-PLNÁ
 62
     2
 10
-269.15
 20
8.0321585622
 30
0.0
  0
VERTEX
  5
83E
  8
VIDITELNE
  6
SLD-PLNÁ
 62
     2
 10
-269.1403303291
 20
8.4347731939
 30
0.0
  0
VERTEX
  5
83F
  8
VIDITELNE
  6
SLD-PLNÁ
 62
     2
 10
-269.0811358957
 20
9.0941179651
 30
0.0
  0
SEQEND
  5
840
  8
VIDITELNE
  6
SLD-PLNÁ
 62
     2
  0
LINE
  5
3A6
  8
VIDITELNE
  6
SLD-PLNÁ
 62
     2
 10
-269.15
 20
-16.5
 30
0.0
 11
-269.15
 21
8.0321585622
 31
0.0
  0
LINE
  5
3A7
  8
VIDITELNE
  6
SLD-PLNÁ
 62
     2
 10
-268.65
 20
9.957761922
 30
0.0
 11
-268.65
 21
11.0030962821
 31
0.0
  0
POLYLINE
  5
3A8
  8
VIDITELNE
  6
SLD-PLNÁ
 62
     2
 66
     1
 10
0.0
 20
0.0
 30
0.0
  0
VERTEX
  5
841
  8
VIDITELNE
  6
SLD-PLNÁ
 62
     2
 10
-269.0811358957
 20
9.0941179651
 30
0.0
  0
VERTEX
  5
842
  8
VIDITELNE
  6
SLD-PLNÁ
 62
     2
 10
-268.9448449443
 20
9.4692596582
 30
0.0
  0
VERTEX
  5
843
  8
VIDITELNE
  6
SLD-PLNÁ
 62
     2
 10
-268.65
 20
9.957761922
 30
0.0
  0
SEQEND
  5
844
  8
VIDITELNE
  6
SLD-PLNÁ
 62
     2
  0
ARC
  5
3A9
  8
VIDITELNE
  6
SLD-PLNÁ
 62
     2
 10
-264.6181425786
 20
3.2142637923
 30
0.0
 40
7.856884961125181
 50
97.5465482487
 51
120.8747017253
  0
ARC
  5
3AA
  8
VIDITELNE
  6
SLD-PLNÁ
 62
     2
 10
-263.2818373619
 20
7.0758939357
 30
0.0
 40
4.585969096042205
 50
121.0906149335
 51
147.5091983728
  0
ARC
  5
3AB
  8
VIDITELNE
  6
SLD-PLNÁ
 62
     2
 10
-267.4214275267
 20
11.4640574421
 30
0.0
 40
1.943789215959008
 50
230.798450723
 51
278.0269198997
  0
POLYLINE
  5
3AC
  8
VIDITELNE
  6
SLD-PLNÁ
 62
     2
 66
     1
 10
0.0
 20
0.0
 30
0.0
  0
VERTEX
  5
845
  8
VIDITELNE
  6
SLD-PLNÁ
 62
     2
 10
-267.5811358957
 20
8.5882603209
 30
0.0
  0
VERTEX
  5
846
  8
VIDITELNE
  6
SLD-PLNÁ
 62
     2
 10
-267.6403303291
 20
8.2436926326
 30
0.0
  0
VERTEX
  5
847
  8
VIDITELNE
  6
SLD-PLNÁ
 62
     2
 10
-267.65
 20
8.0321585622
 30
0.0
  0
SEQEND
  5
848
  8
VIDITELNE
  6
SLD-PLNÁ
 62
     2
  0
POLYLINE
  5
3AD
  8
VIDITELNE
  6
SLD-PLNÁ
 62
     2
 66
     1
 10
0.0
 20
0.0
 30
0.0
  0
VERTEX
  5
849
  8
VIDITELNE
  6
SLD-PLNÁ
 62
     2
 10
-267.15
 20
9.5393123645
 30
0.0
  0
VERTEX
  5
84A
  8
VIDITELNE
  6
SLD-PLNÁ
 62
     2
 10
-267.4448449443
 20
8.9872917322
 30
0.0
  0
VERTEX
  5
84B
  8
VIDITELNE
  6
SLD-PLNÁ
 62
     2
 10
-267.5811358957
 20
8.5882603209
 30
0.0
  0
SEQEND
  5
84C
  8
VIDITELNE
  6
SLD-PLNÁ
 62
     2
  0
LINE
  5
3AE
  8
VIDITELNE
  6
SLD-PLNÁ
 62
     2
 10
-265.65
 20
8.5
 30
0.0
 11
-265.65
 21
11.0030962821
 31
0.0
  0
ARC
  5
3AF
  8
VIDITELNE
  6
SLD-PLNÁ
 62
     2
 10
-270.7537036547
 20
1.6576431775
 30
0.0
 40
7.622246399502137
 50
65.4035301721
 51
77.3243031631
  0
LINE
  5
3B0
  8
VIDITELNE
  6
SLD-PLNÁ
 62
     2
 10
-269.15
 20
8.0321585622
 30
0.0
 11
-267.65
 21
8.0321585622
 31
0.0
  0
LINE
  5
3B1
  8
VIDITELNE
  6
SLD-PLNÁ
 62
     2
 10
-269.15
 20
-16.5
 30
0.0
 11
-267.65
 21
-16.5
 31
0.0
  0
LINE
  5
3B2
  8
VIDITELNE
  6
SLD-PLNÁ
 62
     2
 10
-267.65
 20
-16.5
 30
0.0
 11
-267.65
 21
-29.6270166538
 31
0.0
  0
LINE
  5
3B3
  8
VIDITELNE
  6
SLD-PLNÁ
 62
     2
 10
-267.65
 20
8.0321585622
 30
0.0
 11
-267.65
 21
-16.5
 31
0.0
  0
LINE
  5
3B4
  8
VIDITELNE
  6
SLD-PLNÁ
 62
     2
 10
-410.65
 20
-184.5
 30
0.0
 11
-380.65
 21
-184.5
 31
0.0
  0
LINE
  5
3B5
  8
VIDITELNE
  6
SLD-PLNÁ
 62
     2
 10
-386.15
 20
-188.5
 30
0.0
 11
-405.1499990662
 21
-188.5
 31
0.0
  0
LINE
  5
3B6
  8
VIDITELNE
  6
SLD-PLNÁ
 62
     2
 10
-263.65
 20
-7.0
 30
0.0
 11
-263.65
 21
-25.9999990662
 31
0.0
  0
LINE
  5
3B7
  8
VIDITELNE
  6
SLD-PLNÁ
 62
     2
 10
-495.15
 20
120.5
 30
0.0
 11
-476.1500009338
 21
120.5
 31
0.0
  0
CIRCLE
  5
3B8
  8
VIDITELNE
  6
SLD-PLNÁ
 62
     2
 10
-395.65
 20
-56.5
 30
0.0
 40
89.99999999999999
  0
CIRCLE
  5
3B9
  8
VIDITELNE
  6
SLD-PLNÁ
 62
     2
 10
-471.6639789776
 20
19.5139789776
 30
0.0
 40
6.500000000000005
  0
CIRCLE
  5
3BA
  8
VIDITELNE
  6
SLD-PLNÁ
 62
     2
 10
-319.6360210224
 20
19.5139789776
 30
0.0
 40
6.500000000000007
  0
CIRCLE
  5
3BB
  8
VIDITELNE
  6
SLD-PLNÁ
 62
     2
 10
-319.6360210224
 20
-132.5139789776
 30
0.0
 40
6.5
  0
CIRCLE
  5
3BC
  8
VIDITELNE
  6
SLD-PLNÁ
 62
     2
 10
-471.6639789776
 20
-132.5139789776
 30
0.0
 40
6.5
  0
CIRCLE
  5
3BD
  8
VIDITELNE
  6
SLD-PLNÁ
 62
     2
 10
-395.65
 20
-56.5
 30
0.0
 40
125.0
  0
CIRCLE
  5
3BE
  8
VIDITELNE
  6
SLD-PLNÁ
 62
     2
 10
-395.65
 20
-56.5
 30
0.0
 40
84.30159333182247
  0
CIRCLE
  5
3BF
  8
VIDITELNE
  6
SLD-PLNÁ
 62
     2
 10
-395.65
 20
-56.5
 30
0.0
 40
45.98572617329037
  0
CIRCLE
  5
3C0
  8
VIDITELNE
  6
SLD-PLNÁ
 62
     2
 10
-395.65
 20
-56.5
 30
0.0
 40
43.52827004042337
  0
CIRCLE
  5
3C1
  8
VIDITELNE
  6
SLD-PLNÁ
 62
     2
 10
-395.65
 20
-56.5
 30
0.0
 40
42.5
  0
LINE
  5
3C2
  8
VIDITELNE
  6
SLD-PLNÁ
 62
     2
 10
-314.3327201635
 20
-129.8172798365
 30
0.0
 11
-313.7108383737
 21
-129.8414875222
 31
0.0
  0
ARC
  5
3C3
  8
VIDITELNE
  6
SLD-PLNÁ
 62
     2
 10
-314.3327201635
 20
-137.8172798365
 30
0.0
 40
8.0
 50
90.0
 51
184.4583981266
  0
ARC
  5
3C4
  8
VIDITELNE
  6
SLD-PLNÁ
 62
     2
 10
-314.3327201635
 20
24.8172798365
 30
0.0
 40
8.000000000000007
 50
175.5416018733
 51
274.4583981268
  0
ARC
  5
3C5
  8
VIDITELNE
  6
SLD-PLNÁ
 62
     2
 10
-476.9672798365
 20
-137.8172798365
 30
0.0
 40
8.000000000000018
 50
355.5416018736
 51
94.4583981264
  0
ARC
  5
3C6
  8
VIDITELNE
  6
SLD-PLNÁ
 62
     2
 10
-476.9672798365
 20
24.8172798365
 30
0.0
 40
8.0
 50
265.5416018736
 51
4.4583981264
  0
POLYLINE
  5
3C7
  8
VIDITELNE
  6
SLD-PLNÁ
 62
     2
 66
     1
 10
0.0
 20
0.0
 30
0.0
  0
VERTEX
  5
84D
  8
VIDITELNE
  6
SLD-PLNÁ
 62
     2
 10
-404.1692554554
 20
123.6914394645
 30
0.0
  0
VERTEX
  5
84E
  8
VIDITELNE
  6
SLD-PLNÁ
 62
     2
 10
-404.6487081846
 20
122.1277756026
 30
0.0
  0
VERTEX
  5
84F
  8
VIDITELNE
  6
SLD-PLNÁ
 62
     2
 10
-405.3041849041
 20
120.7880196604
 30
0.0
  0
VERTEX
  5
850
  8
VIDITELNE
  6
SLD-PLNÁ
 62
     2
 10
-405.9889337185
 20
119.7245975606
 30
0.0
  0
VERTEX
  5
851
  8
VIDITELNE
  6
SLD-PLNÁ
 62
     2
 10
-406.5419378384
 20
118.9940745027
 30
0.0
  0
VERTEX
  5
852
  8
VIDITELNE
  6
SLD-PLNÁ
 62
     2
 10
-406.7563948069
 20
118.7318831232
 30
0.0
  0
VERTEX
  5
853
  8
VIDITELNE
  6
SLD-PLNÁ
 62
     2
 10
-406.752505923
 20
118.7366290093
 30
0.0
  0
SEQEND
  5
854
  8
VIDITELNE
  6
SLD-PLNÁ
 62
     2
  0
LINE
  5
3C8
  8
VIDITELNE
  6
SLD-PLNÁ
 62
     2
 10
-387.1307445446
 20
123.6914394645
 30
0.0
 11
-404.1692554554
 21
123.6914394645
 31
0.0
  0
ARC
  5
3C9
  8
VIDITELNE
  6
SLD-PLNÁ
 62
     2
 10
-375.6802414125
 20
126.5104856597
 30
0.0
 40
11.79241465640259
 50
193.8308250074
 51
221.2409797489
  0
ARC
  5
3CA
  8
VIDITELNE
  6
SLD-PLNÁ
 62
     2
 10
-401.1692358746
 20
123.1506902044
 30
0.0
 40
3.048364684108906
 50
102.6620759841
 51
169.7822314405
  0
LINE
  5
3CB
  8
VIDITELNE
  6
SLD-PLNÁ
 62
     2
 10
-389.4625612119
 20
126.1249181906
 30
0.0
 11
-401.8374387881
 21
126.1249181906
 31
0.0
  0
ARC
  5
3CC
  8
VIDITELNE
  6
SLD-PLNÁ
 62
     2
 10
-390.0964800131
 20
123.1835420488
 30
0.0
 40
3.008911207379324
 50
9.7179245609
 51
77.8377680145
  0
ARC
  5
3CD
  8
VIDITELNE
  6
SLD-PLNÁ
 62
     2
 10
-386.0577489244
 20
49.1633588614
 30
0.0
 40
78.5625879574733
 50
97.0131380634
 51
101.5869624879
  0
ARC
  5
3CE
  8
VIDITELNE
  6
SLD-PLNÁ
 62
     2
 10
-399.6265383251
 20
83.4562839898
 30
0.0
 40
43.86249850749373
 50
76.6014300383
 51
84.7984694104
  0
LINE
  5
3CF
  8
VIDITELNE
  6
SLD-PLNÁ
 62
     2
 10
-395.65
 20
127.1381557247
 30
0.0
 11
-395.65
 21
127.5
 31
0.0
  0
LINE
  5
3D0
  8
VIDITELNE
  6
SLD-PLNÁ
 62
     2
 10
-395.65
 20
151.500004668
 30
0.0
 11
-395.65
 21
159.5
 31
0.0
  0
LINE
  5
3D1
  8
VIDITELNE
  6
SLD-PLNÁ
 62
     2
 10
-257.65
 20
90.3779187065
 30
0.0
 11
-257.65
 21
115.7823353313
 31
0.0
  0
LINE
  5
3D2
  8
VIDITELNE
  6
SLD-PLNÁ
 62
     2
 10
-257.65
 20
38.0955833752
 30
0.0
 11
-257.65
 21
88.9044166248
 31
0.0
  0
LINE
  5
3D3
  8
VIDITELNE
  6
SLD-PLNÁ
 62
     2
 10
-257.65
 20
11.2176646687
 30
0.0
 11
-257.65
 21
36.6220812935
 31
0.0
  0
LINE
  5
3D4
  8
VIDITELNE
  6
SLD-PLNÁ
 62
     2
 10
-252.35
 20
37.1132486541
 30
0.0
 11
-257.65
 21
37.1132486541
 31
0.0
  0
LINE
  5
3D5
  8
VIDITELNE
  6
SLD-PLNÁ
 62
     2
 10
-252.35
 20
34.2264973081
 30
0.0
 11
-257.65
 21
34.2264973081
 31
0.0
  0
LINE
  5
3D6
  8
VIDITELNE
  6
SLD-PLNÁ
 62
     2
 10
-257.65
 20
37.1132486541
 30
0.0
 11
-257.65
 21
36.6220812935
 31
0.0
  0
LINE
  5
3D7
  8
VIDITELNE
  6
SLD-PLNÁ
 62
     2
 10
-252.35
 20
37.1132486541
 30
0.0
 11
-252.35
 21
34.2264973081
 31
0.0
  0
LINE
  5
3D8
  8
VIDITELNE
  6
SLD-PLNÁ
 62
     2
 10
-252.35
 20
42.8867513459
 30
0.0
 11
-257.65
 21
42.8867513459
 31
0.0
  0
LINE
  5
3D9
  8
VIDITELNE
  6
SLD-PLNÁ
 62
     2
 10
-257.65
 20
38.0955833752
 30
0.0
 11
-257.65
 21
37.1132486541
 31
0.0
  0
LINE
  5
3DA
  8
VIDITELNE
  6
SLD-PLNÁ
 62
     2
 10
-252.35
 20
42.8867513459
 30
0.0
 11
-252.35
 21
37.1132486541
 31
0.0
  0
LINE
  5
3DB
  8
VIDITELNE
  6
SLD-PLNÁ
 62
     2
 10
-252.35
 20
45.7735026919
 30
0.0
 11
-257.65
 21
45.7735026919
 31
0.0
  0
LINE
  5
3DC
  8
VIDITELNE
  6
SLD-PLNÁ
 62
     2
 10
-252.35
 20
45.7735026919
 30
0.0
 11
-252.35
 21
42.8867513459
 31
0.0
  0
LINE
  5
3DD
  8
VIDITELNE
  6
SLD-PLNÁ
 62
     2
 10
-252.35
 20
84.1132486541
 30
0.0
 11
-257.65
 21
84.1132486541
 31
0.0
  0
LINE
  5
3DE
  8
VIDITELNE
  6
SLD-PLNÁ
 62
     2
 10
-252.35
 20
84.1132486541
 30
0.0
 11
-252.35
 21
81.2264973081
 31
0.0
  0
LINE
  5
3DF
  8
VIDITELNE
  6
SLD-PLNÁ
 62
     2
 10
-252.35
 20
81.2264973081
 30
0.0
 11
-257.65
 21
81.2264973081
 31
0.0
  0
LINE
  5
3E0
  8
VIDITELNE
  6
SLD-PLNÁ
 62
     2
 10
-252.35
 20
89.8867513459
 30
0.0
 11
-257.65
 21
89.8867513459
 31
0.0
  0
LINE
  5
3E1
  8
VIDITELNE
  6
SLD-PLNÁ
 62
     2
 10
-252.35
 20
89.8867513459
 30
0.0
 11
-252.35
 21
84.1132486541
 31
0.0
  0
LINE
  5
3E2
  8
VIDITELNE
  6
SLD-PLNÁ
 62
     2
 10
-257.65
 20
89.8867513459
 30
0.0
 11
-257.65
 21
88.9044166248
 31
0.0
  0
LINE
  5
3E3
  8
VIDITELNE
  6
SLD-PLNÁ
 62
     2
 10
-252.35
 20
92.7735026919
 30
0.0
 11
-257.65
 21
92.7735026919
 31
0.0
  0
LINE
  5
3E4
  8
VIDITELNE
  6
SLD-PLNÁ
 62
     2
 10
-257.65
 20
90.3779187065
 30
0.0
 11
-257.65
 21
89.8867513459
 31
0.0
  0
LINE
  5
3E5
  8
VIDITELNE
  6
SLD-PLNÁ
 62
     2
 10
-252.35
 20
92.7735026919
 30
0.0
 11
-252.35
 21
89.8867513459
 31
0.0
  0
LINE
  5
3E6
  8
VIDITELNE
  6
SLD-PLNÁ
 62
     2
 10
-252.35
 20
19.3867513459
 30
0.0
 11
-257.65
 21
19.3867513459
 31
0.0
  0
LINE
  5
3E7
  8
VIDITELNE
  6
SLD-PLNÁ
 62
     2
 10
-252.35
 20
19.3867513459
 30
0.0
 11
-252.35
 21
13.6132486541
 31
0.0
  0
LINE
  5
3E8
  8
VIDITELNE
  6
SLD-PLNÁ
 62
     2
 10
-252.35
 20
13.6132486541
 30
0.0
 11
-257.65
 21
13.6132486541
 31
0.0
  0
LINE
  5
3E9
  8
VIDITELNE
  6
SLD-PLNÁ
 62
     2
 10
-252.35
 20
13.6132486541
 30
0.0
 11
-252.35
 21
10.7264973081
 31
0.0
  0
LINE
  5
3EA
  8
VIDITELNE
  6
SLD-PLNÁ
 62
     2
 10
-252.35
 20
10.7264973081
 30
0.0
 11
-257.65
 21
10.7264973081
 31
0.0
  0
LINE
  5
3EB
  8
VIDITELNE
  6
SLD-PLNÁ
 62
     2
 10
-257.65
 20
11.2176646687
 30
0.0
 11
-257.65
 21
10.7264973081
 31
0.0
  0
LINE
  5
3EC
  8
VIDITELNE
  6
SLD-PLNÁ
 62
     2
 10
-252.35
 20
22.2735026919
 30
0.0
 11
-257.65
 21
22.2735026919
 31
0.0
  0
LINE
  5
3ED
  8
VIDITELNE
  6
SLD-PLNÁ
 62
     2
 10
-252.35
 20
22.2735026919
 30
0.0
 11
-252.35
 21
19.3867513459
 31
0.0
  0
LINE
  5
3EE
  8
VIDITELNE
  6
SLD-PLNÁ
 62
     2
 10
-252.35
 20
113.3867513459
 30
0.0
 11
-257.65
 21
113.3867513459
 31
0.0
  0
LINE
  5
3EF
  8
VIDITELNE
  6
SLD-PLNÁ
 62
     2
 10
-252.35
 20
113.3867513459
 30
0.0
 11
-252.35
 21
107.6132486541
 31
0.0
  0
LINE
  5
3F0
  8
VIDITELNE
  6
SLD-PLNÁ
 62
     2
 10
-252.35
 20
107.6132486541
 30
0.0
 11
-257.65
 21
107.6132486541
 31
0.0
  0
LINE
  5
3F1
  8
VIDITELNE
  6
SLD-PLNÁ
 62
     2
 10
-252.35
 20
107.6132486541
 30
0.0
 11
-252.35
 21
104.7264973081
 31
0.0
  0
LINE
  5
3F2
  8
VIDITELNE
  6
SLD-PLNÁ
 62
     2
 10
-252.35
 20
104.7264973081
 30
0.0
 11
-257.65
 21
104.7264973081
 31
0.0
  0
LINE
  5
3F3
  8
VIDITELNE
  6
SLD-PLNÁ
 62
     2
 10
-252.35
 20
116.2735026919
 30
0.0
 11
-257.65
 21
116.2735026919
 31
0.0
  0
LINE
  5
3F4
  8
VIDITELNE
  6
SLD-PLNÁ
 62
     2
 10
-257.65
 20
116.2735026919
 30
0.0
 11
-257.65
 21
115.7823353313
 31
0.0
  0
LINE
  5
3F5
  8
VIDITELNE
  6
SLD-PLNÁ
 62
     2
 10
-252.35
 20
116.2735026919
 30
0.0
 11
-252.35
 21
113.3867513459
 31
0.0
  0
LINE
  5
3F6
  8
VIDITELNE
  6
SLD-PLNÁ
 62
     2
 10
-537.5802010066
 20
63.5
 30
0.0
 11
-537.5802010066
 21
188.1483548705
 31
0.0
  0
LINE
  5
3F7
  8
VIDITELNE
  6
SLD-PLNÁ
 62
     2
 10
-537.5802010066
 20
-61.1483548705
 30
0.0
 11
-537.5802010066
 21
63.5
 31
0.0
  0
LINE
  5
3F8
  8
VIDITELNE
  6
SLD-PLNÁ
 62
     2
 10
-532.7546984901
 20
63.5
 30
0.0
 11
-532.7546984901
 21
118.7481015383
 31
0.0
  0
LINE
  5
3F9
  8
VIDITELNE
  6
SLD-PLNÁ
 62
     2
 10
-532.7546984901
 20
8.2518984617
 30
0.0
 11
-532.7546984901
 21
63.5
 31
0.0
  0
LINE
  5
3FA
  8
VIDITELNE
  6
SLD-PLNÁ
 62
     2
 10
-522.65
 20
8.5
 30
0.0
 11
-522.65
 21
43.2598292458
 31
0.0
  0
ARC
  5
3FB
  8
VIDITELNE
  6
SLD-PLNÁ
 62
     2
 10
-395.6495525654
 20
-84.4339192738
 30
0.0
 40
99.06540900643168
 50
261.2907949276
 51
278.6803601965
  0
LINE
  5
3FC
  8
VIDITELNE
  6
SLD-PLNÁ
 62
     2
 10
-269.15
 20
-31.5635083269
 30
0.0
 11
-269.15
 21
-16.5
 31
0.0
  0
LINE
  5
3FD
  8
VIDITELNE
  6
SLD-PLNÁ
 62
     2
 10
-406.15
 20
-187.5
 30
0.0
 11
-385.15
 21
-187.5
 31
0.0
  0
LINE
  5
3FE
  8
VIDITELNE
  6
SLD-PLNÁ
 62
     2
 10
-264.65
 20
-27.0
 30
0.0
 11
-264.65
 21
-6.0
 31
0.0
  0
LINE
  5
3FF
  8
VIDITELNE
  6
SLD-PLNÁ
 62
     2
 10
-475.15
 20
119.5
 30
0.0
 11
-496.15
 21
119.5
 31
0.0
  0
ARC
  5
400
  8
VIDITELNE
  6
SLD-PLNÁ
 62
     2
 10
-314.3327201635
 20
-137.8172798365
 30
0.0
 40
6.999999999999976
 50
81.8698976458
 51
188.1301023542
  0
ARC
  5
401
  8
VIDITELNE
  6
SLD-PLNÁ
 62
     2
 10
-314.3327201635
 20
24.8172798365
 30
0.0
 40
7.0
 50
171.869897646
 51
278.130102354
  0
LINE
  5
402
  8
VIDITELNE
  6
SLD-PLNÁ
 62
     2
 10
-476.9672798365
 20
-130.8172798365
 30
0.0
 11
-477.9572293301
 21
-130.8876333808
 31
0.0
  0
ARC
  5
403
  8
VIDITELNE
  6
SLD-PLNÁ
 62
     2
 10
-476.9672798365
 20
-137.8172798365
 30
0.0
 40
7.0
 50
351.869897646
 51
90.0
  0
ARC
  5
404
  8
VIDITELNE
  6
SLD-PLNÁ
 62
     2
 10
-476.9672798365
 20
24.8172798365
 30
0.0
 40
7.0
 50
261.8698976461
 51
8.1301023539
  0
LINE
  5
405
  8
VIDITELNE
  6
SLD-PLNÁ
 62
     2
 10
-259.5802010066
 20
63.5
 30
0.0
 11
-259.5802010066
 21
117.7880379485
 31
0.0
  0
LINE
  5
406
  8
VIDITELNE
  6
SLD-PLNÁ
 62
     2
 10
-259.5802010066
 20
9.2119620515
 30
0.0
 11
-259.5802010066
 21
63.5
 31
0.0
  0
LINE
  5
407
  8
VIDITELNE
  6
SLD-PLNÁ
 62
     2
 10
547.65
 20
188.5
 30
0.0
 11
537.5802010066
 21
188.1483548705
 31
0.0
  0
LINE
  5
408
  8
VIDITELNE
  6
SLD-PLNÁ
 62
     2
 10
537.5802010066
 20
-61.1483548705
 30
0.0
 11
547.65
 21
-61.5
 31
0.0
  0
ARC
  5
409
  8
VIDITELNE
  6
SLD-PLNÁ
 62
     2
 10
537.65
 20
186.1495732165
 30
0.0
 40
2.0
 50
92.0
 51
180.0
  0
ARC
  5
40A
  8
VIDITELNE
  6
SLD-PLNÁ
 62
     2
 10
537.65
 20
-59.1495732165
 30
0.0
 40
2.000000000000003
 50
180.0
 51
268.0
  0
ARC
  5
40B
  8
VIDITELNE
  6
SLD-PLNÁ
 62
     2
 10
532.65
 20
121.7462740193
 30
0.0
 40
3.000000000000003
 50
272.0
 51
0.0
  0
ARC
  5
40C
  8
VIDITELNE
  6
SLD-PLNÁ
 62
     2
 10
532.65
 20
5.2537259807
 30
0.0
 40
3.000000000000006
 50
0.0
 51
88.0
  0
LINE
  5
40D
  8
VIDITELNE
  6
SLD-PLNÁ
 62
     2
 10
532.7546984901
 20
118.7481015383
 30
0.0
 11
525.65
 21
118.5
 31
0.0
  0
LINE
  5
40E
  8
VIDITELNE
  6
SLD-PLNÁ
 62
     2
 10
525.65
 20
8.5
 30
0.0
 11
532.7546984901
 21
8.2518984617
 31
0.0
  0
LINE
  5
40F
  8
VIDITELNE
  6
SLD-PLNÁ
 62
     2
 10
522.65
 20
8.5
 30
0.0
 11
525.65
 21
8.5
 31
0.0
  0
LINE
  5
410
  8
VIDITELNE
  6
SLD-PLNÁ
 62
     2
 10
380.6725757509
 20
118.5
 30
0.0
 11
265.65
 21
118.5
 31
0.0
  0
LINE
  5
411
  8
VIDITELNE
  6
SLD-PLNÁ
 62
     2
 10
470.6725757509
 20
118.5
 30
0.0
 11
410.65
 21
118.5
 31
0.0
  0
LINE
  5
412
  8
VIDITELNE
  6
SLD-PLNÁ
 62
     2
 10
525.65
 20
118.5
 30
0.0
 11
500.65
 21
118.5
 31
0.0
  0
ARC
  5
413
  8
VIDITELNE
  6
SLD-PLNÁ
 62
     2
 10
522.65
 20
6.5
 30
0.0
 40
2.000000000000002
 50
90.0
 51
180.0
  0
POLYLINE
  5
414
  8
VIDITELNE
  6
SLD-PLNÁ
 62
     2
 66
     1
 10
0.0
 20
0.0
 30
0.0
  0
VERTEX
  5
855
  8
VIDITELNE
  6
SLD-PLNÁ
 62
     2
 10
412.1141288893
 20
-180.4328646635
 30
0.0
  0
VERTEX
  5
856
  8
VIDITELNE
  6
SLD-PLNÁ
 62
     2
 10
412.1875553177
 20
-180.411297919
 30
0.0
  0
VERTEX
  5
857
  8
VIDITELNE
  6
SLD-PLNÁ
 62
     2
 10
412.2993830525
 20
-180.3881545261
 30
0.0
  0
VERTEX
  5
858
  8
VIDITELNE
  6
SLD-PLNÁ
 62
     2
 10
412.3273354801
 20
-180.3834020592
 30
0.0
  0
VERTEX
  5
859
  8
VIDITELNE
  6
SLD-PLNÁ
 62
     2
 10
412.3414562487
 20
-180.3811563795
 30
0.0
  0
VERTEX
  5
85A
  8
VIDITELNE
  6
SLD-PLNÁ
 62
     2
 10
412.3520257855
 20
-180.3795436769
 30
0.0
  0
VERTEX
  5
85B
  8
VIDITELNE
  6
SLD-PLNÁ
 62
     2
 10
412.3615264424
 20
-180.3781444626
 30
0.0
  0
VERTEX
  5
85C
  8
VIDITELNE
  6
SLD-PLNÁ
 62
     2
 10
412.3694398601
 20
-180.3770173835
 30
0.0
  0
VERTEX
  5
85D
  8
VIDITELNE
  6
SLD-PLNÁ
 62
     2
 10
412.3683546592
 20
-180.377164036
 30
0.0
  0
SEQEND
  5
85E
  8
VIDITELNE
  6
SLD-PLNÁ
 62
     2
  0
ARC
  5
415
  8
VIDITELNE
  6
SLD-PLNÁ
 62
     2
 10
412.5987725213
 20
-182.2995736346
 30
0.0
 40
1.928595818956531
 50
104.5540692358
 51
181.3057894832
  0
ARC
  5
416
  8
VIDITELNE
  6
SLD-PLNÁ
 62
     2
 10
378.7939306959
 20
-182.2339876615
 30
0.0
 40
1.835779216542538
 50
356.1152580697
 51
73.7789946987
  0
ARC
  5
417
  8
VIDITELNE
  6
SLD-PLNÁ
 62
     2
 10
268.65
 20
-33.5
 30
0.0
 40
2.0
 50
0.0
 51
75.5224878141
  0
ARC
  5
418
  8
VIDITELNE
  6
SLD-PLNÁ
 62
     2
 10
265.65
 20
6.5
 30
0.0
 40
2.000000000000002
 50
0.0
 51
90.0
  0
ARC
  5
419
  8
VIDITELNE
  6
SLD-PLNÁ
 62
     2
 10
269.65
 20
-29.6270166538
 30
0.0
 40
2.000000000000016
 50
180.0
 51
255.5224878141
  0
LINE
  5
41A
  8
VIDITELNE
  6
SLD-PLNÁ
 62
     2
 10
380.65
 20
-182.3645544299
 30
0.0
 11
380.65
 21
-184.5
 31
0.0
  0
LINE
  5
41B
  8
VIDITELNE
  6
SLD-PLNÁ
 62
     2
 10
410.65
 20
-184.5
 30
0.0
 11
410.65
 21
-182.3570617804
 31
0.0
  0
LINE
  5
41C
  8
VIDITELNE
  6
SLD-PLNÁ
 62
     2
 10
385.15
 20
-184.5
 30
0.0
 11
385.15
 21
-187.5
 31
0.0
  0
LINE
  5
41D
  8
VIDITELNE
  6
SLD-PLNÁ
 62
     2
 10
406.15
 20
-187.5
 30
0.0
 11
406.15
 21
-184.5
 31
0.0
  0
ARC
  5
41E
  8
VIDITELNE
  6
SLD-PLNÁ
 62
     2
 10
264.65
 20
-26.0
 30
0.0
 40
1.0
 50
180.0
 51
270.0
  0
ARC
  5
41F
  8
VIDITELNE
  6
SLD-PLNÁ
 62
     2
 10
264.65
 20
-7.0
 30
0.0
 40
1.0
 50
90.0
 51
180.0
  0
LINE
  5
420
  8
VIDITELNE
  6
SLD-PLNÁ
 62
     2
 10
267.65
 20
-6.0
 30
0.0
 11
264.65
 21
-6.0
 31
0.0
  0
LINE
  5
421
  8
VIDITELNE
  6
SLD-PLNÁ
 62
     2
 10
264.65
 20
-27.0
 30
0.0
 11
267.65
 21
-27.0
 31
0.0
  0
ARC
  5
422
  8
VIDITELNE
  6
SLD-PLNÁ
 62
     2
 10
405.15
 20
-187.5
 30
0.0
 40
1.0
 50
270.0
 51
0.0
  0
ARC
  5
423
  8
VIDITELNE
  6
SLD-PLNÁ
 62
     2
 10
386.15
 20
-187.5
 30
0.0
 40
1.0
 50
180.0
 51
270.0
  0
ARC
  5
424
  8
VIDITELNE
  6
SLD-PLNÁ
 62
     2
 10
476.15
 20
119.5
 30
0.0
 40
1.0
 50
90.0
 51
180.0
  0
ARC
  5
425
  8
VIDITELNE
  6
SLD-PLNÁ
 62
     2
 10
495.15
 20
119.5
 30
0.0
 40
1.0
 50
0.0
 51
90.0
  0
LINE
  5
426
  8
VIDITELNE
  6
SLD-PLNÁ
 62
     2
 10
496.15
 20
117.4503855205
 30
0.0
 11
496.15
 21
119.5
 31
0.0
  0
LINE
  5
427
  8
VIDITELNE
  6
SLD-PLNÁ
 62
     2
 10
475.15
 20
119.5
 30
0.0
 11
475.15
 21
117.4538204682
 31
0.0
  0
LINE
  5
428
  8
VIDITELNE
  6
SLD-PLNÁ
 62
     2
 10
406.9535078104
 20
117.6143625827
 30
0.0
 11
406.7555279998
 21
118.737161883
 31
0.0
  0
LINE
  5
429
  8
VIDITELNE
  6
SLD-PLNÁ
 62
     2
 10
384.5444667725
 20
118.737132235
 30
0.0
 11
384.3459515414
 21
117.6112964142
 31
0.0
  0
POLYLINE
  5
42A
  8
VIDITELNE
  6
SLD-PLNÁ
 62
     2
 66
     1
 10
0.0
 20
0.0
 30
0.0
  0
VERTEX
  5
85F
  8
VIDITELNE
  6
SLD-PLNÁ
 62
     2
 10
395.65
 20
127.4999970044
 30
0.0
  0
VERTEX
  5
860
  8
VIDITELNE
  6
SLD-PLNÁ
 62
     2
 10
393.5571808081
 20
127.5751167251
 30
0.0
  0
VERTEX
  5
861
  8
VIDITELNE
  6
SLD-PLNÁ
 62
     2
 10
391.737942639
 20
127.9779205152
 30
0.0
  0
VERTEX
  5
862
  8
VIDITELNE
  6
SLD-PLNÁ
 62
     2
 10
390.2266253041
 20
128.5655231463
 30
0.0
  0
VERTEX
  5
863
  8
VIDITELNE
  6
SLD-PLNÁ
 62
     2
 10
389.0222162617
 20
129.2304029164
 30
0.0
  0
VERTEX
  5
864
  8
VIDITELNE
  6
SLD-PLNÁ
 62
     2
 10
387.3382754892
 20
130.5326723646
 30
0.0
  0
VERTEX
  5
865
  8
VIDITELNE
  6
SLD-PLNÁ
 62
     2
 10
386.0347317433
 20
131.9742959825
 30
0.0
  0
VERTEX
  5
866
  8
VIDITELNE
  6
SLD-PLNÁ
 62
     2
 10
384.2851959955
 20
135.2424726559
 30
0.0
  0
VERTEX
  5
867
  8
VIDITELNE
  6
SLD-PLNÁ
 62
     2
 10
383.8054055538
 20
137.1109429624
 30
0.0
  0
VERTEX
  5
868
  8
VIDITELNE
  6
SLD-PLNÁ
 62
     2
 10
383.633662094
 20
139.2547776654
 30
0.0
  0
VERTEX
  5
869
  8
VIDITELNE
  6
SLD-PLNÁ
 62
     2
 10
383.8620970784
 20
141.4747213596
 30
0.0
  0
VERTEX
  5
86A
  8
VIDITELNE
  6
SLD-PLNÁ
 62
     2
 10
384.4127371346
 20
143.4079192091
 30
0.0
  0
VERTEX
  5
86B
  8
VIDITELNE
  6
SLD-PLNÁ
 62
     2
 10
385.207252952
 20
145.1111396459
 30
0.0
  0
VERTEX
  5
86C
  8
VIDITELNE
  6
SLD-PLNÁ
 62
     2
 10
386.3315750317
 20
146.7752100041
 30
0.0
  0
VERTEX
  5
86D
  8
VIDITELNE
  6
SLD-PLNÁ
 62
     2
 10
387.8257636668
 20
148.3410480743
 30
0.0
  0
VERTEX
  5
86E
  8
VIDITELNE
  6
SLD-PLNÁ
 62
     2
 10
389.7217008332
 20
149.7211952197
 30
0.0
  0
VERTEX
  5
86F
  8
VIDITELNE
  6
SLD-PLNÁ
 62
     2
 10
392.2733981945
 20
150.8791155065
 30
0.0
  0
VERTEX
  5
870
  8
VIDITELNE
  6
SLD-PLNÁ
 62
     2
 10
395.65
 20
151.5
 30
0.0
  0
SEQEND
  5
871
  8
VIDITELNE
  6
SLD-PLNÁ
 62
     2
  0
POLYLINE
  5
42B
  8
VIDITELNE
  6
SLD-PLNÁ
 62
     2
 66
     1
 10
0.0
 20
0.0
 30
0.0
  0
VERTEX
  5
872
  8
VIDITELNE
  6
SLD-PLNÁ
 62
     2
 10
395.65
 20
159.5
 30
0.0
  0
VERTEX
  5
873
  8
VIDITELNE
  6
SLD-PLNÁ
 62
     2
 10
392.4991226135
 20
159.3620149352
 30
0.0
  0
VERTEX
  5
874
  8
VIDITELNE
  6
SLD-PLNÁ
 62
     2
 10
389.6766767468
 20
158.8220404497
 30
0.0
  0
VERTEX
  5
875
  8
VIDITELNE
  6
SLD-PLNÁ
 62
     2
 10
387.2174352274
 20
158.0145390478
 30
0.0
  0
VERTEX
  5
876
  8
VIDITELNE
  6
SLD-PLNÁ
 62
     2
 10
385.1282147876
 20
157.0527563489
 30
0.0
  0
VERTEX
  5
877
  8
VIDITELNE
  6
SLD-PLNÁ
 62
     2
 10
381.6589229761
 20
154.761748044
 30
0.0
  0
VERTEX
  5
878
  8
VIDITELNE
  6
SLD-PLNÁ
 62
     2
 10
378.9104395465
 20
152.0962115669
 30
0.0
  0
VERTEX
  5
879
  8
VIDITELNE
  6
SLD-PLNÁ
 62
     2
 10
376.8215370211
 20
149.2274507595
 30
0.0
  0
VERTEX
  5
87A
  8
VIDITELNE
  6
SLD-PLNÁ
 62
     2
 10
375.2863329183
 20
146.1970496282
 30
0.0
  0
VERTEX
  5
87B
  8
VIDITELNE
  6
SLD-PLNÁ
 62
     2
 10
374.1579645079
 20
142.601303318
 30
0.0
  0
VERTEX
  5
87C
  8
VIDITELNE
  6
SLD-PLNÁ
 62
     2
 10
373.6513230676
 20
138.5408047509
 30
0.0
  0
VERTEX
  5
87D
  8
VIDITELNE
  6
SLD-PLNÁ
 62
     2
 10
373.8617947717
 20
134.7514560758
 30
0.0
  0
VERTEX
  5
87E
  8
VIDITELNE
  6
SLD-PLNÁ
 62
     2
 10
374.6148328989
 20
131.3800738344
 30
0.0
  0
VERTEX
  5
87F
  8
VIDITELNE
  6
SLD-PLNÁ
 62
     2
 10
375.8834735818
 20
128.1626169513
 30
0.0
  0
VERTEX
  5
880
  8
VIDITELNE
  6
SLD-PLNÁ
 62
     2
 10
377.6501420062
 20
125.1572683933
 30
0.0
  0
VERTEX
  5
881
  8
VIDITELNE
  6
SLD-PLNÁ
 62
     2
 10
379.0437448305
 20
123.362200101
 30
0.0
  0
VERTEX
  5
882
  8
VIDITELNE
  6
SLD-PLNÁ
 62
     2
 10
380.5803134642
 20
121.7470544351
 30
0.0
  0
VERTEX
  5
883
  8
VIDITELNE
  6
SLD-PLNÁ
 62
     2
 10
382.6892034427
 20
119.9718058019
 30
0.0
  0
VERTEX
  5
884
  8
VIDITELNE
  6
SLD-PLNÁ
 62
     2
 10
384.5558318611
 20
118.7504214364
 30
0.0
  0
SEQEND
  5
885
  8
VIDITELNE
  6
SLD-PLNÁ
 62
     2
  0
POLYLINE
  5
42C
  8
VIDITELNE
  6
SLD-PLNÁ
 62
     2
 66
     1
 10
0.0
 20
0.0
 30
0.0
  0
VERTEX
  5
886
  8
VIDITELNE
  6
SLD-PLNÁ
 62
     2
 10
406.7443251103
 20
118.7494126787
 30
0.0
  0
VERTEX
  5
887
  8
VIDITELNE
  6
SLD-PLNÁ
 62
     2
 10
407.6107212613
 20
119.270169282
 30
0.0
  0
VERTEX
  5
888
  8
VIDITELNE
  6
SLD-PLNÁ
 62
     2
 10
409.2337081912
 20
120.4512914282
 30
0.0
  0
VERTEX
  5
889
  8
VIDITELNE
  6
SLD-PLNÁ
 62
     2
 10
411.0454240341
 20
122.0634644032
 30
0.0
  0
VERTEX
  5
88A
  8
VIDITELNE
  6
SLD-PLNÁ
 62
     2
 10
412.9491748817
 20
124.2079931773
 30
0.0
  0
VERTEX
  5
88B
  8
VIDITELNE
  6
SLD-PLNÁ
 62
     2
 10
414.5727056866
 20
126.5928616493
 30
0.0
  0
VERTEX
  5
88C
  8
VIDITELNE
  6
SLD-PLNÁ
 62
     2
 10
415.6514491075
 20
128.6602436682
 30
0.0
  0
VERTEX
  5
88D
  8
VIDITELNE
  6
SLD-PLNÁ
 62
     2
 10
416.3315501681
 20
130.3226393457
 30
0.0
  0
VERTEX
  5
88E
  8
VIDITELNE
  6
SLD-PLNÁ
 62
     2
 10
416.9036935154
 20
132.1402575884
 30
0.0
  0
VERTEX
  5
88F
  8
VIDITELNE
  6
SLD-PLNÁ
 62
     2
 10
417.3911404179
 20
134.4376896123
 30
0.0
  0
VERTEX
  5
890
  8
VIDITELNE
  6
SLD-PLNÁ
 62
     2
 10
417.6479081086
 20
137.1653772388
 30
0.0
  0
VERTEX
  5
891
  8
VIDITELNE
  6
SLD-PLNÁ
 62
     2
 10
417.3795021427
 20
141.3572323665
 30
0.0
  0
VERTEX
  5
892
  8
VIDITELNE
  6
SLD-PLNÁ
 62
     2
 10
416.3155725343
 20
145.4218194602
 30
0.0
  0
VERTEX
  5
893
  8
VIDITELNE
  6
SLD-PLNÁ
 62
     2
 10
415.283015128
 20
147.7864620283
 30
0.0
  0
VERTEX
  5
894
  8
VIDITELNE
  6
SLD-PLNÁ
 62
     2
 10
414.2243470378
 20
149.6345023211
 30
0.0
  0
VERTEX
  5
895
  8
VIDITELNE
  6
SLD-PLNÁ
 62
     2
 10
413.2270618559
 20
151.0624242986
 30
0.0
  0
VERTEX
  5
896
  8
VIDITELNE
  6
SLD-PLNÁ
 62
     2
 10
411.9643191231
 20
152.5748457337
 30
0.0
  0
VERTEX
  5
897
  8
VIDITELNE
  6
SLD-PLNÁ
 62
     2
 10
410.2773754862
 20
154.225527103
 30
0.0
  0
VERTEX
  5
898
  8
VIDITELNE
  6
SLD-PLNÁ
 62
     2
 10
408.003871677
 20
155.9641198102
 30
0.0
  0
VERTEX
  5
899
  8
VIDITELNE
  6
SLD-PLNÁ
 62
     2
 10
405.7210386612
 20
157.2840694381
 30
0.0
  0
VERTEX
  5
89A
  8
VIDITELNE
  6
SLD-PLNÁ
 62
     2
 10
402.8950948637
 20
158.4447237231
 30
0.0
  0
VERTEX
  5
89B
  8
VIDITELNE
  6
SLD-PLNÁ
 62
     2
 10
399.5208407288
 20
159.2655592397
 30
0.0
  0
VERTEX
  5
89C
  8
VIDITELNE
  6
SLD-PLNÁ
 62
     2
 10
395.65
 20
159.5
 30
0.0
  0
SEQEND
  5
89D
  8
VIDITELNE
  6
SLD-PLNÁ
 62
     2
  0
POLYLINE
  5
42D
  8
VIDITELNE
  6
SLD-PLNÁ
 62
     2
 66
     1
 10
0.0
 20
0.0
 30
0.0
  0
VERTEX
  5
89E
  8
VIDITELNE
  6
SLD-PLNÁ
 62
     2
 10
395.65
 20
151.5
 30
0.0
  0
VERTEX
  5
89F
  8
VIDITELNE
  6
SLD-PLNÁ
 62
     2
 10
397.4387238306
 20
151.2878220539
 30
0.0
  0
VERTEX
  5
8A0
  8
VIDITELNE
  6
SLD-PLNÁ
 62
     2
 10
399.0266018055
 20
150.8791155065
 30
0.0
  0
VERTEX
  5
8A1
  8
VIDITELNE
  6
SLD-PLNÁ
 62
     2
 10
401.5782991668
 20
149.7211952197
 30
0.0
  0
VERTEX
  5
8A2
  8
VIDITELNE
  6
SLD-PLNÁ
 62
     2
 10
403.4742363332
 20
148.3410480743
 30
0.0
  0
VERTEX
  5
8A3
  8
VIDITELNE
  6
SLD-PLNÁ
 62
     2
 10
404.9684249683
 20
146.7752100041
 30
0.0
  0
VERTEX
  5
8A4
  8
VIDITELNE
  6
SLD-PLNÁ
 62
     2
 10
406.092747048
 20
145.1111396459
 30
0.0
  0
VERTEX
  5
8A5
  8
VIDITELNE
  6
SLD-PLNÁ
 62
     2
 10
406.8872628654
 20
143.4079192091
 30
0.0
  0
VERTEX
  5
8A6
  8
VIDITELNE
  6
SLD-PLNÁ
 62
     2
 10
407.4379029216
 20
141.4747213596
 30
0.0
  0
VERTEX
  5
8A7
  8
VIDITELNE
  6
SLD-PLNÁ
 62
     2
 10
407.666337906
 20
139.2547776654
 30
0.0
  0
VERTEX
  5
8A8
  8
VIDITELNE
  6
SLD-PLNÁ
 62
     2
 10
407.4945944462
 20
137.1109429624
 30
0.0
  0
VERTEX
  5
8A9
  8
VIDITELNE
  6
SLD-PLNÁ
 62
     2
 10
407.0148040045
 20
135.2424726559
 30
0.0
  0
VERTEX
  5
8AA
  8
VIDITELNE
  6
SLD-PLNÁ
 62
     2
 10
405.2652682567
 20
131.9742959825
 30
0.0
  0
VERTEX
  5
8AB
  8
VIDITELNE
  6
SLD-PLNÁ
 62
     2
 10
403.9617245108
 20
130.5326723646
 30
0.0
  0
VERTEX
  5
8AC
  8
VIDITELNE
  6
SLD-PLNÁ
 62
     2
 10
402.2777837383
 20
129.2304029164
 30
0.0
  0
VERTEX
  5
8AD
  8
VIDITELNE
  6
SLD-PLNÁ
 62
     2
 10
401.0733746959
 20
128.5655231463
 30
0.0
  0
VERTEX
  5
8AE
  8
VIDITELNE
  6
SLD-PLNÁ
 62
     2
 10
399.562057361
 20
127.9779205152
 30
0.0
  0
VERTEX
  5
8AF
  8
VIDITELNE
  6
SLD-PLNÁ
 62
     2
 10
397.7428191919
 20
127.5751167251
 30
0.0
  0
VERTEX
  5
8B0
  8
VIDITELNE
  6
SLD-PLNÁ
 62
     2
 10
395.65
 20
127.4999970044
 30
0.0
  0
SEQEND
  5
8B1
  8
VIDITELNE
  6
SLD-PLNÁ
 62
     2
  0
LINE
  5
42E
  8
VIDITELNE
  6
SLD-PLNÁ
 62
     2
 10
265.65
 20
118.0
 30
0.0
 11
259.5802010066
 21
117.7880379485
 31
0.0
  0
LINE
  5
42F
  8
VIDITELNE
  6
SLD-PLNÁ
 62
     2
 10
259.5802010066
 20
9.2119620515
 30
0.0
 11
265.65
 21
9.0
 31
0.0
  0
ARC
  5
430
  8
VIDITELNE
  6
SLD-PLNÁ
 62
     2
 10
259.65
 20
115.7892562945
 30
0.0
 40
2.0
 50
92.0
 51
180.0
  0
ARC
  5
431
  8
VIDITELNE
  6
SLD-PLNÁ
 62
     2
 10
259.65
 20
11.2107437055
 30
0.0
 40
2.000000000000011
 50
180.0
 51
268.0
  0
LINE
  5
432
  8
VIDITELNE
  6
SLD-PLNÁ
 62
     2
 10
547.65
 20
188.5
 30
0.0
 11
547.65
 21
-61.5
 31
0.0
  0
LINE
  5
433
  8
VIDITELNE
  6
SLD-PLNÁ
 62
     2
 10
535.65
 20
186.1495732165
 30
0.0
 11
535.65
 21
-59.1495732165
 31
0.0
  0
LINE
  5
434
  8
VIDITELNE
  6
SLD-PLNÁ
 62
     2
 10
525.65
 20
118.5
 30
0.0
 11
525.65
 21
8.5
 31
0.0
  0
CIRCLE
  5
435
  8
VIDITELNE
  6
SLD-PLNÁ
 62
     2
 10
395.65
 20
-56.5
 30
0.0
 40
30.50000000000006
  0
CIRCLE
  5
436
  8
VIDITELNE
  6
SLD-PLNÁ
 62
     2
 10
395.65
 20
-56.5
 30
0.0
 40
32.50000000000006
  0
ARC
  5
437
  8
VIDITELNE
  6
SLD-PLNÁ
 62
     2
 10
395.65
 20
-56.5
 30
0.0
 40
22.50000000000001
 50
108.1262039606
 51
71.8737960394
  0
ARC
  5
438
  8
VIDITELNE
  6
SLD-PLNÁ
 62
     2
 10
395.65
 20
-56.5
 30
0.0
 40
23.65470053837925
 50
107.2129689444
 51
72.7870310556
  0
LINE
  5
439
  8
VIDITELNE
  6
SLD-PLNÁ
 62
     2
 10
388.65
 20
-33.9047602898
 30
0.0
 11
388.65
 21
-35.1165952197
 31
0.0
  0
LINE
  5
43A
  8
VIDITELNE
  6
SLD-PLNÁ
 62
     2
 10
402.65
 20
-35.1165952197
 30
0.0
 11
402.65
 21
-33.9047602898
 31
0.0
  0
LINE
  5
43B
  8
VIDITELNE
  6
SLD-PLNÁ
 62
     2
 10
402.65
 20
-30.2
 30
0.0
 11
388.65
 21
-30.2
 31
0.0
  0
LINE
  5
43C
  8
VIDITELNE
  6
SLD-PLNÁ
 62
     2
 10
388.65
 20
-30.2
 30
0.0
 11
388.65
 21
-33.9047602898
 31
0.0
  0
LINE
  5
43D
  8
VIDITELNE
  6
SLD-PLNÁ
 62
     2
 10
402.65
 20
-33.9047602898
 30
0.0
 11
402.65
 21
-30.2
 31
0.0
  0
LINE
  5
43E
  8
VIDITELNE
  6
SLD-PLNÁ
 62
     2
 10
354.7235769955
 20
61.6102362205
 30
0.0
 11
354.0687542274
 21
63.5
 31
0.0
  0
ARC
  5
43F
  8
VIDITELNE
  6
SLD-PLNÁ
 62
     2
 10
395.65
 20
-61.0718241501
 30
0.0
 40
131.3283646897413
 50
71.54133344
 51
108.45866656
  0
LINE
  5
440
  8
VIDITELNE
  6
SLD-PLNÁ
 62
     2
 10
436.5764230045
 20
61.6102362205
 30
0.0
 11
437.2312457726
 21
63.5
 31
0.0
  0
ARC
  5
441
  8
VIDITELNE
  6
SLD-PLNÁ
 62
     2
 10
519.8428824543
 20
-56.3857078511
 30
0.0
 40
249.1929086643193
 50
172.7359548709
 51
180.0262786691
  0
LINE
  5
442
  8
VIDITELNE
  6
SLD-PLNÁ
 62
     2
 10
274.587007874
 20
-25.3752198802
 30
0.0
 11
272.65
 21
-24.8772233983
 31
0.0
  0
LINE
  5
443
  8
VIDITELNE
  6
SLD-PLNÁ
 62
     2
 10
516.712992126
 20
-25.3752198802
 30
0.0
 11
518.65
 21
-24.8772233983
 31
0.0
  0
ARC
  5
444
  8
VIDITELNE
  6
SLD-PLNÁ
 62
     2
 10
271.4571175436
 20
-56.3857078513
 30
0.0
 40
249.1929086664458
 50
359.9737213309
 51
7.264045129
  0
CIRCLE
  5
445
  8
VIDITELNE
  6
SLD-PLNÁ
 62
     2
 10
395.65
 20
-56.5
 30
0.0
 40
125.0
  0
ARC
  5
446
  8
VIDITELNE
  6
SLD-PLNÁ
 62
     2
 10
395.65
 20
-56.5
 30
0.0
 40
127.0
 50
109.1117321372
 51
165.5817588266
  0
ARC
  5
447
  8
VIDITELNE
  6
SLD-PLNÁ
 62
     2
 10
395.65
 20
-56.5
 30
0.0
 40
127.0000000000001
 50
14.4182411734
 51
70.8882678628
  0
POLYLINE
  5
448
  8
VIDITELNE
  6
SLD-PLNÁ
 62
     2
 66
     1
 10
0.0
 20
0.0
 30
0.0
  0
VERTEX
  5
8B2
  8
VIDITELNE
  6
SLD-PLNÁ
 62
     2
 10
268.65
 20
43.2598292458
 30
0.0
  0
VERTEX
  5
8B3
  8
VIDITELNE
  6
SLD-PLNÁ
 62
     2
 10
268.881607626
 20
46.8985246006
 30
0.0
  0
VERTEX
  5
8B4
  8
VIDITELNE
  6
SLD-PLNÁ
 62
     2
 10
269.4646588335
 20
50.6377630279
 30
0.0
  0
VERTEX
  5
8B5
  8
VIDITELNE
  6
SLD-PLNÁ
 62
     2
 10
270.4363665632
 20
55.1021414993
 30
0.0
  0
VERTEX
  5
8B6
  8
VIDITELNE
  6
SLD-PLNÁ
 62
     2
 10
271.5938625214
 20
59.6208847243
 30
0.0
  0
VERTEX
  5
8B7
  8
VIDITELNE
  6
SLD-PLNÁ
 62
     2
 10
272.6375823126
 20
63.4547689701
 30
0.0
  0
VERTEX
  5
8B8
  8
VIDITELNE
  6
SLD-PLNÁ
 62
     2
 10
272.65
 20
63.5
 30
0.0
  0
SEQEND
  5
8B9
  8
VIDITELNE
  6
SLD-PLNÁ
 62
     2
  0
LINE
  5
449
  8
VIDITELNE
  6
SLD-PLNÁ
 62
     2
 10
268.65
 20
11.0030962821
 30
0.0
 11
268.65
 21
43.2598292458
 31
0.0
  0
LINE
  5
44A
  8
VIDITELNE
  6
SLD-PLNÁ
 62
     2
 10
265.65
 20
11.0030962821
 30
0.0
 11
268.65
 21
11.0030962821
 31
0.0
  0
LINE
  5
44B
  8
VIDITELNE
  6
SLD-PLNÁ
 62
     2
 10
265.65
 20
118.5
 30
0.0
 11
265.65
 21
11.0030962821
 31
0.0
  0
POLYLINE
  5
44C
  8
VIDITELNE
  6
SLD-PLNÁ
 62
     2
 66
     1
 10
0.0
 20
0.0
 30
0.0
  0
VERTEX
  5
8BA
  8
VIDITELNE
  6
SLD-PLNÁ
 62
     2
 10
518.65
 20
63.5
 30
0.0
  0
VERTEX
  5
8BB
  8
VIDITELNE
  6
SLD-PLNÁ
 62
     2
 10
518.6624176874
 20
63.4547689701
 30
0.0
  0
VERTEX
  5
8BC
  8
VIDITELNE
  6
SLD-PLNÁ
 62
     2
 10
519.7061374786
 20
59.6208847243
 30
0.0
  0
VERTEX
  5
8BD
  8
VIDITELNE
  6
SLD-PLNÁ
 62
     2
 10
520.8549140357
 20
55.1383007558
 30
0.0
  0
VERTEX
  5
8BE
  8
VIDITELNE
  6
SLD-PLNÁ
 62
     2
 10
521.8353411665
 20
50.6377630279
 30
0.0
  0
VERTEX
  5
8BF
  8
VIDITELNE
  6
SLD-PLNÁ
 62
     2
 10
522.4127286674
 20
46.9467739134
 30
0.0
  0
VERTEX
  5
8C0
  8
VIDITELNE
  6
SLD-PLNÁ
 62
     2
 10
522.65
 20
43.2598292458
 30
0.0
  0
SEQEND
  5
8C1
  8
VIDITELNE
  6
SLD-PLNÁ
 62
     2
  0
LINE
  5
44D
  8
VIDITELNE
  6
SLD-PLNÁ
 62
     2
 10
518.65
 20
63.5
 30
0.0
 11
437.2312457726
 21
63.5
 31
0.0
  0
LINE
  5
44E
  8
VIDITELNE
  6
SLD-PLNÁ
 62
     2
 10
272.65
 20
63.5
 30
0.0
 11
354.0687542274
 21
63.5
 31
0.0
  0
POLYLINE
  5
44F
  8
VIDITELNE
  6
SLD-PLNÁ
 62
     2
 66
     1
 10
0.0
 20
0.0
 30
0.0
  0
VERTEX
  5
8C2
  8
VIDITELNE
  6
SLD-PLNÁ
 62
     2
 10
482.65
 20
116.5
 30
0.0
  0
VERTEX
  5
8C3
  8
VIDITELNE
  6
SLD-PLNÁ
 62
     2
 10
480.2707620186
 20
116.6877448409
 30
0.0
  0
VERTEX
  5
8C4
  8
VIDITELNE
  6
SLD-PLNÁ
 62
     2
 10
477.9816440011
 20
116.9677817356
 30
0.0
  0
VERTEX
  5
8C5
  8
VIDITELNE
  6
SLD-PLNÁ
 62
     2
 10
475.9747534306
 20
117.2922893748
 30
0.0
  0
VERTEX
  5
8C6
  8
VIDITELNE
  6
SLD-PLNÁ
 62
     2
 10
474.1857750952
 20
117.6426675799
 30
0.0
  0
VERTEX
  5
8C7
  8
VIDITELNE
  6
SLD-PLNÁ
 62
     2
 10
472.7326400132
 20
117.9688735796
 30
0.0
  0
VERTEX
  5
8C8
  8
VIDITELNE
  6
SLD-PLNÁ
 62
     2
 10
471.6126164061
 20
118.2453024301
 30
0.0
  0
VERTEX
  5
8C9
  8
VIDITELNE
  6
SLD-PLNÁ
 62
     2
 10
470.9301726762
 20
118.4242507135
 30
0.0
  0
VERTEX
  5
8CA
  8
VIDITELNE
  6
SLD-PLNÁ
 62
     2
 10
470.6534433167
 20
118.4990610134
 30
0.0
  0
VERTEX
  5
8CB
  8
VIDITELNE
  6
SLD-PLNÁ
 62
     2
 10
470.6725757509
 20
118.4938674068
 30
0.0
  0
SEQEND
  5
8CC
  8
VIDITELNE
  6
SLD-PLNÁ
 62
     2
  0
LINE
  5
450
  8
VIDITELNE
  6
SLD-PLNÁ
 62
     2
 10
482.65
 20
116.5
 30
0.0
 11
488.65
 21
116.5
 31
0.0
  0
ARC
  5
451
  8
VIDITELNE
  6
SLD-PLNÁ
 62
     2
 10
485.034659165
 20
175.1920450102
 30
0.0
 40
58.80328933688499
 50
273.5248792676
 51
285.3997651485
  0
POLYLINE
  5
452
  8
VIDITELNE
  6
SLD-PLNÁ
 62
     2
 66
     1
 10
0.0
 20
0.0
 30
0.0
  0
VERTEX
  5
8CD
  8
VIDITELNE
  6
SLD-PLNÁ
 62
     2
 10
392.65
 20
116.5
 30
0.0
  0
VERTEX
  5
8CE
  8
VIDITELNE
  6
SLD-PLNÁ
 62
     2
 10
390.2707620186
 20
116.6877448409
 30
0.0
  0
VERTEX
  5
8CF
  8
VIDITELNE
  6
SLD-PLNÁ
 62
     2
 10
387.9816440011
 20
116.9677817356
 30
0.0
  0
VERTEX
  5
8D0
  8
VIDITELNE
  6
SLD-PLNÁ
 62
     2
 10
385.9747534306
 20
117.2922893748
 30
0.0
  0
VERTEX
  5
8D1
  8
VIDITELNE
  6
SLD-PLNÁ
 62
     2
 10
384.1857750952
 20
117.6426675799
 30
0.0
  0
VERTEX
  5
8D2
  8
VIDITELNE
  6
SLD-PLNÁ
 62
     2
 10
382.7326400132
 20
117.9688735796
 30
0.0
  0
VERTEX
  5
8D3
  8
VIDITELNE
  6
SLD-PLNÁ
 62
     2
 10
381.6126164061
 20
118.2453024301
 30
0.0
  0
VERTEX
  5
8D4
  8
VIDITELNE
  6
SLD-PLNÁ
 62
     2
 10
380.9301726762
 20
118.4242507135
 30
0.0
  0
VERTEX
  5
8D5
  8
VIDITELNE
  6
SLD-PLNÁ
 62
     2
 10
380.6534433167
 20
118.4990610134
 30
0.0
  0
VERTEX
  5
8D6
  8
VIDITELNE
  6
SLD-PLNÁ
 62
     2
 10
380.6725757509
 20
118.4938674068
 30
0.0
  0
SEQEND
  5
8D7
  8
VIDITELNE
  6
SLD-PLNÁ
 62
     2
  0
LINE
  5
453
  8
VIDITELNE
  6
SLD-PLNÁ
 62
     2
 10
392.65
 20
116.5
 30
0.0
 11
398.65
 21
116.5
 31
0.0
  0
ARC
  5
454
  8
VIDITELNE
  6
SLD-PLNÁ
 62
     2
 10
395.034659165
 20
175.1920450102
 30
0.0
 40
58.8032893368862
 50
273.5248792676
 51
285.3997651485
  0
LINE
  5
455
  8
VIDITELNE
  6
SLD-PLNÁ
 62
     2
 10
270.65
 20
-56.5
 30
0.0
 11
270.65
 21
42.5238230366
 31
0.0
  0
ARC
  5
456
  8
VIDITELNE
  6
SLD-PLNÁ
 62
     2
 10
499.3543326237
 20
31.3011552617
 30
0.0
 40
228.9795188064348
 50
171.9163399437
 51
177.1907128868
  0
LINE
  5
457
  8
VIDITELNE
  6
SLD-PLNÁ
 62
     2
 10
272.65
 20
63.5
 30
0.0
 11
272.65
 21
-24.8772233983
 31
0.0
  0
LINE
  5
458
  8
VIDITELNE
  6
SLD-PLNÁ
 62
     2
 10
520.65
 20
42.5238230366
 30
0.0
 11
520.65
 21
-56.5
 31
0.0
  0
LINE
  5
459
  8
VIDITELNE
  6
SLD-PLNÁ
 62
     2
 10
518.65
 20
-24.8772233983
 30
0.0
 11
518.65
 21
63.5
 31
0.0
  0
ARC
  5
45A
  8
VIDITELNE
  6
SLD-PLNÁ
 62
     2
 10
291.9456673764
 20
31.3011552617
 30
0.0
 40
228.9795188063939
 50
2.8092871132
 51
8.0836600563
  0
POLYLINE
  5
45B
  8
VIDITELNE
  6
SLD-PLNÁ
 62
     2
 66
     1
 10
0.0
 20
0.0
 30
0.0
  0
VERTEX
  5
8D8
  8
VIDITELNE
  6
SLD-PLNÁ
 62
     2
 10
522.65
 20
43.2598292458
 30
0.0
  0
VERTEX
  5
8D9
  8
VIDITELNE
  6
SLD-PLNÁ
 62
     2
 10
522.259819356
 20
43.2456870929
 30
0.0
  0
VERTEX
  5
8DA
  8
VIDITELNE
  6
SLD-PLNÁ
 62
     2
 10
521.8846331353
 20
43.2038041091
 30
0.0
  0
VERTEX
  5
8DB
  8
VIDITELNE
  6
SLD-PLNÁ
 62
     2
 10
521.538859534
 20
43.135789834
 30
0.0
  0
VERTEX
  5
8DC
  8
VIDITELNE
  6
SLD-PLNÁ
 62
     2
 10
521.2357864376
 20
43.0442580181
 30
0.0
  0
VERTEX
  5
8DD
  8
VIDITELNE
  6
SLD-PLNÁ
 62
     2
 10
520.9870607754
 20
42.9327261778
 30
0.0
  0
VERTEX
  5
8DE
  8
VIDITELNE
  6
SLD-PLNÁ
 62
     2
 10
520.802240935
 20
42.805480419
 30
0.0
  0
VERTEX
  5
8DF
  8
VIDITELNE
  6
SLD-PLNÁ
 62
     2
 10
520.6884294392
 20
42.667410725
 30
0.0
  0
VERTEX
  5
8E0
  8
VIDITELNE
  6
SLD-PLNÁ
 62
     2
 10
520.65
 20
42.5238230366
 30
0.0
  0
SEQEND
  5
8E1
  8
VIDITELNE
  6
SLD-PLNÁ
 62
     2
  0
POLYLINE
  5
45C
  8
VIDITELNE
  6
SLD-PLNÁ
 62
     2
 66
     1
 10
0.0
 20
0.0
 30
0.0
  0
VERTEX
  5
8E2
  8
VIDITELNE
  6
SLD-PLNÁ
 62
     2
 10
270.65
 20
42.5238230366
 30
0.0
  0
VERTEX
  5
8E3
  8
VIDITELNE
  6
SLD-PLNÁ
 62
     2
 10
270.6115705608
 20
42.667410725
 30
0.0
  0
VERTEX
  5
8E4
  8
VIDITELNE
  6
SLD-PLNÁ
 62
     2
 10
270.497759065
 20
42.805480419
 30
0.0
  0
VERTEX
  5
8E5
  8
VIDITELNE
  6
SLD-PLNÁ
 62
     2
 10
270.3129392246
 20
42.9327261778
 30
0.0
  0
VERTEX
  5
8E6
  8
VIDITELNE
  6
SLD-PLNÁ
 62
     2
 10
270.0642135624
 20
43.0442580181
 30
0.0
  0
VERTEX
  5
8E7
  8
VIDITELNE
  6
SLD-PLNÁ
 62
     2
 10
269.761140466
 20
43.135789834
 30
0.0
  0
VERTEX
  5
8E8
  8
VIDITELNE
  6
SLD-PLNÁ
 62
     2
 10
269.4153668647
 20
43.2038041091
 30
0.0
  0
VERTEX
  5
8E9
  8
VIDITELNE
  6
SLD-PLNÁ
 62
     2
 10
269.040180644
 20
43.2456870929
 30
0.0
  0
VERTEX
  5
8EA
  8
VIDITELNE
  6
SLD-PLNÁ
 62
     2
 10
268.65
 20
43.2598292458
 30
0.0
  0
SEQEND
  5
8EB
  8
VIDITELNE
  6
SLD-PLNÁ
 62
     2
  0
ARC
  5
45D
  8
VIDITELNE
  6
SLD-PLNÁ
 62
     2
 10
268.6944752231
 20
9.0475221261
 30
0.0
 40
1.956079836075846
 50
1.364973668
 51
91.3028416034
  0
LINE
  5
45E
  8
VIDITELNE
  6
SLD-PLNÁ
 62
     2
 10
270.65
 20
-16.5
 30
0.0
 11
269.15
 21
-16.5
 31
0.0
  0
LINE
  5
45F
  8
VIDITELNE
  6
SLD-PLNÁ
 62
     2
 10
269.15
 20
8.0321585622
 30
0.0
 11
269.15
 21
-16.5
 31
0.0
  0
LINE
  5
460
  8
VIDITELNE
  6
SLD-PLNÁ
 62
     2
 10
269.0811358957
 20
9.0941179651
 30
0.0
 11
269.15
 21
8.0321585622
 31
0.0
  0
LINE
  5
461
  8
VIDITELNE
  6
SLD-PLNÁ
 62
     2
 10
270.65
 20
9.0941179651
 30
0.0
 11
269.0811358957
 21
9.0941179651
 31
0.0
  0
POLYLINE
  5
462
  8
VIDITELNE
  6
SLD-PLNÁ
 62
     2
 66
     1
 10
0.0
 20
0.0
 30
0.0
  0
VERTEX
  5
8EC
  8
VIDITELNE
  6
SLD-PLNÁ
 62
     2
 10
268.65
 20
9.957761922
 30
0.0
  0
VERTEX
  5
8ED
  8
VIDITELNE
  6
SLD-PLNÁ
 62
     2
 10
268.8601812454
 20
9.6354535111
 30
0.0
  0
VERTEX
  5
8EE
  8
VIDITELNE
  6
SLD-PLNÁ
 62
     2
 10
269.0811358957
 20
9.0941179651
 30
0.0
  0
SEQEND
  5
8EF
  8
VIDITELNE
  6
SLD-PLNÁ
 62
     2
  0
LINE
  5
463
  8
VIDITELNE
  6
SLD-PLNÁ
 62
     2
 10
268.65
 20
11.0030962821
 30
0.0
 11
268.65
 21
9.957761922
 31
0.0
  0
ARC
  5
464
  8
VIDITELNE
  6
SLD-PLNÁ
 62
     2
 10
264.6181425786
 20
3.2142637923
 30
0.0
 40
7.856884961125181
 50
59.1252982747
 51
82.4534517513
  0
ARC
  5
465
  8
VIDITELNE
  6
SLD-PLNÁ
 62
     2
 10
267.4214275267
 20
11.4640574421
 30
0.0
 40
1.943789215959008
 50
261.9730801003
 51
309.201549277
  0
ARC
  5
466
  8
VIDITELNE
  6
SLD-PLNÁ
 62
     2
 10
263.2818373619
 20
7.0758939357
 30
0.0
 40
4.585969096042205
 50
32.4908016272
 51
58.9093850665
  0
LINE
  5
467
  8
VIDITELNE
  6
SLD-PLNÁ
 62
     2
 10
267.65
 20
8.0321585622
 30
0.0
 11
267.5811358957
 21
8.5882603209
 31
0.0
  0
ARC
  5
468
  8
VIDITELNE
  6
SLD-PLNÁ
 62
     2
 10
264.3448018362
 20
7.6943968207
 30
0.0
 40
3.357506530471177
 50
15.4399556874
 51
33.3320171732
  0
LINE
  5
469
  8
VIDITELNE
  6
SLD-PLNÁ
 62
     2
 10
265.65
 20
11.0030962821
 30
0.0
 11
265.65
 21
8.5
 31
0.0
  0
ARC
  5
46A
  8
VIDITELNE
  6
SLD-PLNÁ
 62
     2
 10
270.7537036547
 20
1.6576431775
 30
0.0
 40
7.622246399502137
 50
102.6756968369
 51
114.5964698279
  0
LINE
  5
46B
  8
VIDITELNE
  6
SLD-PLNÁ
 62
     2
 10
269.15
 20
8.0321585622
 30
0.0
 11
267.65
 21
8.0321585622
 31
0.0
  0
LINE
  5
46C
  8
VIDITELNE
  6
SLD-PLNÁ
 62
     2
 10
267.65
 20
-29.6270166538
 30
0.0
 11
267.65
 21
-16.5
 31
0.0
  0
LINE
  5
46D
  8
VIDITELNE
  6
SLD-PLNÁ
 62
     2
 10
269.15
 20
-16.5
 30
0.0
 11
267.65
 21
-16.5
 31
0.0
  0
LINE
  5
46E
  8
VIDITELNE
  6
SLD-PLNÁ
 62
     2
 10
267.65
 20
-16.5
 30
0.0
 11
267.65
 21
8.0321585622
 31
0.0
  0
LINE
  5
46F
  8
VIDITELNE
  6
SLD-PLNÁ
 62
     2
 10
380.65
 20
-184.5
 30
0.0
 11
410.65
 21
-184.5
 31
0.0
  0
LINE
  5
470
  8
VIDITELNE
  6
SLD-PLNÁ
 62
     2
 10
263.65
 20
-7.0
 30
0.0
 11
263.65
 21
-26.0
 31
0.0
  0
LINE
  5
471
  8
VIDITELNE
  6
SLD-PLNÁ
 62
     2
 10
386.15
 20
-188.5
 30
0.0
 11
405.15
 21
-188.5
 31
0.0
  0
LINE
  5
472
  8
VIDITELNE
  6
SLD-PLNÁ
 62
     2
 10
495.15
 20
120.5
 30
0.0
 11
476.15
 21
120.5
 31
0.0
  0
CIRCLE
  5
473
  8
VIDITELNE
  6
SLD-PLNÁ
 62
     2
 10
395.65
 20
-56.5
 30
0.0
 40
65.0
  0
CIRCLE
  5
474
  8
VIDITELNE
  6
SLD-PLNÁ
 62
     2
 10
395.65
 20
-56.5
 30
0.0
 40
42.5
  0
ARC
  5
475
  8
VIDITELNE
  6
SLD-PLNÁ
 62
     2
 10
395.65
 20
-56.5
 30
0.0
 40
95.00000000000003
 50
69.9131672646
 51
110.0868327354
  0
ARC
  5
476
  8
VIDITELNE
  6
SLD-PLNÁ
 62
     2
 10
395.65
 20
-56.5
 30
0.0
 40
95.00000000000004
 50
65.0868327354
 51
69.9131672646
  0
ARC
  5
477
  8
VIDITELNE
  6
SLD-PLNÁ
 62
     2
 10
395.65
 20
-56.5
 30
0.0
 40
95.00000000000004
 50
24.9131672646
 51
65.0868327354
  0
ARC
  5
478
  8
VIDITELNE
  6
SLD-PLNÁ
 62
     2
 10
395.65
 20
-56.5
 30
0.0
 40
94.99999999999993
 50
20.0868327354
 51
24.9131672646
  0
ARC
  5
479
  8
VIDITELNE
  6
SLD-PLNÁ
 62
     2
 10
395.65
 20
-56.5
 30
0.0
 40
95.00000000000014
 50
339.9131672646
 51
20.0868327354
  0
ARC
  5
47A
  8
VIDITELNE
  6
SLD-PLNÁ
 62
     2
 10
395.65
 20
-56.5
 30
0.0
 40
95.0000000000002
 50
335.0868327354
 51
339.9131672646
  0
ARC
  5
47B
  8
VIDITELNE
  6
SLD-PLNÁ
 62
     2
 10
395.65
 20
-56.5
 30
0.0
 40
95.0000000000002
 50
294.9131672646
 51
335.0868327354
  0
ARC
  5
47C
  8
VIDITELNE
  6
SLD-PLNÁ
 62
     2
 10
395.65
 20
-56.5
 30
0.0
 40
95.00000000000001
 50
290.0868327354
 51
294.9131672646
  0
ARC
  5
47D
  8
VIDITELNE
  6
SLD-PLNÁ
 62
     2
 10
395.65
 20
-56.5
 30
0.0
 40
95.00000000000007
 50
249.9131672646
 51
290.0868327354
  0
ARC
  5
47E
  8
VIDITELNE
  6
SLD-PLNÁ
 62
     2
 10
395.65
 20
-56.5
 30
0.0
 40
95.00000000000007
 50
245.0868327354
 51
249.9131672646
  0
ARC
  5
47F
  8
VIDITELNE
  6
SLD-PLNÁ
 62
     2
 10
395.65
 20
-56.5
 30
0.0
 40
95.00000000000001
 50
204.9131672646
 51
245.0868327354
  0
ARC
  5
480
  8
VIDITELNE
  6
SLD-PLNÁ
 62
     2
 10
395.65
 20
-56.5
 30
0.0
 40
95.00000000000001
 50
200.0868327354
 51
204.9131672646
  0
ARC
  5
481
  8
VIDITELNE
  6
SLD-PLNÁ
 62
     2
 10
395.65
 20
-56.5
 30
0.0
 40
95.00000000000001
 50
159.9131672646
 51
200.0868327354
  0
ARC
  5
482
  8
VIDITELNE
  6
SLD-PLNÁ
 62
     2
 10
395.65
 20
-56.5
 30
0.0
 40
94.9999999999999
 50
155.0868327354
 51
159.9131672646
  0
ARC
  5
483
  8
VIDITELNE
  6
SLD-PLNÁ
 62
     2
 10
395.65
 20
-56.5
 30
0.0
 40
95.00000000000004
 50
114.9131672646
 51
155.0868327354
  0
ARC
  5
484
  8
VIDITELNE
  6
SLD-PLNÁ
 62
     2
 10
395.65
 20
-56.5
 30
0.0
 40
95.00000000000004
 50
110.0868327354
 51
114.9131672646
  0
CIRCLE
  5
485
  8
VIDITELNE
  6
SLD-PLNÁ
 62
     2
 10
453.9863094479
 20
1.8363094479
 30
0.0
 40
6.0
  0
CIRCLE
  5
486
  8
VIDITELNE
  6
SLD-PLNÁ
 62
     2
 10
453.9863094479
 20
-114.8363094479
 30
0.0
 40
6.0
  0
CIRCLE
  5
487
  8
VIDITELNE
  6
SLD-PLNÁ
 62
     2
 10
337.3136905521
 20
-114.8363094479
 30
0.0
 40
6.0
  0
CIRCLE
  5
488
  8
VIDITELNE
  6
SLD-PLNÁ
 62
     2
 10
337.3136905521
 20
1.8363094479
 30
0.0
 40
6.0
  0
CIRCLE
  5
489
  8
VIDITELNE
  6
SLD-PLNÁ
 62
     2
 10
453.9863094479
 20
1.8363094479
 30
0.0
 40
5.25
  0
CIRCLE
  5
48A
  8
VIDITELNE
  6
SLD-PLNÁ
 62
     2
 10
337.3136905521
 20
1.8363094479
 30
0.0
 40
5.250000000000057
  0
LINE
  5
48B
  8
VIDITELNE
  6
SLD-PLNÁ
 62
     2
 10
363.0228323243
 20
32.7214544236
 30
0.0
 11
352.6832401246
 21
57.6834381415
 31
0.0
  0
LINE
  5
48C
  8
VIDITELNE
  6
SLD-PLNÁ
 62
     2
 10
345.2922038645
 20
54.6219706826
 30
0.0
 11
355.6317960642
 21
29.6599869647
 31
0.0
  0
ARC
  5
48D
  8
VIDITELNE
  6
SLD-PLNÁ
 62
     2
 10
395.65
 20
-56.5
 30
0.0
 40
121.9999999999999
 50
110.6211131219
 51
114.3788868781
  0
LINE
  5
48E
  8
VIDITELNE
  6
SLD-PLNÁ
 62
     2
 10
435.6682039358
 20
29.6599869647
 30
0.0
 11
446.0077961355
 21
54.6219706826
 31
0.0
  0
LINE
  5
48F
  8
VIDITELNE
  6
SLD-PLNÁ
 62
     2
 10
438.6167598754
 20
57.6834381415
 30
0.0
 11
428.2771676757
 21
32.7214544236
 31
0.0
  0
ARC
  5
490
  8
VIDITELNE
  6
SLD-PLNÁ
 62
     2
 10
395.65
 20
-56.5
 30
0.0
 40
122.0
 50
65.6211131219
 51
69.3788868781
  0
ARC
  5
491
  8
VIDITELNE
  6
SLD-PLNÁ
 62
     2
 10
395.65
 20
-56.5
 30
0.0
 40
101.6395280956806
 50
69.7554445434
 51
110.2445554566
  0
ARC
  5
492
  8
VIDITELNE
  6
SLD-PLNÁ
 62
     2
 10
395.65
 20
-56.5
 30
0.0
 40
101.6395280956808
 50
339.7554445434
 51
20.2445554566
  0
ARC
  5
493
  8
VIDITELNE
  6
SLD-PLNÁ
 62
     2
 10
395.65
 20
-56.5
 30
0.0
 40
101.6395280956809
 50
204.7554445434
 51
245.2445554566
  0
ARC
  5
494
  8
VIDITELNE
  6
SLD-PLNÁ
 62
     2
 10
395.65
 20
-56.5
 30
0.0
 40
101.6395280956806
 50
114.7554445434
 51
155.2445554566
  0
ARC
  5
495
  8
VIDITELNE
  6
SLD-PLNÁ
 62
     2
 10
395.65
 20
-56.5
 30
0.0
 40
101.6395280956806
 50
24.7554445434
 51
65.2445554566
  0
LINE
  5
496
  8
VIDITELNE
  6
SLD-PLNÁ
 62
     2
 10
506.7719706826
 20
-6.1422038645
 30
0.0
 11
481.8099869647
 21
-16.4817960642
 31
0.0
  0
ARC
  5
497
  8
VIDITELNE
  6
SLD-PLNÁ
 62
     2
 10
395.65
 20
-56.5
 30
0.0
 40
121.9999999999995
 50
20.6211131219
 51
24.3788868781
  0
LINE
  5
498
  8
VIDITELNE
  6
SLD-PLNÁ
 62
     2
 10
484.8714544236
 20
-23.8728323243
 30
0.0
 11
509.8334381415
 21
-13.5332401246
 31
0.0
  0
LINE
  5
499
  8
VIDITELNE
  6
SLD-PLNÁ
 62
     2
 10
284.5280293174
 20
-106.8577961355
 30
0.0
 11
309.4900130353
 21
-96.5182039358
 31
0.0
  0
ARC
  5
49A
  8
VIDITELNE
  6
SLD-PLNÁ
 62
     2
 10
395.65
 20
-56.5
 30
0.0
 40
122.0
 50
200.6211131219
 51
204.3788868781
  0
LINE
  5
49B
  8
VIDITELNE
  6
SLD-PLNÁ
 62
     2
 10
306.4285455764
 20
-89.1271676757
 30
0.0
 11
281.4665618585
 21
-99.4667598754
 31
0.0
  0
LINE
  5
49C
  8
VIDITELNE
  6
SLD-PLNÁ
 62
     2
 10
481.8099869647
 20
-96.5182039358
 30
0.0
 11
506.7719706826
 21
-106.8577961355
 31
0.0
  0
LINE
  5
49D
  8
VIDITELNE
  6
SLD-PLNÁ
 62
     2
 10
509.8334381415
 20
-99.4667598754
 30
0.0
 11
484.8714544236
 21
-89.1271676757
 31
0.0
  0
ARC
  5
49E
  8
VIDITELNE
  6
SLD-PLNÁ
 62
     2
 10
395.65
 20
-56.5
 30
0.0
 40
122.0
 50
335.6211131219
 51
339.3788868781
  0
ARC
  5
49F
  8
VIDITELNE
  6
SLD-PLNÁ
 62
     2
 10
395.65
 20
-56.5
 30
0.0
 40
101.6395280956808
 50
249.7554445434
 51
290.2445554566
  0
ARC
  5
4A0
  8
VIDITELNE
  6
SLD-PLNÁ
 62
     2
 10
395.65
 20
-56.5
 30
0.0
 40
101.6395280956808
 50
294.7554445434
 51
335.2445554566
  0
ARC
  5
4A1
  8
VIDITELNE
  6
SLD-PLNÁ
 62
     2
 10
395.65
 20
-56.5
 30
0.0
 40
122.0000000000001
 50
245.6211131219
 51
249.3788868781
  0
LINE
  5
4A2
  8
VIDITELNE
  6
SLD-PLNÁ
 62
     2
 10
355.6317960642
 20
-142.6599869647
 30
0.0
 11
345.2922038645
 21
-167.6219706826
 31
0.0
  0
LINE
  5
4A3
  8
VIDITELNE
  6
SLD-PLNÁ
 62
     2
 10
352.6832401246
 20
-170.6834381415
 30
0.0
 11
363.0228323243
 21
-145.7214544236
 31
0.0
  0
ARC
  5
4A4
  8
VIDITELNE
  6
SLD-PLNÁ
 62
     2
 10
395.65
 20
-56.5
 30
0.0
 40
122.0000000000005
 50
155.6211131219
 51
159.3788868781
  0
LINE
  5
4A5
  8
VIDITELNE
  6
SLD-PLNÁ
 62
     2
 10
281.4665618585
 20
-13.5332401246
 30
0.0
 11
306.4285455764
 21
-23.8728323243
 31
0.0
  0
LINE
  5
4A6
  8
VIDITELNE
  6
SLD-PLNÁ
 62
     2
 10
309.4900130353
 20
-16.4817960642
 30
0.0
 11
284.5280293174
 21
-6.1422038645
 31
0.0
  0
ARC
  5
4A7
  8
VIDITELNE
  6
SLD-PLNÁ
 62
     2
 10
395.65
 20
-56.5
 30
0.0
 40
101.6395280956807
 50
159.7554445434
 51
200.2445554566
  0
LINE
  5
4A8
  8
VIDITELNE
  6
SLD-PLNÁ
 62
     2
 10
428.2771676757
 20
-145.7214544236
 30
0.0
 11
438.6167598754
 21
-170.6834381415
 31
0.0
  0
ARC
  5
4A9
  8
VIDITELNE
  6
SLD-PLNÁ
 62
     2
 10
395.65
 20
-56.5
 30
0.0
 40
122.0000000000001
 50
290.6211131219
 51
294.3788868781
  0
LINE
  5
4AA
  8
VIDITELNE
  6
SLD-PLNÁ
 62
     2
 10
446.0077961355
 20
-167.6219706826
 30
0.0
 11
435.6682039358
 21
-142.6599869647
 31
0.0
  0
CIRCLE
  5
4AB
  8
VIDITELNE
  6
SLD-PLNÁ
 62
     2
 10
453.9863094479
 20
-114.8363094479
 30
0.0
 40
5.25
  0
CIRCLE
  5
4AC
  8
VIDITELNE
  6
SLD-PLNÁ
 62
     2
 10
337.3136905521
 20
-114.8363094479
 30
0.0
 40
5.250000000000057
  0
CIRCLE
  5
4AD
  8
VIDITELNE
  6
SLD-PLNÁ
 62
     2
 10
395.65
 20
58.5
 30
0.0
 40
7.000000000000057
  0
CIRCLE
  5
4AE
  8
VIDITELNE
  6
SLD-PLNÁ
 62
     2
 10
314.3327201635
 20
24.8172798365
 30
0.0
 40
7.000000000001307
  0
CIRCLE
  5
4AF
  8
VIDITELNE
  6
SLD-PLNÁ
 62
     2
 10
314.3327201635
 20
24.8172798365
 30
0.0
 40
8.000000000001307
  0
CIRCLE
  5
4B0
  8
VIDITELNE
  6
SLD-PLNÁ
 62
     2
 10
280.65
 20
-56.5
 30
0.0
 40
7.00000000000324
  0
CIRCLE
  5
4B1
  8
VIDITELNE
  6
SLD-PLNÁ
 62
     2
 10
280.65
 20
-56.5
 30
0.0
 40
8.00000000000324
  0
CIRCLE
  5
4B2
  8
VIDITELNE
  6
SLD-PLNÁ
 62
     2
 10
395.65
 20
58.5
 30
0.0
 40
8.000000000000057
  0
CIRCLE
  5
4B3
  8
VIDITELNE
  6
SLD-PLNÁ
 62
     2
 10
314.3327201635
 20
-137.8172798365
 30
0.0
 40
7.000000000000853
  0
CIRCLE
  5
4B4
  8
VIDITELNE
  6
SLD-PLNÁ
 62
     2
 10
395.65
 20
-171.5
 30
0.0
 40
7.000000000000398
  0
CIRCLE
  5
4B5
  8
VIDITELNE
  6
SLD-PLNÁ
 62
     2
 10
395.65
 20
-171.5
 30
0.0
 40
8.000000000000398
  0
CIRCLE
  5
4B6
  8
VIDITELNE
  6
SLD-PLNÁ
 62
     2
 10
510.65
 20
-56.5
 30
0.0
 40
7.000000000000057
  0
CIRCLE
  5
4B7
  8
VIDITELNE
  6
SLD-PLNÁ
 62
     2
 10
510.65
 20
-56.5
 30
0.0
 40
8.000000000000057
  0
CIRCLE
  5
4B8
  8
VIDITELNE
  6
SLD-PLNÁ
 62
     2
 10
476.9672798365
 20
-137.8172798365
 30
0.0
 40
7.000000000000171
  0
CIRCLE
  5
4B9
  8
VIDITELNE
  6
SLD-PLNÁ
 62
     2
 10
476.9672798365
 20
-137.8172798365
 30
0.0
 40
8.00000000000017
  0
CIRCLE
  5
4BA
  8
VIDITELNE
  6
SLD-PLNÁ
 62
     2
 10
314.3327201635
 20
-137.8172798365
 30
0.0
 40
8.000000000000853
  0
CIRCLE
  5
4BB
  8
VIDITELNE
  6
SLD-PLNÁ
 62
     2
 10
476.9672798365
 20
24.8172798365
 30
0.0
 40
6.999999999999943
  0
CIRCLE
  5
4BC
  8
VIDITELNE
  6
SLD-PLNÁ
 62
     2
 10
476.9672798365
 20
24.8172798365
 30
0.0
 40
7.999999999999943
  0
CIRCLE
  5
4BD
  8
VIDITELNE
  6
SLD-PLNÁ
 62
     2
 10
395.65
 20
-56.5
 30
0.0
 40
124.6158715355908
  0
ARC
  5
4BE
  8
VIDITELNE
  6
SLD-PLNÁ
 62
     2
 10
415.6210376872
 20
126.5111509183
 30
0.0
 40
11.79381391100144
 50
193.8324798594
 51
221.2391457448
  0
POLYLINE
  5
4BF
  8
VIDITELNE
  6
SLD-PLNÁ
 62
     2
 66
     1
 10
0.0
 20
0.0
 30
0.0
  0
VERTEX
  5
8F0
  8
VIDITELNE
  6
SLD-PLNÁ
 62
     2
 10
387.1307426933
 20
123.6914394645
 30
0.0
  0
VERTEX
  5
8F1
  8
VIDITELNE
  6
SLD-PLNÁ
 62
     2
 10
386.651268429
 20
122.1277612272
 30
0.0
  0
VERTEX
  5
8F2
  8
VIDITELNE
  6
SLD-PLNÁ
 62
     2
 10
385.9957775024
 20
120.7880016763
 30
0.0
  0
VERTEX
  5
8F3
  8
VIDITELNE
  6
SLD-PLNÁ
 62
     2
 10
385.3110239878
 20
119.7245790761
 30
0.0
  0
VERTEX
  5
8F4
  8
VIDITELNE
  6
SLD-PLNÁ
 62
     2
 10
384.7580299
 20
118.9940584457
 30
0.0
  0
VERTEX
  5
8F5
  8
VIDITELNE
  6
SLD-PLNÁ
 62
     2
 10
384.5436043883
 20
118.7318826434
 30
0.0
  0
VERTEX
  5
8F6
  8
VIDITELNE
  6
SLD-PLNÁ
 62
     2
 10
384.5474721538
 20
118.7366023052
 30
0.0
  0
SEQEND
  5
8F7
  8
VIDITELNE
  6
SLD-PLNÁ
 62
     2
  0
LINE
  5
4C0
  8
VIDITELNE
  6
SLD-PLNÁ
 62
     2
 10
404.1692573067
 20
123.6914394645
 30
0.0
 11
387.1307426933
 21
123.6914394645
 31
0.0
  0
ARC
  5
4C1
  8
VIDITELNE
  6
SLD-PLNÁ
 62
     2
 10
401.2034729824
 20
123.1834925097
 30
0.0
 40
3.008967724451006
 50
9.7186973008
 51
77.8372519959
  0
ARC
  5
4C2
  8
VIDITELNE
  6
SLD-PLNÁ
 62
     2
 10
390.1308160818
 20
123.1506357729
 30
0.0
 40
3.048427294392116
 50
102.6626466901
 51
169.7814040133
  0
LINE
  5
4C3
  8
VIDITELNE
  6
SLD-PLNÁ
 62
     2
 10
401.8374301818
 20
126.1249181906
 30
0.0
 11
389.4625698182
 21
126.1249181906
 31
0.0
  0
ARC
  5
4C4
  8
VIDITELNE
  6
SLD-PLNÁ
 62
     2
 10
405.1657628038
 20
49.6305757082
 30
0.0
 40
78.08953003925608
 50
96.999292596
 51
101.6008333747
  0
ARC
  5
4C5
  8
VIDITELNE
  6
SLD-PLNÁ
 62
     2
 10
391.6757789155
 20
83.4705207681
 30
0.0
 40
43.84811028922817
 50
76.6000757132
 51
84.7997983161
  0
LINE
  5
4C6
  8
VIDITELNE
  6
SLD-PLNÁ
 62
     2
 10
395.65
 20
127.4999952936
 30
0.0
 11
395.65
 21
127.1381557247
 31
0.0
  0
LINE
  5
4C7
  8
VIDITELNE
  6
SLD-PLNÁ
 62
     2
 10
395.65
 20
159.5
 30
0.0
 11
395.65
 21
151.500004668
 31
0.0
  0
LINE
  5
4C8
  8
VIDITELNE
  6
SLD-PLNÁ
 62
     2
 10
257.65
 20
36.6220812935
 30
0.0
 11
257.65
 21
11.2176646687
 31
0.0
  0
LINE
  5
4C9
  8
VIDITELNE
  6
SLD-PLNÁ
 62
     2
 10
257.65
 20
88.9044166248
 30
0.0
 11
257.65
 21
38.0955833752
 31
0.0
  0
LINE
  5
4CA
  8
VIDITELNE
  6
SLD-PLNÁ
 62
     2
 10
257.65
 20
115.7823353313
 30
0.0
 11
257.65
 21
90.3779187065
 31
0.0
  0
LINE
  5
4CB
  8
VIDITELNE
  6
SLD-PLNÁ
 62
     2
 10
252.35
 20
84.1132486541
 30
0.0
 11
257.65
 21
84.1132486541
 31
0.0
  0
LINE
  5
4CC
  8
VIDITELNE
  6
SLD-PLNÁ
 62
     2
 10
252.35
 20
84.1132486541
 30
0.0
 11
252.35
 21
89.8867513459
 31
0.0
  0
LINE
  5
4CD
  8
VIDITELNE
  6
SLD-PLNÁ
 62
     2
 10
252.35
 20
89.8867513459
 30
0.0
 11
257.65
 21
89.8867513459
 31
0.0
  0
LINE
  5
4CE
  8
VIDITELNE
  6
SLD-PLNÁ
 62
     2
 10
257.65
 20
88.9044166248
 30
0.0
 11
257.65
 21
89.8867513459
 31
0.0
  0
LINE
  5
4CF
  8
VIDITELNE
  6
SLD-PLNÁ
 62
     2
 10
252.35
 20
81.2264973081
 30
0.0
 11
257.65
 21
81.2264973081
 31
0.0
  0
LINE
  5
4D0
  8
VIDITELNE
  6
SLD-PLNÁ
 62
     2
 10
252.35
 20
81.2264973081
 30
0.0
 11
252.35
 21
84.1132486541
 31
0.0
  0
LINE
  5
4D1
  8
VIDITELNE
  6
SLD-PLNÁ
 62
     2
 10
252.35
 20
92.7735026919
 30
0.0
 11
257.65
 21
92.7735026919
 31
0.0
  0
LINE
  5
4D2
  8
VIDITELNE
  6
SLD-PLNÁ
 62
     2
 10
252.35
 20
89.8867513459
 30
0.0
 11
252.35
 21
92.7735026919
 31
0.0
  0
LINE
  5
4D3
  8
VIDITELNE
  6
SLD-PLNÁ
 62
     2
 10
257.65
 20
89.8867513459
 30
0.0
 11
257.65
 21
90.3779187065
 31
0.0
  0
LINE
  5
4D4
  8
VIDITELNE
  6
SLD-PLNÁ
 62
     2
 10
252.35
 20
42.8867513459
 30
0.0
 11
257.65
 21
42.8867513459
 31
0.0
  0
LINE
  5
4D5
  8
VIDITELNE
  6
SLD-PLNÁ
 62
     2
 10
252.35
 20
42.8867513459
 30
0.0
 11
252.35
 21
45.7735026919
 31
0.0
  0
LINE
  5
4D6
  8
VIDITELNE
  6
SLD-PLNÁ
 62
     2
 10
252.35
 20
45.7735026919
 30
0.0
 11
257.65
 21
45.7735026919
 31
0.0
  0
LINE
  5
4D7
  8
VIDITELNE
  6
SLD-PLNÁ
 62
     2
 10
252.35
 20
37.1132486541
 30
0.0
 11
257.65
 21
37.1132486541
 31
0.0
  0
LINE
  5
4D8
  8
VIDITELNE
  6
SLD-PLNÁ
 62
     2
 10
252.35
 20
37.1132486541
 30
0.0
 11
252.35
 21
42.8867513459
 31
0.0
  0
LINE
  5
4D9
  8
VIDITELNE
  6
SLD-PLNÁ
 62
     2
 10
257.65
 20
37.1132486541
 30
0.0
 11
257.65
 21
38.0955833752
 31
0.0
  0
LINE
  5
4DA
  8
VIDITELNE
  6
SLD-PLNÁ
 62
     2
 10
252.35
 20
34.2264973081
 30
0.0
 11
257.65
 21
34.2264973081
 31
0.0
  0
LINE
  5
4DB
  8
VIDITELNE
  6
SLD-PLNÁ
 62
     2
 10
252.35
 20
34.2264973081
 30
0.0
 11
252.35
 21
37.1132486541
 31
0.0
  0
LINE
  5
4DC
  8
VIDITELNE
  6
SLD-PLNÁ
 62
     2
 10
257.65
 20
36.6220812935
 30
0.0
 11
257.65
 21
37.1132486541
 31
0.0
  0
LINE
  5
4DD
  8
VIDITELNE
  6
SLD-PLNÁ
 62
     2
 10
252.35
 20
107.6132486541
 30
0.0
 11
257.65
 21
107.6132486541
 31
0.0
  0
LINE
  5
4DE
  8
VIDITELNE
  6
SLD-PLNÁ
 62
     2
 10
252.35
 20
107.6132486541
 30
0.0
 11
252.35
 21
113.3867513459
 31
0.0
  0
LINE
  5
4DF
  8
VIDITELNE
  6
SLD-PLNÁ
 62
     2
 10
252.35
 20
113.3867513459
 30
0.0
 11
257.65
 21
113.3867513459
 31
0.0
  0
LINE
  5
4E0
  8
VIDITELNE
  6
SLD-PLNÁ
 62
     2
 10
252.35
 20
104.7264973081
 30
0.0
 11
257.65
 21
104.7264973081
 31
0.0
  0
LINE
  5
4E1
  8
VIDITELNE
  6
SLD-PLNÁ
 62
     2
 10
252.35
 20
104.7264973081
 30
0.0
 11
252.35
 21
107.6132486541
 31
0.0
  0
LINE
  5
4E2
  8
VIDITELNE
  6
SLD-PLNÁ
 62
     2
 10
252.35
 20
116.2735026919
 30
0.0
 11
257.65
 21
116.2735026919
 31
0.0
  0
LINE
  5
4E3
  8
VIDITELNE
  6
SLD-PLNÁ
 62
     2
 10
257.65
 20
115.7823353313
 30
0.0
 11
257.65
 21
116.2735026919
 31
0.0
  0
LINE
  5
4E4
  8
VIDITELNE
  6
SLD-PLNÁ
 62
     2
 10
252.35
 20
113.3867513459
 30
0.0
 11
252.35
 21
116.2735026919
 31
0.0
  0
LINE
  5
4E5
  8
VIDITELNE
  6
SLD-PLNÁ
 62
     2
 10
252.35
 20
13.6132486541
 30
0.0
 11
257.65
 21
13.6132486541
 31
0.0
  0
LINE
  5
4E6
  8
VIDITELNE
  6
SLD-PLNÁ
 62
     2
 10
252.35
 20
13.6132486541
 30
0.0
 11
252.35
 21
19.3867513459
 31
0.0
  0
LINE
  5
4E7
  8
VIDITELNE
  6
SLD-PLNÁ
 62
     2
 10
252.35
 20
19.3867513459
 30
0.0
 11
257.65
 21
19.3867513459
 31
0.0
  0
LINE
  5
4E8
  8
VIDITELNE
  6
SLD-PLNÁ
 62
     2
 10
252.35
 20
10.7264973081
 30
0.0
 11
257.65
 21
10.7264973081
 31
0.0
  0
LINE
  5
4E9
  8
VIDITELNE
  6
SLD-PLNÁ
 62
     2
 10
252.35
 20
10.7264973081
 30
0.0
 11
252.35
 21
13.6132486541
 31
0.0
  0
LINE
  5
4EA
  8
VIDITELNE
  6
SLD-PLNÁ
 62
     2
 10
257.65
 20
10.7264973081
 30
0.0
 11
257.65
 21
11.2176646687
 31
0.0
  0
LINE
  5
4EB
  8
VIDITELNE
  6
SLD-PLNÁ
 62
     2
 10
252.35
 20
22.2735026919
 30
0.0
 11
257.65
 21
22.2735026919
 31
0.0
  0
LINE
  5
4EC
  8
VIDITELNE
  6
SLD-PLNÁ
 62
     2
 10
252.35
 20
19.3867513459
 30
0.0
 11
252.35
 21
22.2735026919
 31
0.0
  0
LINE
  5
4ED
  8
VIDITELNE
  6
SLD-PLNÁ
 62
     2
 10
537.5802010066
 20
188.1483548705
 30
0.0
 11
537.5802010066
 21
-61.1483548705
 31
0.0
  0
LINE
  5
4EE
  8
VIDITELNE
  6
SLD-PLNÁ
 62
     2
 10
532.7546984901
 20
118.7481015383
 30
0.0
 11
532.7546984901
 21
8.2518984617
 31
0.0
  0
LINE
  5
4EF
  8
VIDITELNE
  6
SLD-PLNÁ
 62
     2
 10
522.65
 20
43.2598292458
 30
0.0
 11
522.65
 21
8.5
 31
0.0
  0
POLYLINE
  5
4F0
  8
VIDITELNE
  6
SLD-PLNÁ
 62
     2
 66
     1
 10
0.0
 20
0.0
 30
0.0
  0
VERTEX
  5
8F8
  8
VIDITELNE
  6
SLD-PLNÁ
 62
     2
 10
410.65
 20
-182.3570617804
 30
0.0
  0
VERTEX
  5
8F9
  8
VIDITELNE
  6
SLD-PLNÁ
 62
     2
 10
410.2660171155
 20
-182.4150775655
 30
0.0
  0
VERTEX
  5
8FA
  8
VIDITELNE
  6
SLD-PLNÁ
 62
     2
 10
409.4898591322
 20
-182.5277990231
 30
0.0
  0
VERTEX
  5
8FB
  8
VIDITELNE
  6
SLD-PLNÁ
 62
     2
 10
408.3238798069
 20
-182.6851150002
 30
0.0
  0
VERTEX
  5
8FC
  8
VIDITELNE
  6
SLD-PLNÁ
 62
     2
 10
408.317531557
 20
-182.6859337678
 30
0.0
  0
VERTEX
  5
8FD
  8
VIDITELNE
  6
SLD-PLNÁ
 62
     2
 10
406.7910093215
 20
-182.8706897936
 30
0.0
  0
VERTEX
  5
8FE
  8
VIDITELNE
  6
SLD-PLNÁ
 62
     2
 10
404.9518247486
 20
-183.0617035333
 30
0.0
  0
VERTEX
  5
8FF
  8
VIDITELNE
  6
SLD-PLNÁ
 62
     2
 10
402.8640693802
 20
-183.2362667966
 30
0.0
  0
VERTEX
  5
900
  8
VIDITELNE
  6
SLD-PLNÁ
 62
     2
 10
400.5747750034
 20
-183.3772944374
 30
0.0
  0
VERTEX
  5
901
  8
VIDITELNE
  6
SLD-PLNÁ
 62
     2
 10
398.1446946624
 20
-183.4680965093
 30
0.0
  0
VERTEX
  5
902
  8
VIDITELNE
  6
SLD-PLNÁ
 62
     2
 10
395.643989353
 20
-183.4999998173
 30
0.0
  0
VERTEX
  5
903
  8
VIDITELNE
  6
SLD-PLNÁ
 62
     2
 10
393.1238900176
 20
-183.467285603
 30
0.0
  0
VERTEX
  5
904
  8
VIDITELNE
  6
SLD-PLNÁ
 62
     2
 10
390.6764231561
 20
-183.374849292
 30
0.0
  0
VERTEX
  5
905
  8
VIDITELNE
  6
SLD-PLNÁ
 62
     2
 10
388.3655414012
 20
-183.2310850644
 30
0.0
  0
VERTEX
  5
906
  8
VIDITELNE
  6
SLD-PLNÁ
 62
     2
 10
386.2627698547
 20
-183.0536038215
 30
0.0
  0
VERTEX
  5
907
  8
VIDITELNE
  6
SLD-PLNÁ
 62
     2
 10
384.440794193
 20
-182.8629487798
 30
0.0
  0
VERTEX
  5
908
  8
VIDITELNE
  6
SLD-PLNÁ
 62
     2
 10
382.9316554315
 20
-182.679368495
 30
0.0
  0
VERTEX
  5
909
  8
VIDITELNE
  6
SLD-PLNÁ
 62
     2
 10
381.7866971456
 20
-182.5244871361
 30
0.0
  0
VERTEX
  5
90A
  8
VIDITELNE
  6
SLD-PLNÁ
 62
     2
 10
381.0253793931
 20
-182.4137944334
 30
0.0
  0
VERTEX
  5
90B
  8
VIDITELNE
  6
SLD-PLNÁ
 62
     2
 10
380.6756297536
 20
-182.3612050745
 30
0.0
  0
VERTEX
  5
90C
  8
VIDITELNE
  6
SLD-PLNÁ
 62
     2
 10
380.6984027485
 20
-182.3646007915
 30
0.0
  0
SEQEND
  5
90D
  8
VIDITELNE
  6
SLD-PLNÁ
 62
     2
  0
LINE
  5
4F1
  8
VIDITELNE
  6
SLD-PLNÁ
 62
     2
 10
269.15
 20
-16.5
 30
0.0
 11
269.15
 21
-31.5635083269
 31
0.0
  0
LINE
  5
4F2
  8
VIDITELNE
  6
SLD-PLNÁ
 62
     2
 10
385.15
 20
-187.5
 30
0.0
 11
406.15
 21
-187.5
 31
0.0
  0
LINE
  5
4F3
  8
VIDITELNE
  6
SLD-PLNÁ
 62
     2
 10
264.65
 20
-6.0
 30
0.0
 11
264.65
 21
-27.0
 31
0.0
  0
LINE
  5
4F4
  8
VIDITELNE
  6
SLD-PLNÁ
 62
     2
 10
496.15
 20
119.5
 30
0.0
 11
475.15
 21
119.5
 31
0.0
  0
LINE
  5
4F5
  8
VIDITELNE
  6
SLD-PLNÁ
 62
     2
 10
259.5802010066
 20
117.7880379485
 30
0.0
 11
259.5802010066
 21
9.2119620515
 31
0.0
  0
LINE
  5
4F6
  8
VIDITELNE
  6
SLD-PLNÁ
 62
     2
 10
-135.0
 20
547.65
 30
0.0
 11
-134.6483548705
 21
537.5802010066
 31
0.0
  0
LINE
  5
4F7
  8
VIDITELNE
  6
SLD-PLNÁ
 62
     2
 10
114.6483548705
 20
537.5802010066
 30
0.0
 11
115.0
 21
547.65
 31
0.0
  0
ARC
  5
4F8
  8
VIDITELNE
  6
SLD-PLNÁ
 62
     2
 10
-132.6495732165
 20
537.65
 30
0.0
 40
2.000000000000341
 50
182.0
 51
270.0
  0
ARC
  5
4F9
  8
VIDITELNE
  6
SLD-PLNÁ
 62
     2
 10
112.6495732165
 20
537.65
 30
0.0
 40
1.999999999999984
 50
270.0
 51
358.0
  0
ARC
  5
4FA
  8
VIDITELNE
  6
SLD-PLNÁ
 62
     2
 10
-68.2462740193
 20
532.65
 30
0.0
 40
3.0
 50
2.0
 51
90.0
  0
ARC
  5
4FB
  8
VIDITELNE
  6
SLD-PLNÁ
 62
     2
 10
48.2462740193
 20
532.65
 30
0.0
 40
3.000000000000114
 50
90.0
 51
178.0
  0
LINE
  5
4FC
  8
VIDITELNE
  6
SLD-PLNÁ
 62
     2
 10
-65.2481015383
 20
532.7546984901
 30
0.0
 11
-65.0
 21
525.65
 31
0.0
  0
LINE
  5
4FD
  8
VIDITELNE
  6
SLD-PLNÁ
 62
     2
 10
45.0
 20
525.65
 30
0.0
 11
45.2481015383
 21
532.7546984901
 31
0.0
  0
LINE
  5
4FE
  8
VIDITELNE
  6
SLD-PLNÁ
 62
     2
 10
43.0
 20
270.65
 30
0.0
 11
48.0
 21
270.65
 31
0.0
  0
LINE
  5
4FF
  8
VIDITELNE
  6
SLD-PLNÁ
 62
     2
 10
-68.0
 20
270.65
 30
0.0
 11
-63.0
 21
270.65
 31
0.0
  0
LINE
  5
500
  8
VIDITELNE
  6
SLD-PLNÁ
 62
     2
 10
-63.0
 20
520.65
 30
0.0
 11
-68.0
 21
520.65
 31
0.0
  0
LINE
  5
501
  8
VIDITELNE
  6
SLD-PLNÁ
 62
     2
 10
48.0
 20
520.65
 30
0.0
 11
43.0
 21
520.65
 31
0.0
  0
ARC
  5
502
  8
VIDITELNE
  6
SLD-PLNÁ
 62
     2
 10
-94.0
 20
365.15
 30
0.0
 40
2.0
 50
180.0
 51
270.0
  0
ARC
  5
503
  8
VIDITELNE
  6
SLD-PLNÁ
 62
     2
 10
-94.0
 20
426.15
 30
0.0
 40
2.0
 50
90.0
 51
180.0
  0
ARC
  5
504
  8
VIDITELNE
  6
SLD-PLNÁ
 62
     2
 10
-0.5
 20
264.65
 30
0.0
 40
1.000000000000001
 50
270.0
 51
0.0
  0
ARC
  5
505
  8
VIDITELNE
  6
SLD-PLNÁ
 62
     2
 10
-19.5
 20
264.65
 30
0.0
 40
1.0
 50
180.0
 51
270.0
  0
LINE
  5
506
  8
VIDITELNE
  6
SLD-PLNÁ
 62
     2
 10
-20.5
 20
267.65
 30
0.0
 11
-20.5
 21
264.65
 31
0.0
  0
LINE
  5
507
  8
VIDITELNE
  6
SLD-PLNÁ
 62
     2
 10
0.5
 20
264.65
 30
0.0
 11
0.5
 21
267.65
 31
0.0
  0
LINE
  5
508
  8
VIDITELNE
  6
SLD-PLNÁ
 62
     2
 10
45.0
 20
520.65
 30
0.0
 11
45.0
 21
525.65
 31
0.0
  0
LINE
  5
509
  8
VIDITELNE
  6
SLD-PLNÁ
 62
     2
 10
45.0
 20
265.65
 30
0.0
 11
45.0
 21
270.65
 31
0.0
  0
LINE
  5
50A
  8
VIDITELNE
  6
SLD-PLNÁ
 62
     2
 10
-65.0
 20
270.65
 30
0.0
 11
-65.0
 21
265.65
 31
0.0
  0
LINE
  5
50B
  8
VIDITELNE
  6
SLD-PLNÁ
 62
     2
 10
-65.0
 20
525.65
 30
0.0
 11
-65.0
 21
520.65
 31
0.0
  0
LINE
  5
50C
  8
VIDITELNE
  6
SLD-PLNÁ
 62
     2
 10
48.0
 20
270.65
 30
0.0
 11
57.0844928937
 21
270.9672374823
 31
0.0
  0
LINE
  5
50D
  8
VIDITELNE
  6
SLD-PLNÁ
 62
     2
 10
57.0844928937
 20
520.3327625177
 30
0.0
 11
48.0
 21
520.65
 31
0.0
  0
LINE
  5
50E
  8
VIDITELNE
  6
SLD-PLNÁ
 62
     2
 10
122.0
 20
270.65
 30
0.0
 11
135.0
 21
270.65
 31
0.0
  0
LINE
  5
50F
  8
VIDITELNE
  6
SLD-PLNÁ
 62
     2
 10
135.0
 20
520.65
 30
0.0
 11
122.0
 21
520.65
 31
0.0
  0
ARC
  5
510
  8
VIDITELNE
  6
SLD-PLNÁ
 62
     2
 10
122.0
 20
272.65
 30
0.0
 40
2.0
 50
180.0
 51
270.0
  0
ARC
  5
511
  8
VIDITELNE
  6
SLD-PLNÁ
 62
     2
 10
122.0
 20
518.65
 30
0.0
 40
2.0
 50
90.0
 51
180.0
  0
LINE
  5
512
  8
VIDITELNE
  6
SLD-PLNÁ
 62
     2
 10
59.0
 20
387.65
 30
0.0
 11
68.0
 21
387.65
 31
0.0
  0
LINE
  5
513
  8
VIDITELNE
  6
SLD-PLNÁ
 62
     2
 10
68.0
 20
403.65
 30
0.0
 11
59.0
 21
403.65
 31
0.0
  0
ARC
  5
514
  8
VIDITELNE
  6
SLD-PLNÁ
 62
     2
 10
68.0
 20
388.65
 30
0.0
 40
1.0
 50
270.0
 51
0.0
  0
ARC
  5
515
  8
VIDITELNE
  6
SLD-PLNÁ
 62
     2
 10
68.0
 20
402.65
 30
0.0
 40
1.000000000000057
 50
0.0
 51
90.0
  0
ARC
  5
516
  8
VIDITELNE
  6
SLD-PLNÁ
 62
     2
 10
118.0
 20
305.1016020616
 30
0.0
 40
2.000000000000043
 50
0.0
 51
55.0
  0
ARC
  5
517
  8
VIDITELNE
  6
SLD-PLNÁ
 62
     2
 10
118.0
 20
486.1983979384
 30
0.0
 40
2.0
 50
305.0
 51
0.0
  0
ARC
  5
518
  8
VIDITELNE
  6
SLD-PLNÁ
 62
     2
 10
68.0
 20
469.9672798365
 30
0.0
 40
1.0
 50
270.0
 51
0.0
  0
ARC
  5
519
  8
VIDITELNE
  6
SLD-PLNÁ
 62
     2
 10
68.0
 20
483.9672798365
 30
0.0
 40
1.0
 50
0.0
 51
90.0
  0
LINE
  5
51A
  8
VIDITELNE
  6
SLD-PLNÁ
 62
     2
 10
59.0
 20
468.9672798365
 30
0.0
 11
68.0
 21
468.9672798365
 31
0.0
  0
LINE
  5
51B
  8
VIDITELNE
  6
SLD-PLNÁ
 62
     2
 10
68.0
 20
484.9672798365
 30
0.0
 11
59.0
 21
484.9672798365
 31
0.0
  0
ARC
  5
51C
  8
VIDITELNE
  6
SLD-PLNÁ
 62
     2
 10
68.0
 20
307.3327201635
 30
0.0
 40
1.0
 50
270.0
 51
0.0
  0
ARC
  5
51D
  8
VIDITELNE
  6
SLD-PLNÁ
 62
     2
 10
68.0
 20
321.3327201635
 30
0.0
 40
1.0
 50
0.0
 51
90.0
  0
LINE
  5
51E
  8
VIDITELNE
  6
SLD-PLNÁ
 62
     2
 10
59.0
 20
306.3327201635
 30
0.0
 11
68.0
 21
306.3327201635
 31
0.0
  0
LINE
  5
51F
  8
VIDITELNE
  6
SLD-PLNÁ
 62
     2
 10
68.0
 20
322.3327201635
 30
0.0
 11
59.0
 21
322.3327201635
 31
0.0
  0
LINE
  5
520
  8
VIDITELNE
  6
SLD-PLNÁ
 62
     2
 10
119.1471528727
 20
484.5600938499
 30
0.0
 11
86.2913882374
 21
461.5542397786
 31
0.0
  0
LINE
  5
521
  8
VIDITELNE
  6
SLD-PLNÁ
 62
     2
 10
86.2913882374
 20
329.7457602214
 30
0.0
 11
119.1471528727
 21
306.7399061501
 31
0.0
  0
ARC
  5
522
  8
VIDITELNE
  6
SLD-PLNÁ
 62
     2
 10
61.0
 20
462.65
 30
0.0
 40
2.0
 50
180.0
 51
270.0
  0
ARC
  5
523
  8
VIDITELNE
  6
SLD-PLNÁ
 62
     2
 10
61.0
 20
328.65
 30
0.0
 40
2.0
 50
90.0
 51
180.0
  0
ARC
  5
524
  8
VIDITELNE
  6
SLD-PLNÁ
 62
     2
 10
83.4235060556
 20
325.65
 30
0.0
 40
5.00000000000004
 50
55.0
 51
90.0
  0
ARC
  5
525
  8
VIDITELNE
  6
SLD-PLNÁ
 62
     2
 10
83.4235060556
 20
465.65
 30
0.0
 40
5.000000000000057
 50
270.0
 51
305.0
  0
LINE
  5
526
  8
VIDITELNE
  6
SLD-PLNÁ
 62
     2
 10
61.0
 20
330.65
 30
0.0
 11
83.4235060556
 21
330.65
 31
0.0
  0
LINE
  5
527
  8
VIDITELNE
  6
SLD-PLNÁ
 62
     2
 10
83.4235060556
 20
460.65
 30
0.0
 11
61.0
 21
460.65
 31
0.0
  0
LINE
  5
528
  8
VIDITELNE
  6
SLD-PLNÁ
 62
     2
 10
59.0
 20
502.65
 30
0.0
 11
68.0
 21
502.65
 31
0.0
  0
LINE
  5
529
  8
VIDITELNE
  6
SLD-PLNÁ
 62
     2
 10
68.0
 20
518.65
 30
0.0
 11
59.0
 21
518.65
 31
0.0
  0
ARC
  5
52A
  8
VIDITELNE
  6
SLD-PLNÁ
 62
     2
 10
68.0
 20
503.65
 30
0.0
 40
1.0
 50
270.0
 51
0.0
  0
ARC
  5
52B
  8
VIDITELNE
  6
SLD-PLNÁ
 62
     2
 10
68.0
 20
517.65
 30
0.0
 40
1.0
 50
0.0
 51
90.0
  0
LINE
  5
52C
  8
VIDITELNE
  6
SLD-PLNÁ
 62
     2
 10
59.0
 20
272.65
 30
0.0
 11
68.0
 21
272.65
 31
0.0
  0
LINE
  5
52D
  8
VIDITELNE
  6
SLD-PLNÁ
 62
     2
 10
68.0
 20
288.65
 30
0.0
 11
59.0
 21
288.65
 31
0.0
  0
ARC
  5
52E
  8
VIDITELNE
  6
SLD-PLNÁ
 62
     2
 10
68.0
 20
273.65
 30
0.0
 40
1.0
 50
270.0
 51
0.0
  0
ARC
  5
52F
  8
VIDITELNE
  6
SLD-PLNÁ
 62
     2
 10
68.0
 20
287.65
 30
0.0
 40
1.0
 50
0.0
 51
90.0
  0
ARC
  5
530
  8
VIDITELNE
  6
SLD-PLNÁ
 62
     2
 10
57.1186147001
 20
518.4622048546
 30
0.0
 40
1.862866479680591
 50
2.3951698261
 51
91.0599704588
  0
ARC
  5
531
  8
VIDITELNE
  6
SLD-PLNÁ
 62
     2
 10
57.0976064935
 20
272.8582394723
 30
0.0
 40
1.883884728198237
 50
269.5929807365
 51
357.0364006396
  0
LINE
  5
532
  8
VIDITELNE
  6
SLD-PLNÁ
 62
     2
 10
-68.0
 20
520.65
 30
0.0
 11
-79.0
 21
520.2658715356
 31
0.0
  0
LINE
  5
533
  8
VIDITELNE
  6
SLD-PLNÁ
 62
     2
 10
-79.0
 20
271.0341284644
 30
0.0
 11
-68.0
 21
270.65
 31
0.0
  0
LINE
  5
534
  8
VIDITELNE
  6
SLD-PLNÁ
 62
     2
 10
-79.0
 20
403.65
 30
0.0
 11
-88.0
 21
403.65
 31
0.0
  0
LINE
  5
535
  8
VIDITELNE
  6
SLD-PLNÁ
 62
     2
 10
-88.0
 20
387.65
 30
0.0
 11
-79.0
 21
387.65
 31
0.0
  0
ARC
  5
536
  8
VIDITELNE
  6
SLD-PLNÁ
 62
     2
 10
-88.0
 20
388.65
 30
0.0
 40
1.0
 50
180.0
 51
270.0
  0
ARC
  5
537
  8
VIDITELNE
  6
SLD-PLNÁ
 62
     2
 10
-88.0
 20
402.65
 30
0.0
 40
1.0
 50
90.0
 51
180.0
  0
LINE
  5
538
  8
VIDITELNE
  6
SLD-PLNÁ
 62
     2
 10
-79.0
 20
322.3327201635
 30
0.0
 11
-88.0
 21
322.3327201635
 31
0.0
  0
LINE
  5
539
  8
VIDITELNE
  6
SLD-PLNÁ
 62
     2
 10
-88.0
 20
306.3327201635
 30
0.0
 11
-79.0
 21
306.3327201635
 31
0.0
  0
ARC
  5
53A
  8
VIDITELNE
  6
SLD-PLNÁ
 62
     2
 10
-88.0
 20
307.3327201635
 30
0.0
 40
1.0
 50
180.0
 51
270.0
  0
ARC
  5
53B
  8
VIDITELNE
  6
SLD-PLNÁ
 62
     2
 10
-88.0
 20
321.3327201635
 30
0.0
 40
1.0
 50
90.0
 51
180.0
  0
ARC
  5
53C
  8
VIDITELNE
  6
SLD-PLNÁ
 62
     2
 10
-88.0
 20
469.9672798365
 30
0.0
 40
1.0
 50
180.0
 51
270.0
  0
ARC
  5
53D
  8
VIDITELNE
  6
SLD-PLNÁ
 62
     2
 10
-88.0
 20
483.9672798365
 30
0.0
 40
1.0
 50
90.0
 51
180.0
  0
LINE
  5
53E
  8
VIDITELNE
  6
SLD-PLNÁ
 62
     2
 10
-79.0
 20
484.9672798365
 30
0.0
 11
-88.0
 21
484.9672798365
 31
0.0
  0
LINE
  5
53F
  8
VIDITELNE
  6
SLD-PLNÁ
 62
     2
 10
-88.0
 20
468.9672798365
 30
0.0
 11
-79.0
 21
468.9672798365
 31
0.0
  0
LINE
  5
540
  8
VIDITELNE
  6
SLD-PLNÁ
 62
     2
 10
-94.0
 20
330.65
 30
0.0
 11
-90.5
 21
330.65
 31
0.0
  0
LINE
  5
541
  8
VIDITELNE
  6
SLD-PLNÁ
 62
     2
 10
-90.5
 20
460.65
 30
0.0
 11
-94.0
 21
460.65
 31
0.0
  0
LINE
  5
542
  8
VIDITELNE
  6
SLD-PLNÁ
 62
     2
 10
-90.5
 20
300.65
 30
0.0
 11
-86.8731240234
 21
298.5560221786
 31
0.0
  0
LINE
  5
543
  8
VIDITELNE
  6
SLD-PLNÁ
 62
     2
 10
-86.8731240234
 20
492.7439778214
 30
0.0
 11
-90.5
 21
490.65
 31
0.0
  0
LINE
  5
544
  8
VIDITELNE
  6
SLD-PLNÁ
 62
     2
 10
-82.3094140097
 20
288.65
 30
0.0
 11
-88.0
 21
288.65
 31
0.0
  0
LINE
  5
545
  8
VIDITELNE
  6
SLD-PLNÁ
 62
     2
 10
-88.0
 20
272.65
 30
0.0
 11
-79.0
 21
272.65
 31
0.0
  0
ARC
  5
546
  8
VIDITELNE
  6
SLD-PLNÁ
 62
     2
 10
-88.0
 20
273.65
 30
0.0
 40
1.0
 50
180.0
 51
270.0
  0
ARC
  5
547
  8
VIDITELNE
  6
SLD-PLNÁ
 62
     2
 10
-88.0
 20
287.65
 30
0.0
 40
1.0
 50
90.0
 51
180.0
  0
LINE
  5
548
  8
VIDITELNE
  6
SLD-PLNÁ
 62
     2
 10
-79.0
 20
518.65
 30
0.0
 11
-88.0
 21
518.65
 31
0.0
  0
LINE
  5
549
  8
VIDITELNE
  6
SLD-PLNÁ
 62
     2
 10
-88.0
 20
502.65
 30
0.0
 11
-82.3094140097
 21
502.65
 31
0.0
  0
ARC
  5
54A
  8
VIDITELNE
  6
SLD-PLNÁ
 62
     2
 10
-88.0
 20
503.65
 30
0.0
 40
1.0
 50
180.0
 51
270.0
  0
ARC
  5
54B
  8
VIDITELNE
  6
SLD-PLNÁ
 62
     2
 10
-88.0
 20
517.65
 30
0.0
 40
1.0
 50
90.0
 51
180.0
  0
LINE
  5
54C
  8
VIDITELNE
  6
SLD-PLNÁ
 62
     2
 10
-64.5
 20
265.65
 30
0.0
 11
-64.2880379485
 21
259.5802010066
 31
0.0
  0
LINE
  5
54D
  8
VIDITELNE
  6
SLD-PLNÁ
 62
     2
 10
44.2880379485
 20
259.5802010066
 30
0.0
 11
44.5
 21
265.65
 31
0.0
  0
ARC
  5
54E
  8
VIDITELNE
  6
SLD-PLNÁ
 62
     2
 10
-62.2892562945
 20
259.65
 30
0.0
 40
2.000000000000011
 50
182.0
 51
270.0
  0
ARC
  5
54F
  8
VIDITELNE
  6
SLD-PLNÁ
 62
     2
 10
42.2892562945
 20
259.65
 30
0.0
 40
2.000000000000004
 50
270.0
 51
358.0
  0
LINE
  5
550
  8
VIDITELNE
  6
SLD-PLNÁ
 62
     2
 10
-135.0
 20
547.65
 30
0.0
 11
115.0
 21
547.65
 31
0.0
  0
LINE
  5
551
  8
VIDITELNE
  6
SLD-PLNÁ
 62
     2
 10
-132.6495732151
 20
535.65
 30
0.0
 11
112.6495732165
 21
535.65
 31
0.0
  0
LINE
  5
552
  8
VIDITELNE
  6
SLD-PLNÁ
 62
     2
 10
-65.0
 20
525.65
 30
0.0
 11
45.0
 21
525.65
 31
0.0
  0
CIRCLE
  5
553
  8
VIDITELNE
  6
SLD-PLNÁ
 62
     2
 10
-10.0
 20
395.65
 30
0.0
 40
9.5
  0
CIRCLE
  5
554
  8
VIDITELNE
  6
SLD-PLNÁ
 62
     2
 10
-10.0
 20
395.65
 30
0.0
 40
10.5
  0
CIRCLE
  5
555
  8
VIDITELNE
  6
SLD-PLNÁ
 62
     2
 10
-10.0
 20
395.65
 30
0.0
 40
15.00000000000006
  0
POLYLINE
  5
556
  8
VIDITELNE
  6
SLD-PLNÁ
 62
     2
 66
     1
 10
0.0
 20
0.0
 30
0.0
  0
VERTEX
  5
90E
  8
VIDITELNE
  6
SLD-PLNÁ
 62
     2
 10
-10.0
 20
412.3822834646
 30
0.0
  0
VERTEX
  5
90F
  8
VIDITELNE
  6
SLD-PLNÁ
 62
     2
 10
-8.1342163957
 20
412.2812038237
 30
0.0
  0
VERTEX
  5
910
  8
VIDITELNE
  6
SLD-PLNÁ
 62
     2
 10
-5.3877585529
 20
411.7546971923
 30
0.0
  0
VERTEX
  5
911
  8
VIDITELNE
  6
SLD-PLNÁ
 62
     2
 10
-2.693227237
 20
410.7579013199
 30
0.0
  0
VERTEX
  5
912
  8
VIDITELNE
  6
SLD-PLNÁ
 62
     2
 10
-0.2717324686
 20
409.371786038
 30
0.0
  0
VERTEX
  5
913
  8
VIDITELNE
  6
SLD-PLNÁ
 62
     2
 10
1.9462296926
 20
407.5544694206
 30
0.0
  0
VERTEX
  5
914
  8
VIDITELNE
  6
SLD-PLNÁ
 62
     2
 10
3.7817328465
 20
405.4463404746
 30
0.0
  0
VERTEX
  5
915
  8
VIDITELNE
  6
SLD-PLNÁ
 62
     2
 10
5.2780433489
 20
402.98788666
 30
0.0
  0
VERTEX
  5
916
  8
VIDITELNE
  6
SLD-PLNÁ
 62
     2
 10
6.3018276398
 20
400.3959335397
 30
0.0
  0
VERTEX
  5
917
  8
VIDITELNE
  6
SLD-PLNÁ
 62
     2
 10
6.8861593759
 20
397.5831524342
 30
0.0
  0
VERTEX
  5
918
  8
VIDITELNE
  6
SLD-PLNÁ
 62
     2
 10
6.9790631037
 20
394.819827882
 30
0.0
  0
VERTEX
  5
919
  8
VIDITELNE
  6
SLD-PLNÁ
 62
     2
 10
6.5902768437
 20
391.9986090193
 30
0.0
  0
VERTEX
  5
91A
  8
VIDITELNE
  6
SLD-PLNÁ
 62
     2
 10
5.7564330389
 20
389.3681265729
 30
0.0
  0
VERTEX
  5
91B
  8
VIDITELNE
  6
SLD-PLNÁ
 62
     2
 10
4.4558852249
 20
386.8450762798
 30
0.0
  0
VERTEX
  5
91C
  8
VIDITELNE
  6
SLD-PLNÁ
 62
     2
 10
2.7819557024
 20
384.6184009976
 30
0.0
  0
VERTEX
  5
91D
  8
VIDITELNE
  6
SLD-PLNÁ
 62
     2
 10
0.7009629574
 20
382.6485794482
 30
0.0
  0
VERTEX
  5
91E
  8
VIDITELNE
  6
SLD-PLNÁ
 62
     2
 10
-1.6410426985
 20
381.080150563
 30
0.0
  0
VERTEX
  5
91F
  8
VIDITELNE
  6
SLD-PLNÁ
 62
     2
 10
-4.2875722026
 20
379.8906484872
 30
0.0
  0
VERTEX
  5
920
  8
VIDITELNE
  6
SLD-PLNÁ
 62
     2
 10
-8.1195923474
 20
379.0203918251
 30
0.0
  0
VERTEX
  5
921
  8
VIDITELNE
  6
SLD-PLNÁ
 62
     2
 10
-10.9231638833
 20
378.9424056499
 30
0.0
  0
VERTEX
  5
922
  8
VIDITELNE
  6
SLD-PLNÁ
 62
     2
 10
-13.7793688117
 20
379.3364468296
 30
0.0
  0
VERTEX
  5
923
  8
VIDITELNE
  6
SLD-PLNÁ
 62
     2
 10
-16.4487797876
 20
380.1683316504
 30
0.0
  0
VERTEX
  5
924
  8
VIDITELNE
  6
SLD-PLNÁ
 62
     2
 10
-19.0129370241
 20
381.4628702319
 30
0.0
  0
VERTEX
  5
925
  8
VIDITELNE
  6
SLD-PLNÁ
 62
     2
 10
-21.2624373119
 20
383.1164291632
 30
0.0
  0
VERTEX
  5
926
  8
VIDITELNE
  6
SLD-PLNÁ
 62
     2
 10
-23.2595113112
 20
385.1786802841
 30
0.0
  0
VERTEX
  5
927
  8
VIDITELNE
  6
SLD-PLNÁ
 62
     2
 10
-24.8383776052
 20
387.484708903
 30
0.0
  0
VERTEX
  5
928
  8
VIDITELNE
  6
SLD-PLNÁ
 62
     2
 10
-26.0383098509
 20
390.1020468277
 30
0.0
  0
VERTEX
  5
929
  8
VIDITELNE
  6
SLD-PLNÁ
 62
     2
 10
-26.7496606398
 20
392.7890809726
 30
0.0
  0
VERTEX
  5
92A
  8
VIDITELNE
  6
SLD-PLNÁ
 62
     2
 10
-26.9999986352
 20
395.64329521
 30
0.0
  0
VERTEX
  5
92B
  8
VIDITELNE
  6
SLD-PLNÁ
 62
     2
 10
-26.7699590051
 20
398.3933055199
 30
0.0
  0
VERTEX
  5
92C
  8
VIDITELNE
  6
SLD-PLNÁ
 62
     2
 10
-26.0576412889
 20
401.1435154238
 30
0.0
  0
VERTEX
  5
92D
  8
VIDITELNE
  6
SLD-PLNÁ
 62
     2
 10
-24.9225908835
 20
403.6652371156
 30
0.0
  0
VERTEX
  5
92E
  8
VIDITELNE
  6
SLD-PLNÁ
 62
     2
 10
-23.3365963148
 20
406.0260512288
 30
0.0
  0
VERTEX
  5
92F
  8
VIDITELNE
  6
SLD-PLNÁ
 62
     2
 10
-21.4089458599
 20
408.054541045
 30
0.0
  0
VERTEX
  5
930
  8
VIDITELNE
  6
SLD-PLNÁ
 62
     2
 10
-19.1043879992
 20
409.7804485872
 30
0.0
  0
VERTEX
  5
931
  8
VIDITELNE
  6
SLD-PLNÁ
 62
     2
 10
-16.5928928377
 20
411.0727529847
 30
0.0
  0
VERTEX
  5
932
  8
VIDITELNE
  6
SLD-PLNÁ
 62
     2
 10
-13.8218788999
 20
411.9539561
 30
0.0
  0
VERTEX
  5
933
  8
VIDITELNE
  6
SLD-PLNÁ
 62
     2
 10
-10.0
 20
412.3822834646
 30
0.0
  0
SEQEND
  5
934
  8
VIDITELNE
  6
SLD-PLNÁ
 62
     2
  0
LINE
  5
557
  8
VIDITELNE
  6
SLD-PLNÁ
 62
     2
 10
43.0
 20
520.65
 30
0.0
 11
-63.0
 21
520.65
 31
0.0
  0
LINE
  5
558
  8
VIDITELNE
  6
SLD-PLNÁ
 62
     2
 10
43.0
 20
270.65
 30
0.0
 11
-63.0
 21
270.65
 31
0.0
  0
LINE
  5
559
  8
VIDITELNE
  6
SLD-PLNÁ
 62
     2
 10
48.0
 20
520.65
 30
0.0
 11
48.0
 21
270.65
 31
0.0
  0
LINE
  5
55A
  8
VIDITELNE
  6
SLD-PLNÁ
 62
     2
 10
-68.0
 20
520.65
 30
0.0
 11
-68.0
 21
270.65
 31
0.0
  0
LINE
  5
55B
  8
VIDITELNE
  6
SLD-PLNÁ
 62
     2
 10
-96.0
 20
365.1500000513
 30
0.0
 11
-96.0
 21
426.15
 31
0.0
  0
ARC
  5
55C
  8
VIDITELNE
  6
SLD-PLNÁ
 62
     2
 10
7.0
 20
268.65
 30
0.0
 40
1.999999999999987
 50
90.0
 51
165.5224878141
  0
LINE
  5
55D
  8
VIDITELNE
  6
SLD-PLNÁ
 62
     2
 10
-25.0635083269
 20
269.15
 30
0.0
 11
5.0635083269
 21
269.15
 31
0.0
  0
ARC
  5
55E
  8
VIDITELNE
  6
SLD-PLNÁ
 62
     2
 10
-27.0
 20
268.65
 30
0.0
 40
1.999999999999987
 50
14.4775121859
 51
90.0
  0
ARC
  5
55F
  8
VIDITELNE
  6
SLD-PLNÁ
 62
     2
 10
3.1270166538
 20
269.65
 30
0.0
 40
2.000000000000012
 50
270.0
 51
345.5224878141
  0
LINE
  5
560
  8
VIDITELNE
  6
SLD-PLNÁ
 62
     2
 10
3.1270166538
 20
267.65
 30
0.0
 11
-23.1270166538
 21
267.65
 31
0.0
  0
ARC
  5
561
  8
VIDITELNE
  6
SLD-PLNÁ
 62
     2
 10
-23.1270166538
 20
269.65
 30
0.0
 40
2.000000000000019
 50
194.4775121859
 51
270.0
  0
LINE
  5
562
  8
VIDITELNE
  6
SLD-PLNÁ
 62
     2
 10
-0.5
 20
263.65
 30
0.0
 11
-19.5
 21
263.65
 31
0.0
  0
LINE
  5
563
  8
VIDITELNE
  6
SLD-PLNÁ
 62
     2
 10
-61.1403508772
 20
522.65
 30
0.0
 11
41.1403508772
 21
522.65
 31
0.0
  0
ARC
  5
564
  8
VIDITELNE
  6
SLD-PLNÁ
 62
     2
 10
43.0728235684
 20
522.5822868575
 30
0.0
 40
1.93365864923308
 50
177.9931976903
 51
267.8416717502
  0
ARC
  5
565
  8
VIDITELNE
  6
SLD-PLNÁ
 62
     2
 10
-63.0728235684
 20
522.5822868575
 30
0.0
 40
1.93365864923308
 50
272.1583282498
 51
2.0068023097
  0
POLYLINE
  5
566
  8
VIDITELNE
  6
SLD-PLNÁ
 62
     2
 66
     1
 10
0.0
 20
0.0
 30
0.0
  0
VERTEX
  5
935
  8
VIDITELNE
  6
SLD-PLNÁ
 62
     2
 10
3.7181035559
 20
267.15
 30
0.0
  0
VERTEX
  5
936
  8
VIDITELNE
  6
SLD-PLNÁ
 62
     2
 10
3.325010629
 20
267.4448449443
 30
0.0
  0
VERTEX
  5
937
  8
VIDITELNE
  6
SLD-PLNÁ
 62
     2
 10
3.2157910714
 20
267.5811358957
 30
0.0
  0
SEQEND
  5
938
  8
VIDITELNE
  6
SLD-PLNÁ
 62
     2
  0
ARC
  5
567
  8
VIDITELNE
  6
SLD-PLNÁ
 62
     2
 10
29.4346120058
 20
310.0356968947
 30
0.0
 40
50.00521777774195
 50
239.0508924142
 51
242.575847044
  0
LINE
  5
568
  8
VIDITELNE
  6
SLD-PLNÁ
 62
     2
 10
-26.4035087719
 20
265.65
 30
0.0
 11
-20.5
 21
265.65
 31
0.0
  0
LINE
  5
569
  8
VIDITELNE
  6
SLD-PLNÁ
 62
     2
 10
0.5
 20
265.65
 30
0.0
 11
6.4035087719
 21
265.65
 31
0.0
  0
POLYLINE
  5
56A
  8
VIDITELNE
  6
SLD-PLNÁ
 62
     2
 66
     1
 10
0.0
 20
0.0
 30
0.0
  0
VERTEX
  5
939
  8
VIDITELNE
  6
SLD-PLNÁ
 62
     2
 10
-23.7181035559
 20
267.15
 30
0.0
  0
VERTEX
  5
93A
  8
VIDITELNE
  6
SLD-PLNÁ
 62
     2
 10
-24.6991091165
 20
266.5729198154
 30
0.0
  0
VERTEX
  5
93B
  8
VIDITELNE
  6
SLD-PLNÁ
 62
     2
 10
-26.39259117
 20
265.6557163898
 30
0.0
  0
VERTEX
  5
93C
  8
VIDITELNE
  6
SLD-PLNÁ
 62
     2
 10
-26.4035087719
 20
265.65
 30
0.0
  0
SEQEND
  5
93D
  8
VIDITELNE
  6
SLD-PLNÁ
 62
     2
  0
ARC
  5
56B
  8
VIDITELNE
  6
SLD-PLNÁ
 62
     2
 10
-24.4517462998
 20
268.5129482294
 30
0.0
 40
1.547856437724464
 50
298.2925277769
 51
322.9866003527
  0
ARC
  5
56C
  8
VIDITELNE
  6
SLD-PLNÁ
 62
     2
 10
-23.1555350578
 20
269.5225003143
 30
0.0
 40
1.942299305736776
 50
193.1345219316
 51
268.2222259523
  0
ARC
  5
56D
  8
VIDITELNE
  6
SLD-PLNÁ
 62
     2
 10
3.1555350578
 20
269.5225003143
 30
0.0
 40
1.942299305736776
 50
271.7777740477
 51
346.8654780684
  0
LINE
  5
56E
  8
VIDITELNE
  6
SLD-PLNÁ
 62
     2
 10
-26.4035087719
 20
268.65
 30
0.0
 11
-61.1403508772
 21
268.65
 31
0.0
  0
LINE
  5
56F
  8
VIDITELNE
  6
SLD-PLNÁ
 62
     2
 10
-26.4035087719
 20
265.65
 30
0.0
 11
-26.4035087719
 21
268.65
 31
0.0
  0
LINE
  5
570
  8
VIDITELNE
  6
SLD-PLNÁ
 62
     2
 10
6.4035087719
 20
268.65
 30
0.0
 11
6.4035087719
 21
265.65
 31
0.0
  0
LINE
  5
571
  8
VIDITELNE
  6
SLD-PLNÁ
 62
     2
 10
41.1403508772
 20
268.65
 30
0.0
 11
6.4035087719
 21
268.65
 31
0.0
  0
LINE
  5
572
  8
VIDITELNE
  6
SLD-PLNÁ
 62
     2
 10
6.4035087719
 20
265.65
 30
0.0
 11
45.0
 21
265.65
 31
0.0
  0
LINE
  5
573
  8
VIDITELNE
  6
SLD-PLNÁ
 62
     2
 10
-65.0
 20
265.65
 30
0.0
 11
-26.4035087719
 21
265.65
 31
0.0
  0
POLYLINE
  5
574
  8
VIDITELNE
  6
SLD-PLNÁ
 62
     2
 66
     1
 10
0.0
 20
0.0
 30
0.0
  0
VERTEX
  5
93E
  8
VIDITELNE
  6
SLD-PLNÁ
 62
     2
 10
-25.1960822869
 20
268.65
 30
0.0
  0
VERTEX
  5
93F
  8
VIDITELNE
  6
SLD-PLNÁ
 62
     2
 10
-25.0861610124
 20
268.8601812454
 30
0.0
  0
VERTEX
  5
940
  8
VIDITELNE
  6
SLD-PLNÁ
 62
     2
 10
-25.0470223147
 20
269.0811358957
 30
0.0
  0
SEQEND
  5
941
  8
VIDITELNE
  6
SLD-PLNÁ
 62
     2
  0
ARC
  5
575
  8
VIDITELNE
  6
SLD-PLNÁ
 62
     2
 10
-22.8940542318
 20
269.4400919593
 30
0.0
 40
2.433840272163732
 50
198.943020578
 51
250.209624293
  0
POLYLINE
  5
576
  8
VIDITELNE
  6
SLD-PLNÁ
 62
     2
 66
     1
 10
0.0
 20
0.0
 30
0.0
  0
VERTEX
  5
942
  8
VIDITELNE
  6
SLD-PLNÁ
 62
     2
 10
5.0470223147
 20
269.0811358957
 30
0.0
  0
VERTEX
  5
943
  8
VIDITELNE
  6
SLD-PLNÁ
 62
     2
 10
5.0577499726
 20
268.9448449443
 30
0.0
  0
VERTEX
  5
944
  8
VIDITELNE
  6
SLD-PLNÁ
 62
     2
 10
5.1960822869
 20
268.65
 30
0.0
  0
SEQEND
  5
945
  8
VIDITELNE
  6
SLD-PLNÁ
 62
     2
  0
ARC
  5
577
  8
VIDITELNE
  6
SLD-PLNÁ
 62
     2
 10
2.8940542318
 20
269.4400919593
 30
0.0
 40
2.433840272163731
 50
289.790375707
 51
341.056979422
  0
POLYLINE
  5
578
  8
VIDITELNE
  6
SLD-PLNÁ
 62
     2
 66
     1
 10
0.0
 20
0.0
 30
0.0
  0
VERTEX
  5
946
  8
VIDITELNE
  6
SLD-PLNÁ
 62
     2
 10
-27.0
 20
270.65
 30
0.0
  0
VERTEX
  5
947
  8
VIDITELNE
  6
SLD-PLNÁ
 62
     2
 10
-26.8836303342
 20
270.6115705608
 30
0.0
  0
VERTEX
  5
948
  8
VIDITELNE
  6
SLD-PLNÁ
 62
     2
 10
-26.7717326895
 20
270.497759065
 30
0.0
  0
VERTEX
  5
949
  8
VIDITELNE
  6
SLD-PLNÁ
 62
     2
 10
-26.6686072294
 20
270.3129392246
 30
0.0
  0
VERTEX
  5
94A
  8
VIDITELNE
  6
SLD-PLNÁ
 62
     2
 10
-26.5782170077
 20
270.0642135624
 30
0.0
  0
VERTEX
  5
94B
  8
VIDITELNE
  6
SLD-PLNÁ
 62
     2
 10
-26.5040356699
 20
269.761140466
 30
0.0
  0
VERTEX
  5
94C
  8
VIDITELNE
  6
SLD-PLNÁ
 62
     2
 10
-26.4489139631
 20
269.4153668647
 30
0.0
  0
VERTEX
  5
94D
  8
VIDITELNE
  6
SLD-PLNÁ
 62
     2
 10
-26.4149701836
 20
269.040180644
 30
0.0
  0
VERTEX
  5
94E
  8
VIDITELNE
  6
SLD-PLNÁ
 62
     2
 10
-26.4035087719
 20
268.65
 30
0.0
  0
SEQEND
  5
94F
  8
VIDITELNE
  6
SLD-PLNÁ
 62
     2
  0
LINE
  5
579
  8
VIDITELNE
  6
SLD-PLNÁ
 62
     2
 10
-26.4035087719
 20
268.65
 30
0.0
 11
-25.1960822869
 21
268.65
 31
0.0
  0
POLYLINE
  5
57A
  8
VIDITELNE
  6
SLD-PLNÁ
 62
     2
 66
     1
 10
0.0
 20
0.0
 30
0.0
  0
VERTEX
  5
950
  8
VIDITELNE
  6
SLD-PLNÁ
 62
     2
 10
6.4035087719
 20
268.65
 30
0.0
  0
VERTEX
  5
951
  8
VIDITELNE
  6
SLD-PLNÁ
 62
     2
 10
6.4149701836
 20
269.040180644
 30
0.0
  0
VERTEX
  5
952
  8
VIDITELNE
  6
SLD-PLNÁ
 62
     2
 10
6.4489139631
 20
269.4153668647
 30
0.0
  0
VERTEX
  5
953
  8
VIDITELNE
  6
SLD-PLNÁ
 62
     2
 10
6.5040356699
 20
269.761140466
 30
0.0
  0
VERTEX
  5
954
  8
VIDITELNE
  6
SLD-PLNÁ
 62
     2
 10
6.5782170077
 20
270.0642135624
 30
0.0
  0
VERTEX
  5
955
  8
VIDITELNE
  6
SLD-PLNÁ
 62
     2
 10
6.6686072294
 20
270.3129392246
 30
0.0
  0
VERTEX
  5
956
  8
VIDITELNE
  6
SLD-PLNÁ
 62
     2
 10
6.7717326895
 20
270.497759065
 30
0.0
  0
VERTEX
  5
957
  8
VIDITELNE
  6
SLD-PLNÁ
 62
     2
 10
6.8836303342
 20
270.6115705608
 30
0.0
  0
VERTEX
  5
958
  8
VIDITELNE
  6
SLD-PLNÁ
 62
     2
 10
7.0
 20
270.65
 30
0.0
  0
SEQEND
  5
959
  8
VIDITELNE
  6
SLD-PLNÁ
 62
     2
  0
ARC
  5
57B
  8
VIDITELNE
  6
SLD-PLNÁ
 62
     2
 10
43.0728235684
 20
268.7177131425
 30
0.0
 40
1.933658649233123
 50
92.1583282498
 51
182.0068023097
  0
ARC
  5
57C
  8
VIDITELNE
  6
SLD-PLNÁ
 62
     2
 10
-63.0728235684
 20
268.7177131425
 30
0.0
 40
1.933658649233123
 50
357.9931976903
 51
87.8416717502
  0
LINE
  5
57D
  8
VIDITELNE
  6
SLD-PLNÁ
 62
     2
 10
5.1960822869
 20
268.65
 30
0.0
 11
6.4035087719
 21
268.65
 31
0.0
  0
ARC
  5
57E
  8
VIDITELNE
  6
SLD-PLNÁ
 62
     2
 10
34.2281742885
 20
278.5917258133
 30
0.0
 40
30.68713538496545
 50
198.9032131713
 51
204.9439406828
  0
ARC
  5
57F
  8
VIDITELNE
  6
SLD-PLNÁ
 62
     2
 10
-54.2281742885
 20
278.5917258133
 30
0.0
 40
30.68713538496542
 50
335.0560593172
 51
341.0967868287
  0
LINE
  5
580
  8
VIDITELNE
  6
SLD-PLNÁ
 62
     2
 10
57.0697989934
 20
485.4500133199
 30
0.0
 11
57.0697989934
 21
520.3114096651
 31
0.0
  0
POLYLINE
  5
581
  8
VIDITELNE
  6
SLD-PLNÁ
 62
     2
 66
     1
 10
0.0
 20
0.0
 30
0.0
  0
VERTEX
  5
95A
  8
VIDITELNE
  6
SLD-PLNÁ
 62
     2
 10
57.0697989934
 20
482.147842933
 30
0.0
  0
VERTEX
  5
95B
  8
VIDITELNE
  6
SLD-PLNÁ
 62
     2
 10
57.0892079691
 20
483.2424544046
 30
0.0
  0
VERTEX
  5
95C
  8
VIDITELNE
  6
SLD-PLNÁ
 62
     2
 10
57.0697989934
 20
485.4500133199
 30
0.0
  0
SEQEND
  5
95D
  8
VIDITELNE
  6
SLD-PLNÁ
 62
     2
  0
LINE
  5
582
  8
VIDITELNE
  6
SLD-PLNÁ
 62
     2
 10
57.0697989934
 20
397.9849870732
 30
0.0
 11
57.0697989934
 21
482.147842933
 31
0.0
  0
POLYLINE
  5
583
  8
VIDITELNE
  6
SLD-PLNÁ
 62
     2
 66
     1
 10
0.0
 20
0.0
 30
0.0
  0
VERTEX
  5
95E
  8
VIDITELNE
  6
SLD-PLNÁ
 62
     2
 10
57.0697989934
 20
393.3150129268
 30
0.0
  0
VERTEX
  5
95F
  8
VIDITELNE
  6
SLD-PLNÁ
 62
     2
 10
57.0892079691
 20
394.8444414501
 30
0.0
  0
VERTEX
  5
960
  8
VIDITELNE
  6
SLD-PLNÁ
 62
     2
 10
57.0697989934
 20
397.9849870732
 30
0.0
  0
SEQEND
  5
961
  8
VIDITELNE
  6
SLD-PLNÁ
 62
     2
  0
LINE
  5
584
  8
VIDITELNE
  6
SLD-PLNÁ
 62
     2
 10
57.0697989934
 20
309.152157067
 30
0.0
 11
57.0697989934
 21
393.3150129268
 31
0.0
  0
POLYLINE
  5
585
  8
VIDITELNE
  6
SLD-PLNÁ
 62
     2
 66
     1
 10
0.0
 20
0.0
 30
0.0
  0
VERTEX
  5
962
  8
VIDITELNE
  6
SLD-PLNÁ
 62
     2
 10
57.0697989934
 20
305.8499866801
 30
0.0
  0
VERTEX
  5
963
  8
VIDITELNE
  6
SLD-PLNÁ
 62
     2
 10
57.0892079691
 20
306.9183137689
 30
0.0
  0
VERTEX
  5
964
  8
VIDITELNE
  6
SLD-PLNÁ
 62
     2
 10
57.0697989934
 20
309.152157067
 30
0.0
  0
SEQEND
  5
965
  8
VIDITELNE
  6
SLD-PLNÁ
 62
     2
  0
LINE
  5
586
  8
VIDITELNE
  6
SLD-PLNÁ
 62
     2
 10
57.0697989934
 20
270.9885903349
 30
0.0
 11
57.0697989934
 21
305.8499866801
 31
0.0
  0
LINE
  5
587
  8
VIDITELNE
  6
SLD-PLNÁ
 62
     2
 10
135.0
 20
270.65
 30
0.0
 11
135.0
 21
520.65
 31
0.0
  0
LINE
  5
588
  8
VIDITELNE
  6
SLD-PLNÁ
 62
     2
 10
120.0
 20
272.65
 30
0.0
 11
120.0
 21
518.65
 31
0.0
  0
ARC
  5
589
  8
VIDITELNE
  6
SLD-PLNÁ
 62
     2
 10
57.5411458116
 20
372.5055174164
 30
0.0
 40
25.48382902577017
 50
86.7182361343
 51
91.0597984854
  0
LINE
  5
58A
  8
VIDITELNE
  6
SLD-PLNÁ
 62
     2
 10
59.0
 20
397.9475551939
 30
0.0
 11
59.0
 21
393.3524448061
 31
0.0
  0
ARC
  5
58B
  8
VIDITELNE
  6
SLD-PLNÁ
 62
     2
 10
57.5411458116
 20
418.7944825835
 30
0.0
 40
25.48382902567382
 50
268.9402015146
 51
273.2817638657
  0
ARC
  5
58C
  8
VIDITELNE
  6
SLD-PLNÁ
 62
     2
 10
57.2808038361
 20
480.4048217291
 30
0.0
 40
1.755746553724477
 50
11.7114058078
 51
96.9024654221
  0
LINE
  5
58D
  8
VIDITELNE
  6
SLD-PLNÁ
 62
     2
 10
59.0
 20
480.7612070696
 30
0.0
 11
59.0
 21
397.9475551939
 31
0.0
  0
LINE
  5
58E
  8
VIDITELNE
  6
SLD-PLNÁ
 62
     2
 10
59.0
 20
393.3524448061
 30
0.0
 11
59.0
 21
310.5387929304
 31
0.0
  0
ARC
  5
58F
  8
VIDITELNE
  6
SLD-PLNÁ
 62
     2
 10
57.2808038361
 20
310.8951782709
 30
0.0
 40
1.755746553723831
 50
263.0975345779
 51
348.2885941922
  0
LINE
  5
590
  8
VIDITELNE
  6
SLD-PLNÁ
 62
     2
 10
69.0
 20
402.65
 30
0.0
 11
69.0
 21
388.65
 31
0.0
  0
ARC
  5
591
  8
VIDITELNE
  6
SLD-PLNÁ
 62
     2
 10
57.2605318293
 20
483.6919429682
 30
0.0
 40
1.768386376468022
 50
10.3759610839
 51
96.1917952532
  0
LINE
  5
592
  8
VIDITELNE
  6
SLD-PLNÁ
 62
     2
 10
59.0
 20
484.0104407852
 30
0.0
 11
59.0
 21
480.7612070696
 31
0.0
  0
LINE
  5
593
  8
VIDITELNE
  6
SLD-PLNÁ
 62
     2
 10
59.0
 20
310.5387929304
 30
0.0
 11
59.0
 21
307.2895592148
 31
0.0
  0
ARC
  5
594
  8
VIDITELNE
  6
SLD-PLNÁ
 62
     2
 10
57.2605318293
 20
307.6080570318
 30
0.0
 40
1.768386376468043
 50
263.8082047468
 51
349.6240389161
  0
LINE
  5
595
  8
VIDITELNE
  6
SLD-PLNÁ
 62
     2
 10
69.0
 20
483.9672798365
 30
0.0
 11
69.0
 21
469.9672798365
 31
0.0
  0
LINE
  5
596
  8
VIDITELNE
  6
SLD-PLNÁ
 62
     2
 10
69.0
 20
321.3327201635
 30
0.0
 11
69.0
 21
307.3327201635
 31
0.0
  0
ARC
  5
597
  8
VIDITELNE
  6
SLD-PLNÁ
 62
     2
 10
57.0001898538
 20
518.3128113521
 30
0.0
 40
1.999810153232729
 50
0.0047900837
 51
88.005252791
  0
LINE
  5
598
  8
VIDITELNE
  6
SLD-PLNÁ
 62
     2
 10
59.0
 20
518.3129785417
 30
0.0
 11
59.0
 21
484.0104407852
 31
0.0
  0
ARC
  5
599
  8
VIDITELNE
  6
SLD-PLNÁ
 62
     2
 10
57.0001898538
 20
272.9871886479
 30
0.0
 40
1.999810153231874
 50
271.9947472089
 51
359.9952099163
  0
LINE
  5
59A
  8
VIDITELNE
  6
SLD-PLNÁ
 62
     2
 10
59.0
 20
307.2895592148
 30
0.0
 11
59.0
 21
272.9870214583
 31
0.0
  0
LINE
  5
59B
  8
VIDITELNE
  6
SLD-PLNÁ
 62
     2
 10
59.0
 20
518.6472117819
 30
0.0
 11
59.0
 21
518.3129785417
 31
0.0
  0
LINE
  5
59C
  8
VIDITELNE
  6
SLD-PLNÁ
 62
     2
 10
69.0
 20
517.65
 30
0.0
 11
69.0
 21
503.65
 31
0.0
  0
LINE
  5
59D
  8
VIDITELNE
  6
SLD-PLNÁ
 62
     2
 10
59.0
 20
272.9870214583
 30
0.0
 11
59.0
 21
272.65
 31
0.0
  0
LINE
  5
59E
  8
VIDITELNE
  6
SLD-PLNÁ
 62
     2
 10
69.0
 20
287.65
 30
0.0
 11
69.0
 21
273.65
 31
0.0
  0
LINE
  5
59F
  8
VIDITELNE
  6
SLD-PLNÁ
 62
     2
 10
-79.0
 20
271.0341284644
 30
0.0
 11
-79.0
 21
520.2658715356
 31
0.0
  0
LINE
  5
5A0
  8
VIDITELNE
  6
SLD-PLNÁ
 62
     2
 10
-89.0
 20
388.6500008432
 30
0.0
 11
-89.0
 21
402.65
 31
0.0
  0
LINE
  5
5A1
  8
VIDITELNE
  6
SLD-PLNÁ
 62
     2
 10
-90.5
 20
428.2771676757
 30
0.0
 11
-79.0
 21
438.6167598754
 31
0.0
  0
LINE
  5
5A2
  8
VIDITELNE
  6
SLD-PLNÁ
 62
     2
 10
-90.5
 20
428.2771676757
 30
0.0
 11
-90.5
 21
435.6682039358
 31
0.0
  0
LINE
  5
5A3
  8
VIDITELNE
  6
SLD-PLNÁ
 62
     2
 10
-79.0
 20
446.0077961355
 30
0.0
 11
-90.5
 21
435.6682039358
 31
0.0
  0
LINE
  5
5A4
  8
VIDITELNE
  6
SLD-PLNÁ
 62
     2
 10
-79.0
 20
430.8201128387
 30
0.0
 11
-90.5
 21
428.2771676757
 31
0.0
  0
LINE
  5
5A5
  8
VIDITELNE
  6
SLD-PLNÁ
 62
     2
 10
-79.0
 20
352.6832401246
 30
0.0
 11
-90.5
 21
363.0228323243
 31
0.0
  0
LINE
  5
5A6
  8
VIDITELNE
  6
SLD-PLNÁ
 62
     2
 10
-90.5
 20
363.0228323243
 30
0.0
 11
-79.0
 21
360.4798871613
 31
0.0
  0
LINE
  5
5A7
  8
VIDITELNE
  6
SLD-PLNÁ
 62
     2
 10
-90.5
 20
355.6317960642
 30
0.0
 11
-79.0
 21
345.2922038645
 31
0.0
  0
LINE
  5
5A8
  8
VIDITELNE
  6
SLD-PLNÁ
 62
     2
 10
-90.5
 20
355.6317960642
 30
0.0
 11
-90.5
 21
363.0228323243
 31
0.0
  0
LINE
  5
5A9
  8
VIDITELNE
  6
SLD-PLNÁ
 62
     2
 10
-90.5
 20
363.0228323243
 30
0.0
 11
-90.5
 21
428.2771676757
 31
0.0
  0
LINE
  5
5AA
  8
VIDITELNE
  6
SLD-PLNÁ
 62
     2
 10
-79.0
 20
487.9491996655
 30
0.0
 11
-84.5857452259
 21
484.9672798365
 31
0.0
  0
LINE
  5
5AB
  8
VIDITELNE
  6
SLD-PLNÁ
 62
     2
 10
-89.0
 20
482.6107538387
 30
0.0
 11
-90.5
 21
481.8099869647
 31
0.0
  0
LINE
  5
5AC
  8
VIDITELNE
  6
SLD-PLNÁ
 62
     2
 10
-90.5
 20
435.6682039358
 30
0.0
 11
-90.5
 21
481.8099869647
 31
0.0
  0
LINE
  5
5AD
  8
VIDITELNE
  6
SLD-PLNÁ
 62
     2
 10
-90.5
 20
309.4900130353
 30
0.0
 11
-89.0
 21
308.6892461613
 31
0.0
  0
LINE
  5
5AE
  8
VIDITELNE
  6
SLD-PLNÁ
 62
     2
 10
-84.5857452259
 20
306.3327201635
 30
0.0
 11
-79.0
 21
303.3508003345
 31
0.0
  0
LINE
  5
5AF
  8
VIDITELNE
  6
SLD-PLNÁ
 62
     2
 10
-90.5
 20
309.4900130353
 30
0.0
 11
-90.5
 21
355.6317960642
 31
0.0
  0
LINE
  5
5B0
  8
VIDITELNE
  6
SLD-PLNÁ
 62
     2
 10
-89.0
 20
307.3327210067
 30
0.0
 11
-89.0
 21
321.3327201635
 31
0.0
  0
LINE
  5
5B1
  8
VIDITELNE
  6
SLD-PLNÁ
 62
     2
 10
-89.0
 20
469.9672806796
 30
0.0
 11
-89.0
 21
483.9672798365
 31
0.0
  0
LINE
  5
5B2
  8
VIDITELNE
  6
SLD-PLNÁ
 62
     2
 10
-94.0
 20
330.65
 30
0.0
 11
-94.0
 21
460.65
 31
0.0
  0
LINE
  5
5B3
  8
VIDITELNE
  6
SLD-PLNÁ
 62
     2
 10
-90.5
 20
306.4285455764
 30
0.0
 11
-79.0
 21
281.4665618585
 31
0.0
  0
LINE
  5
5B4
  8
VIDITELNE
  6
SLD-PLNÁ
 62
     2
 10
-79.0
 20
284.5280293174
 30
0.0
 11
-90.5
 21
309.4900130353
 31
0.0
  0
LINE
  5
5B5
  8
VIDITELNE
  6
SLD-PLNÁ
 62
     2
 10
-90.5
 20
306.4285455764
 30
0.0
 11
-90.5
 21
309.4900130353
 31
0.0
  0
LINE
  5
5B6
  8
VIDITELNE
  6
SLD-PLNÁ
 62
     2
 10
-90.5
 20
481.8099869647
 30
0.0
 11
-79.0
 21
506.7719706826
 31
0.0
  0
LINE
  5
5B7
  8
VIDITELNE
  6
SLD-PLNÁ
 62
     2
 10
-79.0
 20
509.8334381415
 30
0.0
 11
-90.5
 21
484.8714544236
 31
0.0
  0
LINE
  5
5B8
  8
VIDITELNE
  6
SLD-PLNÁ
 62
     2
 10
-90.5
 20
481.8099869647
 30
0.0
 11
-90.5
 21
484.8714544236
 31
0.0
  0
LINE
  5
5B9
  8
VIDITELNE
  6
SLD-PLNÁ
 62
     2
 10
-90.5
 20
300.65
 30
0.0
 11
-90.5
 21
306.4285455764
 31
0.0
  0
LINE
  5
5BA
  8
VIDITELNE
  6
SLD-PLNÁ
 62
     2
 10
-90.5
 20
484.8714544236
 30
0.0
 11
-90.5
 21
490.65
 31
0.0
  0
LINE
  5
5BB
  8
VIDITELNE
  6
SLD-PLNÁ
 62
     2
 10
-89.0
 20
273.6500008432
 30
0.0
 11
-89.0
 21
287.65
 31
0.0
  0
LINE
  5
5BC
  8
VIDITELNE
  6
SLD-PLNÁ
 62
     2
 10
-89.0
 20
503.6500008432
 30
0.0
 11
-89.0
 21
517.65
 31
0.0
  0
LINE
  5
5BD
  8
VIDITELNE
  6
SLD-PLNÁ
 62
     2
 10
35.7031939779
 20
257.65
 30
0.0
 11
42.2892562945
 21
257.65
 31
0.0
  0
LINE
  5
5BE
  8
VIDITELNE
  6
SLD-PLNÁ
 62
     2
 10
-9.1492731765
 20
257.65
 30
0.0
 11
34.8524671544
 21
257.65
 31
0.0
  0
LINE
  5
5BF
  8
VIDITELNE
  6
SLD-PLNÁ
 62
     2
 10
-54.8524671544
 20
257.65
 30
0.0
 11
-10.8507268235
 21
257.65
 31
0.0
  0
LINE
  5
5C0
  8
VIDITELNE
  6
SLD-PLNÁ
 62
     2
 10
-62.2892562945
 20
257.65
 30
0.0
 11
-55.7031939779
 21
257.65
 31
0.0
  0
LINE
  5
5C1
  8
VIDITELNE
  6
SLD-PLNÁ
 62
     2
 10
-5.0
 20
252.35
 30
0.0
 11
-5.0
 21
257.65
 31
0.0
  0
LINE
  5
5C2
  8
VIDITELNE
  6
SLD-PLNÁ
 62
     2
 10
-10.0
 20
252.35
 30
0.0
 11
-10.0
 21
257.65
 31
0.0
  0
LINE
  5
5C3
  8
VIDITELNE
  6
SLD-PLNÁ
 62
     2
 10
-9.1492731765
 20
257.65
 30
0.0
 11
-10.0
 21
257.65
 31
0.0
  0
LINE
  5
5C4
  8
VIDITELNE
  6
SLD-PLNÁ
 62
     2
 10
-5.0
 20
252.35
 30
0.0
 11
-10.0
 21
252.35
 31
0.0
  0
LINE
  5
5C5
  8
VIDITELNE
  6
SLD-PLNÁ
 62
     2
 10
-15.0
 20
252.35
 30
0.0
 11
-15.0
 21
257.65
 31
0.0
  0
LINE
  5
5C6
  8
VIDITELNE
  6
SLD-PLNÁ
 62
     2
 10
-10.0
 20
257.65
 30
0.0
 11
-10.8507268235
 21
257.65
 31
0.0
  0
LINE
  5
5C7
  8
VIDITELNE
  6
SLD-PLNÁ
 62
     2
 10
-10.0
 20
252.35
 30
0.0
 11
-15.0
 21
252.35
 31
0.0
  0
LINE
  5
5C8
  8
VIDITELNE
  6
SLD-PLNÁ
 62
     2
 10
-50.7031939779
 20
252.35
 30
0.0
 11
-50.7031939779
 21
257.65
 31
0.0
  0
LINE
  5
5C9
  8
VIDITELNE
  6
SLD-PLNÁ
 62
     2
 10
-50.7031939779
 20
252.35
 30
0.0
 11
-55.7031939779
 21
252.35
 31
0.0
  0
LINE
  5
5CA
  8
VIDITELNE
  6
SLD-PLNÁ
 62
     2
 10
-55.7031939779
 20
252.35
 30
0.0
 11
-55.7031939779
 21
257.65
 31
0.0
  0
LINE
  5
5CB
  8
VIDITELNE
  6
SLD-PLNÁ
 62
     2
 10
-54.8524671544
 20
257.65
 30
0.0
 11
-55.7031939779
 21
257.65
 31
0.0
  0
LINE
  5
5CC
  8
VIDITELNE
  6
SLD-PLNÁ
 62
     2
 10
-45.7031939779
 20
252.35
 30
0.0
 11
-45.7031939779
 21
257.65
 31
0.0
  0
LINE
  5
5CD
  8
VIDITELNE
  6
SLD-PLNÁ
 62
     2
 10
-45.7031939779
 20
252.35
 30
0.0
 11
-50.7031939779
 21
252.35
 31
0.0
  0
LINE
  5
5CE
  8
VIDITELNE
  6
SLD-PLNÁ
 62
     2
 10
35.7031939779
 20
252.35
 30
0.0
 11
35.7031939779
 21
257.65
 31
0.0
  0
LINE
  5
5CF
  8
VIDITELNE
  6
SLD-PLNÁ
 62
     2
 10
35.7031939779
 20
252.35
 30
0.0
 11
30.7031939779
 21
252.35
 31
0.0
  0
LINE
  5
5D0
  8
VIDITELNE
  6
SLD-PLNÁ
 62
     2
 10
30.7031939779
 20
252.35
 30
0.0
 11
30.7031939779
 21
257.65
 31
0.0
  0
LINE
  5
5D1
  8
VIDITELNE
  6
SLD-PLNÁ
 62
     2
 10
35.7031939779
 20
257.65
 30
0.0
 11
34.8524671544
 21
257.65
 31
0.0
  0
LINE
  5
5D2
  8
VIDITELNE
  6
SLD-PLNÁ
 62
     2
 10
25.7031939779
 20
252.35
 30
0.0
 11
25.7031939779
 21
257.65
 31
0.0
  0
LINE
  5
5D3
  8
VIDITELNE
  6
SLD-PLNÁ
 62
     2
 10
30.7031939779
 20
252.35
 30
0.0
 11
25.7031939779
 21
252.35
 31
0.0
  0
LINE
  5
5D4
  8
VIDITELNE
  6
SLD-PLNÁ
 62
     2
 10
-134.6483548705
 20
537.5802010066
 30
0.0
 11
114.6483548705
 21
537.5802010066
 31
0.0
  0
LINE
  5
5D5
  8
VIDITELNE
  6
SLD-PLNÁ
 62
     2
 10
-65.2481015383
 20
532.7546984901
 30
0.0
 11
45.2481015383
 21
532.7546984901
 31
0.0
  0
LINE
  5
5D6
  8
VIDITELNE
  6
SLD-PLNÁ
 62
     2
 10
-20.5
 20
264.65
 30
0.0
 11
0.5
 21
264.65
 31
0.0
  0
ARC
  5
5D7
  8
VIDITELNE
  6
SLD-PLNÁ
 62
     2
 10
-61.2573344869
 20
272.1930054716
 30
0.0
 40
3.544936238730677
 50
205.8024949382
 51
271.8911156085
  0
ARC
  5
5D8
  8
VIDITELNE
  6
SLD-PLNÁ
 62
     2
 10
41.2566761971
 20
272.1963872092
 30
0.0
 40
3.548294494215403
 50
268.1213102984
 51
334.1630639129
  0
ARC
  5
5D9
  8
VIDITELNE
  6
SLD-PLNÁ
 62
     2
 10
41.2573344869
 20
519.1069945284
 30
0.0
 40
3.544936238731066
 50
25.8024949382
 51
91.8911156084
  0
ARC
  5
5DA
  8
VIDITELNE
  6
SLD-PLNÁ
 62
     2
 10
-61.2566761971
 20
519.1036127908
 30
0.0
 40
3.548294494215236
 50
88.1213102984
 51
154.1630639129
  0
LINE
  5
5DB
  8
VIDITELNE
  6
SLD-PLNÁ
 62
     2
 10
57.0697989934
 20
520.3114096651
 30
0.0
 11
57.0892079691
 21
520.3299955304
 31
0.0
  0
LINE
  5
5DC
  8
VIDITELNE
  6
SLD-PLNÁ
 62
     2
 10
57.0842297993
 20
270.9747715215
 30
0.0
 11
57.0697989934
 21
270.9885903349
 31
0.0
  0
LINE
  5
5DD
  8
VIDITELNE
  6
SLD-PLNÁ
 62
     2
 10
122.0
 20
520.65
 30
0.0
 11
122.0
 21
270.65
 31
0.0
  0
LINE
  5
5DE
  8
VIDITELNE
  6
SLD-PLNÁ
 62
     2
 10
68.0
 20
387.65
 30
0.0
 11
68.0
 21
403.65
 31
0.0
  0
LINE
  5
5DF
  8
VIDITELNE
  6
SLD-PLNÁ
 62
     2
 10
119.1471528727
 20
395.65
 30
0.0
 11
119.1471528727
 21
484.5600938499
 31
0.0
  0
LINE
  5
5E0
  8
VIDITELNE
  6
SLD-PLNÁ
 62
     2
 10
119.1471528727
 20
306.7399061501
 30
0.0
 11
119.1471528727
 21
395.65
 31
0.0
  0
LINE
  5
5E1
  8
VIDITELNE
  6
SLD-PLNÁ
 62
     2
 10
68.0
 20
468.9672798365
 30
0.0
 11
68.0
 21
484.9672798365
 31
0.0
  0
LINE
  5
5E2
  8
VIDITELNE
  6
SLD-PLNÁ
 62
     2
 10
68.0
 20
306.3327201635
 30
0.0
 11
68.0
 21
322.3327201635
 31
0.0
  0
LINE
  5
5E3
  8
VIDITELNE
  6
SLD-PLNÁ
 62
     2
 10
86.2913882374
 20
329.7457602214
 30
0.0
 11
86.2913882374
 21
461.5542397786
 31
0.0
  0
LINE
  5
5E4
  8
VIDITELNE
  6
SLD-PLNÁ
 62
     2
 10
61.0
 20
387.65
 30
0.0
 11
61.0
 21
330.65
 31
0.0
  0
LINE
  5
5E5
  8
VIDITELNE
  6
SLD-PLNÁ
 62
     2
 10
61.0
 20
460.65
 30
0.0
 11
61.0
 21
403.65
 31
0.0
  0
LINE
  5
5E6
  8
VIDITELNE
  6
SLD-PLNÁ
 62
     2
 10
83.4235060556
 20
330.65
 30
0.0
 11
83.4235060556
 21
460.65
 31
0.0
  0
LINE
  5
5E7
  8
VIDITELNE
  6
SLD-PLNÁ
 62
     2
 10
68.0
 20
502.65
 30
0.0
 11
68.0
 21
518.65
 31
0.0
  0
LINE
  5
5E8
  8
VIDITELNE
  6
SLD-PLNÁ
 62
     2
 10
68.0
 20
272.65
 30
0.0
 11
68.0
 21
288.65
 31
0.0
  0
LINE
  5
5E9
  8
VIDITELNE
  6
SLD-PLNÁ
 62
     2
 10
-88.0
 20
403.65
 30
0.0
 11
-88.0
 21
387.65
 31
0.0
  0
LINE
  5
5EA
  8
VIDITELNE
  6
SLD-PLNÁ
 62
     2
 10
-88.0
 20
322.3327201635
 30
0.0
 11
-88.0
 21
306.3327201635
 31
0.0
  0
LINE
  5
5EB
  8
VIDITELNE
  6
SLD-PLNÁ
 62
     2
 10
-88.0
 20
484.9672798365
 30
0.0
 11
-88.0
 21
468.9672798365
 31
0.0
  0
LINE
  5
5EC
  8
VIDITELNE
  6
SLD-PLNÁ
 62
     2
 10
-88.0
 20
288.65
 30
0.0
 11
-88.0
 21
272.65
 31
0.0
  0
LINE
  5
5ED
  8
VIDITELNE
  6
SLD-PLNÁ
 62
     2
 10
-88.0
 20
518.65
 30
0.0
 11
-88.0
 21
502.65
 31
0.0
  0
LINE
  5
5EE
  8
VIDITELNE
  6
SLD-PLNÁ
 62
     2
 10
-64.2880379485
 20
259.5802010066
 30
0.0
 11
44.2880379485
 21
259.5802010066
 31
0.0
  0
LINE
  5
5EF
  8
VIDITELNE
  6
SLD-PLNÁ
 62
     2
 10
115.0
 20
-547.65
 30
0.0
 11
114.6483548705
 21
-537.5802010066
 31
0.0
  0
LINE
  5
5F0
  8
VIDITELNE
  6
SLD-PLNÁ
 62
     2
 10
-134.6483548705
 20
-537.5802010066
 30
0.0
 11
-135.0
 21
-547.65
 31
0.0
  0
ARC
  5
5F1
  8
VIDITELNE
  6
SLD-PLNÁ
 62
     2
 10
112.6495732165
 20
-537.65
 30
0.0
 40
1.999999999999984
 50
2.0
 51
90.0
  0
ARC
  5
5F2
  8
VIDITELNE
  6
SLD-PLNÁ
 62
     2
 10
-132.6495732165
 20
-537.65
 30
0.0
 40
2.000000000000227
 50
90.0
 51
178.0
  0
ARC
  5
5F3
  8
VIDITELNE
  6
SLD-PLNÁ
 62
     2
 10
48.2462740193
 20
-532.65
 30
0.0
 40
3.000000000000114
 50
182.0
 51
270.0
  0
ARC
  5
5F4
  8
VIDITELNE
  6
SLD-PLNÁ
 62
     2
 10
-68.2462740193
 20
-532.65
 30
0.0
 40
3.000000000000003
 50
270.0
 51
358.0
  0
LINE
  5
5F5
  8
VIDITELNE
  6
SLD-PLNÁ
 62
     2
 10
45.2481015383
 20
-532.7546984901
 30
0.0
 11
45.0
 21
-525.65
 31
0.0
  0
LINE
  5
5F6
  8
VIDITELNE
  6
SLD-PLNÁ
 62
     2
 10
-65.0
 20
-525.65
 30
0.0
 11
-65.2481015383
 21
-532.7546984901
 31
0.0
  0
LINE
  5
5F7
  8
VIDITELNE
  6
SLD-PLNÁ
 62
     2
 10
-65.0
 20
-518.65
 30
0.0
 11
-65.0
 21
-525.65
 31
0.0
  0
LINE
  5
5F8
  8
VIDITELNE
  6
SLD-PLNÁ
 62
     2
 10
-65.0
 20
-265.65
 30
0.0
 11
-65.0
 21
-272.65
 31
0.0
  0
LINE
  5
5F9
  8
VIDITELNE
  6
SLD-PLNÁ
 62
     2
 10
45.0
 20
-272.65
 30
0.0
 11
45.0
 21
-265.65
 31
0.0
  0
LINE
  5
5FA
  8
VIDITELNE
  6
SLD-PLNÁ
 62
     2
 10
45.0
 20
-525.65
 30
0.0
 11
45.0
 21
-518.65
 31
0.0
  0
LINE
  5
5FB
  8
VIDITELNE
  6
SLD-PLNÁ
 62
     2
 10
45.0
 20
-520.65
 30
0.0
 11
48.0
 21
-520.65
 31
0.0
  0
LINE
  5
5FC
  8
VIDITELNE
  6
SLD-PLNÁ
 62
     2
 10
-68.0
 20
-520.65
 30
0.0
 11
-65.0
 21
-520.65
 31
0.0
  0
LINE
  5
5FD
  8
VIDITELNE
  6
SLD-PLNÁ
 62
     2
 10
-65.0
 20
-270.65
 30
0.0
 11
-68.0
 21
-270.65
 31
0.0
  0
LINE
  5
5FE
  8
VIDITELNE
  6
SLD-PLNÁ
 62
     2
 10
48.0
 20
-270.65
 30
0.0
 11
45.0
 21
-270.65
 31
0.0
  0
ARC
  5
5FF
  8
VIDITELNE
  6
SLD-PLNÁ
 62
     2
 10
-94.0
 20
-426.15
 30
0.0
 40
2.0
 50
180.0
 51
270.0
  0
ARC
  5
600
  8
VIDITELNE
  6
SLD-PLNÁ
 62
     2
 10
-94.0
 20
-365.15
 30
0.0
 40
2.0
 50
90.0
 51
180.0
  0
LINE
  5
601
  8
VIDITELNE
  6
SLD-PLNÁ
 62
     2
 10
122.0
 20
-520.65
 30
0.0
 11
135.0
 21
-520.65
 31
0.0
  0
LINE
  5
602
  8
VIDITELNE
  6
SLD-PLNÁ
 62
     2
 10
135.0
 20
-270.65
 30
0.0
 11
122.0
 21
-270.65
 31
0.0
  0
ARC
  5
603
  8
VIDITELNE
  6
SLD-PLNÁ
 62
     2
 10
122.0
 20
-518.65
 30
0.0
 40
2.0
 50
180.0
 51
270.0
  0
ARC
  5
604
  8
VIDITELNE
  6
SLD-PLNÁ
 62
     2
 10
122.0
 20
-272.65
 30
0.0
 40
2.0
 50
90.0
 51
180.0
  0
LINE
  5
605
  8
VIDITELNE
  6
SLD-PLNÁ
 62
     2
 10
48.0
 20
-520.65
 30
0.0
 11
57.0844928937
 21
-520.3327625177
 31
0.0
  0
LINE
  5
606
  8
VIDITELNE
  6
SLD-PLNÁ
 62
     2
 10
57.0844928937
 20
-270.9672374823
 30
0.0
 11
48.0
 21
-270.65
 31
0.0
  0
LINE
  5
607
  8
VIDITELNE
  6
SLD-PLNÁ
 62
     2
 10
59.0
 20
-403.65
 30
0.0
 11
68.0
 21
-403.65
 31
0.0
  0
LINE
  5
608
  8
VIDITELNE
  6
SLD-PLNÁ
 62
     2
 10
68.0
 20
-387.65
 30
0.0
 11
59.0
 21
-387.65
 31
0.0
  0
ARC
  5
609
  8
VIDITELNE
  6
SLD-PLNÁ
 62
     2
 10
68.0
 20
-402.65
 30
0.0
 40
1.0
 50
270.0
 51
0.0
  0
ARC
  5
60A
  8
VIDITELNE
  6
SLD-PLNÁ
 62
     2
 10
68.0
 20
-388.65
 30
0.0
 40
1.0
 50
0.0
 51
90.0
  0
ARC
  5
60B
  8
VIDITELNE
  6
SLD-PLNÁ
 62
     2
 10
118.0
 20
-486.1983979384
 30
0.0
 40
2.0
 50
0.0
 51
55.0
  0
ARC
  5
60C
  8
VIDITELNE
  6
SLD-PLNÁ
 62
     2
 10
118.0
 20
-305.1016020616
 30
0.0
 40
2.000000000000043
 50
305.0
 51
0.0
  0
LINE
  5
60D
  8
VIDITELNE
  6
SLD-PLNÁ
 62
     2
 10
59.0
 20
-322.3327201635
 30
0.0
 11
68.0
 21
-322.3327201635
 31
0.0
  0
LINE
  5
60E
  8
VIDITELNE
  6
SLD-PLNÁ
 62
     2
 10
68.0
 20
-306.3327201635
 30
0.0
 11
59.0
 21
-306.3327201635
 31
0.0
  0
ARC
  5
60F
  8
VIDITELNE
  6
SLD-PLNÁ
 62
     2
 10
68.0
 20
-321.3327201635
 30
0.0
 40
1.0
 50
270.0
 51
0.0
  0
ARC
  5
610
  8
VIDITELNE
  6
SLD-PLNÁ
 62
     2
 10
68.0
 20
-307.3327201635
 30
0.0
 40
1.0
 50
0.0
 51
90.0
  0
LINE
  5
611
  8
VIDITELNE
  6
SLD-PLNÁ
 62
     2
 10
59.0
 20
-484.9672798365
 30
0.0
 11
68.0
 21
-484.9672798365
 31
0.0
  0
LINE
  5
612
  8
VIDITELNE
  6
SLD-PLNÁ
 62
     2
 10
68.0
 20
-468.9672798365
 30
0.0
 11
59.0
 21
-468.9672798365
 31
0.0
  0
ARC
  5
613
  8
VIDITELNE
  6
SLD-PLNÁ
 62
     2
 10
68.0
 20
-483.9672798365
 30
0.0
 40
1.0
 50
270.0
 51
0.0
  0
ARC
  5
614
  8
VIDITELNE
  6
SLD-PLNÁ
 62
     2
 10
68.0
 20
-469.9672798365
 30
0.0
 40
1.0
 50
0.0
 51
90.0
  0
LINE
  5
615
  8
VIDITELNE
  6
SLD-PLNÁ
 62
     2
 10
119.1471528727
 20
-306.7399061501
 30
0.0
 11
86.2913882374
 21
-329.7457602214
 31
0.0
  0
LINE
  5
616
  8
VIDITELNE
  6
SLD-PLNÁ
 62
     2
 10
86.2913882374
 20
-461.5542397786
 30
0.0
 11
119.1471528727
 21
-484.5600938499
 31
0.0
  0
ARC
  5
617
  8
VIDITELNE
  6
SLD-PLNÁ
 62
     2
 10
61.0
 20
-328.65
 30
0.0
 40
2.0
 50
180.0
 51
270.0
  0
ARC
  5
618
  8
VIDITELNE
  6
SLD-PLNÁ
 62
     2
 10
61.0
 20
-462.65
 30
0.0
 40
2.0
 50
90.0
 51
180.0
  0
ARC
  5
619
  8
VIDITELNE
  6
SLD-PLNÁ
 62
     2
 10
83.4235060556
 20
-465.65
 30
0.0
 40
5.000000000000057
 50
55.0
 51
90.0
  0
ARC
  5
61A
  8
VIDITELNE
  6
SLD-PLNÁ
 62
     2
 10
83.4235060556
 20
-325.65
 30
0.0
 40
5.00000000000004
 50
270.0
 51
305.0
  0
LINE
  5
61B
  8
VIDITELNE
  6
SLD-PLNÁ
 62
     2
 10
61.0
 20
-460.65
 30
0.0
 11
83.4235060556
 21
-460.65
 31
0.0
  0
LINE
  5
61C
  8
VIDITELNE
  6
SLD-PLNÁ
 62
     2
 10
83.4235060556
 20
-330.65
 30
0.0
 11
61.0
 21
-330.65
 31
0.0
  0
LINE
  5
61D
  8
VIDITELNE
  6
SLD-PLNÁ
 62
     2
 10
59.0
 20
-288.65
 30
0.0
 11
68.0
 21
-288.65
 31
0.0
  0
LINE
  5
61E
  8
VIDITELNE
  6
SLD-PLNÁ
 62
     2
 10
68.0
 20
-272.65
 30
0.0
 11
59.0
 21
-272.65
 31
0.0
  0
ARC
  5
61F
  8
VIDITELNE
  6
SLD-PLNÁ
 62
     2
 10
68.0
 20
-287.65
 30
0.0
 40
1.0
 50
270.0
 51
0.0
  0
ARC
  5
620
  8
VIDITELNE
  6
SLD-PLNÁ
 62
     2
 10
68.0
 20
-273.65
 30
0.0
 40
1.0
 50
0.0
 51
90.0
  0
ARC
  5
621
  8
VIDITELNE
  6
SLD-PLNÁ
 62
     2
 10
68.0
 20
-517.65
 30
0.0
 40
1.0
 50
270.0
 51
0.0
  0
ARC
  5
622
  8
VIDITELNE
  6
SLD-PLNÁ
 62
     2
 10
68.0
 20
-503.65
 30
0.0
 40
1.0
 50
0.0
 51
90.0
  0
LINE
  5
623
  8
VIDITELNE
  6
SLD-PLNÁ
 62
     2
 10
59.0
 20
-518.65
 30
0.0
 11
68.0
 21
-518.65
 31
0.0
  0
LINE
  5
624
  8
VIDITELNE
  6
SLD-PLNÁ
 62
     2
 10
68.0
 20
-502.65
 30
0.0
 11
59.0
 21
-502.65
 31
0.0
  0
ARC
  5
625
  8
VIDITELNE
  6
SLD-PLNÁ
 62
     2
 10
57.1186147014
 20
-272.8377951441
 30
0.0
 40
1.862866478262026
 50
2.3951697899
 51
91.0599705
  0
ARC
  5
626
  8
VIDITELNE
  6
SLD-PLNÁ
 62
     2
 10
57.0976064934
 20
-518.4417605277
 30
0.0
 40
1.883884728211408
 50
269.5929807368
 51
357.0364006392
  0
LINE
  5
627
  8
VIDITELNE
  6
SLD-PLNÁ
 62
     2
 10
-68.0
 20
-270.65
 30
0.0
 11
-79.0
 21
-271.0341284644
 31
0.0
  0
LINE
  5
628
  8
VIDITELNE
  6
SLD-PLNÁ
 62
     2
 10
-79.0
 20
-520.2658715356
 30
0.0
 11
-68.0
 21
-520.65
 31
0.0
  0
ARC
  5
629
  8
VIDITELNE
  6
SLD-PLNÁ
 62
     2
 10
-88.0
 20
-402.65
 30
0.0
 40
1.0
 50
180.0
 51
270.0
  0
ARC
  5
62A
  8
VIDITELNE
  6
SLD-PLNÁ
 62
     2
 10
-88.0
 20
-388.65
 30
0.0
 40
1.0
 50
90.0
 51
180.0
  0
LINE
  5
62B
  8
VIDITELNE
  6
SLD-PLNÁ
 62
     2
 10
-79.0
 20
-387.65
 30
0.0
 11
-88.0
 21
-387.65
 31
0.0
  0
LINE
  5
62C
  8
VIDITELNE
  6
SLD-PLNÁ
 62
     2
 10
-88.0
 20
-403.65
 30
0.0
 11
-79.0
 21
-403.65
 31
0.0
  0
LINE
  5
62D
  8
VIDITELNE
  6
SLD-PLNÁ
 62
     2
 10
-79.0
 20
-306.3327201635
 30
0.0
 11
-88.0
 21
-306.3327201635
 31
0.0
  0
LINE
  5
62E
  8
VIDITELNE
  6
SLD-PLNÁ
 62
     2
 10
-88.0
 20
-322.3327201635
 30
0.0
 11
-79.0
 21
-322.3327201635
 31
0.0
  0
ARC
  5
62F
  8
VIDITELNE
  6
SLD-PLNÁ
 62
     2
 10
-88.0
 20
-321.3327201635
 30
0.0
 40
1.0
 50
180.0
 51
270.0
  0
ARC
  5
630
  8
VIDITELNE
  6
SLD-PLNÁ
 62
     2
 10
-88.0
 20
-307.3327201635
 30
0.0
 40
1.0
 50
90.0
 51
180.0
  0
LINE
  5
631
  8
VIDITELNE
  6
SLD-PLNÁ
 62
     2
 10
-79.0
 20
-468.9672798365
 30
0.0
 11
-88.0
 21
-468.9672798365
 31
0.0
  0
LINE
  5
632
  8
VIDITELNE
  6
SLD-PLNÁ
 62
     2
 10
-88.0
 20
-484.9672798365
 30
0.0
 11
-79.0
 21
-484.9672798365
 31
0.0
  0
ARC
  5
633
  8
VIDITELNE
  6
SLD-PLNÁ
 62
     2
 10
-88.0
 20
-483.9672798365
 30
0.0
 40
1.0
 50
180.0
 51
270.0
  0
ARC
  5
634
  8
VIDITELNE
  6
SLD-PLNÁ
 62
     2
 10
-88.0
 20
-469.9672798365
 30
0.0
 40
1.0
 50
90.0
 51
180.0
  0
LINE
  5
635
  8
VIDITELNE
  6
SLD-PLNÁ
 62
     2
 10
-94.0
 20
-460.65
 30
0.0
 11
-90.5
 21
-460.65
 31
0.0
  0
LINE
  5
636
  8
VIDITELNE
  6
SLD-PLNÁ
 62
     2
 10
-90.5
 20
-330.65
 30
0.0
 11
-94.0
 21
-330.65
 31
0.0
  0
LINE
  5
637
  8
VIDITELNE
  6
SLD-PLNÁ
 62
     2
 10
-90.5
 20
-490.65
 30
0.0
 11
-86.8731240234
 21
-492.7439778214
 31
0.0
  0
LINE
  5
638
  8
VIDITELNE
  6
SLD-PLNÁ
 62
     2
 10
-86.8731240234
 20
-298.5560221786
 30
0.0
 11
-90.5
 21
-300.65
 31
0.0
  0
ARC
  5
639
  8
VIDITELNE
  6
SLD-PLNÁ
 62
     2
 10
-88.0
 20
-287.65
 30
0.0
 40
1.0
 50
180.0
 51
270.0
  0
ARC
  5
63A
  8
VIDITELNE
  6
SLD-PLNÁ
 62
     2
 10
-88.0
 20
-273.65
 30
0.0
 40
1.0
 50
90.0
 51
180.0
  0
LINE
  5
63B
  8
VIDITELNE
  6
SLD-PLNÁ
 62
     2
 10
-79.0
 20
-272.65
 30
0.0
 11
-88.0
 21
-272.65
 31
0.0
  0
LINE
  5
63C
  8
VIDITELNE
  6
SLD-PLNÁ
 62
     2
 10
-88.0
 20
-288.65
 30
0.0
 11
-82.3094140097
 21
-288.65
 31
0.0
  0
ARC
  5
63D
  8
VIDITELNE
  6
SLD-PLNÁ
 62
     2
 10
-88.0
 20
-517.65
 30
0.0
 40
1.0
 50
180.0
 51
270.0
  0
ARC
  5
63E
  8
VIDITELNE
  6
SLD-PLNÁ
 62
     2
 10
-88.0
 20
-503.65
 30
0.0
 40
1.0
 50
90.0
 51
180.0
  0
LINE
  5
63F
  8
VIDITELNE
  6
SLD-PLNÁ
 62
     2
 10
-82.3094140097
 20
-502.65
 30
0.0
 11
-88.0
 21
-502.65
 31
0.0
  0
LINE
  5
640
  8
VIDITELNE
  6
SLD-PLNÁ
 62
     2
 10
-88.0
 20
-518.65
 30
0.0
 11
-79.0
 21
-518.65
 31
0.0
  0
POLYLINE
  5
641
  8
VIDITELNE
  6
SLD-PLNÁ
 62
     2
 66
     1
 10
0.0
 20
0.0
 30
0.0
  0
VERTEX
  5
966
  8
VIDITELNE
  6
SLD-PLNÁ
 62
     2
 10
-15.664560242
 20
-404.2228486391
 30
0.0
  0
VERTEX
  5
967
  8
VIDITELNE
  6
SLD-PLNÁ
 62
     2
 10
-15.6013826799
 20
-405.6533166244
 30
0.0
  0
VERTEX
  5
968
  8
VIDITELNE
  6
SLD-PLNÁ
 62
     2
 10
-15.4622563474
 20
-408.443823093
 30
0.0
  0
VERTEX
  5
969
  8
VIDITELNE
  6
SLD-PLNÁ
 62
     2
 10
-15.307184418
 20
-410.8399617699
 30
0.0
  0
VERTEX
  5
96A
  8
VIDITELNE
  6
SLD-PLNÁ
 62
     2
 10
-15.1727795124
 20
-412.2256222653
 30
0.0
  0
VERTEX
  5
96B
  8
VIDITELNE
  6
SLD-PLNÁ
 62
     2
 10
-14.9785910573
 20
-413.4448091929
 30
0.0
  0
VERTEX
  5
96C
  8
VIDITELNE
  6
SLD-PLNÁ
 62
     2
 10
-14.555558835
 20
-414.7328359364
 30
0.0
  0
VERTEX
  5
96D
  8
VIDITELNE
  6
SLD-PLNÁ
 62
     2
 10
-13.9607825056
 20
-415.7177351611
 30
0.0
  0
VERTEX
  5
96E
  8
VIDITELNE
  6
SLD-PLNÁ
 62
     2
 10
-13.1265307852
 20
-416.5662679876
 30
0.0
  0
VERTEX
  5
96F
  8
VIDITELNE
  6
SLD-PLNÁ
 62
     2
 10
-12.5621207621
 20
-416.9561055796
 30
0.0
  0
VERTEX
  5
970
  8
VIDITELNE
  6
SLD-PLNÁ
 62
     2
 10
-11.835044558
 20
-417.3116991513
 30
0.0
  0
VERTEX
  5
971
  8
VIDITELNE
  6
SLD-PLNÁ
 62
     2
 10
-9.9742398652
 20
-417.6587524735
 30
0.0
  0
VERTEX
  5
972
  8
VIDITELNE
  6
SLD-PLNÁ
 62
     2
 10
-8.0818465972
 20
-417.2770431582
 30
0.0
  0
VERTEX
  5
973
  8
VIDITELNE
  6
SLD-PLNÁ
 62
     2
 10
-6.603917504
 20
-416.3338139172
 30
0.0
  0
VERTEX
  5
974
  8
VIDITELNE
  6
SLD-PLNÁ
 62
     2
 10
-5.7117502965
 20
-415.2503340916
 30
0.0
  0
VERTEX
  5
975
  8
VIDITELNE
  6
SLD-PLNÁ
 62
     2
 10
-5.2654345327
 20
-414.3366951236
 30
0.0
  0
VERTEX
  5
976
  8
VIDITELNE
  6
SLD-PLNÁ
 62
     2
 10
-5.0347533948
 20
-413.5657153042
 30
0.0
  0
VERTEX
  5
977
  8
VIDITELNE
  6
SLD-PLNÁ
 62
     2
 10
-4.884855123
 20
-412.7497748113
 30
0.0
  0
VERTEX
  5
978
  8
VIDITELNE
  6
SLD-PLNÁ
 62
     2
 10
-4.7058610652
 20
-411.0328108301
 30
0.0
  0
VERTEX
  5
979
  8
VIDITELNE
  6
SLD-PLNÁ
 62
     2
 10
-4.6077602055
 20
-409.633288153
 30
0.0
  0
VERTEX
  5
97A
  8
VIDITELNE
  6
SLD-PLNÁ
 62
     2
 10
-4.5151941502
 20
-408.0288062837
 30
0.0
  0
VERTEX
  5
97B
  8
VIDITELNE
  6
SLD-PLNÁ
 62
     2
 10
-4.4304661208
 20
-406.3403937975
 30
0.0
  0
VERTEX
  5
97C
  8
VIDITELNE
  6
SLD-PLNÁ
 62
     2
 10
-4.3530709547
 20
-404.6363060046
 30
0.0
  0
VERTEX
  5
97D
  8
VIDITELNE
  6
SLD-PLNÁ
 62
     2
 10
-4.3333141022
 20
-404.1693607805
 30
0.0
  0
SEQEND
  5
97E
  8
VIDITELNE
  6
SLD-PLNÁ
 62
     2
  0
POLYLINE
  5
642
  8
VIDITELNE
  6
SLD-PLNÁ
 62
     2
 66
     1
 10
0.0
 20
0.0
 30
0.0
  0
VERTEX
  5
97F
  8
VIDITELNE
  6
SLD-PLNÁ
 62
     2
 10
-14.0
 20
-395.65
 30
0.0
  0
VERTEX
  5
980
  8
VIDITELNE
  6
SLD-PLNÁ
 62
     2
 10
-14.1098831469
 20
-398.5638219059
 30
0.0
  0
VERTEX
  5
981
  8
VIDITELNE
  6
SLD-PLNÁ
 62
     2
 10
-14.200442606
 20
-400.9077079532
 30
0.0
  0
VERTEX
  5
982
  8
VIDITELNE
  6
SLD-PLNÁ
 62
     2
 10
-14.2723584433
 20
-402.6882256102
 30
0.0
  0
VERTEX
  5
983
  8
VIDITELNE
  6
SLD-PLNÁ
 62
     2
 10
-14.3449951295
 20
-404.3927147306
 30
0.0
  0
VERTEX
  5
984
  8
VIDITELNE
  6
SLD-PLNÁ
 62
     2
 10
-14.3825684312
 20
-405.2303907904
 30
0.0
  0
VERTEX
  5
985
  8
VIDITELNE
  6
SLD-PLNÁ
 62
     2
 10
-14.4253123188
 20
-406.1504890719
 30
0.0
  0
VERTEX
  5
986
  8
VIDITELNE
  6
SLD-PLNÁ
 62
     2
 10
-14.4772049396
 20
-407.2382809195
 30
0.0
  0
VERTEX
  5
987
  8
VIDITELNE
  6
SLD-PLNÁ
 62
     2
 10
-14.5334301933
 20
-408.3975236039
 30
0.0
  0
VERTEX
  5
988
  8
VIDITELNE
  6
SLD-PLNÁ
 62
     2
 10
-14.5872829293
 20
-409.5007969912
 30
0.0
  0
VERTEX
  5
989
  8
VIDITELNE
  6
SLD-PLNÁ
 62
     2
 10
-14.6083093105
 20
-410.2174123604
 30
0.0
  0
VERTEX
  5
98A
  8
VIDITELNE
  6
SLD-PLNÁ
 62
     2
 10
-14.5609406031
 20
-410.3947752955
 30
0.0
  0
SEQEND
  5
98B
  8
VIDITELNE
  6
SLD-PLNÁ
 62
     2
  0
POLYLINE
  5
643
  8
VIDITELNE
  6
SLD-PLNÁ
 62
     2
 66
     1
 10
0.0
 20
0.0
 30
0.0
  0
VERTEX
  5
98C
  8
VIDITELNE
  6
SLD-PLNÁ
 62
     2
 10
-5.2131933217
 20
-411.4338458598
 30
0.0
  0
VERTEX
  5
98D
  8
VIDITELNE
  6
SLD-PLNÁ
 62
     2
 10
-5.2140409277
 20
-411.437676935
 30
0.0
  0
VERTEX
  5
98E
  8
VIDITELNE
  6
SLD-PLNÁ
 62
     2
 10
-5.2382740179
 20
-411.252816204
 30
0.0
  0
VERTEX
  5
98F
  8
VIDITELNE
  6
SLD-PLNÁ
 62
     2
 10
-5.3601543655
 20
-409.8849659366
 30
0.0
  0
VERTEX
  5
990
  8
VIDITELNE
  6
SLD-PLNÁ
 62
     2
 10
-5.4287150657
 20
-408.8547595768
 30
0.0
  0
VERTEX
  5
991
  8
VIDITELNE
  6
SLD-PLNÁ
 62
     2
 10
-5.4969322985
 20
-407.6678456944
 30
0.0
  0
VERTEX
  5
992
  8
VIDITELNE
  6
SLD-PLNÁ
 62
     2
 10
-5.6032729573
 20
-405.536748718
 30
0.0
  0
VERTEX
  5
993
  8
VIDITELNE
  6
SLD-PLNÁ
 62
     2
 10
-5.629660334
 20
-404.9611526733
 30
0.0
  0
VERTEX
  5
994
  8
VIDITELNE
  6
SLD-PLNÁ
 62
     2
 10
-5.6657297801
 20
-404.1478962046
 30
0.0
  0
VERTEX
  5
995
  8
VIDITELNE
  6
SLD-PLNÁ
 62
     2
 10
-5.7207733308
 20
-402.8542898225
 30
0.0
  0
VERTEX
  5
996
  8
VIDITELNE
  6
SLD-PLNÁ
 62
     2
 10
-5.7948001278
 20
-401.0294180338
 30
0.0
  0
VERTEX
  5
997
  8
VIDITELNE
  6
SLD-PLNÁ
 62
     2
 10
-5.8875652753
 20
-398.6295375009
 30
0.0
  0
VERTEX
  5
998
  8
VIDITELNE
  6
SLD-PLNÁ
 62
     2
 10
-6.0
 20
-395.65
 30
0.0
  0
SEQEND
  5
999
  8
VIDITELNE
  6
SLD-PLNÁ
 62
     2
  0
POLYLINE
  5
644
  8
VIDITELNE
  6
SLD-PLNÁ
 62
     2
 66
     1
 10
0.0
 20
0.0
 30
0.0
  0
VERTEX
  5
99A
  8
VIDITELNE
  6
SLD-PLNÁ
 62
     2
 10
-4.3333153275
 20
-387.1306102589
 30
0.0
  0
VERTEX
  5
99B
  8
VIDITELNE
  6
SLD-PLNÁ
 62
     2
 10
-4.3530709547
 20
-386.6636939954
 30
0.0
  0
VERTEX
  5
99C
  8
VIDITELNE
  6
SLD-PLNÁ
 62
     2
 10
-4.4304661208
 20
-384.9596062025
 30
0.0
  0
VERTEX
  5
99D
  8
VIDITELNE
  6
SLD-PLNÁ
 62
     2
 10
-4.5151941502
 20
-383.2711937163
 30
0.0
  0
VERTEX
  5
99E
  8
VIDITELNE
  6
SLD-PLNÁ
 62
     2
 10
-4.6077602055
 20
-381.666711847
 30
0.0
  0
VERTEX
  5
99F
  8
VIDITELNE
  6
SLD-PLNÁ
 62
     2
 10
-4.7058610652
 20
-380.2671891699
 30
0.0
  0
VERTEX
  5
9A0
  8
VIDITELNE
  6
SLD-PLNÁ
 62
     2
 10
-4.8159495844
 20
-379.0908963203
 30
0.0
  0
VERTEX
  5
9A1
  8
VIDITELNE
  6
SLD-PLNÁ
 62
     2
 10
-4.9431167441
 20
-378.1855286419
 30
0.0
  0
VERTEX
  5
9A2
  8
VIDITELNE
  6
SLD-PLNÁ
 62
     2
 10
-5.0746162066
 20
-377.5716119229
 30
0.0
  0
VERTEX
  5
9A3
  8
VIDITELNE
  6
SLD-PLNÁ
 62
     2
 10
-5.2654345327
 20
-376.9633048764
 30
0.0
  0
VERTEX
  5
9A4
  8
VIDITELNE
  6
SLD-PLNÁ
 62
     2
 10
-5.7117502965
 20
-376.0496659084
 30
0.0
  0
VERTEX
  5
9A5
  8
VIDITELNE
  6
SLD-PLNÁ
 62
     2
 10
-6.603917504
 20
-374.9661860828
 30
0.0
  0
VERTEX
  5
9A6
  8
VIDITELNE
  6
SLD-PLNÁ
 62
     2
 10
-8.0818465972
 20
-374.0229568418
 30
0.0
  0
VERTEX
  5
9A7
  8
VIDITELNE
  6
SLD-PLNÁ
 62
     2
 10
-9.9742398652
 20
-373.6412475265
 30
0.0
  0
VERTEX
  5
9A8
  8
VIDITELNE
  6
SLD-PLNÁ
 62
     2
 10
-11.835044558
 20
-373.9883008487
 30
0.0
  0
VERTEX
  5
9A9
  8
VIDITELNE
  6
SLD-PLNÁ
 62
     2
 10
-12.5621207621
 20
-374.3438944204
 30
0.0
  0
VERTEX
  5
9AA
  8
VIDITELNE
  6
SLD-PLNÁ
 62
     2
 10
-13.1265307852
 20
-374.7337320124
 30
0.0
  0
VERTEX
  5
9AB
  8
VIDITELNE
  6
SLD-PLNÁ
 62
     2
 10
-13.9607825056
 20
-375.5822648389
 30
0.0
  0
VERTEX
  5
9AC
  8
VIDITELNE
  6
SLD-PLNÁ
 62
     2
 10
-14.555558835
 20
-376.5671640636
 30
0.0
  0
VERTEX
  5
9AD
  8
VIDITELNE
  6
SLD-PLNÁ
 62
     2
 10
-14.9785910573
 20
-377.8551908071
 30
0.0
  0
VERTEX
  5
9AE
  8
VIDITELNE
  6
SLD-PLNÁ
 62
     2
 10
-15.1727795124
 20
-379.0743777347
 30
0.0
  0
VERTEX
  5
9AF
  8
VIDITELNE
  6
SLD-PLNÁ
 62
     2
 10
-15.307184418
 20
-380.4600382301
 30
0.0
  0
VERTEX
  5
9B0
  8
VIDITELNE
  6
SLD-PLNÁ
 62
     2
 10
-15.4622563474
 20
-382.856176907
 30
0.0
  0
VERTEX
  5
9B1
  8
VIDITELNE
  6
SLD-PLNÁ
 62
     2
 10
-15.6013826799
 20
-385.6466833756
 30
0.0
  0
VERTEX
  5
9B2
  8
VIDITELNE
  6
SLD-PLNÁ
 62
     2
 10
-15.6658456659
 20
-387.1062559607
 30
0.0
  0
SEQEND
  5
9B3
  8
VIDITELNE
  6
SLD-PLNÁ
 62
     2
  0
POLYLINE
  5
645
  8
VIDITELNE
  6
SLD-PLNÁ
 62
     2
 66
     1
 10
0.0
 20
0.0
 30
0.0
  0
VERTEX
  5
9B4
  8
VIDITELNE
  6
SLD-PLNÁ
 62
     2
 10
-6.0
 20
-395.65
 30
0.0
  0
VERTEX
  5
9B5
  8
VIDITELNE
  6
SLD-PLNÁ
 62
     2
 10
-5.8875652753
 20
-392.6704624991
 30
0.0
  0
VERTEX
  5
9B6
  8
VIDITELNE
  6
SLD-PLNÁ
 62
     2
 10
-5.7948001278
 20
-390.2705819662
 30
0.0
  0
VERTEX
  5
9B7
  8
VIDITELNE
  6
SLD-PLNÁ
 62
     2
 10
-5.7207733308
 20
-388.4457101775
 30
0.0
  0
VERTEX
  5
9B8
  8
VIDITELNE
  6
SLD-PLNÁ
 62
     2
 10
-5.6453253078
 20
-386.6884231237
 30
0.0
  0
VERTEX
  5
9B9
  8
VIDITELNE
  6
SLD-PLNÁ
 62
     2
 10
-5.6032729573
 20
-385.763251282
 30
0.0
  0
VERTEX
  5
9BA
  8
VIDITELNE
  6
SLD-PLNÁ
 62
     2
 10
-5.4969322985
 20
-383.6321543056
 30
0.0
  0
VERTEX
  5
9BB
  8
VIDITELNE
  6
SLD-PLNÁ
 62
     2
 10
-5.4287150657
 20
-382.4452404232
 30
0.0
  0
VERTEX
  5
9BC
  8
VIDITELNE
  6
SLD-PLNÁ
 62
     2
 10
-5.3601543655
 20
-381.4150340634
 30
0.0
  0
VERTEX
  5
9BD
  8
VIDITELNE
  6
SLD-PLNÁ
 62
     2
 10
-5.2382740179
 20
-380.047183796
 30
0.0
  0
VERTEX
  5
9BE
  8
VIDITELNE
  6
SLD-PLNÁ
 62
     2
 10
-5.2140409277
 20
-379.862323065
 30
0.0
  0
VERTEX
  5
9BF
  8
VIDITELNE
  6
SLD-PLNÁ
 62
     2
 10
-5.2131933217
 20
-379.8661541402
 30
0.0
  0
SEQEND
  5
9C0
  8
VIDITELNE
  6
SLD-PLNÁ
 62
     2
  0
POLYLINE
  5
646
  8
VIDITELNE
  6
SLD-PLNÁ
 62
     2
 66
     1
 10
0.0
 20
0.0
 30
0.0
  0
VERTEX
  5
9C1
  8
VIDITELNE
  6
SLD-PLNÁ
 62
     2
 10
-14.5609406031
 20
-380.9052247045
 30
0.0
  0
VERTEX
  5
9C2
  8
VIDITELNE
  6
SLD-PLNÁ
 62
     2
 10
-14.6083093105
 20
-381.0825876396
 30
0.0
  0
VERTEX
  5
9C3
  8
VIDITELNE
  6
SLD-PLNÁ
 62
     2
 10
-14.5872829293
 20
-381.7992030088
 30
0.0
  0
VERTEX
  5
9C4
  8
VIDITELNE
  6
SLD-PLNÁ
 62
     2
 10
-14.5334301933
 20
-382.9024763961
 30
0.0
  0
VERTEX
  5
9C5
  8
VIDITELNE
  6
SLD-PLNÁ
 62
     2
 10
-14.4772049396
 20
-384.0617190805
 30
0.0
  0
VERTEX
  5
9C6
  8
VIDITELNE
  6
SLD-PLNÁ
 62
     2
 10
-14.4253123188
 20
-385.1495109281
 30
0.0
  0
VERTEX
  5
9C7
  8
VIDITELNE
  6
SLD-PLNÁ
 62
     2
 10
-14.3825684312
 20
-386.0696092096
 30
0.0
  0
VERTEX
  5
9C8
  8
VIDITELNE
  6
SLD-PLNÁ
 62
     2
 10
-14.359869123
 20
-386.5718730035
 30
0.0
  0
VERTEX
  5
9C9
  8
VIDITELNE
  6
SLD-PLNÁ
 62
     2
 10
-14.3254665392
 20
-387.355087054
 30
0.0
  0
VERTEX
  5
9CA
  8
VIDITELNE
  6
SLD-PLNÁ
 62
     2
 10
-14.2723584433
 20
-388.6117743898
 30
0.0
  0
VERTEX
  5
9CB
  8
VIDITELNE
  6
SLD-PLNÁ
 62
     2
 10
-14.200442606
 20
-390.3922920468
 30
0.0
  0
VERTEX
  5
9CC
  8
VIDITELNE
  6
SLD-PLNÁ
 62
     2
 10
-14.1098831469
 20
-392.7361780941
 30
0.0
  0
VERTEX
  5
9CD
  8
VIDITELNE
  6
SLD-PLNÁ
 62
     2
 10
-14.0
 20
-395.65
 30
0.0
  0
SEQEND
  5
9CE
  8
VIDITELNE
  6
SLD-PLNÁ
 62
     2
  0
LINE
  5
647
  8
VIDITELNE
  6
SLD-PLNÁ
 62
     2
 10
44.5
 20
-265.65
 30
0.0
 11
44.2880379485
 21
-259.5802010066
 31
0.0
  0
LINE
  5
648
  8
VIDITELNE
  6
SLD-PLNÁ
 62
     2
 10
-64.2880379485
 20
-259.5802010066
 30
0.0
 11
-64.5
 21
-265.65
 31
0.0
  0
ARC
  5
649
  8
VIDITELNE
  6
SLD-PLNÁ
 62
     2
 10
42.2892562945
 20
-259.65
 30
0.0
 40
2.000000000000004
 50
2.0
 51
90.0
  0
ARC
  5
64A
  8
VIDITELNE
  6
SLD-PLNÁ
 62
     2
 10
-62.2892562945
 20
-259.65
 30
0.0
 40
2.000000000000011
 50
90.0
 51
178.0
  0
LINE
  5
64B
  8
VIDITELNE
  6
SLD-PLNÁ
 62
     2
 10
115.0
 20
-547.65
 30
0.0
 11
-135.0
 21
-547.65
 31
0.0
  0
LINE
  5
64C
  8
VIDITELNE
  6
SLD-PLNÁ
 62
     2
 10
112.6495732165
 20
-535.65
 30
0.0
 11
-132.6495732151
 21
-535.65
 31
0.0
  0
LINE
  5
64D
  8
VIDITELNE
  6
SLD-PLNÁ
 62
     2
 10
45.0
 20
-525.65
 30
0.0
 11
-65.0
 21
-525.65
 31
0.0
  0
CIRCLE
  5
64E
  8
VIDITELNE
  6
SLD-PLNÁ
 62
     2
 10
-10.0
 20
-485.65
 30
0.0
 40
9.499999999999943
  0
CIRCLE
  5
64F
  8
VIDITELNE
  6
SLD-PLNÁ
 62
     2
 10
-10.0
 20
-485.65
 30
0.0
 40
10.49999999999994
  0
LINE
  5
650
  8
VIDITELNE
  6
SLD-PLNÁ
 62
     2
 10
45.0
 20
-265.65
 30
0.0
 11
-65.0
 21
-265.65
 31
0.0
  0
LINE
  5
651
  8
VIDITELNE
  6
SLD-PLNÁ
 62
     2
 10
45.0
 20
-272.65
 30
0.0
 11
45.0
 21
-354.0687542274
 31
0.0
  0
POLYLINE
  5
652
  8
VIDITELNE
  6
SLD-PLNÁ
 62
     2
 66
     1
 10
0.0
 20
0.0
 30
0.0
  0
VERTEX
  5
9CF
  8
VIDITELNE
  6
SLD-PLNÁ
 62
     2
 10
45.0
 20
-437.2312457726
 30
0.0
  0
VERTEX
  5
9D0
  8
VIDITELNE
  6
SLD-PLNÁ
 62
     2
 10
44.9244562995
 20
-427.3253482867
 30
0.0
  0
VERTEX
  5
9D1
  8
VIDITELNE
  6
SLD-PLNÁ
 62
     2
 10
44.7737032823
 20
-417.1589070791
 30
0.0
  0
VERTEX
  5
9D2
  8
VIDITELNE
  6
SLD-PLNÁ
 62
     2
 10
44.6387595913
 20
-406.6563376722
 30
0.0
  0
VERTEX
  5
9D3
  8
VIDITELNE
  6
SLD-PLNÁ
 62
     2
 10
44.5837429017
 20
-396.0118447351
 30
0.0
  0
VERTEX
  5
9D4
  8
VIDITELNE
  6
SLD-PLNÁ
 62
     2
 10
44.6304935584
 20
-385.5296635596
 30
0.0
  0
VERTEX
  5
9D5
  8
VIDITELNE
  6
SLD-PLNÁ
 62
     2
 10
44.7601596688
 20
-375.0451319364
 30
0.0
  0
VERTEX
  5
9D6
  8
VIDITELNE
  6
SLD-PLNÁ
 62
     2
 10
44.9176842556
 20
-364.4872838873
 30
0.0
  0
VERTEX
  5
9D7
  8
VIDITELNE
  6
SLD-PLNÁ
 62
     2
 10
45.0
 20
-354.0687542274
 30
0.0
  0
SEQEND
  5
9D8
  8
VIDITELNE
  6
SLD-PLNÁ
 62
     2
  0
LINE
  5
653
  8
VIDITELNE
  6
SLD-PLNÁ
 62
     2
 10
45.0
 20
-518.65
 30
0.0
 11
45.0
 21
-437.2312457726
 31
0.0
  0
LINE
  5
654
  8
VIDITELNE
  6
SLD-PLNÁ
 62
     2
 10
-65.0
 20
-518.65
 30
0.0
 11
-65.0
 21
-437.2312457726
 31
0.0
  0
POLYLINE
  5
655
  8
VIDITELNE
  6
SLD-PLNÁ
 62
     2
 66
     1
 10
0.0
 20
0.0
 30
0.0
  0
VERTEX
  5
9D9
  8
VIDITELNE
  6
SLD-PLNÁ
 62
     2
 10
-65.0
 20
-354.0687542274
 30
0.0
  0
VERTEX
  5
9DA
  8
VIDITELNE
  6
SLD-PLNÁ
 62
     2
 10
-64.9244562995
 20
-363.9746517133
 30
0.0
  0
VERTEX
  5
9DB
  8
VIDITELNE
  6
SLD-PLNÁ
 62
     2
 10
-64.7737032823
 20
-374.1410929209
 30
0.0
  0
VERTEX
  5
9DC
  8
VIDITELNE
  6
SLD-PLNÁ
 62
     2
 10
-64.6387595913
 20
-384.6436623278
 30
0.0
  0
VERTEX
  5
9DD
  8
VIDITELNE
  6
SLD-PLNÁ
 62
     2
 10
-64.5837429017
 20
-395.2881552649
 30
0.0
  0
VERTEX
  5
9DE
  8
VIDITELNE
  6
SLD-PLNÁ
 62
     2
 10
-64.6304935584
 20
-405.7703364404
 30
0.0
  0
VERTEX
  5
9DF
  8
VIDITELNE
  6
SLD-PLNÁ
 62
     2
 10
-64.7601596688
 20
-416.2548680636
 30
0.0
  0
VERTEX
  5
9E0
  8
VIDITELNE
  6
SLD-PLNÁ
 62
     2
 10
-64.9176842556
 20
-426.8127161127
 30
0.0
  0
VERTEX
  5
9E1
  8
VIDITELNE
  6
SLD-PLNÁ
 62
     2
 10
-65.0
 20
-437.2312457726
 30
0.0
  0
SEQEND
  5
9E2
  8
VIDITELNE
  6
SLD-PLNÁ
 62
     2
  0
LINE
  5
656
  8
VIDITELNE
  6
SLD-PLNÁ
 62
     2
 10
-65.0
 20
-272.65
 30
0.0
 11
-65.0
 21
-354.0687542274
 31
0.0
  0
ARC
  5
657
  8
VIDITELNE
  6
SLD-PLNÁ
 62
     2
 10
-10.0
 20
-485.65
 30
0.0
 40
15.0
 50
11.5369590328
 51
168.4630409672
  0
LINE
  5
658
  8
VIDITELNE
  6
SLD-PLNÁ
 62
     2
 10
-24.6969384567
 20
-482.65
 30
0.0
 11
-24.6969384567
 21
-488.65
 31
0.0
  0
ARC
  5
659
  8
VIDITELNE
  6
SLD-PLNÁ
 62
     2
 10
-10.0
 20
-485.65
 30
0.0
 40
15.00000000000003
 50
191.5369590328
 51
348.4630409672
  0
LINE
  5
65A
  8
VIDITELNE
  6
SLD-PLNÁ
 62
     2
 10
4.6969384567
 20
-488.65
 30
0.0
 11
4.6969384567
 21
-482.65
 31
0.0
  0
ARC
  5
65B
  8
VIDITELNE
  6
SLD-PLNÁ
 62
     2
 10
-10.0490832506
 20
-395.6206744422
 30
0.0
 40
14.94605529163415
 50
110.9160083024
 51
168.5355571455
  0
ARC
  5
65C
  8
VIDITELNE
  6
SLD-PLNÁ
 62
     2
 10
-9.8159324063
 20
-395.5563880321
 30
0.0
 40
14.80103077756539
 50
11.3244094782
 51
69.3891184066
  0
LINE
  5
65D
  8
VIDITELNE
  6
SLD-PLNÁ
 62
     2
 10
-24.6969384567
 20
-392.65
 30
0.0
 11
-24.6969384567
 21
-398.65
 31
0.0
  0
ARC
  5
65E
  8
VIDITELNE
  6
SLD-PLNÁ
 62
     2
 10
-9.9473626258
 20
-395.681456797
 30
0.0
 40
14.94214853839199
 50
290.9365547945
 51
348.5408575868
  0
ARC
  5
65F
  8
VIDITELNE
  6
SLD-PLNÁ
 62
     2
 10
-10.2314185869
 20
-395.7982008779
 30
0.0
 40
14.74394870236806
 50
191.1525364468
 51
249.5338957352
  0
LINE
  5
660
  8
VIDITELNE
  6
SLD-PLNÁ
 62
     2
 10
4.6969384567
 20
-398.65
 30
0.0
 11
4.6969384567
 21
-392.65
 31
0.0
  0
POLYLINE
  5
661
  8
VIDITELNE
  6
SLD-PLNÁ
 62
     2
 66
     1
 10
0.0
 20
0.0
 30
0.0
  0
VERTEX
  5
9E3
  8
VIDITELNE
  6
SLD-PLNÁ
 62
     2
 10
45.0
 20
-354.0687542274
 30
0.0
  0
VERTEX
  5
9E4
  8
VIDITELNE
  6
SLD-PLNÁ
 62
     2
 10
45.0384294392
 20
-354.1965038121
 30
0.0
  0
VERTEX
  5
9E5
  8
VIDITELNE
  6
SLD-PLNÁ
 62
     2
 10
45.152240935
 20
-354.3193440519
 30
0.0
  0
VERTEX
  5
9E6
  8
VIDITELNE
  6
SLD-PLNÁ
 62
     2
 10
45.3370607754
 20
-354.4325542653
 30
0.0
  0
VERTEX
  5
9E7
  8
VIDITELNE
  6
SLD-PLNÁ
 62
     2
 10
45.5857864376
 20
-354.5317838472
 30
0.0
  0
VERTEX
  5
9E8
  8
VIDITELNE
  6
SLD-PLNÁ
 62
     2
 10
45.888859534
 20
-354.6132194605
 30
0.0
  0
VERTEX
  5
9E9
  8
VIDITELNE
  6
SLD-PLNÁ
 62
     2
 10
46.2346331353
 20
-354.6737315803
 30
0.0
  0
VERTEX
  5
9EA
  8
VIDITELNE
  6
SLD-PLNÁ
 62
     2
 10
46.609819356
 20
-354.7109947596
 30
0.0
  0
VERTEX
  5
9EB
  8
VIDITELNE
  6
SLD-PLNÁ
 62
     2
 10
47.0
 20
-354.7235769955
 30
0.0
  0
SEQEND
  5
9EC
  8
VIDITELNE
  6
SLD-PLNÁ
 62
     2
  0
POLYLINE
  5
662
  8
VIDITELNE
  6
SLD-PLNÁ
 62
     2
 66
     1
 10
0.0
 20
0.0
 30
0.0
  0
VERTEX
  5
9ED
  8
VIDITELNE
  6
SLD-PLNÁ
 62
     2
 10
47.0
 20
-354.7235769955
 30
0.0
  0
VERTEX
  5
9EE
  8
VIDITELNE
  6
SLD-PLNÁ
 62
     2
 10
46.9198240852
 20
-364.6102908637
 30
0.0
  0
VERTEX
  5
9EF
  8
VIDITELNE
  6
SLD-PLNÁ
 62
     2
 10
46.7607301576
 20
-374.7791056912
 30
0.0
  0
VERTEX
  5
9F0
  8
VIDITELNE
  6
SLD-PLNÁ
 62
     2
 10
46.6206470441
 20
-385.315778591
 30
0.0
  0
VERTEX
  5
9F1
  8
VIDITELNE
  6
SLD-PLNÁ
 62
     2
 10
46.5686062799
 20
-396.0061463928
 30
0.0
  0
VERTEX
  5
9F2
  8
VIDITELNE
  6
SLD-PLNÁ
 62
     2
 10
46.6223021314
 20
-406.1523842888
 30
0.0
  0
VERTEX
  5
9F3
  8
VIDITELNE
  6
SLD-PLNÁ
 62
     2
 10
46.7571835531
 20
-416.2962185974
 30
0.0
  0
VERTEX
  5
9F4
  8
VIDITELNE
  6
SLD-PLNÁ
 62
     2
 10
46.9173060719
 20
-426.5084693365
 30
0.0
  0
VERTEX
  5
9F5
  8
VIDITELNE
  6
SLD-PLNÁ
 62
     2
 10
47.0
 20
-436.5764230045
 30
0.0
  0
SEQEND
  5
9F6
  8
VIDITELNE
  6
SLD-PLNÁ
 62
     2
  0
POLYLINE
  5
663
  8
VIDITELNE
  6
SLD-PLNÁ
 62
     2
 66
     1
 10
0.0
 20
0.0
 30
0.0
  0
VERTEX
  5
9F7
  8
VIDITELNE
  6
SLD-PLNÁ
 62
     2
 10
45.0
 20
-437.2312457726
 30
0.0
  0
VERTEX
  5
9F8
  8
VIDITELNE
  6
SLD-PLNÁ
 62
     2
 10
45.0384294392
 20
-437.1034961879
 30
0.0
  0
VERTEX
  5
9F9
  8
VIDITELNE
  6
SLD-PLNÁ
 62
     2
 10
45.152240935
 20
-436.9806559481
 30
0.0
  0
VERTEX
  5
9FA
  8
VIDITELNE
  6
SLD-PLNÁ
 62
     2
 10
45.3370607754
 20
-436.8674457347
 30
0.0
  0
VERTEX
  5
9FB
  8
VIDITELNE
  6
SLD-PLNÁ
 62
     2
 10
45.5857864376
 20
-436.7682161528
 30
0.0
  0
VERTEX
  5
9FC
  8
VIDITELNE
  6
SLD-PLNÁ
 62
     2
 10
45.888859534
 20
-436.6867805395
 30
0.0
  0
VERTEX
  5
9FD
  8
VIDITELNE
  6
SLD-PLNÁ
 62
     2
 10
46.2346331353
 20
-436.6262684197
 30
0.0
  0
VERTEX
  5
9FE
  8
VIDITELNE
  6
SLD-PLNÁ
 62
     2
 10
46.609819356
 20
-436.5890052404
 30
0.0
  0
VERTEX
  5
9FF
  8
VIDITELNE
  6
SLD-PLNÁ
 62
     2
 10
47.0
 20
-436.5764230045
 30
0.0
  0
SEQEND
  5
A00
  8
VIDITELNE
  6
SLD-PLNÁ
 62
     2
  0
POLYLINE
  5
664
  8
VIDITELNE
  6
SLD-PLNÁ
 62
     2
 66
     1
 10
0.0
 20
0.0
 30
0.0
  0
VERTEX
  5
A01
  8
VIDITELNE
  6
SLD-PLNÁ
 62
     2
 10
-67.0
 20
-436.5764230045
 30
0.0
  0
VERTEX
  5
A02
  8
VIDITELNE
  6
SLD-PLNÁ
 62
     2
 10
-66.9198240852
 20
-426.6897091363
 30
0.0
  0
VERTEX
  5
A03
  8
VIDITELNE
  6
SLD-PLNÁ
 62
     2
 10
-66.7607301576
 20
-416.5208943088
 30
0.0
  0
VERTEX
  5
A04
  8
VIDITELNE
  6
SLD-PLNÁ
 62
     2
 10
-66.6206470441
 20
-405.984221409
 30
0.0
  0
VERTEX
  5
A05
  8
VIDITELNE
  6
SLD-PLNÁ
 62
     2
 10
-66.5686062799
 20
-395.2938536072
 30
0.0
  0
VERTEX
  5
A06
  8
VIDITELNE
  6
SLD-PLNÁ
 62
     2
 10
-66.6223021314
 20
-385.1476157112
 30
0.0
  0
VERTEX
  5
A07
  8
VIDITELNE
  6
SLD-PLNÁ
 62
     2
 10
-66.7571835531
 20
-375.0037814026
 30
0.0
  0
VERTEX
  5
A08
  8
VIDITELNE
  6
SLD-PLNÁ
 62
     2
 10
-66.9173060719
 20
-364.7915306635
 30
0.0
  0
VERTEX
  5
A09
  8
VIDITELNE
  6
SLD-PLNÁ
 62
     2
 10
-67.0
 20
-354.7235769955
 30
0.0
  0
SEQEND
  5
A0A
  8
VIDITELNE
  6
SLD-PLNÁ
 62
     2
  0
POLYLINE
  5
665
  8
VIDITELNE
  6
SLD-PLNÁ
 62
     2
 66
     1
 10
0.0
 20
0.0
 30
0.0
  0
VERTEX
  5
A0B
  8
VIDITELNE
  6
SLD-PLNÁ
 62
     2
 10
-67.0
 20
-354.7235769955
 30
0.0
  0
VERTEX
  5
A0C
  8
VIDITELNE
  6
SLD-PLNÁ
 62
     2
 10
-66.609819356
 20
-354.7109947596
 30
0.0
  0
VERTEX
  5
A0D
  8
VIDITELNE
  6
SLD-PLNÁ
 62
     2
 10
-66.2346331353
 20
-354.6737315803
 30
0.0
  0
VERTEX
  5
A0E
  8
VIDITELNE
  6
SLD-PLNÁ
 62
     2
 10
-65.888859534
 20
-354.6132194605
 30
0.0
  0
VERTEX
  5
A0F
  8
VIDITELNE
  6
SLD-PLNÁ
 62
     2
 10
-65.5857864376
 20
-354.5317838472
 30
0.0
  0
VERTEX
  5
A10
  8
VIDITELNE
  6
SLD-PLNÁ
 62
     2
 10
-65.3370607754
 20
-354.4325542653
 30
0.0
  0
VERTEX
  5
A11
  8
VIDITELNE
  6
SLD-PLNÁ
 62
     2
 10
-65.152240935
 20
-354.3193440519
 30
0.0
  0
VERTEX
  5
A12
  8
VIDITELNE
  6
SLD-PLNÁ
 62
     2
 10
-65.0384294392
 20
-354.1965038121
 30
0.0
  0
VERTEX
  5
A13
  8
VIDITELNE
  6
SLD-PLNÁ
 62
     2
 10
-65.0
 20
-354.0687542274
 30
0.0
  0
SEQEND
  5
A14
  8
VIDITELNE
  6
SLD-PLNÁ
 62
     2
  0
POLYLINE
  5
666
  8
VIDITELNE
  6
SLD-PLNÁ
 62
     2
 66
     1
 10
0.0
 20
0.0
 30
0.0
  0
VERTEX
  5
A15
  8
VIDITELNE
  6
SLD-PLNÁ
 62
     2
 10
-67.0
 20
-436.5764230045
 30
0.0
  0
VERTEX
  5
A16
  8
VIDITELNE
  6
SLD-PLNÁ
 62
     2
 10
-66.609819356
 20
-436.5890052404
 30
0.0
  0
VERTEX
  5
A17
  8
VIDITELNE
  6
SLD-PLNÁ
 62
     2
 10
-66.2346331353
 20
-436.6262684197
 30
0.0
  0
VERTEX
  5
A18
  8
VIDITELNE
  6
SLD-PLNÁ
 62
     2
 10
-65.888859534
 20
-436.6867805395
 30
0.0
  0
VERTEX
  5
A19
  8
VIDITELNE
  6
SLD-PLNÁ
 62
     2
 10
-65.5857864376
 20
-436.7682161528
 30
0.0
  0
VERTEX
  5
A1A
  8
VIDITELNE
  6
SLD-PLNÁ
 62
     2
 10
-65.3370607754
 20
-436.8674457347
 30
0.0
  0
VERTEX
  5
A1B
  8
VIDITELNE
  6
SLD-PLNÁ
 62
     2
 10
-65.152240935
 20
-436.9806559481
 30
0.0
  0
VERTEX
  5
A1C
  8
VIDITELNE
  6
SLD-PLNÁ
 62
     2
 10
-65.0384294392
 20
-437.1034961879
 30
0.0
  0
VERTEX
  5
A1D
  8
VIDITELNE
  6
SLD-PLNÁ
 62
     2
 10
-65.0
 20
-437.2312457726
 30
0.0
  0
SEQEND
  5
A1E
  8
VIDITELNE
  6
SLD-PLNÁ
 62
     2
  0
LINE
  5
667
  8
VIDITELNE
  6
SLD-PLNÁ
 62
     2
 10
-68.0
 20
-270.65
 30
0.0
 11
-68.0
 21
-520.65
 31
0.0
  0
LINE
  5
668
  8
VIDITELNE
  6
SLD-PLNÁ
 62
     2
 10
48.0
 20
-270.65
 30
0.0
 11
48.0
 21
-520.65
 31
0.0
  0
LINE
  5
669
  8
VIDITELNE
  6
SLD-PLNÁ
 62
     2
 10
-67.0
 20
-354.7235769955
 30
0.0
 11
-67.0
 21
-274.587007874
 31
0.0
  0
LINE
  5
66A
  8
VIDITELNE
  6
SLD-PLNÁ
 62
     2
 10
-67.0
 20
-516.712992126
 30
0.0
 11
-67.0
 21
-436.5764230045
 31
0.0
  0
LINE
  5
66B
  8
VIDITELNE
  6
SLD-PLNÁ
 62
     2
 10
47.0
 20
-436.5764230045
 30
0.0
 11
47.0
 21
-516.712992126
 31
0.0
  0
LINE
  5
66C
  8
VIDITELNE
  6
SLD-PLNÁ
 62
     2
 10
47.0
 20
-274.587007874
 30
0.0
 11
47.0
 21
-354.7235769955
 31
0.0
  0
ARC
  5
66D
  8
VIDITELNE
  6
SLD-PLNÁ
 62
     2
 10
46.968999938
 20
-272.6179918059
 30
0.0
 40
1.969260084481706
 50
180.9313219756
 51
270.9019865372
  0
ARC
  5
66E
  8
VIDITELNE
  6
SLD-PLNÁ
 62
     2
 10
-66.968999938
 20
-272.6179918059
 30
0.0
 40
1.969260084481762
 50
269.0980134629
 51
359.0686780244
  0
ARC
  5
66F
  8
VIDITELNE
  6
SLD-PLNÁ
 62
     2
 10
-66.968999938
 20
-518.6820081941
 30
0.0
 40
1.969260084481594
 50
0.9313219756
 51
90.9019865372
  0
ARC
  5
670
  8
VIDITELNE
  6
SLD-PLNÁ
 62
     2
 10
46.968999938
 20
-518.6820081941
 30
0.0
 40
1.969260084481595
 50
89.0980134628
 51
179.0686780244
  0
LINE
  5
671
  8
VIDITELNE
  6
SLD-PLNÁ
 62
     2
 10
-96.0
 20
-426.15
 30
0.0
 11
-96.0
 21
-365.15
 31
0.0
  0
LINE
  5
672
  8
VIDITELNE
  6
SLD-PLNÁ
 62
     2
 10
135.0
 20
-395.65
 30
0.0
 11
135.0
 21
-270.65
 31
0.0
  0
LINE
  5
673
  8
VIDITELNE
  6
SLD-PLNÁ
 62
     2
 10
135.0
 20
-520.65
 30
0.0
 11
135.0
 21
-395.65
 31
0.0
  0
LINE
  5
674
  8
VIDITELNE
  6
SLD-PLNÁ
 62
     2
 10
120.0
 20
-395.65
 30
0.0
 11
120.0
 21
-272.65
 31
0.0
  0
LINE
  5
675
  8
VIDITELNE
  6
SLD-PLNÁ
 62
     2
 10
120.0
 20
-518.65
 30
0.0
 11
120.0
 21
-395.65
 31
0.0
  0
POLYLINE
  5
676
  8
VIDITELNE
  6
SLD-PLNÁ
 62
     2
 66
     1
 10
0.0
 20
0.0
 30
0.0
  0
VERTEX
  5
A1F
  8
VIDITELNE
  6
SLD-PLNÁ
 62
     2
 10
57.0697989934
 20
-485.4500133199
 30
0.0
  0
VERTEX
  5
A20
  8
VIDITELNE
  6
SLD-PLNÁ
 62
     2
 10
57.0892079691
 20
-484.3816862311
 30
0.0
  0
VERTEX
  5
A21
  8
VIDITELNE
  6
SLD-PLNÁ
 62
     2
 10
57.0697989934
 20
-482.147842933
 30
0.0
  0
SEQEND
  5
A22
  8
VIDITELNE
  6
SLD-PLNÁ
 62
     2
  0
LINE
  5
677
  8
VIDITELNE
  6
SLD-PLNÁ
 62
     2
 10
57.0697989934
 20
-520.3114096651
 30
0.0
 11
57.0697989934
 21
-485.4500133199
 31
0.0
  0
LINE
  5
678
  8
VIDITELNE
  6
SLD-PLNÁ
 62
     2
 10
57.0697989934
 20
-305.8499866801
 30
0.0
 11
57.0697989934
 21
-270.9885903349
 31
0.0
  0
POLYLINE
  5
679
  8
VIDITELNE
  6
SLD-PLNÁ
 62
     2
 66
     1
 10
0.0
 20
0.0
 30
0.0
  0
VERTEX
  5
A23
  8
VIDITELNE
  6
SLD-PLNÁ
 62
     2
 10
57.0697989934
 20
-309.152157067
 30
0.0
  0
VERTEX
  5
A24
  8
VIDITELNE
  6
SLD-PLNÁ
 62
     2
 10
57.0892079691
 20
-308.0575455954
 30
0.0
  0
VERTEX
  5
A25
  8
VIDITELNE
  6
SLD-PLNÁ
 62
     2
 10
57.0697989934
 20
-305.8499866801
 30
0.0
  0
SEQEND
  5
A26
  8
VIDITELNE
  6
SLD-PLNÁ
 62
     2
  0
LINE
  5
67A
  8
VIDITELNE
  6
SLD-PLNÁ
 62
     2
 10
57.0697989934
 20
-393.3150129268
 30
0.0
 11
57.0697989934
 21
-309.152157067
 31
0.0
  0
POLYLINE
  5
67B
  8
VIDITELNE
  6
SLD-PLNÁ
 62
     2
 66
     1
 10
0.0
 20
0.0
 30
0.0
  0
VERTEX
  5
A27
  8
VIDITELNE
  6
SLD-PLNÁ
 62
     2
 10
57.0697989934
 20
-397.9849870732
 30
0.0
  0
VERTEX
  5
A28
  8
VIDITELNE
  6
SLD-PLNÁ
 62
     2
 10
57.0892079691
 20
-396.4555585499
 30
0.0
  0
VERTEX
  5
A29
  8
VIDITELNE
  6
SLD-PLNÁ
 62
     2
 10
57.0697989934
 20
-393.3150129268
 30
0.0
  0
SEQEND
  5
A2A
  8
VIDITELNE
  6
SLD-PLNÁ
 62
     2
  0
LINE
  5
67C
  8
VIDITELNE
  6
SLD-PLNÁ
 62
     2
 10
57.0697989934
 20
-482.147842933
 30
0.0
 11
57.0697989934
 21
-397.9849870732
 31
0.0
  0
LINE
  5
67D
  8
VIDITELNE
  6
SLD-PLNÁ
 62
     2
 10
48.0
 20
-395.65
 30
0.0
 11
48.0
 21
-270.65
 31
0.0
  0
LINE
  5
67E
  8
VIDITELNE
  6
SLD-PLNÁ
 62
     2
 10
48.0
 20
-520.65
 30
0.0
 11
48.0
 21
-395.65
 31
0.0
  0
ARC
  5
67F
  8
VIDITELNE
  6
SLD-PLNÁ
 62
     2
 10
57.5411458116
 20
-418.7944825835
 30
0.0
 40
25.48382902565695
 50
86.7182361343
 51
91.0597984854
  0
LINE
  5
680
  8
VIDITELNE
  6
SLD-PLNÁ
 62
     2
 10
59.0
 20
-393.3524448061
 30
0.0
 11
59.0
 21
-397.9475551939
 31
0.0
  0
ARC
  5
681
  8
VIDITELNE
  6
SLD-PLNÁ
 62
     2
 10
57.5411458116
 20
-372.5055174165
 30
0.0
 40
25.48382902574058
 50
268.9402015146
 51
273.2817638657
  0
LINE
  5
682
  8
VIDITELNE
  6
SLD-PLNÁ
 62
     2
 10
59.0
 20
-310.5387929304
 30
0.0
 11
59.0
 21
-393.3524448061
 31
0.0
  0
ARC
  5
683
  8
VIDITELNE
  6
SLD-PLNÁ
 62
     2
 10
57.2808038361
 20
-310.8951782709
 30
0.0
 40
1.755746553723583
 50
11.7114058078
 51
96.9024654221
  0
LINE
  5
684
  8
VIDITELNE
  6
SLD-PLNÁ
 62
     2
 10
59.0
 20
-397.9475551939
 30
0.0
 11
59.0
 21
-480.7612070696
 31
0.0
  0
ARC
  5
685
  8
VIDITELNE
  6
SLD-PLNÁ
 62
     2
 10
57.2808038361
 20
-480.4048217291
 30
0.0
 40
1.755746553723678
 50
263.0975345779
 51
348.2885941922
  0
LINE
  5
686
  8
VIDITELNE
  6
SLD-PLNÁ
 62
     2
 10
69.0
 20
-395.65
 30
0.0
 11
69.0
 21
-402.65
 31
0.0
  0
LINE
  5
687
  8
VIDITELNE
  6
SLD-PLNÁ
 62
     2
 10
69.0
 20
-388.65
 30
0.0
 11
69.0
 21
-395.65
 31
0.0
  0
LINE
  5
688
  8
VIDITELNE
  6
SLD-PLNÁ
 62
     2
 10
59.0
 20
-307.2895592148
 30
0.0
 11
59.0
 21
-310.5387929304
 31
0.0
  0
ARC
  5
689
  8
VIDITELNE
  6
SLD-PLNÁ
 62
     2
 10
57.2605318293
 20
-307.6080570318
 30
0.0
 40
1.768386376468022
 50
10.3759610839
 51
96.1917952532
  0
LINE
  5
68A
  8
VIDITELNE
  6
SLD-PLNÁ
 62
     2
 10
59.0
 20
-480.7612070696
 30
0.0
 11
59.0
 21
-484.0104407852
 31
0.0
  0
ARC
  5
68B
  8
VIDITELNE
  6
SLD-PLNÁ
 62
     2
 10
57.2605318293
 20
-483.6919429682
 30
0.0
 40
1.768386376468956
 50
263.8082047469
 51
349.6240389161
  0
LINE
  5
68C
  8
VIDITELNE
  6
SLD-PLNÁ
 62
     2
 10
69.0
 20
-314.3327201635
 30
0.0
 11
69.0
 21
-321.3327201635
 31
0.0
  0
LINE
  5
68D
  8
VIDITELNE
  6
SLD-PLNÁ
 62
     2
 10
69.0
 20
-307.3327201635
 30
0.0
 11
69.0
 21
-314.3327201635
 31
0.0
  0
LINE
  5
68E
  8
VIDITELNE
  6
SLD-PLNÁ
 62
     2
 10
69.0
 20
-476.9672798365
 30
0.0
 11
69.0
 21
-483.9672798365
 31
0.0
  0
LINE
  5
68F
  8
VIDITELNE
  6
SLD-PLNÁ
 62
     2
 10
69.0
 20
-469.9672798365
 30
0.0
 11
69.0
 21
-476.9672798365
 31
0.0
  0
ARC
  5
690
  8
VIDITELNE
  6
SLD-PLNÁ
 62
     2
 10
57.0001898538
 20
-272.9871886479
 30
0.0
 40
1.999810153231846
 50
0.0047900837
 51
88.0052527911
  0
LINE
  5
691
  8
VIDITELNE
  6
SLD-PLNÁ
 62
     2
 10
59.0
 20
-272.9870214583
 30
0.0
 11
59.0
 21
-307.2895592148
 31
0.0
  0
ARC
  5
692
  8
VIDITELNE
  6
SLD-PLNÁ
 62
     2
 10
57.0001898538
 20
-518.3128113521
 30
0.0
 40
1.99981015323214
 50
271.9947472089
 51
359.9952099163
  0
LINE
  5
693
  8
VIDITELNE
  6
SLD-PLNÁ
 62
     2
 10
59.0
 20
-484.0104407852
 30
0.0
 11
59.0
 21
-518.3129785417
 31
0.0
  0
LINE
  5
694
  8
VIDITELNE
  6
SLD-PLNÁ
 62
     2
 10
59.0
 20
-272.6527882181
 30
0.0
 11
59.0
 21
-272.9870214583
 31
0.0
  0
LINE
  5
695
  8
VIDITELNE
  6
SLD-PLNÁ
 62
     2
 10
69.0
 20
-280.65
 30
0.0
 11
69.0
 21
-287.65
 31
0.0
  0
LINE
  5
696
  8
VIDITELNE
  6
SLD-PLNÁ
 62
     2
 10
69.0
 20
-273.65
 30
0.0
 11
69.0
 21
-280.65
 31
0.0
  0
LINE
  5
697
  8
VIDITELNE
  6
SLD-PLNÁ
 62
     2
 10
69.0
 20
-510.65
 30
0.0
 11
69.0
 21
-517.65
 31
0.0
  0
LINE
  5
698
  8
VIDITELNE
  6
SLD-PLNÁ
 62
     2
 10
69.0
 20
-503.65
 30
0.0
 11
69.0
 21
-510.65
 31
0.0
  0
LINE
  5
699
  8
VIDITELNE
  6
SLD-PLNÁ
 62
     2
 10
59.0
 20
-518.3129785417
 30
0.0
 11
59.0
 21
-518.65
 31
0.0
  0
LINE
  5
69A
  8
VIDITELNE
  6
SLD-PLNÁ
 62
     2
 10
-79.0
 20
-520.2658715356
 30
0.0
 11
-79.0
 21
-271.0341284644
 31
0.0
  0
LINE
  5
69B
  8
VIDITELNE
  6
SLD-PLNÁ
 62
     2
 10
-89.0
 20
-402.65
 30
0.0
 11
-89.0
 21
-388.65
 31
0.0
  0
LINE
  5
69C
  8
VIDITELNE
  6
SLD-PLNÁ
 62
     2
 10
-90.5
 20
-363.0228323243
 30
0.0
 11
-79.0
 21
-352.6832401246
 31
0.0
  0
LINE
  5
69D
  8
VIDITELNE
  6
SLD-PLNÁ
 62
     2
 10
-79.0
 20
-360.4798871613
 30
0.0
 11
-90.5
 21
-363.0228323243
 31
0.0
  0
LINE
  5
69E
  8
VIDITELNE
  6
SLD-PLNÁ
 62
     2
 10
-90.5
 20
-363.0228323243
 30
0.0
 11
-90.5
 21
-355.6317960642
 31
0.0
  0
LINE
  5
69F
  8
VIDITELNE
  6
SLD-PLNÁ
 62
     2
 10
-79.0
 20
-345.2922038645
 30
0.0
 11
-90.5
 21
-355.6317960642
 31
0.0
  0
LINE
  5
6A0
  8
VIDITELNE
  6
SLD-PLNÁ
 62
     2
 10
-90.5
 20
-435.6682039358
 30
0.0
 11
-79.0
 21
-446.0077961355
 31
0.0
  0
LINE
  5
6A1
  8
VIDITELNE
  6
SLD-PLNÁ
 62
     2
 10
-90.5
 20
-435.6682039358
 30
0.0
 11
-90.5
 21
-428.2771676757
 31
0.0
  0
LINE
  5
6A2
  8
VIDITELNE
  6
SLD-PLNÁ
 62
     2
 10
-79.0
 20
-438.6167598754
 30
0.0
 11
-90.5
 21
-428.2771676757
 31
0.0
  0
LINE
  5
6A3
  8
VIDITELNE
  6
SLD-PLNÁ
 62
     2
 10
-90.5
 20
-428.2771676757
 30
0.0
 11
-79.0
 21
-430.8201128387
 31
0.0
  0
LINE
  5
6A4
  8
VIDITELNE
  6
SLD-PLNÁ
 62
     2
 10
-90.5
 20
-428.2771676757
 30
0.0
 11
-90.5
 21
-363.0228323243
 31
0.0
  0
LINE
  5
6A5
  8
VIDITELNE
  6
SLD-PLNÁ
 62
     2
 10
-79.0
 20
-303.3508003345
 30
0.0
 11
-84.5857452259
 21
-306.3327201635
 31
0.0
  0
LINE
  5
6A6
  8
VIDITELNE
  6
SLD-PLNÁ
 62
     2
 10
-89.0
 20
-308.6892461613
 30
0.0
 11
-90.5
 21
-309.4900130353
 31
0.0
  0
LINE
  5
6A7
  8
VIDITELNE
  6
SLD-PLNÁ
 62
     2
 10
-90.5
 20
-355.6317960642
 30
0.0
 11
-90.5
 21
-309.4900130353
 31
0.0
  0
LINE
  5
6A8
  8
VIDITELNE
  6
SLD-PLNÁ
 62
     2
 10
-90.5
 20
-481.8099869647
 30
0.0
 11
-89.0
 21
-482.6107538387
 31
0.0
  0
LINE
  5
6A9
  8
VIDITELNE
  6
SLD-PLNÁ
 62
     2
 10
-84.5857452259
 20
-484.9672798365
 30
0.0
 11
-79.0
 21
-487.9491996655
 31
0.0
  0
LINE
  5
6AA
  8
VIDITELNE
  6
SLD-PLNÁ
 62
     2
 10
-90.5
 20
-481.8099869647
 30
0.0
 11
-90.5
 21
-435.6682039358
 31
0.0
  0
LINE
  5
6AB
  8
VIDITELNE
  6
SLD-PLNÁ
 62
     2
 10
-89.0
 20
-321.3327201635
 30
0.0
 11
-89.0
 21
-307.3327201635
 31
0.0
  0
LINE
  5
6AC
  8
VIDITELNE
  6
SLD-PLNÁ
 62
     2
 10
-89.0
 20
-483.9672798365
 30
0.0
 11
-89.0
 21
-469.9672798365
 31
0.0
  0
LINE
  5
6AD
  8
VIDITELNE
  6
SLD-PLNÁ
 62
     2
 10
-94.0
 20
-460.65
 30
0.0
 11
-94.0
 21
-330.65
 31
0.0
  0
LINE
  5
6AE
  8
VIDITELNE
  6
SLD-PLNÁ
 62
     2
 10
-79.0
 20
-506.7719706826
 30
0.0
 11
-90.5
 21
-481.8099869647
 31
0.0
  0
LINE
  5
6AF
  8
VIDITELNE
  6
SLD-PLNÁ
 62
     2
 10
-90.5
 20
-484.8714544236
 30
0.0
 11
-79.0
 21
-509.8334381415
 31
0.0
  0
LINE
  5
6B0
  8
VIDITELNE
  6
SLD-PLNÁ
 62
     2
 10
-90.5
 20
-484.8714544236
 30
0.0
 11
-90.5
 21
-481.8099869647
 31
0.0
  0
LINE
  5
6B1
  8
VIDITELNE
  6
SLD-PLNÁ
 62
     2
 10
-90.5
 20
-309.4900130353
 30
0.0
 11
-79.0
 21
-284.5280293174
 31
0.0
  0
LINE
  5
6B2
  8
VIDITELNE
  6
SLD-PLNÁ
 62
     2
 10
-79.0
 20
-281.4665618585
 30
0.0
 11
-90.5
 21
-306.4285455764
 31
0.0
  0
LINE
  5
6B3
  8
VIDITELNE
  6
SLD-PLNÁ
 62
     2
 10
-90.5
 20
-309.4900130353
 30
0.0
 11
-90.5
 21
-306.4285455764
 31
0.0
  0
LINE
  5
6B4
  8
VIDITELNE
  6
SLD-PLNÁ
 62
     2
 10
-90.5
 20
-490.65
 30
0.0
 11
-90.5
 21
-484.8714544236
 31
0.0
  0
LINE
  5
6B5
  8
VIDITELNE
  6
SLD-PLNÁ
 62
     2
 10
-90.5
 20
-306.4285455764
 30
0.0
 11
-90.5
 21
-300.65
 31
0.0
  0
LINE
  5
6B6
  8
VIDITELNE
  6
SLD-PLNÁ
 62
     2
 10
-89.0
 20
-287.65
 30
0.0
 11
-89.0
 21
-273.65
 31
0.0
  0
LINE
  5
6B7
  8
VIDITELNE
  6
SLD-PLNÁ
 62
     2
 10
-89.0
 20
-517.65
 30
0.0
 11
-89.0
 21
-503.65
 31
0.0
  0
POLYLINE
  5
6B8
  8
VIDITELNE
  6
SLD-PLNÁ
 62
     2
 66
     1
 10
0.0
 20
0.0
 30
0.0
  0
VERTEX
  5
A2B
  8
VIDITELNE
  6
SLD-PLNÁ
 62
     2
 10
-5.8167155204
 20
-400.4624559199
 30
0.0
  0
VERTEX
  5
A2C
  8
VIDITELNE
  6
SLD-PLNÁ
 62
     2
 10
-5.7745721588
 20
-400.5461436434
 30
0.0
  0
VERTEX
  5
A2D
  8
VIDITELNE
  6
SLD-PLNÁ
 62
     2
 10
-5.2532288407
 20
-401.8374387881
 30
0.0
  0
SEQEND
  5
A2E
  8
VIDITELNE
  6
SLD-PLNÁ
 62
     2
  0
ARC
  5
6B9
  8
VIDITELNE
  6
SLD-PLNÁ
 62
     2
 10
-22.5053747429
 20
-409.9935283395
 30
0.0
 40
19.08293308171137
 50
17.7707066335
 51
25.3028163852
  0
ARC
  5
6BA
  8
VIDITELNE
  6
SLD-PLNÁ
 62
     2
 10
48.1767469439
 20
-428.0173243904
 30
0.0
 40
68.15245705803385
 50
157.4098128093
 51
159.5174349925
  0
LINE
  5
6BB
  8
VIDITELNE
  6
SLD-PLNÁ
 62
     2
 10
-14.7467823776
 20
-401.8374301818
 30
0.0
 11
-14.1896777165
 21
-400.6290879777
 31
0.0
  0
LINE
  5
6BC
  8
VIDITELNE
  6
SLD-PLNÁ
 62
     2
 10
-10.0
 20
-395.65
 30
0.0
 11
-13.9999770851
 21
-395.65
 31
0.0
  0
LINE
  5
6BD
  8
VIDITELNE
  6
SLD-PLNÁ
 62
     2
 10
-6.000012451
 20
-395.65
 30
0.0
 11
-10.0
 21
-395.65
 31
0.0
  0
POLYLINE
  5
6BE
  8
VIDITELNE
  6
SLD-PLNÁ
 62
     2
 66
     1
 10
0.0
 20
0.0
 30
0.0
  0
VERTEX
  5
A2F
  8
VIDITELNE
  6
SLD-PLNÁ
 62
     2
 10
-14.1831571891
 20
-390.8396781935
 30
0.0
  0
VERTEX
  5
A30
  8
VIDITELNE
  6
SLD-PLNÁ
 62
     2
 10
-14.2160692673
 20
-390.7744250205
 30
0.0
  0
VERTEX
  5
A31
  8
VIDITELNE
  6
SLD-PLNÁ
 62
     2
 10
-14.7467823776
 20
-389.4625698182
 30
0.0
  0
SEQEND
  5
A32
  8
VIDITELNE
  6
SLD-PLNÁ
 62
     2
  0
ARC
  5
6BF
  8
VIDITELNE
  6
SLD-PLNÁ
 62
     2
 10
2.4820932479
 20
-381.3157989783
 30
0.0
 40
19.05791254143035
 50
197.7653628289
 51
205.3073893692
  0
ARC
  5
6C0
  8
VIDITELNE
  6
SLD-PLNÁ
 62
     2
 10
-68.6403476544
 20
-363.0992202628
 30
0.0
 40
68.65094738967217
 50
337.4170821323
 51
339.509394849
  0
LINE
  5
6C1
  8
VIDITELNE
  6
SLD-PLNÁ
 62
     2
 10
-5.2532288407
 20
-389.4625612119
 30
0.0
 11
-5.8102642174
 21
-390.6706456602
 31
0.0
  0
ARC
  5
6C2
  8
VIDITELNE
  6
SLD-PLNÁ
 62
     2
 10
-10.0
 20
-395.65
 30
0.0
 40
7.798476466232907
 50
307.494068554
 51
52.505931446
  0
ARC
  5
6C3
  8
VIDITELNE
  6
SLD-PLNÁ
 62
     2
 10
-10.0
 20
-395.65
 30
0.0
 40
7.79847646623288
 50
127.4941724357
 51
232.5058275643
  0
ARC
  5
6C4
  8
VIDITELNE
  6
SLD-PLNÁ
 62
     2
 10
-10.0
 20
-395.65
 30
0.0
 40
10.23195519226863
 50
303.6319354642
 51
56.3680645358
  0
ARC
  5
6C5
  8
VIDITELNE
  6
SLD-PLNÁ
 62
     2
 10
-10.0
 20
-395.65
 30
0.0
 40
10.2319551922692
 50
123.6319167472
 51
236.3680832528
  0
ARC
  5
6C6
  8
VIDITELNE
  6
SLD-PLNÁ
 62
     2
 10
-10.0
 20
-395.65
 30
0.0
 40
11.49999999999997
 50
119.6876819111
 51
240.3112313773
  0
ARC
  5
6C7
  8
VIDITELNE
  6
SLD-PLNÁ
 62
     2
 10
-10.0
 20
-395.65
 30
0.0
 40
11.49999999999998
 50
299.6837589263
 51
60.313000748
  0
LINE
  5
6C8
  8
VIDITELNE
  6
SLD-PLNÁ
 62
     2
 10
34.8524671544
 20
-257.65
 30
0.0
 11
-9.1492731765
 21
-257.65
 31
0.0
  0
LINE
  5
6C9
  8
VIDITELNE
  6
SLD-PLNÁ
 62
     2
 10
42.2892562945
 20
-257.65
 30
0.0
 11
35.7031939779
 21
-257.65
 31
0.0
  0
LINE
  5
6CA
  8
VIDITELNE
  6
SLD-PLNÁ
 62
     2
 10
-55.7031939779
 20
-257.65
 30
0.0
 11
-62.2892562945
 21
-257.65
 31
0.0
  0
LINE
  5
6CB
  8
VIDITELNE
  6
SLD-PLNÁ
 62
     2
 10
-10.8507268235
 20
-257.65
 30
0.0
 11
-54.8524671544
 21
-257.65
 31
0.0
  0
LINE
  5
6CC
  8
VIDITELNE
  6
SLD-PLNÁ
 62
     2
 10
-10.0
 20
-252.35
 30
0.0
 11
-10.0
 21
-257.65
 31
0.0
  0
LINE
  5
6CD
  8
VIDITELNE
  6
SLD-PLNÁ
 62
     2
 10
-10.0
 20
-252.35
 30
0.0
 11
-5.0
 21
-252.35
 31
0.0
  0
LINE
  5
6CE
  8
VIDITELNE
  6
SLD-PLNÁ
 62
     2
 10
-5.0
 20
-252.35
 30
0.0
 11
-5.0
 21
-257.65
 31
0.0
  0
LINE
  5
6CF
  8
VIDITELNE
  6
SLD-PLNÁ
 62
     2
 10
-10.0
 20
-257.65
 30
0.0
 11
-9.1492731765
 21
-257.65
 31
0.0
  0
LINE
  5
6D0
  8
VIDITELNE
  6
SLD-PLNÁ
 62
     2
 10
-15.0
 20
-252.35
 30
0.0
 11
-15.0
 21
-257.65
 31
0.0
  0
LINE
  5
6D1
  8
VIDITELNE
  6
SLD-PLNÁ
 62
     2
 10
-15.0
 20
-252.35
 30
0.0
 11
-10.0
 21
-252.35
 31
0.0
  0
LINE
  5
6D2
  8
VIDITELNE
  6
SLD-PLNÁ
 62
     2
 10
-10.8507268235
 20
-257.65
 30
0.0
 11
-10.0
 21
-257.65
 31
0.0
  0
LINE
  5
6D3
  8
VIDITELNE
  6
SLD-PLNÁ
 62
     2
 10
25.7031939779
 20
-252.35
 30
0.0
 11
25.7031939779
 21
-257.65
 31
0.0
  0
LINE
  5
6D4
  8
VIDITELNE
  6
SLD-PLNÁ
 62
     2
 10
25.7031939779
 20
-252.35
 30
0.0
 11
30.7031939779
 21
-252.35
 31
0.0
  0
LINE
  5
6D5
  8
VIDITELNE
  6
SLD-PLNÁ
 62
     2
 10
30.7031939779
 20
-252.35
 30
0.0
 11
30.7031939779
 21
-257.65
 31
0.0
  0
LINE
  5
6D6
  8
VIDITELNE
  6
SLD-PLNÁ
 62
     2
 10
35.7031939779
 20
-252.35
 30
0.0
 11
35.7031939779
 21
-257.65
 31
0.0
  0
LINE
  5
6D7
  8
VIDITELNE
  6
SLD-PLNÁ
 62
     2
 10
34.8524671544
 20
-257.65
 30
0.0
 11
35.7031939779
 21
-257.65
 31
0.0
  0
LINE
  5
6D8
  8
VIDITELNE
  6
SLD-PLNÁ
 62
     2
 10
30.7031939779
 20
-252.35
 30
0.0
 11
35.7031939779
 21
-252.35
 31
0.0
  0
LINE
  5
6D9
  8
VIDITELNE
  6
SLD-PLNÁ
 62
     2
 10
-55.7031939779
 20
-252.35
 30
0.0
 11
-55.7031939779
 21
-257.65
 31
0.0
  0
LINE
  5
6DA
  8
VIDITELNE
  6
SLD-PLNÁ
 62
     2
 10
-50.7031939779
 20
-252.35
 30
0.0
 11
-50.7031939779
 21
-257.65
 31
0.0
  0
LINE
  5
6DB
  8
VIDITELNE
  6
SLD-PLNÁ
 62
     2
 10
-55.7031939779
 20
-257.65
 30
0.0
 11
-54.8524671544
 21
-257.65
 31
0.0
  0
LINE
  5
6DC
  8
VIDITELNE
  6
SLD-PLNÁ
 62
     2
 10
-55.7031939779
 20
-252.35
 30
0.0
 11
-50.7031939779
 21
-252.35
 31
0.0
  0
LINE
  5
6DD
  8
VIDITELNE
  6
SLD-PLNÁ
 62
     2
 10
-45.7031939779
 20
-252.35
 30
0.0
 11
-45.7031939779
 21
-257.65
 31
0.0
  0
LINE
  5
6DE
  8
VIDITELNE
  6
SLD-PLNÁ
 62
     2
 10
-50.7031939779
 20
-252.35
 30
0.0
 11
-45.7031939779
 21
-252.35
 31
0.0
  0
LINE
  5
6DF
  8
VIDITELNE
  6
SLD-PLNÁ
 62
     2
 10
114.6483548705
 20
-537.5802010066
 30
0.0
 11
-134.6483548705
 21
-537.5802010066
 31
0.0
  0
LINE
  5
6E0
  8
VIDITELNE
  6
SLD-PLNÁ
 62
     2
 10
45.2481015383
 20
-532.7546984901
 30
0.0
 11
-65.2481015383
 21
-532.7546984901
 31
0.0
  0
ARC
  5
6E1
  8
VIDITELNE
  6
SLD-PLNÁ
 62
     2
 10
-63.5249692744
 20
-274.3506492686
 30
0.0
 40
3.483059565159191
 50
115.0549380399
 51
183.8910519421
  0
ARC
  5
6E2
  8
VIDITELNE
  6
SLD-PLNÁ
 62
     2
 10
-63.507792309
 20
-516.9448599116
 30
0.0
 40
3.499896745190186
 50
176.2013785398
 51
244.7633725658
  0
ARC
  5
6E3
  8
VIDITELNE
  6
SLD-PLNÁ
 62
     2
 10
43.5249692744
 20
-516.9493507314
 30
0.0
 40
3.483059565160877
 50
295.0549380399
 51
3.8910519421
  0
ARC
  5
6E4
  8
VIDITELNE
  6
SLD-PLNÁ
 62
     2
 10
43.507792309
 20
-274.3551400884
 30
0.0
 40
3.499896745188781
 50
356.2013785398
 51
64.7633725658
  0
LINE
  5
6E5
  8
VIDITELNE
  6
SLD-PLNÁ
 62
     2
 10
122.0
 20
-395.65
 30
0.0
 11
122.0
 21
-520.65
 31
0.0
  0
LINE
  5
6E6
  8
VIDITELNE
  6
SLD-PLNÁ
 62
     2
 10
122.0
 20
-270.65
 30
0.0
 11
122.0
 21
-395.65
 31
0.0
  0
LINE
  5
6E7
  8
VIDITELNE
  6
SLD-PLNÁ
 62
     2
 10
57.0842297993
 20
-520.3252284785
 30
0.0
 11
57.0697989934
 21
-520.3114096651
 31
0.0
  0
LINE
  5
6E8
  8
VIDITELNE
  6
SLD-PLNÁ
 62
     2
 10
57.0697989934
 20
-270.9885903349
 30
0.0
 11
57.0892079691
 21
-270.9700044696
 31
0.0
  0
LINE
  5
6E9
  8
VIDITELNE
  6
SLD-PLNÁ
 62
     2
 10
68.0
 20
-395.65
 30
0.0
 11
68.0
 21
-387.65
 31
0.0
  0
LINE
  5
6EA
  8
VIDITELNE
  6
SLD-PLNÁ
 62
     2
 10
68.0
 20
-403.65
 30
0.0
 11
68.0
 21
-395.65
 31
0.0
  0
LINE
  5
6EB
  8
VIDITELNE
  6
SLD-PLNÁ
 62
     2
 10
119.1471528727
 20
-484.5600938499
 30
0.0
 11
119.1471528727
 21
-306.7399061501
 31
0.0
  0
LINE
  5
6EC
  8
VIDITELNE
  6
SLD-PLNÁ
 62
     2
 10
68.0
 20
-314.3327201635
 30
0.0
 11
68.0
 21
-306.3327201635
 31
0.0
  0
LINE
  5
6ED
  8
VIDITELNE
  6
SLD-PLNÁ
 62
     2
 10
68.0
 20
-322.3327201635
 30
0.0
 11
68.0
 21
-314.3327201635
 31
0.0
  0
LINE
  5
6EE
  8
VIDITELNE
  6
SLD-PLNÁ
 62
     2
 10
68.0
 20
-476.9672798365
 30
0.0
 11
68.0
 21
-468.9672798365
 31
0.0
  0
LINE
  5
6EF
  8
VIDITELNE
  6
SLD-PLNÁ
 62
     2
 10
68.0
 20
-484.9672798365
 30
0.0
 11
68.0
 21
-476.9672798365
 31
0.0
  0
LINE
  5
6F0
  8
VIDITELNE
  6
SLD-PLNÁ
 62
     2
 10
86.2913882374
 20
-395.65
 30
0.0
 11
86.2913882374
 21
-329.7457602214
 31
0.0
  0
LINE
  5
6F1
  8
VIDITELNE
  6
SLD-PLNÁ
 62
     2
 10
86.2913882374
 20
-461.5542397786
 30
0.0
 11
86.2913882374
 21
-395.65
 31
0.0
  0
LINE
  5
6F2
  8
VIDITELNE
  6
SLD-PLNÁ
 62
     2
 10
61.0
 20
-330.65
 30
0.0
 11
61.0
 21
-387.65
 31
0.0
  0
LINE
  5
6F3
  8
VIDITELNE
  6
SLD-PLNÁ
 62
     2
 10
61.0
 20
-403.65
 30
0.0
 11
61.0
 21
-460.65
 31
0.0
  0
LINE
  5
6F4
  8
VIDITELNE
  6
SLD-PLNÁ
 62
     2
 10
83.4235060556
 20
-395.65
 30
0.0
 11
83.4235060556
 21
-330.65
 31
0.0
  0
LINE
  5
6F5
  8
VIDITELNE
  6
SLD-PLNÁ
 62
     2
 10
83.4235060556
 20
-460.65
 30
0.0
 11
83.4235060556
 21
-395.65
 31
0.0
  0
LINE
  5
6F6
  8
VIDITELNE
  6
SLD-PLNÁ
 62
     2
 10
68.0
 20
-280.65
 30
0.0
 11
68.0
 21
-272.65
 31
0.0
  0
LINE
  5
6F7
  8
VIDITELNE
  6
SLD-PLNÁ
 62
     2
 10
68.0
 20
-288.65
 30
0.0
 11
68.0
 21
-280.65
 31
0.0
  0
LINE
  5
6F8
  8
VIDITELNE
  6
SLD-PLNÁ
 62
     2
 10
68.0
 20
-510.65
 30
0.0
 11
68.0
 21
-502.65
 31
0.0
  0
LINE
  5
6F9
  8
VIDITELNE
  6
SLD-PLNÁ
 62
     2
 10
68.0
 20
-518.65
 30
0.0
 11
68.0
 21
-510.65
 31
0.0
  0
LINE
  5
6FA
  8
VIDITELNE
  6
SLD-PLNÁ
 62
     2
 10
-88.0
 20
-387.65
 30
0.0
 11
-88.0
 21
-403.65
 31
0.0
  0
LINE
  5
6FB
  8
VIDITELNE
  6
SLD-PLNÁ
 62
     2
 10
-88.0
 20
-306.3327201635
 30
0.0
 11
-88.0
 21
-322.3327201635
 31
0.0
  0
LINE
  5
6FC
  8
VIDITELNE
  6
SLD-PLNÁ
 62
     2
 10
-88.0
 20
-468.9672798365
 30
0.0
 11
-88.0
 21
-484.9672798365
 31
0.0
  0
LINE
  5
6FD
  8
VIDITELNE
  6
SLD-PLNÁ
 62
     2
 10
-88.0
 20
-272.65
 30
0.0
 11
-88.0
 21
-288.65
 31
0.0
  0
LINE
  5
6FE
  8
VIDITELNE
  6
SLD-PLNÁ
 62
     2
 10
-88.0
 20
-502.65
 30
0.0
 11
-88.0
 21
-518.65
 31
0.0
  0
LINE
  5
6FF
  8
VIDITELNE
  6
SLD-PLNÁ
 62
     2
 10
44.2880379485
 20
-259.5802010066
 30
0.0
 11
-64.2880379485
 21
-259.5802010066
 31
0.0
  0
ENDSEC
  0
EOF
