  0
SECTION
  2
HEADER
  9
$ACADVER
  1
AC1009
  9
$DWGCODEPAGE
  3
ansi_1250
  9
$INSBASE
 10
0.0
 20
0.0
 30
0.0
  9
$EXTMIN
 10
0.0
 20
0.0
 30
0.0
  9
$EXTMAX
 10
279.4
 20
215.9
 30
0.0
  9
$LIMMIN
 10
0.0
 20
0.0
  9
$LIMMAX
 10
279.4
 20
215.9
  9
$ORTHOMODE
 70
     0
  9
$REGENMODE
 70
     1
  9
$FILLMODE
 70
     1
  9
$QTEXTMODE
 70
     0
  9
$MIRRTEXT
 70
     1
  9
$DRAGMODE
 70
     2
  9
$LTSCALE
 40
1.0
  9
$OSMODE
 70
    37
  9
$ATTMODE
 70
     1
  9
$TEXTSIZE
 40
3.5
  9
$TRACEWID
 40
1.0
  9
$TEXTSTYLE
  7
STANDARD
  9
$CLAYER
  8
0
  9
$CELTYPE
  6
BYLAYER
  9
$CECOLOR
 62
   256
  9
$DIMSCALE
 40
1.0
  9
$DIMASZ
 40
6.0
  9
$DIMEXO
 40
1.0
  9
$DIMDLI
 40
3.75
  9
$DIMRND
 40
0.0
  9
$DIMDLE
 40
0.0
  9
$DIMEXE
 40
1.0
  9
$DIMTP
 40
0.0
  9
$DIMTM
 40
0.0
  9
$DIMTXT
 40
3.5
  9
$DIMCEN
 40
2.5
  9
$DIMTSZ
 40
0.0
  9
$DIMTOL
 70
     0
  9
$DIMLIM
 70
     0
  9
$DIMTIH
 70
     1
  9
$DIMTOH
 70
     1
  9
$DIMSE1
 70
     0
  9
$DIMSE2
 70
     0
  9
$DIMTAD
 70
     1
  9
$DIMZIN
 70
     0
  9
$DIMBLK
  1

  9
$DIMASO
 70
     1
  9
$DIMSHO
 70
     1
  9
$DIMPOST
  1

  9
$DIMAPOST
  1

  9
$DIMALT
 70
     0
  9
$DIMALTD
 70
     3
  9
$DIMALTF
 40
0.0393700787
  9
$DIMLFAC
 40
1.0
  9
$DIMTOFL
 70
     1
  9
$DIMTVP
 40
0.0
  9
$DIMTIX
 70
     0
  9
$DIMSOXD
 70
     0
  9
$DIMSAH
 70
     0
  9
$DIMBLK1
  1

  9
$DIMBLK2
  1

  9
$DIMSTYLE
  2
ISO-25
  9
$DIMCLRD
 70
     0
  9
$DIMCLRE
 70
     0
  9
$DIMCLRT
 70
     0
  9
$DIMTFAC
 40
1.0
  9
$DIMGAP
 40
1.524
  9
$LUNITS
 70
     2
  9
$LUPREC
 70
     2
  9
$SKETCHINC
 40
1.0
  9
$FILLETRAD
 40
10.0
  9
$AUNITS
 70
     0
  9
$AUPREC
 70
     2
  9
$MENU
  1
.
  9
$ELEVATION
 40
0.0
  9
$PELEVATION
 40
0.0
  9
$THICKNESS
 40
0.0
  9
$LIMCHECK
 70
     0
  9
$CHAMFERA
 40
10.0
  9
$CHAMFERB
 40
10.0
  9
$SKPOLY
 70
     0
  9
$TDCREATE
 40
2455964.307958622
  9
$TDUPDATE
 40
2455964.307958634
  9
$TDINDWG
 40
0.0000000116
  9
$TDUSRTIMER
 40
0.0000000116
  9
$USRTIMER
 70
     1
  9
$ANGBASE
 50
0.0
  9
$ANGDIR
 70
     0
  9
$PDMODE
 70
     0
  9
$PDSIZE
 40
-1.0
  9
$PLINEWID
 40
0.0
  9
$COORDS
 70
     1
  9
$SPLFRAME
 70
     0
  9
$SPLINETYPE
 70
     6
  9
$SPLINESEGS
 70
     8
  9
$ATTDIA
 70
     0
  9
$ATTREQ
 70
     1
  9
$HANDLING
 70
     1
  9
$HANDSEED
  5
9FB
  9
$SURFTAB1
 70
     6
  9
$SURFTAB2
 70
     6
  9
$SURFTYPE
 70
     6
  9
$SURFU
 70
     6
  9
$SURFV
 70
     6
  9
$UCSNAME
  2

  9
$UCSORG
 10
0.0
 20
0.0
 30
0.0
  9
$UCSXDIR
 10
1.0
 20
0.0
 30
0.0
  9
$UCSYDIR
 10
0.0
 20
1.0
 30
0.0
  9
$PUCSNAME
  2

  9
$PUCSORG
 10
0.0
 20
0.0
 30
0.0
  9
$PUCSXDIR
 10
1.0
 20
0.0
 30
0.0
  9
$PUCSYDIR
 10
0.0
 20
1.0
 30
0.0
  9
$USERI1
 70
     0
  9
$USERI2
 70
     0
  9
$USERI3
 70
     0
  9
$USERI4
 70
     0
  9
$USERI5
 70
     0
  9
$USERR1
 40
0.0
  9
$USERR2
 40
0.0
  9
$USERR3
 40
0.0
  9
$USERR4
 40
0.0
  9
$USERR5
 40
0.0
  9
$WORLDVIEW
 70
     1
  9
$SHADEDGE
 70
     3
  9
$SHADEDIF
 70
    70
  9
$TILEMODE
 70
     1
  9
$MAXACTVP
 70
    64
  9
$PLIMCHECK
 70
     0
  9
$PEXTMIN
 10
1.0000000000E+20
 20
1.0000000000E+20
 30
1.0000000000E+20
  9
$PEXTMAX
 10
-1.0000000000E+20
 20
-1.0000000000E+20
 30
-1.0000000000E+20
  9
$PLIMMIN
 10
0.0
 20
0.0
  9
$PLIMMAX
 10
420.0
 20
297.0
  9
$UNITMODE
 70
     0
  9
$VISRETAIN
 70
     1
  9
$PLINEGEN
 70
     0
  9
$PSLTSCALE
 70
     1
  0
ENDSEC
  0
SECTION
  2
TABLES
  0
TABLE
  2
VPORT
 70
     1
  0
VPORT
  2
*ACTIVE
 70
     0
 10
0.0
 20
0.0
 11
1.0
 21
1.0
 12
139.7
 22
107.95
 13
0.0
 23
0.0
 14
10.0
 24
10.0
 15
10.0
 25
10.0
 16
0.0
 26
0.0
 36
1.0
 17
0.0
 27
0.0
 37
0.0
 40
215.9
 41
1.2941176471
 42
50.0
 43
0.0
 44
0.0
 50
0.0
 51
0.0
 71
     0
 72
  2000
 73
     1
 74
     3
 75
     0
 76
     0
 77
     0
 78
     0
  0
ENDTAB
  0
TABLE
  2
LTYPE
 70
    10
  0
LTYPE
  2
CONTINUOUS
 70
     0
  3
Solid line
 72
    65
 73
     0
 40
0.0
  0
LTYPE
  2
SLD-PLNÁ
 70
     0
  3
SolidWorks Line Style
 72
    65
 73
     0
 40
0.0
  0
LTYPE
  2
SLD-ČÁRKOVANÁ
 70
     0
  3
SolidWorks Line Style
 72
    65
 73
     2
 40
1.905
 49
1.27
 49
-0.635
  0
LTYPE
  2
SLD-DVOJITĚ-ČERCHOVANÁ
 70
     0
  3
SolidWorks Line Style
 72
    65
 73
     6
 40
12.7
 49
6.35
 49
-1.27
 49
1.27
 49
-1.27
 49
1.27
 49
-1.27
  0
LTYPE
  2
SLD-ČERCHOVANÁ
 70
     0
  3
SolidWorks Line Style
 72
    65
 73
     4
 40
10.16
 49
6.35
 49
-1.27
 49
1.27
 49
-1.27
  0
LTYPE
  2
SLD-OSA
 70
     0
  3
SolidWorks Line Style
 72
    65
 73
     4
 40
19.05
 49
15.24
 49
-1.27
 49
1.27
 49
-1.27
  0
LTYPE
  2
SLD-TEČKOVANÁ
 70
     0
  3
SolidWorks Line Style
 72
    65
 73
     2
 40
0.635
 49
0.0
 49
-0.635
  0
LTYPE
  2
SLD-HRUBÁ-TENKÁ-ČERCHOVANÁ
 70
     0
  3
SolidWorks Line Style
 72
    65
 73
     4
 40
10.16
 49
6.35
 49
-1.27
 49
1.27
 49
-1.27
  0
LTYPE
  2
SLD-ŘEZ-1
 70
     0
  3
SolidWorks Line Style
 72
    65
 73
     4
 40
8.128
 49
5.08
 49
-1.016
 49
1.016
 49
-1.016
  0
LTYPE
  2
SLD-ŘEZ-2
 70
     0
  3
SolidWorks Line Style
 72
    65
 73
     2
 40
5080.0
 49
0.0
 49
-5080.0
  0
ENDTAB
  0
TABLE
  2
LAYER
 70
    15
  0
LAYER
  2
0
 70
     0
 62
     7
  6
CONTINUOUS
  0
LAYER
  2
DEFPOINTS
 70
     0
 62
     7
  6
CONTINUOUS
  0
LAYER
  2
VIDITELNE
 70
     0
 62
     2
  6
SLD-PLNÁ
  0
LAYER
  2
SKRYTE
 70
     0
 62
     4
  6
SLD-ČÁRKOVANÁ
  0
LAYER
  2
SKICA
 70
     0
 62
     6
  6
SLD-PLNÁ
  0
LAYER
  2
DETAIL
 70
     0
 62
     7
  6
SLD-PLNÁ
  0
LAYER
  2
REZY
 70
     0
 62
     1
  6
SLD-HRUBÁ-TENKÁ-ČERCHOVANÁ
  0
LAYER
  2
KOTY
 70
     0
 62
     3
  6
SLD-PLNÁ
  0
LAYER
  2
OSY
 70
     0
 62
     7
  6
SLD-OSA
  0
LAYER
  2
SRAF
 70
     0
 62
     7
  6
SLD-PLNÁ
  0
LAYER
  2
TECNE
 70
     0
 62
     7
  6
SLD-DVOJITĚ-ČERCHOVANÁ
  0
LAYER
  2
HRANICE
 70
     0
 62
     4
  6
SLD-PLNÁ
  0
LAYER
  2
UZ-1
 70
     0
 62
    11
  6
SLD-DVOJITĚ-ČERCHOVANÁ
  0
LAYER
  2
UZ-2
 70
     0
 62
    11
  6
SLD-DVOJITĚ-ČERCHOVANÁ
  0
LAYER
  2
UZ-3
 70
     0
 62
    11
  6
SLD-ČÁRKOVANÁ
  0
ENDTAB
  0
TABLE
  2
STYLE
 70
     1
  0
STYLE
  2
STANDARD
 70
     0
 40
0.0
 41
1.0
 50
0.0
 71
     0
 42
2.5
  3
txt
  4

  0
ENDTAB
  0
TABLE
  2
VIEW
 70
     0
  0
ENDTAB
  0
TABLE
  2
UCS
 70
     0
  0
ENDTAB
  0
TABLE
  2
APPID
 70
     1
  0
APPID
  2
ACAD
 70
     0
  0
ENDTAB
  0
TABLE
  2
DIMSTYLE
 70
     1
  0
DIMSTYLE
  2
ISO-25
 70
     0
  3

  4

  5

  6

  7

 40
1.0
 41
2.5
 42
0.625
 43
3.75
 44
1.25
 45
0.0
 46
0.0
 47
0.0
 48
0.0
140
2.5
141
2.5
142
0.0
143
0.0393700787
144
1.0
145
0.0
146
1.0
147
0.625
 71
     0
 72
     0
 73
     0
 74
     0
 75
     0
 76
     0
 77
     1
 78
     8
170
     0
171
     3
172
     1
173
     0
174
     0
175
     0
176
     0
177
     0
178
     0
  0
ENDTAB
  0
ENDSEC
  0
SECTION
  2
BLOCKS
  0
BLOCK
  8
0
  2
$MODEL_SPACE
 70
     0
 10
0.0
 20
0.0
 30
0.0
  3
$MODEL_SPACE
  1

  0
ENDBLK
  5
21
  8
0
  0
BLOCK
 67
     1
  8
0
  2
$PAPER_SPACE
 70
     0
 10
0.0
 20
0.0
 30
0.0
  3
$PAPER_SPACE
  1

  0
ENDBLK
  5
1D
 67
     1
  8
0
  0
ENDSEC
  0
SECTION
  2
ENTITIES
  0
LINE
  5
56
  8
VIDITELNE
  6
SLD-PLNÁ
 62
     2
 10
16.9511534421
 20
-169.0
 30
0.0
 11
58.0
 21
-169.0
 31
0.0
  0
LINE
  5
57
  8
VIDITELNE
  6
SLD-PLNÁ
 62
     2
 10
-58.0
 20
-169.0
 30
0.0
 11
-16.9994378438
 21
-169.0
 31
0.0
  0
ARC
  5
58
  8
VIDITELNE
  6
SLD-PLNÁ
 62
     2
 10
84.0
 20
-13.5
 30
0.0
 40
2.000000000000002
 50
0.0
 51
90.0
  0
ARC
  5
59
  8
VIDITELNE
  6
SLD-PLNÁ
 62
     2
 10
84.0
 20
-74.5
 30
0.0
 40
2.0
 50
270.0
 51
0.0
  0
ARC
  5
5A
  8
VIDITELNE
  6
SLD-PLNÁ
 62
     2
 10
-84.0
 20
-74.5
 30
0.0
 40
2.0
 50
180.0
 51
270.0
  0
ARC
  5
5B
  8
VIDITELNE
  6
SLD-PLNÁ
 62
     2
 10
-84.0
 20
-13.5
 30
0.0
 40
2.000000000000002
 50
90.0
 51
180.0
  0
ARC
  5
5C
  8
VIDITELNE
  6
SLD-PLNÁ
 62
     2
 10
-17.0
 20
-171.0
 30
0.0
 40
1.99999999998866
 50
359.9999999996
 51
89.9999999997
  0
ARC
  5
5D
  8
VIDITELNE
  6
SLD-PLNÁ
 62
     2
 10
17.0
 20
-171.0
 30
0.0
 40
2.000000000004402
 50
90.0000000013
 51
180.0
  0
LINE
  5
5E
  8
VIDITELNE
  6
SLD-PLNÁ
 62
     2
 10
-15.0
 20
-170.9999236757
 30
0.0
 11
-15.0
 21
-172.0
 31
0.0
  0
LINE
  5
5F
  8
VIDITELNE
  6
SLD-PLNÁ
 62
     2
 10
15.0
 20
-172.0
 30
0.0
 11
15.0
 21
-170.9928486643
 31
0.0
  0
LINE
  5
60
  8
VIDITELNE
  6
SLD-PLNÁ
 62
     2
 10
-10.5
 20
-172.0
 30
0.0
 11
-10.5
 21
-175.0
 31
0.0
  0
LINE
  5
61
  8
VIDITELNE
  6
SLD-PLNÁ
 62
     2
 10
10.5
 20
-175.0
 30
0.0
 11
10.5
 21
-172.0
 31
0.0
  0
ARC
  5
62
  8
VIDITELNE
  6
SLD-PLNÁ
 62
     2
 10
9.5
 20
-175.0
 30
0.0
 40
1.000000000000002
 50
270.0
 51
0.0
  0
ARC
  5
63
  8
VIDITELNE
  6
SLD-PLNÁ
 62
     2
 10
-9.5
 20
-175.0
 30
0.0
 40
1.000000000000002
 50
180.0
 51
270.0
  0
LINE
  5
64
  8
VIDITELNE
  6
SLD-PLNÁ
 62
     2
 10
-69.0
 20
-168.6158715356
 30
0.0
 11
-58.0
 21
-169.0
 31
0.0
  0
LINE
  5
65
  8
VIDITELNE
  6
SLD-PLNÁ
 62
     2
 10
-69.0
 20
-36.0
 30
0.0
 11
-78.0
 21
-36.0
 31
0.0
  0
LINE
  5
66
  8
VIDITELNE
  6
SLD-PLNÁ
 62
     2
 10
-78.0
 20
-52.0
 30
0.0
 11
-69.0
 21
-52.0
 31
0.0
  0
ARC
  5
67
  8
VIDITELNE
  6
SLD-PLNÁ
 62
     2
 10
-78.0
 20
-51.0
 30
0.0
 40
1.0
 50
180.0
 51
270.0
  0
ARC
  5
68
  8
VIDITELNE
  6
SLD-PLNÁ
 62
     2
 10
-78.0
 20
-37.0
 30
0.0
 40
1.000000000000007
 50
90.0
 51
180.0
  0
ARC
  5
69
  8
VIDITELNE
  6
SLD-PLNÁ
 62
     2
 10
-78.0
 20
-132.3172798365
 30
0.0
 40
1.0
 50
180.0
 51
270.0
  0
ARC
  5
6A
  8
VIDITELNE
  6
SLD-PLNÁ
 62
     2
 10
-78.0
 20
-118.3172798365
 30
0.0
 40
1.0
 50
90.0
 51
180.0
  0
LINE
  5
6B
  8
VIDITELNE
  6
SLD-PLNÁ
 62
     2
 10
-69.0
 20
-117.3172798365
 30
0.0
 11
-78.0
 21
-117.3172798365
 31
0.0
  0
LINE
  5
6C
  8
VIDITELNE
  6
SLD-PLNÁ
 62
     2
 10
-78.0
 20
-133.3172798365
 30
0.0
 11
-69.0
 21
-133.3172798365
 31
0.0
  0
LINE
  5
6D
  8
VIDITELNE
  6
SLD-PLNÁ
 62
     2
 10
-84.0
 20
-109.0
 30
0.0
 11
-80.5
 21
-109.0
 31
0.0
  0
LINE
  5
6E
  8
VIDITELNE
  6
SLD-PLNÁ
 62
     2
 10
-83.5164654425
 20
21.0
 30
0.0
 11
-84.0
 21
21.0
 31
0.0
  0
LINE
  5
6F
  8
VIDITELNE
  6
SLD-PLNÁ
 62
     2
 10
-80.5
 20
-139.0
 30
0.0
 11
-76.8731240234
 21
-141.0939778214
 31
0.0
  0
ARC
  5
70
  8
VIDITELNE
  6
SLD-PLNÁ
 62
     2
 10
-78.0
 20
-166.0
 30
0.0
 40
1.000000000000028
 50
180.0
 51
270.0
  0
ARC
  5
71
  8
VIDITELNE
  6
SLD-PLNÁ
 62
     2
 10
-78.0
 20
-152.0
 30
0.0
 40
1.0
 50
90.0
 51
180.0
  0
LINE
  5
72
  8
VIDITELNE
  6
SLD-PLNÁ
 62
     2
 10
-72.3094140097
 20
-151.0
 30
0.0
 11
-78.0
 21
-151.0
 31
0.0
  0
LINE
  5
73
  8
VIDITELNE
  6
SLD-PLNÁ
 62
     2
 10
-78.0
 20
-167.0
 30
0.0
 11
-69.0
 21
-167.0
 31
0.0
  0
LINE
  5
74
  8
VIDITELNE
  6
SLD-PLNÁ
 62
     2
 10
58.0
 20
-169.0
 30
0.0
 11
69.0
 21
-168.6158715356
 31
0.0
  0
LINE
  5
75
  8
VIDITELNE
  6
SLD-PLNÁ
 62
     2
 10
69.0
 20
-52.0
 30
0.0
 11
78.0
 21
-52.0
 31
0.0
  0
LINE
  5
76
  8
VIDITELNE
  6
SLD-PLNÁ
 62
     2
 10
78.0
 20
-36.0
 30
0.0
 11
69.0
 21
-36.0
 31
0.0
  0
ARC
  5
77
  8
VIDITELNE
  6
SLD-PLNÁ
 62
     2
 10
78.0
 20
-37.0
 30
0.0
 40
1.0
 50
360.0
 51
90.0
  0
ARC
  5
78
  8
VIDITELNE
  6
SLD-PLNÁ
 62
     2
 10
78.0
 20
-51.0
 30
0.0
 40
1.0
 50
270.0
 51
360.0
  0
LINE
  5
79
  8
VIDITELNE
  6
SLD-PLNÁ
 62
     2
 10
69.0
 20
-133.3172798365
 30
0.0
 11
78.0
 21
-133.3172798365
 31
0.0
  0
LINE
  5
7A
  8
VIDITELNE
  6
SLD-PLNÁ
 62
     2
 10
78.0
 20
-117.3172798365
 30
0.0
 11
69.0
 21
-117.3172798365
 31
0.0
  0
ARC
  5
7B
  8
VIDITELNE
  6
SLD-PLNÁ
 62
     2
 10
78.0
 20
-118.3172798365
 30
0.0
 40
1.0
 50
0.0
 51
90.0
  0
ARC
  5
7C
  8
VIDITELNE
  6
SLD-PLNÁ
 62
     2
 10
78.0
 20
-132.3172798365
 30
0.0
 40
1.0
 50
270.0
 51
0.0
  0
LINE
  5
7D
  8
VIDITELNE
  6
SLD-PLNÁ
 62
     2
 10
84.0
 20
21.0
 30
0.0
 11
83.5164654425
 21
21.0
 31
0.0
  0
LINE
  5
7E
  8
VIDITELNE
  6
SLD-PLNÁ
 62
     2
 10
80.5
 20
-109.0
 30
0.0
 11
84.0
 21
-109.0
 31
0.0
  0
LINE
  5
7F
  8
VIDITELNE
  6
SLD-PLNÁ
 62
     2
 10
76.8731240234
 20
-141.0939778214
 30
0.0
 11
80.5
 21
-139.0
 31
0.0
  0
LINE
  5
80
  8
VIDITELNE
  6
SLD-PLNÁ
 62
     2
 10
69.0
 20
-167.0
 30
0.0
 11
78.0
 21
-167.0
 31
0.0
  0
LINE
  5
81
  8
VIDITELNE
  6
SLD-PLNÁ
 62
     2
 10
78.0
 20
-151.0
 30
0.0
 11
72.3094140097
 21
-151.0
 31
0.0
  0
ARC
  5
82
  8
VIDITELNE
  6
SLD-PLNÁ
 62
     2
 10
78.0
 20
-152.0
 30
0.0
 40
1.0
 50
0.0
 51
90.0
  0
ARC
  5
83
  8
VIDITELNE
  6
SLD-PLNÁ
 62
     2
 10
78.0
 20
-166.0
 30
0.0
 40
1.000000000000028
 50
270.0
 51
0.0
  0
CIRCLE
  5
84
  8
VIDITELNE
  6
SLD-PLNÁ
 62
     2
 10
0.0
 20
76.0
 30
0.0
 40
18.0
  0
CIRCLE
  5
85
  8
VIDITELNE
  6
SLD-PLNÁ
 62
     2
 10
0.0
 20
76.0
 30
0.0
 40
20.0
  0
ARC
  5
86
  8
VIDITELNE
  6
SLD-PLNÁ
 62
     2
 10
0.0
 20
76.0
 30
0.0
 40
15.15470053837924
 50
105.3042448177
 51
74.6957551823
  0
LINE
  5
87
  8
VIDITELNE
  6
SLD-PLNÁ
 62
     2
 10
-4.0
 20
93.3
 30
0.0
 11
-4.0
 21
90.6172825247
 31
0.0
  0
LINE
  5
88
  8
VIDITELNE
  6
SLD-PLNÁ
 62
     2
 10
4.0
 20
93.3
 30
0.0
 11
-4.0
 21
93.3
 31
0.0
  0
LINE
  5
89
  8
VIDITELNE
  6
SLD-PLNÁ
 62
     2
 10
4.0
 20
90.6172825247
 30
0.0
 11
4.0
 21
93.3
 31
0.0
  0
ARC
  5
8A
  8
VIDITELNE
  6
SLD-PLNÁ
 62
     2
 10
0.0
 20
76.0
 30
0.0
 40
13.99999999999999
 50
106.601549599
 51
73.398450401
  0
LINE
  5
8B
  8
VIDITELNE
  6
SLD-PLNÁ
 62
     2
 10
-4.0
 20
90.6172825247
 30
0.0
 11
-4.0
 21
89.416407865
 31
0.0
  0
LINE
  5
8C
  8
VIDITELNE
  6
SLD-PLNÁ
 62
     2
 10
4.0
 20
89.416407865
 30
0.0
 11
4.0
 21
90.6172825247
 31
0.0
  0
CIRCLE
  5
8D
  8
VIDITELNE
  6
SLD-PLNÁ
 62
     2
 10
0.0
 20
76.0
 30
0.0
 40
31.0
  0
LINE
  5
8E
  8
VIDITELNE
  6
SLD-PLNÁ
 62
     2
 10
55.0
 20
22.0362229154
 30
0.0
 11
55.0
 21
13.2911581888
 31
0.0
  0
LINE
  5
8F
  8
VIDITELNE
  6
SLD-PLNÁ
 62
     2
 10
55.0
 20
-7.5164654425
 30
0.0
 11
55.0
 21
-12.3772233983
 31
0.0
  0
ARC
  5
90
  8
VIDITELNE
  6
SLD-PLNÁ
 62
     2
 10
-406.388804054
 20
0.9289329019
 30
0.0
 40
461.5806346695037
 50
354.4141490939
 51
358.3480844461
  0
LINE
  5
91
  8
VIDITELNE
  6
SLD-PLNÁ
 62
     2
 10
53.0
 20
-44.0
 30
0.0
 11
-53.0
 21
-44.0
 31
0.0
  0
ARC
  5
92
  8
VIDITELNE
  6
SLD-PLNÁ
 62
     2
 10
406.5163259305
 20
0.9369980935
 30
0.0
 40
461.7083360676124
 50
181.6524598005
 51
185.5853066594
  0
LINE
  5
93
  8
VIDITELNE
  6
SLD-PLNÁ
 62
     2
 10
-55.0
 20
-12.3772233983
 30
0.0
 11
-55.0
 21
-7.5164654425
 31
0.0
  0
LINE
  5
94
  8
VIDITELNE
  6
SLD-PLNÁ
 62
     2
 10
-55.0
 20
13.2911581888
 30
0.0
 11
-55.0
 21
22.0362229154
 31
0.0
  0
ARC
  5
95
  8
VIDITELNE
  6
SLD-PLNÁ
 62
     2
 10
-56.531000062
 20
-10.4936762046
 30
0.0
 40
2.427284742432296
 50
258.8592408081
 51
309.1051800945
  0
POLYLINE
  5
96
  8
VIDITELNE
  6
SLD-PLNÁ
 62
     2
 66
     1
 10
0.0
 20
0.0
 30
0.0
  0
VERTEX
  5
704
  8
VIDITELNE
  6
SLD-PLNÁ
 62
     2
 10
-53.0
 20
-44.0
 30
0.0
  0
VERTEX
  5
705
  8
VIDITELNE
  6
SLD-PLNÁ
 62
     2
 10
-53.0125475578
 20
-43.9304114354
 30
0.0
  0
VERTEX
  5
706
  8
VIDITELNE
  6
SLD-PLNÁ
 62
     2
 10
-55.0388819987
 20
-32.2885420161
 30
0.0
  0
VERTEX
  5
707
  8
VIDITELNE
  6
SLD-PLNÁ
 62
     2
 10
-55.9152225157
 20
-26.4280447676
 30
0.0
  0
VERTEX
  5
708
  8
VIDITELNE
  6
SLD-PLNÁ
 62
     2
 10
-56.597986477
 20
-20.5630481992
 30
0.0
  0
VERTEX
  5
709
  8
VIDITELNE
  6
SLD-PLNÁ
 62
     2
 10
-57.0
 20
-12.8752198802
 30
0.0
  0
SEQEND
  5
70A
  8
VIDITELNE
  6
SLD-PLNÁ
 62
     2
  0
LINE
  5
97
  8
VIDITELNE
  6
SLD-PLNÁ
 62
     2
 10
-58.0
 20
23.153398737
 30
0.0
 11
-58.0
 21
12.1739823672
 31
0.0
  0
LINE
  5
98
  8
VIDITELNE
  6
SLD-PLNÁ
 62
     2
 10
-58.0
 20
-5.4616474177
 30
0.0
 11
-58.0
 21
-169.0
 31
0.0
  0
LINE
  5
99
  8
VIDITELNE
  6
SLD-PLNÁ
 62
     2
 10
58.0
 20
23.153398737
 30
0.0
 11
58.0
 21
12.1739823672
 31
0.0
  0
LINE
  5
9A
  8
VIDITELNE
  6
SLD-PLNÁ
 62
     2
 10
58.0
 20
-5.4616474177
 30
0.0
 11
58.0
 21
-169.0
 31
0.0
  0
POLYLINE
  5
9B
  8
VIDITELNE
  6
SLD-PLNÁ
 62
     2
 66
     1
 10
0.0
 20
0.0
 30
0.0
  0
VERTEX
  5
70B
  8
VIDITELNE
  6
SLD-PLNÁ
 62
     2
 10
57.0
 20
-12.8752198802
 30
0.0
  0
VERTEX
  5
70C
  8
VIDITELNE
  6
SLD-PLNÁ
 62
     2
 10
56.597986477
 20
-20.5630481992
 30
0.0
  0
VERTEX
  5
70D
  8
VIDITELNE
  6
SLD-PLNÁ
 62
     2
 10
55.9260824104
 20
-26.347783779
 30
0.0
  0
VERTEX
  5
70E
  8
VIDITELNE
  6
SLD-PLNÁ
 62
     2
 10
55.0586030129
 20
-32.1661827184
 30
0.0
  0
VERTEX
  5
70F
  8
VIDITELNE
  6
SLD-PLNÁ
 62
     2
 10
53.0125475578
 20
-43.9304114354
 30
0.0
  0
VERTEX
  5
710
  8
VIDITELNE
  6
SLD-PLNÁ
 62
     2
 10
53.0
 20
-44.0
 30
0.0
  0
SEQEND
  5
711
  8
VIDITELNE
  6
SLD-PLNÁ
 62
     2
  0
ARC
  5
9C
  8
VIDITELNE
  6
SLD-PLNÁ
 62
     2
 10
56.531000062
 20
-10.4936762046
 30
0.0
 40
2.427284742432175
 50
230.8948199055
 51
281.1407591919
  0
LINE
  5
9D
  8
VIDITELNE
  6
SLD-PLNÁ
 62
     2
 10
86.0
 20
-13.5
 30
0.0
 11
86.0
 21
-74.5
 31
0.0
  0
LINE
  5
9E
  8
VIDITELNE
  6
SLD-PLNÁ
 62
     2
 10
-86.0
 20
-44.0
 30
0.0
 11
-86.0
 21
-13.5
 31
0.0
  0
LINE
  5
9F
  8
VIDITELNE
  6
SLD-PLNÁ
 62
     2
 10
-86.0
 20
-74.5
 30
0.0
 11
-86.0
 21
-44.0
 31
0.0
  0
LINE
  5
A0
  8
VIDITELNE
  6
SLD-PLNÁ
 62
     2
 10
0.0
 20
-172.0
 30
0.0
 11
15.0
 21
-172.0
 31
0.0
  0
LINE
  5
A1
  8
VIDITELNE
  6
SLD-PLNÁ
 62
     2
 10
-15.0
 20
-172.0
 30
0.0
 11
0.0
 21
-172.0
 31
0.0
  0
LINE
  5
A2
  8
VIDITELNE
  6
SLD-PLNÁ
 62
     2
 10
9.5
 20
-176.0
 30
0.0
 11
-9.5
 21
-176.0
 31
0.0
  0
ARC
  5
A3
  8
VIDITELNE
  6
SLD-PLNÁ
 62
     2
 10
-40.7031939779
 20
52.5
 30
0.0
 40
3.46410161513756
 50
240.0
 51
300.0
  0
LINE
  5
A4
  8
VIDITELNE
  6
SLD-PLNÁ
 62
     2
 10
-38.9711431703
 20
49.5
 30
0.0
 11
-42.4352447854
 21
49.5
 31
0.0
  0
ARC
  5
A5
  8
VIDITELNE
  6
SLD-PLNÁ
 62
     2
 10
-40.7031939779
 20
52.5
 30
0.0
 40
3.464101615140184
 50
120.0
 51
180.0
  0
LINE
  5
A6
  8
VIDITELNE
  6
SLD-PLNÁ
 62
     2
 10
-44.167295593
 20
52.5
 30
0.0
 11
-42.4352447854
 21
55.5
 31
0.0
  0
ARC
  5
A7
  8
VIDITELNE
  6
SLD-PLNÁ
 62
     2
 10
-40.7031939779
 20
52.5
 30
0.0
 40
3.464101615140184
 50
60.0
 51
120.0
  0
LINE
  5
A8
  8
VIDITELNE
  6
SLD-PLNÁ
 62
     2
 10
-42.4352447854
 20
55.5
 30
0.0
 11
-38.9711431703
 21
55.5
 31
0.0
  0
ARC
  5
A9
  8
VIDITELNE
  6
SLD-PLNÁ
 62
     2
 10
-40.7031939779
 20
52.5
 30
0.0
 40
3.464101615137231
 50
300.0
 51
0.0
  0
LINE
  5
AA
  8
VIDITELNE
  6
SLD-PLNÁ
 62
     2
 10
-37.2390923627
 20
52.5
 30
0.0
 11
-38.9711431703
 21
49.5
 31
0.0
  0
ARC
  5
AB
  8
VIDITELNE
  6
SLD-PLNÁ
 62
     2
 10
-40.7031939779
 20
52.5
 30
0.0
 40
3.464101615138233
 50
180.0
 51
240.0
  0
LINE
  5
AC
  8
VIDITELNE
  6
SLD-PLNÁ
 62
     2
 10
-42.4352447854
 20
49.5
 30
0.0
 11
-44.167295593
 21
52.5
 31
0.0
  0
ARC
  5
AD
  8
VIDITELNE
  6
SLD-PLNÁ
 62
     2
 10
-40.7031939779
 20
52.5
 30
0.0
 40
3.464101615138774
 50
0.0
 51
60.0
  0
LINE
  5
AE
  8
VIDITELNE
  6
SLD-PLNÁ
 62
     2
 10
-38.9711431703
 20
55.5
 30
0.0
 11
-37.2390923627
 21
52.5
 31
0.0
  0
CIRCLE
  5
AF
  8
VIDITELNE
  6
SLD-PLNÁ
 62
     2
 10
-40.7031939779
 20
52.5
 30
0.0
 40
5.700000000000298
  0
CIRCLE
  5
B0
  8
VIDITELNE
  6
SLD-PLNÁ
 62
     2
 10
-40.7031939779
 20
52.5
 30
0.0
 40
6.500000000000338
  0
ARC
  5
B1
  8
VIDITELNE
  6
SLD-PLNÁ
 62
     2
 10
-40.7031939779
 20
99.5
 30
0.0
 40
3.464101615137565
 50
180.0
 51
240.0
  0
LINE
  5
B2
  8
VIDITELNE
  6
SLD-PLNÁ
 62
     2
 10
-42.4352447854
 20
96.5
 30
0.0
 11
-44.167295593
 21
99.5
 31
0.0
  0
ARC
  5
B3
  8
VIDITELNE
  6
SLD-PLNÁ
 62
     2
 10
-40.7031939779
 20
99.5
 30
0.0
 40
3.46410161514019
 50
60.0
 51
120.0
  0
LINE
  5
B4
  8
VIDITELNE
  6
SLD-PLNÁ
 62
     2
 10
-42.4352447854
 20
102.5
 30
0.0
 11
-38.9711431703
 21
102.5
 31
0.0
  0
ARC
  5
B5
  8
VIDITELNE
  6
SLD-PLNÁ
 62
     2
 10
-40.7031939779
 20
99.5
 30
0.0
 40
3.46410161514019
 50
0.0
 51
60.0
  0
LINE
  5
B6
  8
VIDITELNE
  6
SLD-PLNÁ
 62
     2
 10
-38.9711431703
 20
102.5
 30
0.0
 11
-37.2390923627
 21
99.5
 31
0.0
  0
ARC
  5
B7
  8
VIDITELNE
  6
SLD-PLNÁ
 62
     2
 10
-40.7031939779
 20
99.5
 30
0.0
 40
3.464101615137239
 50
240.0
 51
300.0
  0
LINE
  5
B8
  8
VIDITELNE
  6
SLD-PLNÁ
 62
     2
 10
-38.9711431703
 20
96.5
 30
0.0
 11
-42.4352447854
 21
96.5
 31
0.0
  0
ARC
  5
B9
  8
VIDITELNE
  6
SLD-PLNÁ
 62
     2
 10
-40.7031939779
 20
99.5
 30
0.0
 40
3.464101615138228
 50
120.0
 51
180.0
  0
LINE
  5
BA
  8
VIDITELNE
  6
SLD-PLNÁ
 62
     2
 10
-44.167295593
 20
99.5
 30
0.0
 11
-42.4352447854
 21
102.5
 31
0.0
  0
ARC
  5
BB
  8
VIDITELNE
  6
SLD-PLNÁ
 62
     2
 10
-40.7031939779
 20
99.5
 30
0.0
 40
3.464101615138773
 50
300.0
 51
0.0
  0
LINE
  5
BC
  8
VIDITELNE
  6
SLD-PLNÁ
 62
     2
 10
-37.2390923627
 20
99.5
 30
0.0
 11
-38.9711431703
 21
96.5
 31
0.0
  0
CIRCLE
  5
BD
  8
VIDITELNE
  6
SLD-PLNÁ
 62
     2
 10
-40.7031939779
 20
99.5
 30
0.0
 40
5.70000000000028
  0
CIRCLE
  5
BE
  8
VIDITELNE
  6
SLD-PLNÁ
 62
     2
 10
-40.7031939779
 20
99.5
 30
0.0
 40
6.500000000000327
  0
ARC
  5
BF
  8
VIDITELNE
  6
SLD-PLNÁ
 62
     2
 10
40.7031939779
 20
52.5
 30
0.0
 40
3.464101615137572
 50
360.0
 51
60.0
  0
LINE
  5
C0
  8
VIDITELNE
  6
SLD-PLNÁ
 62
     2
 10
42.4352447854
 20
55.5
 30
0.0
 11
44.167295593
 21
52.5
 31
0.0
  0
ARC
  5
C1
  8
VIDITELNE
  6
SLD-PLNÁ
 62
     2
 10
40.7031939779
 20
52.5
 30
0.0
 40
3.464101615140188
 50
180.0
 51
240.0
  0
LINE
  5
C2
  8
VIDITELNE
  6
SLD-PLNÁ
 62
     2
 10
38.9711431703
 20
49.5
 30
0.0
 11
37.2390923627
 21
52.5
 31
0.0
  0
ARC
  5
C3
  8
VIDITELNE
  6
SLD-PLNÁ
 62
     2
 10
40.7031939779
 20
52.5
 30
0.0
 40
3.464101615140188
 50
240.0
 51
300.0
  0
LINE
  5
C4
  8
VIDITELNE
  6
SLD-PLNÁ
 62
     2
 10
42.4352447854
 20
49.5
 30
0.0
 11
38.9711431703
 21
49.5
 31
0.0
  0
ARC
  5
C5
  8
VIDITELNE
  6
SLD-PLNÁ
 62
     2
 10
40.7031939779
 20
52.5
 30
0.0
 40
3.464101615137228
 50
60.0
 51
120.0
  0
LINE
  5
C6
  8
VIDITELNE
  6
SLD-PLNÁ
 62
     2
 10
38.9711431703
 20
55.5
 30
0.0
 11
42.4352447854
 21
55.5
 31
0.0
  0
ARC
  5
C7
  8
VIDITELNE
  6
SLD-PLNÁ
 62
     2
 10
40.7031939779
 20
52.5
 30
0.0
 40
3.464101615138235
 50
300.0
 51
360.0
  0
LINE
  5
C8
  8
VIDITELNE
  6
SLD-PLNÁ
 62
     2
 10
44.167295593
 20
52.5
 30
0.0
 11
42.4352447854
 21
49.5
 31
0.0
  0
ARC
  5
C9
  8
VIDITELNE
  6
SLD-PLNÁ
 62
     2
 10
40.7031939779
 20
52.5
 30
0.0
 40
3.464101615138773
 50
120.0
 51
180.0
  0
LINE
  5
CA
  8
VIDITELNE
  6
SLD-PLNÁ
 62
     2
 10
37.2390923627
 20
52.5
 30
0.0
 11
38.9711431703
 21
55.5
 31
0.0
  0
CIRCLE
  5
CB
  8
VIDITELNE
  6
SLD-PLNÁ
 62
     2
 10
40.7031939779
 20
52.5
 30
0.0
 40
5.700000000000287
  0
CIRCLE
  5
CC
  8
VIDITELNE
  6
SLD-PLNÁ
 62
     2
 10
40.7031939779
 20
52.5
 30
0.0
 40
6.500000000000334
  0
ARC
  5
CD
  8
VIDITELNE
  6
SLD-PLNÁ
 62
     2
 10
40.7031939779
 20
99.5
 30
0.0
 40
3.464101615137571
 50
60.0
 51
120.0
  0
LINE
  5
CE
  8
VIDITELNE
  6
SLD-PLNÁ
 62
     2
 10
38.9711431703
 20
102.5
 30
0.0
 11
42.4352447854
 21
102.5
 31
0.0
  0
ARC
  5
CF
  8
VIDITELNE
  6
SLD-PLNÁ
 62
     2
 10
40.7031939779
 20
99.5
 30
0.0
 40
3.464101615140192
 50
240.0
 51
300.0
  0
LINE
  5
D0
  8
VIDITELNE
  6
SLD-PLNÁ
 62
     2
 10
42.4352447854
 20
96.5
 30
0.0
 11
38.9711431703
 21
96.5
 31
0.0
  0
ARC
  5
D1
  8
VIDITELNE
  6
SLD-PLNÁ
 62
     2
 10
40.7031939779
 20
99.5
 30
0.0
 40
3.464101615140192
 50
300.0
 51
360.0
  0
LINE
  5
D2
  8
VIDITELNE
  6
SLD-PLNÁ
 62
     2
 10
44.167295593
 20
99.5
 30
0.0
 11
42.4352447854
 21
96.5
 31
0.0
  0
ARC
  5
D3
  8
VIDITELNE
  6
SLD-PLNÁ
 62
     2
 10
40.7031939779
 20
99.5
 30
0.0
 40
3.464101615137231
 50
120.0
 51
180.0
  0
LINE
  5
D4
  8
VIDITELNE
  6
SLD-PLNÁ
 62
     2
 10
37.2390923627
 20
99.5
 30
0.0
 11
38.9711431703
 21
102.5
 31
0.0
  0
ARC
  5
D5
  8
VIDITELNE
  6
SLD-PLNÁ
 62
     2
 10
40.7031939779
 20
99.5
 30
0.0
 40
3.464101615138226
 50
360.0
 51
60.0
  0
LINE
  5
D6
  8
VIDITELNE
  6
SLD-PLNÁ
 62
     2
 10
42.4352447854
 20
102.5
 30
0.0
 11
44.167295593
 21
99.5
 31
0.0
  0
ARC
  5
D7
  8
VIDITELNE
  6
SLD-PLNÁ
 62
     2
 10
40.7031939779
 20
99.5
 30
0.0
 40
3.464101615138782
 50
180.0
 51
240.0
  0
LINE
  5
D8
  8
VIDITELNE
  6
SLD-PLNÁ
 62
     2
 10
38.9711431703
 20
96.5
 30
0.0
 11
37.2390923627
 21
99.5
 31
0.0
  0
CIRCLE
  5
D9
  8
VIDITELNE
  6
SLD-PLNÁ
 62
     2
 10
40.7031939779
 20
99.5
 30
0.0
 40
5.700000000000309
  0
CIRCLE
  5
DA
  8
VIDITELNE
  6
SLD-PLNÁ
 62
     2
 10
40.7031939779
 20
99.5
 30
0.0
 40
6.500000000000353
  0
ARC
  5
DB
  8
VIDITELNE
  6
SLD-PLNÁ
 62
     2
 10
0.0
 20
123.0
 30
0.0
 40
3.464101615137579
 50
120.0
 51
180.0
  0
LINE
  5
DC
  8
VIDITELNE
  6
SLD-PLNÁ
 62
     2
 10
-3.4641016151
 20
123.0
 30
0.0
 11
-1.7320508076
 21
126.0
 31
0.0
  0
ARC
  5
DD
  8
VIDITELNE
  6
SLD-PLNÁ
 62
     2
 10
0.0
 20
123.0
 30
0.0
 40
3.464101615140186
 50
360.0
 51
60.0
  0
LINE
  5
DE
  8
VIDITELNE
  6
SLD-PLNÁ
 62
     2
 10
1.7320508076
 20
126.0
 30
0.0
 11
3.4641016151
 21
123.0
 31
0.0
  0
ARC
  5
DF
  8
VIDITELNE
  6
SLD-PLNÁ
 62
     2
 10
0.0
 20
123.0
 30
0.0
 40
3.464101615140186
 50
300.0
 51
360.0
  0
LINE
  5
E0
  8
VIDITELNE
  6
SLD-PLNÁ
 62
     2
 10
3.4641016151
 20
123.0
 30
0.0
 11
1.7320508076
 21
120.0
 31
0.0
  0
ARC
  5
E1
  8
VIDITELNE
  6
SLD-PLNÁ
 62
     2
 10
0.0
 20
123.0
 30
0.0
 40
3.464101615137224
 50
180.0
 51
240.0
  0
LINE
  5
E2
  8
VIDITELNE
  6
SLD-PLNÁ
 62
     2
 10
-1.7320508076
 20
120.0
 30
0.0
 11
-3.4641016151
 21
123.0
 31
0.0
  0
ARC
  5
E3
  8
VIDITELNE
  6
SLD-PLNÁ
 62
     2
 10
0.0
 20
123.0
 30
0.0
 40
3.464101615138232
 50
60.0
 51
120.0
  0
LINE
  5
E4
  8
VIDITELNE
  6
SLD-PLNÁ
 62
     2
 10
-1.7320508076
 20
126.0
 30
0.0
 11
1.7320508076
 21
126.0
 31
0.0
  0
ARC
  5
E5
  8
VIDITELNE
  6
SLD-PLNÁ
 62
     2
 10
0.0
 20
123.0
 30
0.0
 40
3.46410161513877
 50
240.0
 51
300.0
  0
LINE
  5
E6
  8
VIDITELNE
  6
SLD-PLNÁ
 62
     2
 10
1.7320508076
 20
120.0
 30
0.0
 11
-1.7320508076
 21
120.0
 31
0.0
  0
CIRCLE
  5
E7
  8
VIDITELNE
  6
SLD-PLNÁ
 62
     2
 10
0.0
 20
123.0
 30
0.0
 40
5.700000000000289
  0
CIRCLE
  5
E8
  8
VIDITELNE
  6
SLD-PLNÁ
 62
     2
 10
0.0
 20
123.0
 30
0.0
 40
6.500000000000332
  0
ARC
  5
E9
  8
VIDITELNE
  6
SLD-PLNÁ
 62
     2
 10
0.0
 20
29.0
 30
0.0
 40
3.464101615137568
 50
300.0
 51
0.0
  0
LINE
  5
EA
  8
VIDITELNE
  6
SLD-PLNÁ
 62
     2
 10
3.4641016151
 20
29.0
 30
0.0
 11
1.7320508076
 21
26.0
 31
0.0
  0
ARC
  5
EB
  8
VIDITELNE
  6
SLD-PLNÁ
 62
     2
 10
0.0
 20
29.0
 30
0.0
 40
3.464101615140186
 50
120.0
 51
180.0
  0
LINE
  5
EC
  8
VIDITELNE
  6
SLD-PLNÁ
 62
     2
 10
-3.4641016151
 20
29.0
 30
0.0
 11
-1.7320508076
 21
32.0
 31
0.0
  0
ARC
  5
ED
  8
VIDITELNE
  6
SLD-PLNÁ
 62
     2
 10
0.0
 20
29.0
 30
0.0
 40
3.464101615140186
 50
180.0
 51
240.0
  0
LINE
  5
EE
  8
VIDITELNE
  6
SLD-PLNÁ
 62
     2
 10
-1.7320508076
 20
26.0
 30
0.0
 11
-3.4641016151
 21
29.0
 31
0.0
  0
ARC
  5
EF
  8
VIDITELNE
  6
SLD-PLNÁ
 62
     2
 10
0.0
 20
29.0
 30
0.0
 40
3.464101615137228
 50
0.0
 51
60.0
  0
LINE
  5
F0
  8
VIDITELNE
  6
SLD-PLNÁ
 62
     2
 10
1.7320508076
 20
32.0
 30
0.0
 11
3.4641016151
 21
29.0
 31
0.0
  0
ARC
  5
F1
  8
VIDITELNE
  6
SLD-PLNÁ
 62
     2
 10
0.0
 20
29.0
 30
0.0
 40
3.46410161513823
 50
240.0
 51
300.0
  0
LINE
  5
F2
  8
VIDITELNE
  6
SLD-PLNÁ
 62
     2
 10
1.7320508076
 20
26.0
 30
0.0
 11
-1.7320508076
 21
26.0
 31
0.0
  0
ARC
  5
F3
  8
VIDITELNE
  6
SLD-PLNÁ
 62
     2
 10
0.0
 20
29.0
 30
0.0
 40
3.464101615138781
 50
60.0
 51
120.0
  0
LINE
  5
F4
  8
VIDITELNE
  6
SLD-PLNÁ
 62
     2
 10
-1.7320508076
 20
32.0
 30
0.0
 11
1.7320508076
 21
32.0
 31
0.0
  0
CIRCLE
  5
F5
  8
VIDITELNE
  6
SLD-PLNÁ
 62
     2
 10
0.0
 20
29.0
 30
0.0
 40
5.700000000000288
  0
CIRCLE
  5
F6
  8
VIDITELNE
  6
SLD-PLNÁ
 62
     2
 10
0.0
 20
29.0
 30
0.0
 40
6.500000000000332
  0
LINE
  5
F7
  8
VIDITELNE
  6
SLD-PLNÁ
 62
     2
 10
-69.0
 20
-44.0
 30
0.0
 11
-69.0
 21
3.6190632832
 31
0.0
  0
LINE
  5
F8
  8
VIDITELNE
  6
SLD-PLNÁ
 62
     2
 10
-69.0
 20
-168.6158715356
 30
0.0
 11
-69.0
 21
-44.0
 31
0.0
  0
LINE
  5
F9
  8
VIDITELNE
  6
SLD-PLNÁ
 62
     2
 10
-58.0
 20
-44.0
 30
0.0
 11
-58.0
 21
-5.4616474177
 31
0.0
  0
LINE
  5
FA
  8
VIDITELNE
  6
SLD-PLNÁ
 62
     2
 10
-58.0
 20
-169.0
 30
0.0
 11
-58.0
 21
-44.0
 31
0.0
  0
LINE
  5
FB
  8
VIDITELNE
  6
SLD-PLNÁ
 62
     2
 10
-79.0
 20
-44.0
 30
0.0
 11
-79.0
 21
-37.0
 31
0.0
  0
LINE
  5
FC
  8
VIDITELNE
  6
SLD-PLNÁ
 62
     2
 10
-79.0
 20
-51.0
 30
0.0
 11
-79.0
 21
-44.0
 31
0.0
  0
LINE
  5
FD
  8
VIDITELNE
  6
SLD-PLNÁ
 62
     2
 10
-69.0
 20
-86.9667598754
 30
0.0
 11
-80.5
 21
-76.6271676757
 31
0.0
  0
LINE
  5
FE
  8
VIDITELNE
  6
SLD-PLNÁ
 62
     2
 10
-80.5
 20
-76.6271676757
 30
0.0
 11
-69.0
 21
-79.1701128387
 31
0.0
  0
LINE
  5
FF
  8
VIDITELNE
  6
SLD-PLNÁ
 62
     2
 10
-80.5
 20
-84.0182039358
 30
0.0
 11
-69.0
 21
-94.3577961355
 31
0.0
  0
LINE
  5
100
  8
VIDITELNE
  6
SLD-PLNÁ
 62
     2
 10
-80.5
 20
-84.0182039358
 30
0.0
 11
-80.5
 21
-76.6271676757
 31
0.0
  0
LINE
  5
101
  8
VIDITELNE
  6
SLD-PLNÁ
 62
     2
 10
-70.3407535577
 20
5.1523313505
 30
0.0
 11
-80.5
 21
-3.9817960642
 31
0.0
  0
LINE
  5
102
  8
VIDITELNE
  6
SLD-PLNÁ
 62
     2
 10
-80.5
 20
-11.3728323243
 30
0.0
 11
-69.0
 21
-1.0332401246
 31
0.0
  0
LINE
  5
103
  8
VIDITELNE
  6
SLD-PLNÁ
 62
     2
 10
-80.5
 20
-11.3728323243
 30
0.0
 11
-80.5
 21
-3.9817960642
 31
0.0
  0
LINE
  5
104
  8
VIDITELNE
  6
SLD-PLNÁ
 62
     2
 10
-69.0
 20
-8.8298871613
 30
0.0
 11
-80.5
 21
-11.3728323243
 31
0.0
  0
LINE
  5
105
  8
VIDITELNE
  6
SLD-PLNÁ
 62
     2
 10
-80.5
 20
-76.6271676757
 30
0.0
 11
-80.5
 21
-11.3728323243
 31
0.0
  0
LINE
  5
106
  8
VIDITELNE
  6
SLD-PLNÁ
 62
     2
 10
-80.5
 20
-130.1599869647
 30
0.0
 11
-79.0
 21
-130.9607538387
 31
0.0
  0
LINE
  5
107
  8
VIDITELNE
  6
SLD-PLNÁ
 62
     2
 10
-74.5857452259
 20
-133.3172798365
 30
0.0
 11
-69.0
 21
-136.2991996655
 31
0.0
  0
LINE
  5
108
  8
VIDITELNE
  6
SLD-PLNÁ
 62
     2
 10
-80.5
 20
-130.1599869647
 30
0.0
 11
-80.5
 21
-84.0182039358
 31
0.0
  0
LINE
  5
109
  8
VIDITELNE
  6
SLD-PLNÁ
 62
     2
 10
-80.5
 20
-3.9817960642
 30
0.0
 11
-80.5
 21
16.6725190152
 31
0.0
  0
LINE
  5
10A
  8
VIDITELNE
  6
SLD-PLNÁ
 62
     2
 10
-79.0
 20
-125.3172798365
 30
0.0
 11
-79.0
 21
-118.3172798365
 31
0.0
  0
LINE
  5
10B
  8
VIDITELNE
  6
SLD-PLNÁ
 62
     2
 10
-79.0
 20
-132.3172798365
 30
0.0
 11
-79.0
 21
-125.3172798365
 31
0.0
  0
LINE
  5
10C
  8
VIDITELNE
  6
SLD-PLNÁ
 62
     2
 10
-84.0
 20
-44.0
 30
0.0
 11
-84.0
 21
21.0
 31
0.0
  0
LINE
  5
10D
  8
VIDITELNE
  6
SLD-PLNÁ
 62
     2
 10
-84.0
 20
-109.0
 30
0.0
 11
-84.0
 21
-44.0
 31
0.0
  0
LINE
  5
10E
  8
VIDITELNE
  6
SLD-PLNÁ
 62
     2
 10
-80.5
 20
-133.2214544236
 30
0.0
 11
-69.0
 21
-158.1834381415
 31
0.0
  0
LINE
  5
10F
  8
VIDITELNE
  6
SLD-PLNÁ
 62
     2
 10
-69.0
 20
-155.1219706826
 30
0.0
 11
-80.5
 21
-130.1599869647
 31
0.0
  0
LINE
  5
110
  8
VIDITELNE
  6
SLD-PLNÁ
 62
     2
 10
-80.5
 20
-133.2214544236
 30
0.0
 11
-80.5
 21
-130.1599869647
 31
0.0
  0
LINE
  5
111
  8
VIDITELNE
  6
SLD-PLNÁ
 62
     2
 10
-80.5
 20
-139.0
 30
0.0
 11
-80.5
 21
-133.2214544236
 31
0.0
  0
LINE
  5
112
  8
VIDITELNE
  6
SLD-PLNÁ
 62
     2
 10
-79.0
 20
-159.0
 30
0.0
 11
-79.0
 21
-152.0
 31
0.0
  0
LINE
  5
113
  8
VIDITELNE
  6
SLD-PLNÁ
 62
     2
 10
-79.0
 20
-166.0
 30
0.0
 11
-79.0
 21
-159.0
 31
0.0
  0
LINE
  5
114
  8
VIDITELNE
  6
SLD-PLNÁ
 62
     2
 10
69.0
 20
3.6190632832
 30
0.0
 11
69.0
 21
-168.6158715356
 31
0.0
  0
LINE
  5
115
  8
VIDITELNE
  6
SLD-PLNÁ
 62
     2
 10
79.0
 20
-37.0
 30
0.0
 11
79.0
 21
-51.0
 31
0.0
  0
LINE
  5
116
  8
VIDITELNE
  6
SLD-PLNÁ
 62
     2
 10
69.0
 20
-1.0332401246
 30
0.0
 11
80.5
 21
-11.3728323243
 31
0.0
  0
LINE
  5
117
  8
VIDITELNE
  6
SLD-PLNÁ
 62
     2
 10
80.5
 20
-11.3728323243
 30
0.0
 11
69.0
 21
-8.8298871613
 31
0.0
  0
LINE
  5
118
  8
VIDITELNE
  6
SLD-PLNÁ
 62
     2
 10
80.5
 20
-3.9817960642
 30
0.0
 11
70.4472049332
 21
5.0566214539
 31
0.0
  0
LINE
  5
119
  8
VIDITELNE
  6
SLD-PLNÁ
 62
     2
 10
80.5
 20
-3.9817960642
 30
0.0
 11
80.5
 21
-11.3728323243
 31
0.0
  0
LINE
  5
11A
  8
VIDITELNE
  6
SLD-PLNÁ
 62
     2
 10
80.5
 20
-76.6271676757
 30
0.0
 11
69.0
 21
-86.9667598754
 31
0.0
  0
LINE
  5
11B
  8
VIDITELNE
  6
SLD-PLNÁ
 62
     2
 10
69.0
 20
-79.1701128387
 30
0.0
 11
80.5
 21
-76.6271676757
 31
0.0
  0
LINE
  5
11C
  8
VIDITELNE
  6
SLD-PLNÁ
 62
     2
 10
80.5
 20
-76.6271676757
 30
0.0
 11
80.5
 21
-84.0182039358
 31
0.0
  0
LINE
  5
11D
  8
VIDITELNE
  6
SLD-PLNÁ
 62
     2
 10
69.0
 20
-94.3577961355
 30
0.0
 11
80.5
 21
-84.0182039358
 31
0.0
  0
LINE
  5
11E
  8
VIDITELNE
  6
SLD-PLNÁ
 62
     2
 10
80.5
 20
-11.3728323243
 30
0.0
 11
80.5
 21
-76.6271676757
 31
0.0
  0
LINE
  5
11F
  8
VIDITELNE
  6
SLD-PLNÁ
 62
     2
 10
80.5
 20
16.6725190152
 30
0.0
 11
80.5
 21
-3.9817960642
 31
0.0
  0
LINE
  5
120
  8
VIDITELNE
  6
SLD-PLNÁ
 62
     2
 10
69.0
 20
-136.2991996655
 30
0.0
 11
74.5857452259
 21
-133.3172798365
 31
0.0
  0
LINE
  5
121
  8
VIDITELNE
  6
SLD-PLNÁ
 62
     2
 10
79.0
 20
-130.9607538387
 30
0.0
 11
80.5
 21
-130.1599869647
 31
0.0
  0
LINE
  5
122
  8
VIDITELNE
  6
SLD-PLNÁ
 62
     2
 10
80.5
 20
-84.0182039358
 30
0.0
 11
80.5
 21
-130.1599869647
 31
0.0
  0
LINE
  5
123
  8
VIDITELNE
  6
SLD-PLNÁ
 62
     2
 10
79.0
 20
-118.3172798365
 30
0.0
 11
79.0
 21
-132.3172798365
 31
0.0
  0
LINE
  5
124
  8
VIDITELNE
  6
SLD-PLNÁ
 62
     2
 10
84.0
 20
21.0
 30
0.0
 11
84.0
 21
-109.0
 31
0.0
  0
LINE
  5
125
  8
VIDITELNE
  6
SLD-PLNÁ
 62
     2
 10
80.5
 20
-130.1599869647
 30
0.0
 11
69.0
 21
-155.1219706826
 31
0.0
  0
LINE
  5
126
  8
VIDITELNE
  6
SLD-PLNÁ
 62
     2
 10
69.0
 20
-158.1834381415
 30
0.0
 11
80.5
 21
-133.2214544236
 31
0.0
  0
LINE
  5
127
  8
VIDITELNE
  6
SLD-PLNÁ
 62
     2
 10
80.5
 20
-130.1599869647
 30
0.0
 11
80.5
 21
-133.2214544236
 31
0.0
  0
LINE
  5
128
  8
VIDITELNE
  6
SLD-PLNÁ
 62
     2
 10
80.5
 20
-133.2214544236
 30
0.0
 11
80.5
 21
-139.0
 31
0.0
  0
LINE
  5
129
  8
VIDITELNE
  6
SLD-PLNÁ
 62
     2
 10
79.0
 20
-152.0
 30
0.0
 11
79.0
 21
-166.0
 31
0.0
  0
ARC
  5
12A
  8
VIDITELNE
  6
SLD-PLNÁ
 62
     2
 10
76.4913311897
 20
127.1182575292
 30
0.0
 40
2.000000000000019
 50
33.7543414484
 51
125.0
  0
LINE
  5
12B
  8
VIDITELNE
  6
SLD-PLNÁ
 62
     2
 10
78.0220129046
 20
128.1411941271
 30
0.0
 11
78.1541862156
 21
128.2295239972
 31
0.0
  0
ARC
  5
12C
  8
VIDITELNE
  6
SLD-PLNÁ
 62
     2
 10
76.4913311897
 20
127.1182575292
 30
0.0
 40
1.841028461367547
 50
33.7543414484
 51
125.0
  0
LINE
  5
12D
  8
VIDITELNE
  6
SLD-PLNÁ
 62
     2
 10
75.4353606456
 20
128.6263397569
 30
0.0
 11
75.344178317
 21
128.7565616178
 31
0.0
  0
CIRCLE
  5
12E
  8
VIDITELNE
  6
SLD-PLNÁ
 62
     2
 10
0.0
 20
76.0
 30
0.0
 40
65.0
  0
CIRCLE
  5
12F
  8
VIDITELNE
  6
SLD-PLNÁ
 62
     2
 10
0.0
 20
76.0
 30
0.0
 40
100.0
  0
ARC
  5
130
  8
VIDITELNE
  6
SLD-PLNÁ
 62
     2
 10
0.0
 20
76.0
 30
0.0
 40
94.00000000000004
 50
146.2456585516
 51
213.7543414484
  0
ARC
  5
131
  8
VIDITELNE
  6
SLD-PLNÁ
 62
     2
 10
-76.4913311897
 20
24.8817424708
 30
0.0
 40
2.000000000000026
 50
213.7543414484
 51
305.0
  0
LINE
  5
132
  8
VIDITELNE
  6
SLD-PLNÁ
 62
     2
 10
-75.344178317
 20
23.2434383822
 30
0.0
 11
-59.7756524984
 21
34.1446375192
 31
0.0
  0
ARC
  5
133
  8
VIDITELNE
  6
SLD-PLNÁ
 62
     2
 10
-60.9228053711
 20
35.7829416078
 30
0.0
 40
2.00000000000002
 50
305.0
 51
33.4300561717
  0
ARC
  5
134
  8
VIDITELNE
  6
SLD-PLNÁ
 62
     2
 10
0.0
 20
76.0
 30
0.0
 40
71.00000000000004
 50
146.5699438283
 51
213.4300561717
  0
ARC
  5
135
  8
VIDITELNE
  6
SLD-PLNÁ
 62
     2
 10
-60.9228053711
 20
116.2170583922
 30
0.0
 40
1.999999999999984
 50
326.5699438283
 51
55.0
  0
LINE
  5
136
  8
VIDITELNE
  6
SLD-PLNÁ
 62
     2
 10
-59.7756524984
 20
117.8553624808
 30
0.0
 11
-75.344178317
 21
128.7565616178
 31
0.0
  0
ARC
  5
137
  8
VIDITELNE
  6
SLD-PLNÁ
 62
     2
 10
-76.4913311897
 20
127.1182575292
 30
0.0
 40
2.000000000000003
 50
55.0
 51
146.2456585516
  0
LINE
  5
138
  8
VIDITELNE
  6
SLD-PLNÁ
 62
     2
 10
-52.7565616178
 20
151.344178317
 30
0.0
 11
-41.8553624808
 21
135.7756524984
 31
0.0
  0
ARC
  5
139
  8
VIDITELNE
  6
SLD-PLNÁ
 62
     2
 10
-40.2170583922
 20
136.9228053711
 30
0.0
 40
2.000000000000029
 50
215.0
 51
303.4300561717
  0
ARC
  5
13A
  8
VIDITELNE
  6
SLD-PLNÁ
 62
     2
 10
0.0
 20
76.0
 30
0.0
 40
70.99999999999999
 50
97.8734937983
 51
123.4300561717
  0
ARC
  5
13B
  8
VIDITELNE
  6
SLD-PLNÁ
 62
     2
 10
-10.0
 20
148.3118247592
 30
0.0
 40
1.99999999999998
 50
277.8734937982
 51
0.0
  0
LINE
  5
13C
  8
VIDITELNE
  6
SLD-PLNÁ
 62
     2
 10
-8.0
 20
148.3118247592
 30
0.0
 11
-8.0
 21
167.4549069214
 31
0.0
  0
ARC
  5
13D
  8
VIDITELNE
  6
SLD-PLNÁ
 62
     2
 10
-10.0
 20
167.4549069214
 30
0.0
 40
1.999999999999996
 50
0.0
 51
96.2401310983
  0
ARC
  5
13E
  8
VIDITELNE
  6
SLD-PLNÁ
 62
     2
 10
0.0
 20
76.0
 30
0.0
 40
94.0
 50
96.2401310983
 51
123.7543414484
  0
ARC
  5
13F
  8
VIDITELNE
  6
SLD-PLNÁ
 62
     2
 10
-51.1182575292
 20
152.4913311897
 30
0.0
 40
2.000000000000026
 50
123.7543414484
 51
215.0
  0
LINE
  5
140
  8
VIDITELNE
  6
SLD-PLNÁ
 62
     2
 10
8.0
 20
167.4549069214
 30
0.0
 11
8.0
 21
148.3118247592
 31
0.0
  0
ARC
  5
141
  8
VIDITELNE
  6
SLD-PLNÁ
 62
     2
 10
10.0
 20
148.3118247592
 30
0.0
 40
2.000000000000026
 50
180.0
 51
262.1265062017
  0
ARC
  5
142
  8
VIDITELNE
  6
SLD-PLNÁ
 62
     2
 10
0.0
 20
76.0
 30
0.0
 40
71.00000000000003
 50
56.5699438283
 51
82.1265062017
  0
ARC
  5
143
  8
VIDITELNE
  6
SLD-PLNÁ
 62
     2
 10
40.2170583922
 20
136.9228053711
 30
0.0
 40
1.999999999999998
 50
236.5699438283
 51
325.0
  0
LINE
  5
144
  8
VIDITELNE
  6
SLD-PLNÁ
 62
     2
 10
41.8553624808
 20
135.7756524984
 30
0.0
 11
52.7565616178
 21
151.344178317
 31
0.0
  0
ARC
  5
145
  8
VIDITELNE
  6
SLD-PLNÁ
 62
     2
 10
51.1182575292
 20
152.4913311897
 30
0.0
 40
2.000000000000003
 50
325.0
 51
56.2456585516
  0
ARC
  5
146
  8
VIDITELNE
  6
SLD-PLNÁ
 62
     2
 10
0.0
 20
76.0
 30
0.0
 40
94.00000000000004
 50
56.2456585516
 51
83.7598689017
  0
ARC
  5
147
  8
VIDITELNE
  6
SLD-PLNÁ
 62
     2
 10
10.0
 20
167.4549069214
 30
0.0
 40
1.999999999999998
 50
83.7598689017
 51
180.0
  0
LINE
  5
148
  8
VIDITELNE
  6
SLD-PLNÁ
 62
     2
 10
75.344178317
 20
128.7565616178
 30
0.0
 11
59.7756524984
 21
117.8553624808
 31
0.0
  0
ARC
  5
149
  8
VIDITELNE
  6
SLD-PLNÁ
 62
     2
 10
60.9228053711
 20
116.2170583922
 30
0.0
 40
2.000000000000191
 50
125.0
 51
213.4300561717
  0
ARC
  5
14A
  8
VIDITELNE
  6
SLD-PLNÁ
 62
     2
 10
0.0
 20
76.0
 30
0.0
 40
71.00000000000028
 50
326.5699438283
 51
33.4300561717
  0
ARC
  5
14B
  8
VIDITELNE
  6
SLD-PLNÁ
 62
     2
 10
60.9228053711
 20
35.7829416078
 30
0.0
 40
2.000000000000007
 50
146.5699438283
 51
235.0
  0
LINE
  5
14C
  8
VIDITELNE
  6
SLD-PLNÁ
 62
     2
 10
59.7756524984
 20
34.1446375192
 30
0.0
 11
75.344178317
 21
23.2434383822
 31
0.0
  0
ARC
  5
14D
  8
VIDITELNE
  6
SLD-PLNÁ
 62
     2
 10
76.4913311897
 20
24.8817424708
 30
0.0
 40
2.000000000000034
 50
235.0
 51
326.2456585516
  0
ARC
  5
14E
  8
VIDITELNE
  6
SLD-PLNÁ
 62
     2
 10
0.0
 20
76.0
 30
0.0
 40
94.00000000000003
 50
326.2456585516
 51
33.7543414484
  0
LINE
  5
14F
  8
VIDITELNE
  6
SLD-PLNÁ
 62
     2
 10
52.7565616178
 20
0.655821683
 30
0.0
 11
41.8553624808
 21
16.2243475016
 31
0.0
  0
ARC
  5
150
  8
VIDITELNE
  6
SLD-PLNÁ
 62
     2
 10
40.2170583922
 20
15.0771946289
 30
0.0
 40
2.000000000000008
 50
35.0
 51
123.4300561717
  0
ARC
  5
151
  8
VIDITELNE
  6
SLD-PLNÁ
 62
     2
 10
0.0
 20
76.0
 30
0.0
 40
71.00000000000111
 50
236.5699438283
 51
303.4300561717
  0
ARC
  5
152
  8
VIDITELNE
  6
SLD-PLNÁ
 62
     2
 10
-40.2170583922
 20
15.0771946289
 30
0.0
 40
2.000000000000005
 50
56.5699438283
 51
145.0
  0
LINE
  5
153
  8
VIDITELNE
  6
SLD-PLNÁ
 62
     2
 10
-41.8553624808
 20
16.2243475016
 30
0.0
 11
-52.7565616178
 21
0.655821683
 31
0.0
  0
ARC
  5
154
  8
VIDITELNE
  6
SLD-PLNÁ
 62
     2
 10
-51.1182575292
 20
-0.4913311897
 30
0.0
 40
2.000000000000003
 50
145.0
 51
236.2456585516
  0
ARC
  5
155
  8
VIDITELNE
  6
SLD-PLNÁ
 62
     2
 10
0.0
 20
76.0
 30
0.0
 40
94.00000000000055
 50
236.2456585516
 51
303.7543414484
  0
ARC
  5
156
  8
VIDITELNE
  6
SLD-PLNÁ
 62
     2
 10
51.1182575292
 20
-0.4913311897
 30
0.0
 40
1.999999999999995
 50
303.7543414484
 51
35.0
  0
CIRCLE
  5
157
  8
VIDITELNE
  6
SLD-PLNÁ
 62
     2
 10
-58.3363094479
 20
134.3363094479
 30
0.0
 40
5.499999999999993
  0
CIRCLE
  5
158
  8
VIDITELNE
  6
SLD-PLNÁ
 62
     2
 10
58.3363094479
 20
134.3363094479
 30
0.0
 40
5.499999999999993
  0
CIRCLE
  5
159
  8
VIDITELNE
  6
SLD-PLNÁ
 62
     2
 10
-58.3363094479
 20
17.6636905521
 30
0.0
 40
5.499999999999993
  0
CIRCLE
  5
15A
  8
VIDITELNE
  6
SLD-PLNÁ
 62
     2
 10
58.3363094479
 20
17.6636905521
 30
0.0
 40
5.499999999999986
  0
LINE
  5
15B
  8
VIDITELNE
  6
SLD-PLNÁ
 62
     2
 10
78.0220129046
 20
23.8588058729
 30
0.0
 11
78.1541862156
 21
23.7704760028
 31
0.0
  0
ARC
  5
15C
  8
VIDITELNE
  6
SLD-PLNÁ
 62
     2
 10
0.0
 20
76.0
 30
0.0
 40
93.84102846136757
 50
326.2456585516
 51
33.7543414484
  0
LINE
  5
15D
  8
VIDITELNE
  6
SLD-PLNÁ
 62
     2
 10
52.1411941271
 20
-2.0220129046
 30
0.0
 11
52.2295239972
 21
-2.1541862156
 31
0.0
  0
ARC
  5
15E
  8
VIDITELNE
  6
SLD-PLNÁ
 62
     2
 10
51.1182575292
 20
-0.4913311897
 30
0.0
 40
1.841028461367533
 50
303.7543414484
 51
35.0
  0
LINE
  5
15F
  8
VIDITELNE
  6
SLD-PLNÁ
 62
     2
 10
52.6263397569
 20
0.5646393544
 30
0.0
 11
52.7565616178
 21
0.655821683
 31
0.0
  0
LINE
  5
160
  8
VIDITELNE
  6
SLD-PLNÁ
 62
     2
 10
75.4353606456
 20
23.3736602431
 30
0.0
 11
75.344178317
 21
23.2434383822
 31
0.0
  0
ARC
  5
161
  8
VIDITELNE
  6
SLD-PLNÁ
 62
     2
 10
76.4913311897
 20
24.8817424708
 30
0.0
 40
1.841028461367589
 50
235.0
 51
326.2456585516
  0
LINE
  5
162
  8
VIDITELNE
  6
SLD-PLNÁ
 62
     2
 10
59.866834827
 20
34.2748593801
 30
0.0
 11
59.7756524984
 21
34.1446375192
 31
0.0
  0
LINE
  5
163
  8
VIDITELNE
  6
SLD-PLNÁ
 62
     2
 10
75.4353606456
 20
23.3736602431
 30
0.0
 11
59.866834827
 21
34.2748593801
 31
0.0
  0
LINE
  5
164
  8
VIDITELNE
  6
SLD-PLNÁ
 62
     2
 10
59.3863585405
 20
36.7971984453
 30
0.0
 11
59.2536874157
 21
36.884778824
 31
0.0
  0
ARC
  5
165
  8
VIDITELNE
  6
SLD-PLNÁ
 62
     2
 10
60.9228053711
 20
35.7829416078
 30
0.0
 40
1.841028461367566
 50
146.5699438283
 51
235.0
  0
LINE
  5
166
  8
VIDITELNE
  6
SLD-PLNÁ
 62
     2
 10
39.2028015547
 20
16.6136414595
 30
0.0
 11
39.115221176
 21
16.7463125843
 31
0.0
  0
ARC
  5
167
  8
VIDITELNE
  6
SLD-PLNÁ
 62
     2
 10
0.0
 20
76.0
 30
0.0
 40
71.15897153863358
 50
236.5699438283
 51
303.4300561717
  0
LINE
  5
168
  8
VIDITELNE
  6
SLD-PLNÁ
 62
     2
 10
-39.2028015547
 20
16.6136414595
 30
0.0
 11
-39.115221176
 21
16.7463125843
 31
0.0
  0
LINE
  5
169
  8
VIDITELNE
  6
SLD-PLNÁ
 62
     2
 10
41.7251406199
 20
16.133165173
 30
0.0
 11
41.8553624808
 21
16.2243475016
 31
0.0
  0
ARC
  5
16A
  8
VIDITELNE
  6
SLD-PLNÁ
 62
     2
 10
40.2170583922
 20
15.0771946289
 30
0.0
 40
1.841028461367567
 50
35.0
 51
123.4300561717
  0
LINE
  5
16B
  8
VIDITELNE
  6
SLD-PLNÁ
 62
     2
 10
41.7251406199
 20
16.133165173
 30
0.0
 11
52.6263397569
 21
0.5646393544
 31
0.0
  0
LINE
  5
16C
  8
VIDITELNE
  6
SLD-PLNÁ
 62
     2
 10
-52.1411941271
 20
-2.0220129046
 30
0.0
 11
-52.2295239972
 21
-2.1541862156
 31
0.0
  0
ARC
  5
16D
  8
VIDITELNE
  6
SLD-PLNÁ
 62
     2
 10
0.0
 20
76.0
 30
0.0
 40
93.84102846136811
 50
236.2456585516
 51
303.7543414484
  0
LINE
  5
16E
  8
VIDITELNE
  6
SLD-PLNÁ
 62
     2
 10
59.866834827
 20
117.7251406199
 30
0.0
 11
75.4353606456
 21
128.6263397569
 31
0.0
  0
LINE
  5
16F
  8
VIDITELNE
  6
SLD-PLNÁ
 62
     2
 10
59.866834827
 20
117.7251406199
 30
0.0
 11
59.7756524984
 21
117.8553624808
 31
0.0
  0
LINE
  5
170
  8
VIDITELNE
  6
SLD-PLNÁ
 62
     2
 10
59.3863585405
 20
115.2028015547
 30
0.0
 11
59.2536874157
 21
115.115221176
 31
0.0
  0
ARC
  5
171
  8
VIDITELNE
  6
SLD-PLNÁ
 62
     2
 10
0.0
 20
76.0
 30
0.0
 40
71.15897153863274
 50
326.5699438283
 51
33.4300561717
  0
LINE
  5
172
  8
VIDITELNE
  6
SLD-PLNÁ
 62
     2
 10
-75.4353606456
 20
23.3736602431
 30
0.0
 11
-75.344178317
 21
23.2434383822
 31
0.0
  0
LINE
  5
173
  8
VIDITELNE
  6
SLD-PLNÁ
 62
     2
 10
-59.866834827
 20
34.2748593801
 30
0.0
 11
-75.4353606456
 21
23.3736602431
 31
0.0
  0
LINE
  5
174
  8
VIDITELNE
  6
SLD-PLNÁ
 62
     2
 10
-59.866834827
 20
34.2748593801
 30
0.0
 11
-59.7756524984
 21
34.1446375192
 31
0.0
  0
ARC
  5
175
  8
VIDITELNE
  6
SLD-PLNÁ
 62
     2
 10
60.9228053711
 20
116.2170583922
 30
0.0
 40
1.841028461367552
 50
125.0
 51
213.4300561717
  0
LINE
  5
176
  8
VIDITELNE
  6
SLD-PLNÁ
 62
     2
 10
-41.7251406199
 20
16.133165173
 30
0.0
 11
-41.8553624808
 21
16.2243475016
 31
0.0
  0
LINE
  5
177
  8
VIDITELNE
  6
SLD-PLNÁ
 62
     2
 10
-52.6263397569
 20
0.5646393544
 30
0.0
 11
-41.7251406199
 21
16.133165173
 31
0.0
  0
LINE
  5
178
  8
VIDITELNE
  6
SLD-PLNÁ
 62
     2
 10
-52.6263397569
 20
0.5646393544
 30
0.0
 11
-52.7565616178
 21
0.655821683
 31
0.0
  0
ARC
  5
179
  8
VIDITELNE
  6
SLD-PLNÁ
 62
     2
 10
-51.1182575292
 20
-0.4913311897
 30
0.0
 40
1.841028461367563
 50
145.0
 51
236.2456585516
  0
LINE
  5
17A
  8
VIDITELNE
  6
SLD-PLNÁ
 62
     2
 10
52.6263397569
 20
151.4353606456
 30
0.0
 11
52.7565616178
 21
151.344178317
 31
0.0
  0
ARC
  5
17B
  8
VIDITELNE
  6
SLD-PLNÁ
 62
     2
 10
51.1182575292
 20
152.4913311897
 30
0.0
 40
1.841028461367571
 50
325.0
 51
56.2456585516
  0
LINE
  5
17C
  8
VIDITELNE
  6
SLD-PLNÁ
 62
     2
 10
52.1411941271
 20
154.0220129046
 30
0.0
 11
52.2295239972
 21
154.1541862156
 31
0.0
  0
LINE
  5
17D
  8
VIDITELNE
  6
SLD-PLNÁ
 62
     2
 10
41.7251406199
 20
135.866834827
 30
0.0
 11
41.8553624808
 21
135.7756524984
 31
0.0
  0
LINE
  5
17E
  8
VIDITELNE
  6
SLD-PLNÁ
 62
     2
 10
52.6263397569
 20
151.4353606456
 30
0.0
 11
41.7251406199
 21
135.866834827
 31
0.0
  0
LINE
  5
17F
  8
VIDITELNE
  6
SLD-PLNÁ
 62
     2
 10
39.2028015547
 20
135.3863585405
 30
0.0
 11
39.115221176
 21
135.2536874157
 31
0.0
  0
ARC
  5
180
  8
VIDITELNE
  6
SLD-PLNÁ
 62
     2
 10
40.2170583922
 20
136.9228053711
 30
0.0
 40
1.841028461367557
 50
236.5699438283
 51
325.0
  0
LINE
  5
181
  8
VIDITELNE
  6
SLD-PLNÁ
 62
     2
 10
9.7478043204
 20
146.4881517801
 30
0.0
 11
9.7260273973
 21
146.3306788754
 31
0.0
  0
ARC
  5
182
  8
VIDITELNE
  6
SLD-PLNÁ
 62
     2
 10
0.0
 20
76.0
 30
0.0
 40
71.15897153863249
 50
56.5699438283
 51
82.1265062017
  0
LINE
  5
183
  8
VIDITELNE
  6
SLD-PLNÁ
 62
     2
 10
8.1589715386
 20
148.3118247592
 30
0.0
 11
8.0
 21
148.3118247592
 31
0.0
  0
ARC
  5
184
  8
VIDITELNE
  6
SLD-PLNÁ
 62
     2
 10
10.0
 20
148.3118247592
 30
0.0
 40
1.84102846136757
 50
180.0
 51
262.1265062017
  0
LINE
  5
185
  8
VIDITELNE
  6
SLD-PLNÁ
 62
     2
 10
-8.1589715386
 20
148.3118247592
 30
0.0
 11
-8.0
 21
148.3118247592
 31
0.0
  0
LINE
  5
186
  8
VIDITELNE
  6
SLD-PLNÁ
 62
     2
 10
-8.1589715386
 20
167.4549069214
 30
0.0
 11
-8.1589715386
 21
148.3118247592
 31
0.0
  0
LINE
  5
187
  8
VIDITELNE
  6
SLD-PLNÁ
 62
     2
 10
-8.1589715386
 20
167.4549069214
 30
0.0
 11
-8.0
 21
167.4549069214
 31
0.0
  0
LINE
  5
188
  8
VIDITELNE
  6
SLD-PLNÁ
 62
     2
 10
8.1589715386
 20
167.4549069214
 30
0.0
 11
8.0
 21
167.4549069214
 31
0.0
  0
LINE
  5
189
  8
VIDITELNE
  6
SLD-PLNÁ
 62
     2
 10
8.1589715386
 20
148.3118247592
 30
0.0
 11
8.1589715386
 21
167.4549069214
 31
0.0
  0
LINE
  5
18A
  8
VIDITELNE
  6
SLD-PLNÁ
 62
     2
 10
-10.2001117893
 20
169.2850274276
 30
0.0
 11
-10.2173913043
 21
169.4430570719
 31
0.0
  0
ARC
  5
18B
  8
VIDITELNE
  6
SLD-PLNÁ
 62
     2
 10
0.0
 20
76.0
 30
0.0
 40
93.84102846136757
 50
96.2401310983
 51
123.7543414484
  0
LINE
  5
18C
  8
VIDITELNE
  6
SLD-PLNÁ
 62
     2
 10
-52.1411941271
 20
154.0220129046
 30
0.0
 11
-52.2295239972
 21
154.1541862156
 31
0.0
  0
ARC
  5
18D
  8
VIDITELNE
  6
SLD-PLNÁ
 62
     2
 10
-10.0
 20
167.4549069214
 30
0.0
 40
1.841028461367543
 50
0.0
 51
96.2401310983
  0
LINE
  5
18E
  8
VIDITELNE
  6
SLD-PLNÁ
 62
     2
 10
-59.3863585405
 20
36.7971984453
 30
0.0
 11
-59.2536874157
 21
36.884778824
 31
0.0
  0
ARC
  5
18F
  8
VIDITELNE
  6
SLD-PLNÁ
 62
     2
 10
0.0
 20
76.0
 30
0.0
 40
71.15897153863244
 50
146.5699438283
 51
213.4300561717
  0
LINE
  5
190
  8
VIDITELNE
  6
SLD-PLNÁ
 62
     2
 10
-59.3863585405
 20
115.2028015547
 30
0.0
 11
-59.2536874157
 21
115.115221176
 31
0.0
  0
LINE
  5
191
  8
VIDITELNE
  6
SLD-PLNÁ
 62
     2
 10
-9.7478043204
 20
146.4881517801
 30
0.0
 11
-9.7260273973
 21
146.3306788754
 31
0.0
  0
ARC
  5
192
  8
VIDITELNE
  6
SLD-PLNÁ
 62
     2
 10
-10.0
 20
148.3118247592
 30
0.0
 40
1.841028461367572
 50
277.8734937983
 51
0.0
  0
LINE
  5
193
  8
VIDITELNE
  6
SLD-PLNÁ
 62
     2
 10
-39.2028015547
 20
135.3863585405
 30
0.0
 11
-39.115221176
 21
135.2536874157
 31
0.0
  0
ARC
  5
194
  8
VIDITELNE
  6
SLD-PLNÁ
 62
     2
 10
0.0
 20
76.0
 30
0.0
 40
71.15897153863244
 50
97.8734937983
 51
123.4300561717
  0
LINE
  5
195
  8
VIDITELNE
  6
SLD-PLNÁ
 62
     2
 10
-78.0220129046
 20
23.8588058729
 30
0.0
 11
-78.1541862156
 21
23.7704760028
 31
0.0
  0
ARC
  5
196
  8
VIDITELNE
  6
SLD-PLNÁ
 62
     2
 10
-76.4913311897
 20
24.8817424708
 30
0.0
 40
1.841028461367549
 50
213.7543414484
 51
305.0
  0
LINE
  5
197
  8
VIDITELNE
  6
SLD-PLNÁ
 62
     2
 10
10.2001117893
 20
169.2850274276
 30
0.0
 11
10.2173913043
 21
169.4430570719
 31
0.0
  0
ARC
  5
198
  8
VIDITELNE
  6
SLD-PLNÁ
 62
     2
 10
10.0
 20
167.4549069214
 30
0.0
 40
1.84102846136755
 50
83.7598689017
 51
180.0
  0
ARC
  5
199
  8
VIDITELNE
  6
SLD-PLNÁ
 62
     2
 10
-60.9228053711
 20
35.7829416078
 30
0.0
 40
1.841028461367547
 50
305.0
 51
33.4300561717
  0
ARC
  5
19A
  8
VIDITELNE
  6
SLD-PLNÁ
 62
     2
 10
0.0
 20
76.0
 30
0.0
 40
93.84102846136757
 50
56.2456585516
 51
83.7598689017
  0
ARC
  5
19B
  8
VIDITELNE
  6
SLD-PLNÁ
 62
     2
 10
-51.1182575292
 20
152.4913311897
 30
0.0
 40
1.841028461367594
 50
123.7543414484
 51
215.0
  0
LINE
  5
19C
  8
VIDITELNE
  6
SLD-PLNÁ
 62
     2
 10
-52.6263397569
 20
151.4353606456
 30
0.0
 11
-52.7565616178
 21
151.344178317
 31
0.0
  0
LINE
  5
19D
  8
VIDITELNE
  6
SLD-PLNÁ
 62
     2
 10
-75.4353606456
 20
128.6263397569
 30
0.0
 11
-75.344178317
 21
128.7565616178
 31
0.0
  0
ARC
  5
19E
  8
VIDITELNE
  6
SLD-PLNÁ
 62
     2
 10
-76.4913311897
 20
127.1182575292
 30
0.0
 40
1.841028461367531
 50
55.0
 51
146.2456585516
  0
LINE
  5
19F
  8
VIDITELNE
  6
SLD-PLNÁ
 62
     2
 10
-78.0220129046
 20
128.1411941271
 30
0.0
 11
-78.1541862156
 21
128.2295239972
 31
0.0
  0
LINE
  5
1A0
  8
VIDITELNE
  6
SLD-PLNÁ
 62
     2
 10
-41.7251406199
 20
135.866834827
 30
0.0
 11
-52.6263397569
 21
151.4353606456
 31
0.0
  0
LINE
  5
1A1
  8
VIDITELNE
  6
SLD-PLNÁ
 62
     2
 10
-41.7251406199
 20
135.866834827
 30
0.0
 11
-41.8553624808
 21
135.7756524984
 31
0.0
  0
ARC
  5
1A2
  8
VIDITELNE
  6
SLD-PLNÁ
 62
     2
 10
0.0
 20
76.0
 30
0.0
 40
93.84102846136756
 50
146.2456585516
 51
213.7543414484
  0
LINE
  5
1A3
  8
VIDITELNE
  6
SLD-PLNÁ
 62
     2
 10
-59.866834827
 20
117.7251406199
 30
0.0
 11
-59.7756524984
 21
117.8553624808
 31
0.0
  0
LINE
  5
1A4
  8
VIDITELNE
  6
SLD-PLNÁ
 62
     2
 10
-75.4353606456
 20
128.6263397569
 30
0.0
 11
-59.866834827
 21
117.7251406199
 31
0.0
  0
ARC
  5
1A5
  8
VIDITELNE
  6
SLD-PLNÁ
 62
     2
 10
-60.9228053711
 20
116.2170583922
 30
0.0
 40
1.841028461367548
 50
326.5699438283
 51
55.0
  0
ARC
  5
1A6
  8
VIDITELNE
  6
SLD-PLNÁ
 62
     2
 10
-40.2170583922
 20
15.0771946289
 30
0.0
 40
1.841028461367541
 50
56.5699438283
 51
145.0
  0
ARC
  5
1A7
  8
VIDITELNE
  6
SLD-PLNÁ
 62
     2
 10
-40.2170583922
 20
136.9228053711
 30
0.0
 40
1.841028461367572
 50
215.0
 51
303.4300561717
  0
CIRCLE
  5
1A8
  8
VIDITELNE
  6
SLD-PLNÁ
 62
     2
 10
0.0
 20
76.0
 30
0.0
 40
32.49999999999999
  0
CIRCLE
  5
1A9
  8
VIDITELNE
  6
SLD-PLNÁ
 62
     2
 10
-40.7031939779
 20
99.5
 30
0.0
 40
9.000000000000004
  0
CIRCLE
  5
1AA
  8
VIDITELNE
  6
SLD-PLNÁ
 62
     2
 10
0.0
 20
123.0
 30
0.0
 40
8.999999999999993
  0
CIRCLE
  5
1AB
  8
VIDITELNE
  6
SLD-PLNÁ
 62
     2
 10
40.7031939779
 20
99.5
 30
0.0
 40
9.0
  0
CIRCLE
  5
1AC
  8
VIDITELNE
  6
SLD-PLNÁ
 62
     2
 10
-40.7031939779
 20
52.5
 30
0.0
 40
8.999999999999993
  0
CIRCLE
  5
1AD
  8
VIDITELNE
  6
SLD-PLNÁ
 62
     2
 10
0.0
 20
29.0
 30
0.0
 40
8.999999999999998
  0
CIRCLE
  5
1AE
  8
VIDITELNE
  6
SLD-PLNÁ
 62
     2
 10
40.7031939779
 20
52.5
 30
0.0
 40
9.000000000000007
  0
LINE
  5
1AF
  8
VIDITELNE
  6
SLD-PLNÁ
 62
     2
 10
78.0220129046
 20
128.1411941271
 30
0.0
 11
76.77563136
 21
127.3082519912
 31
0.0
  0
ARC
  5
1B0
  8
VIDITELNE
  6
SLD-PLNÁ
 62
     2
 10
76.4913311897
 20
127.1182575292
 30
0.0
 40
0.341942220838917
 50
33.7543414484
 51
125.0
  0
LINE
  5
1B1
  8
VIDITELNE
  6
SLD-PLNÁ
 62
     2
 10
75.4353606456
 20
128.6263397569
 30
0.0
 11
76.2952011893
 21
127.3983601984
 31
0.0
  0
LINE
  5
1B2
  8
VIDITELNE
  6
SLD-PLNÁ
 62
     2
 10
78.0220129046
 20
23.8588058729
 30
0.0
 11
76.77563136
 21
24.6917480088
 31
0.0
  0
ARC
  5
1B3
  8
VIDITELNE
  6
SLD-PLNÁ
 62
     2
 10
0.0
 20
76.0
 30
0.0
 40
92.3419422208389
 50
326.2456585516
 51
33.7543414484
  0
LINE
  5
1B4
  8
VIDITELNE
  6
SLD-PLNÁ
 62
     2
 10
76.2952011893
 20
127.3983601984
 30
0.0
 11
60.7266753706
 21
116.4971610614
 31
0.0
  0
LINE
  5
1B5
  8
VIDITELNE
  6
SLD-PLNÁ
 62
     2
 10
59.866834827
 20
117.7251406199
 30
0.0
 11
60.7266753706
 21
116.4971610614
 31
0.0
  0
ARC
  5
1B6
  8
VIDITELNE
  6
SLD-PLNÁ
 62
     2
 10
0.0
 20
76.0
 30
0.0
 40
72.65805777916138
 50
326.5699438283
 51
33.4300561717
  0
LINE
  5
1B7
  8
VIDITELNE
  6
SLD-PLNÁ
 62
     2
 10
60.6374344208
 20
35.9713239402
 30
0.0
 11
59.3863585405
 21
36.7971984453
 31
0.0
  0
LINE
  5
1B8
  8
VIDITELNE
  6
SLD-PLNÁ
 62
     2
 10
60.6374344208
 20
116.0286760598
 30
0.0
 11
59.3863585405
 21
115.2028015547
 31
0.0
  0
ARC
  5
1B9
  8
VIDITELNE
  6
SLD-PLNÁ
 62
     2
 10
0.0
 20
76.0
 30
0.0
 40
72.65805777916108
 50
146.5699438283
 51
213.4300561717
  0
LINE
  5
1BA
  8
VIDITELNE
  6
SLD-PLNÁ
 62
     2
 10
-60.6374344208
 20
116.0286760598
 30
0.0
 11
-59.3863585405
 21
115.2028015547
 31
0.0
  0
LINE
  5
1BB
  8
VIDITELNE
  6
SLD-PLNÁ
 62
     2
 10
-60.6374344208
 20
35.9713239402
 30
0.0
 11
-59.3863585405
 21
36.7971984453
 31
0.0
  0
LINE
  5
1BC
  8
VIDITELNE
  6
SLD-PLNÁ
 62
     2
 10
60.7266753706
 20
35.5028389386
 30
0.0
 11
76.2952011893
 21
24.6016398016
 31
0.0
  0
LINE
  5
1BD
  8
VIDITELNE
  6
SLD-PLNÁ
 62
     2
 10
76.2952011893
 20
24.6016398016
 30
0.0
 11
75.4353606456
 21
23.3736602431
 31
0.0
  0
LINE
  5
1BE
  8
VIDITELNE
  6
SLD-PLNÁ
 62
     2
 10
60.7266753706
 20
35.5028389386
 30
0.0
 11
59.866834827
 21
34.2748593801
 31
0.0
  0
ARC
  5
1BF
  8
VIDITELNE
  6
SLD-PLNÁ
 62
     2
 10
60.9228053711
 20
116.2170583922
 30
0.0
 40
0.3419422208388991
 50
125.0
 51
213.4300561717
  0
LINE
  5
1C0
  8
VIDITELNE
  6
SLD-PLNÁ
 62
     2
 10
52.6263397569
 20
0.5646393544
 30
0.0
 11
51.3983601984
 21
-0.2952011893
 31
0.0
  0
LINE
  5
1C1
  8
VIDITELNE
  6
SLD-PLNÁ
 62
     2
 10
51.3983601984
 20
-0.2952011893
 30
0.0
 11
40.4971610614
 21
15.2733246294
 31
0.0
  0
LINE
  5
1C2
  8
VIDITELNE
  6
SLD-PLNÁ
 62
     2
 10
41.7251406199
 20
16.133165173
 30
0.0
 11
40.4971610614
 21
15.2733246294
 31
0.0
  0
ARC
  5
1C3
  8
VIDITELNE
  6
SLD-PLNÁ
 62
     2
 10
51.1182575292
 20
152.4913311897
 30
0.0
 40
0.3419422208389111
 50
325.0
 51
56.2456585516
  0
LINE
  5
1C4
  8
VIDITELNE
  6
SLD-PLNÁ
 62
     2
 10
51.3082519912
 20
152.77563136
 30
0.0
 11
52.1411941271
 21
154.0220129046
 31
0.0
  0
LINE
  5
1C5
  8
VIDITELNE
  6
SLD-PLNÁ
 62
     2
 10
51.3983601984
 20
152.2952011893
 30
0.0
 11
52.6263397569
 21
151.4353606456
 31
0.0
  0
ARC
  5
1C6
  8
VIDITELNE
  6
SLD-PLNÁ
 62
     2
 10
0.0
 20
76.0
 30
0.0
 40
92.34194222083947
 50
236.2456585516
 51
303.7543414484
  0
LINE
  5
1C7
  8
VIDITELNE
  6
SLD-PLNÁ
 62
     2
 10
52.1411941271
 20
-2.0220129046
 30
0.0
 11
51.3082519912
 21
-0.77563136
 31
0.0
  0
LINE
  5
1C8
  8
VIDITELNE
  6
SLD-PLNÁ
 62
     2
 10
-51.3082519912
 20
-0.77563136
 30
0.0
 11
-52.1411941271
 21
-2.0220129046
 31
0.0
  0
ARC
  5
1C9
  8
VIDITELNE
  6
SLD-PLNÁ
 62
     2
 10
0.0
 20
76.0
 30
0.0
 40
92.34194222083894
 50
56.2456585516
 51
83.7598689017
  0
LINE
  5
1CA
  8
VIDITELNE
  6
SLD-PLNÁ
 62
     2
 10
10.2001117893
 20
169.2850274276
 30
0.0
 11
10.0371676327
 21
167.7948231603
 31
0.0
  0
ARC
  5
1CB
  8
VIDITELNE
  6
SLD-PLNÁ
 62
     2
 10
0.0
 20
76.0
 30
0.0
 40
72.65805777916223
 50
236.5699438283
 51
303.4300561717
  0
LINE
  5
1CC
  8
VIDITELNE
  6
SLD-PLNÁ
 62
     2
 10
-40.0286760598
 20
15.3625655792
 30
0.0
 11
-39.2028015547
 21
16.6136414595
 31
0.0
  0
LINE
  5
1CD
  8
VIDITELNE
  6
SLD-PLNÁ
 62
     2
 10
39.2028015547
 20
16.6136414595
 30
0.0
 11
40.0286760598
 21
15.3625655792
 31
0.0
  0
ARC
  5
1CE
  8
VIDITELNE
  6
SLD-PLNÁ
 62
     2
 10
40.2170583922
 20
136.9228053711
 30
0.0
 40
0.3419422208389019
 50
236.5699438283
 51
325.0
  0
LINE
  5
1CF
  8
VIDITELNE
  6
SLD-PLNÁ
 62
     2
 10
40.4971610614
 20
136.7266753706
 30
0.0
 11
41.7251406199
 21
135.866834827
 31
0.0
  0
LINE
  5
1D0
  8
VIDITELNE
  6
SLD-PLNÁ
 62
     2
 10
40.0286760598
 20
136.6374344208
 30
0.0
 11
39.2028015547
 21
135.3863585405
 31
0.0
  0
LINE
  5
1D1
  8
VIDITELNE
  6
SLD-PLNÁ
 62
     2
 10
40.4971610614
 20
136.7266753706
 30
0.0
 11
51.3983601984
 21
152.2952011893
 31
0.0
  0
ARC
  5
1D2
  8
VIDITELNE
  6
SLD-PLNÁ
 62
     2
 10
60.9228053711
 20
35.7829416078
 30
0.0
 40
0.341942220838917
 50
146.5699438283
 51
235.0
  0
ARC
  5
1D3
  8
VIDITELNE
  6
SLD-PLNÁ
 62
     2
 10
0.0
 20
76.0
 30
0.0
 40
92.34194222083889
 50
96.2401310983
 51
123.7543414484
  0
LINE
  5
1D4
  8
VIDITELNE
  6
SLD-PLNÁ
 62
     2
 10
-52.1411941271
 20
154.0220129046
 30
0.0
 11
-51.3082519912
 21
152.77563136
 31
0.0
  0
LINE
  5
1D5
  8
VIDITELNE
  6
SLD-PLNÁ
 62
     2
 10
-10.0371676327
 20
167.7948231603
 30
0.0
 11
-10.2001117893
 21
169.2850274276
 31
0.0
  0
ARC
  5
1D6
  8
VIDITELNE
  6
SLD-PLNÁ
 62
     2
 10
0.0
 20
76.0
 30
0.0
 40
72.65805777916117
 50
56.5699438283
 51
82.1265062017
  0
LINE
  5
1D7
  8
VIDITELNE
  6
SLD-PLNÁ
 62
     2
 10
9.7478043204
 20
146.4881517801
 30
0.0
 11
9.9531585999
 21
147.9731060475
 31
0.0
  0
ARC
  5
1D8
  8
VIDITELNE
  6
SLD-PLNÁ
 62
     2
 10
51.1182575292
 20
-0.4913311897
 30
0.0
 40
0.3419422208388952
 50
303.7543414484
 51
35.0
  0
ARC
  5
1D9
  8
VIDITELNE
  6
SLD-PLNÁ
 62
     2
 10
40.2170583922
 20
15.0771946289
 30
0.0
 40
0.3419422208389203
 50
35.0
 51
123.4300561717
  0
ARC
  5
1DA
  8
VIDITELNE
  6
SLD-PLNÁ
 62
     2
 10
76.4913311897
 20
24.8817424708
 30
0.0
 40
0.3419422208389362
 50
235.0
 51
326.2456585516
  0
ARC
  5
1DB
  8
VIDITELNE
  6
SLD-PLNÁ
 62
     2
 10
-60.9228053711
 20
116.2170583922
 30
0.0
 40
0.3419422208389148
 50
326.5699438283
 51
55.0
  0
LINE
  5
1DC
  8
VIDITELNE
  6
SLD-PLNÁ
 62
     2
 10
-60.7266753706
 20
116.4971610614
 30
0.0
 11
-59.866834827
 21
117.7251406199
 31
0.0
  0
LINE
  5
1DD
  8
VIDITELNE
  6
SLD-PLNÁ
 62
     2
 10
8.1589715386
 20
167.4549069214
 30
0.0
 11
9.6580577792
 21
167.4549069214
 31
0.0
  0
LINE
  5
1DE
  8
VIDITELNE
  6
SLD-PLNÁ
 62
     2
 10
9.6580577792
 20
167.4549069214
 30
0.0
 11
9.6580577792
 21
148.3118247592
 31
0.0
  0
LINE
  5
1DF
  8
VIDITELNE
  6
SLD-PLNÁ
 62
     2
 10
8.1589715386
 20
148.3118247592
 30
0.0
 11
9.6580577792
 21
148.3118247592
 31
0.0
  0
ARC
  5
1E0
  8
VIDITELNE
  6
SLD-PLNÁ
 62
     2
 10
10.0
 20
148.3118247592
 30
0.0
 40
0.3419422208389005
 50
180.0
 51
262.1265062017
  0
LINE
  5
1E1
  8
VIDITELNE
  6
SLD-PLNÁ
 62
     2
 10
-60.7266753706
 20
116.4971610614
 30
0.0
 11
-76.2952011893
 21
127.3983601984
 31
0.0
  0
LINE
  5
1E2
  8
VIDITELNE
  6
SLD-PLNÁ
 62
     2
 10
-75.4353606456
 20
128.6263397569
 30
0.0
 11
-76.2952011893
 21
127.3983601984
 31
0.0
  0
ARC
  5
1E3
  8
VIDITELNE
  6
SLD-PLNÁ
 62
     2
 10
-51.1182575292
 20
-0.4913311897
 30
0.0
 40
0.3419422208388931
 50
145.0
 51
236.2456585516
  0
LINE
  5
1E4
  8
VIDITELNE
  6
SLD-PLNÁ
 62
     2
 10
-51.3983601984
 20
-0.2952011893
 30
0.0
 11
-52.6263397569
 21
0.5646393544
 31
0.0
  0
LINE
  5
1E5
  8
VIDITELNE
  6
SLD-PLNÁ
 62
     2
 10
-76.2952011893
 20
24.6016398016
 30
0.0
 11
-60.7266753706
 21
35.5028389386
 31
0.0
  0
LINE
  5
1E6
  8
VIDITELNE
  6
SLD-PLNÁ
 62
     2
 10
-60.7266753706
 20
35.5028389386
 30
0.0
 11
-59.866834827
 21
34.2748593801
 31
0.0
  0
LINE
  5
1E7
  8
VIDITELNE
  6
SLD-PLNÁ
 62
     2
 10
-75.4353606456
 20
23.3736602431
 30
0.0
 11
-76.2952011893
 21
24.6016398016
 31
0.0
  0
ARC
  5
1E8
  8
VIDITELNE
  6
SLD-PLNÁ
 62
     2
 10
10.0
 20
167.4549069214
 30
0.0
 40
0.3419422208389069
 50
83.7598689017
 51
180.0
  0
ARC
  5
1E9
  8
VIDITELNE
  6
SLD-PLNÁ
 62
     2
 10
0.0
 20
76.0
 30
0.0
 40
72.65805777916113
 50
97.8734937983
 51
123.4300561717
  0
LINE
  5
1EA
  8
VIDITELNE
  6
SLD-PLNÁ
 62
     2
 10
-9.9531585999
 20
147.9731060475
 30
0.0
 11
-9.7478043204
 21
146.4881517801
 31
0.0
  0
LINE
  5
1EB
  8
VIDITELNE
  6
SLD-PLNÁ
 62
     2
 10
-39.2028015547
 20
135.3863585405
 30
0.0
 11
-40.0286760598
 21
136.6374344208
 31
0.0
  0
LINE
  5
1EC
  8
VIDITELNE
  6
SLD-PLNÁ
 62
     2
 10
-78.0220129046
 20
128.1411941271
 30
0.0
 11
-76.77563136
 21
127.3082519912
 31
0.0
  0
ARC
  5
1ED
  8
VIDITELNE
  6
SLD-PLNÁ
 62
     2
 10
0.0
 20
76.0
 30
0.0
 40
92.3419422208389
 50
146.2456585516
 51
213.7543414484
  0
LINE
  5
1EE
  8
VIDITELNE
  6
SLD-PLNÁ
 62
     2
 10
-78.0220129046
 20
23.8588058729
 30
0.0
 11
-76.77563136
 21
24.6917480088
 31
0.0
  0
LINE
  5
1EF
  8
VIDITELNE
  6
SLD-PLNÁ
 62
     2
 10
-9.6580577792
 20
148.3118247592
 30
0.0
 11
-9.6580577792
 21
167.4549069214
 31
0.0
  0
LINE
  5
1F0
  8
VIDITELNE
  6
SLD-PLNÁ
 62
     2
 10
-9.6580577792
 20
167.4549069214
 30
0.0
 11
-8.1589715386
 21
167.4549069214
 31
0.0
  0
LINE
  5
1F1
  8
VIDITELNE
  6
SLD-PLNÁ
 62
     2
 10
-9.6580577792
 20
148.3118247592
 30
0.0
 11
-8.1589715386
 21
148.3118247592
 31
0.0
  0
LINE
  5
1F2
  8
VIDITELNE
  6
SLD-PLNÁ
 62
     2
 10
-40.4971610614
 20
15.2733246294
 30
0.0
 11
-51.3983601984
 21
-0.2952011893
 31
0.0
  0
LINE
  5
1F3
  8
VIDITELNE
  6
SLD-PLNÁ
 62
     2
 10
-40.4971610614
 20
15.2733246294
 30
0.0
 11
-41.7251406199
 21
16.133165173
 31
0.0
  0
LINE
  5
1F4
  8
VIDITELNE
  6
SLD-PLNÁ
 62
     2
 10
-52.6263397569
 20
151.4353606456
 30
0.0
 11
-51.3983601984
 21
152.2952011893
 31
0.0
  0
LINE
  5
1F5
  8
VIDITELNE
  6
SLD-PLNÁ
 62
     2
 10
-51.3983601984
 20
152.2952011893
 30
0.0
 11
-40.4971610614
 21
136.7266753706
 31
0.0
  0
LINE
  5
1F6
  8
VIDITELNE
  6
SLD-PLNÁ
 62
     2
 10
-41.7251406199
 20
135.866834827
 30
0.0
 11
-40.4971610614
 21
136.7266753706
 31
0.0
  0
ARC
  5
1F7
  8
VIDITELNE
  6
SLD-PLNÁ
 62
     2
 10
-10.0
 20
167.4549069214
 30
0.0
 40
0.3419422208389063
 50
0.0
 51
96.2401310983
  0
ARC
  5
1F8
  8
VIDITELNE
  6
SLD-PLNÁ
 62
     2
 10
-60.9228053711
 20
35.7829416078
 30
0.0
 40
0.3419422208389089
 50
305.0
 51
33.4300561717
  0
ARC
  5
1F9
  8
VIDITELNE
  6
SLD-PLNÁ
 62
     2
 10
-76.4913311897
 20
127.1182575292
 30
0.0
 40
0.3419422208388856
 50
55.0
 51
146.2456585516
  0
ARC
  5
1FA
  8
VIDITELNE
  6
SLD-PLNÁ
 62
     2
 10
-10.0
 20
148.3118247592
 30
0.0
 40
0.3419422208388919
 50
277.8734937983
 51
0.0
  0
ARC
  5
1FB
  8
VIDITELNE
  6
SLD-PLNÁ
 62
     2
 10
-51.1182575292
 20
152.4913311897
 30
0.0
 40
0.341942220838919
 50
123.7543414484
 51
215.0
  0
ARC
  5
1FC
  8
VIDITELNE
  6
SLD-PLNÁ
 62
     2
 10
-76.4913311897
 20
24.8817424708
 30
0.0
 40
0.3419422208388966
 50
213.7543414484
 51
305.0
  0
ARC
  5
1FD
  8
VIDITELNE
  6
SLD-PLNÁ
 62
     2
 10
-40.2170583922
 20
15.0771946289
 30
0.0
 40
0.3419422208388866
 50
56.5699438283
 51
145.0
  0
ARC
  5
1FE
  8
VIDITELNE
  6
SLD-PLNÁ
 62
     2
 10
-40.2170583922
 20
136.9228053711
 30
0.0
 40
0.3419422208389288
 50
215.0
 51
303.4300561717
  0
LINE
  5
1FF
  8
VIDITELNE
  6
SLD-PLNÁ
 62
     2
 10
53.0
 20
-44.0
 30
0.0
 11
53.0
 21
-8.7997641506
 31
0.0
  0
LINE
  5
200
  8
VIDITELNE
  6
SLD-PLNÁ
 62
     2
 10
53.0
 20
16.3318491665
 30
0.0
 11
53.0
 21
18.9955319377
 31
0.0
  0
LINE
  5
201
  8
VIDITELNE
  6
SLD-PLNÁ
 62
     2
 10
-53.0
 20
18.9955319377
 30
0.0
 11
-53.0
 21
16.3318491665
 31
0.0
  0
LINE
  5
202
  8
VIDITELNE
  6
SLD-PLNÁ
 62
     2
 10
-53.0
 20
-8.7997641506
 30
0.0
 11
-53.0
 21
-44.0
 31
0.0
  0
LINE
  5
203
  8
VIDITELNE
  6
SLD-PLNÁ
 62
     2
 10
-57.0
 20
-12.8752198802
 30
0.0
 11
-57.0
 21
-6.1644692066
 31
0.0
  0
LINE
  5
204
  8
VIDITELNE
  6
SLD-PLNÁ
 62
     2
 10
-57.0
 20
12.3284982351
 30
0.0
 11
-57.0
 21
22.9988828691
 31
0.0
  0
LINE
  5
205
  8
VIDITELNE
  6
SLD-PLNÁ
 62
     2
 10
57.0
 20
22.9988828691
 30
0.0
 11
57.0
 21
12.3284982351
 31
0.0
  0
LINE
  5
206
  8
VIDITELNE
  6
SLD-PLNÁ
 62
     2
 10
57.0
 20
-6.1644692066
 30
0.0
 11
57.0
 21
-12.8752198802
 31
0.0
  0
ARC
  5
207
  8
VIDITELNE
  6
SLD-PLNÁ
 62
     2
 10
-0.0857815544
 20
-298.1816168021
 30
0.0
 40
130.3065842298876
 50
82.4873545902
 51
89.9622818646
  0
ARC
  5
208
  8
VIDITELNE
  6
SLD-PLNÁ
 62
     2
 10
0.088584611
 20
-298.2275143815
 30
0.0
 40
130.3524836740991
 50
90.0389369238
 51
97.5326349277
  0
ARC
  5
209
  8
VIDITELNE
  6
SLD-PLNÁ
 62
     2
 10
0.095224289
 20
-270.1087496073
 30
0.0
 40
100.2517330513965
 50
90.0544225075
 51
98.6598769986
  0
ARC
  5
20A
  8
VIDITELNE
  6
SLD-PLNÁ
 62
     2
 10
-0.0913424357
 20
-270.0677020735
 30
0.0
 40
100.21068192255
 50
81.36528011
 51
89.9477746615
  0
LINE
  5
20B
  8
VIDITELNE
  6
SLD-PLNÁ
 62
     2
 10
-10.5
 20
-175.0
 30
0.0
 11
10.5
 21
-175.0
 31
0.0
  0
LINE
  5
20C
  8
VIDITELNE
  6
SLD-PLNÁ
 62
     2
 10
-78.0
 20
-44.0
 30
0.0
 11
-78.0
 21
-52.0
 31
0.0
  0
LINE
  5
20D
  8
VIDITELNE
  6
SLD-PLNÁ
 62
     2
 10
-78.0
 20
-36.0
 30
0.0
 11
-78.0
 21
-44.0
 31
0.0
  0
LINE
  5
20E
  8
VIDITELNE
  6
SLD-PLNÁ
 62
     2
 10
-78.0
 20
-125.3172798365
 30
0.0
 11
-78.0
 21
-133.3172798365
 31
0.0
  0
LINE
  5
20F
  8
VIDITELNE
  6
SLD-PLNÁ
 62
     2
 10
-78.0
 20
-117.3172798365
 30
0.0
 11
-78.0
 21
-125.3172798365
 31
0.0
  0
LINE
  5
210
  8
VIDITELNE
  6
SLD-PLNÁ
 62
     2
 10
-78.0
 20
-159.0
 30
0.0
 11
-78.0
 21
-167.0
 31
0.0
  0
LINE
  5
211
  8
VIDITELNE
  6
SLD-PLNÁ
 62
     2
 10
-78.0
 20
-151.0
 30
0.0
 11
-78.0
 21
-159.0
 31
0.0
  0
LINE
  5
212
  8
VIDITELNE
  6
SLD-PLNÁ
 62
     2
 10
78.0
 20
-52.0
 30
0.0
 11
78.0
 21
-36.0
 31
0.0
  0
LINE
  5
213
  8
VIDITELNE
  6
SLD-PLNÁ
 62
     2
 10
78.0
 20
-133.3172798365
 30
0.0
 11
78.0
 21
-117.3172798365
 31
0.0
  0
LINE
  5
214
  8
VIDITELNE
  6
SLD-PLNÁ
 62
     2
 10
78.0
 20
-167.0
 30
0.0
 11
78.0
 21
-151.0
 31
0.0
  0
LINE
  5
215
  8
VIDITELNE
  6
SLD-PLNÁ
 62
     2
 10
743.4296628631
 20
81.0
 30
0.0
 11
742.0
 21
81.0
 31
0.0
  0
LINE
  5
216
  8
VIDITELNE
  6
SLD-PLNÁ
 62
     2
 10
858.0
 20
81.0
 30
0.0
 11
856.5703371369
 21
81.0
 31
0.0
  0
LINE
  5
217
  8
VIDITELNE
  6
SLD-PLNÁ
 62
     2
 10
816.9994378438
 20
-169.0
 30
0.0
 11
858.0
 21
-169.0
 31
0.0
  0
LINE
  5
218
  8
VIDITELNE
  6
SLD-PLNÁ
 62
     2
 10
742.0
 20
-169.0
 30
0.0
 11
783.0488465579
 21
-169.0
 31
0.0
  0
ARC
  5
219
  8
VIDITELNE
  6
SLD-PLNÁ
 62
     2
 10
743.5345180086
 20
82.8807445407
 30
0.0
 40
1.858292497025205
 50
266.7993630945
 51
345.0900678041
  0
ARC
  5
21A
  8
VIDITELNE
  6
SLD-PLNÁ
 62
     2
 10
856.487400392
 20
82.9123198777
 30
0.0
 40
1.887125475712729
 50
195.6692055002
 51
272.5888422013
  0
ARC
  5
21B
  8
VIDITELNE
  6
SLD-PLNÁ
 62
     2
 10
716.0
 20
-74.5
 30
0.0
 40
2.0
 50
180.0
 51
270.0
  0
ARC
  5
21C
  8
VIDITELNE
  6
SLD-PLNÁ
 62
     2
 10
716.0
 20
-13.5
 30
0.0
 40
2.000000000000002
 50
90.0
 51
180.0
  0
ARC
  5
21D
  8
VIDITELNE
  6
SLD-PLNÁ
 62
     2
 10
884.0
 20
-13.5
 30
0.0
 40
2.000000000000002
 50
0.0
 51
90.0
  0
ARC
  5
21E
  8
VIDITELNE
  6
SLD-PLNÁ
 62
     2
 10
884.0
 20
-74.5
 30
0.0
 40
2.0
 50
270.0
 51
0.0
  0
ARC
  5
21F
  8
VIDITELNE
  6
SLD-PLNÁ
 62
     2
 10
783.0
 20
-171.0
 30
0.0
 40
2.000000000004547
 50
360.0
 51
89.9999999987
  0
ARC
  5
220
  8
VIDITELNE
  6
SLD-PLNÁ
 62
     2
 10
817.0
 20
-171.0
 30
0.0
 40
1.999999999988432
 50
90.0000000003
 51
180.0000000004
  0
LINE
  5
221
  8
VIDITELNE
  6
SLD-PLNÁ
 62
     2
 10
785.0
 20
-170.9928486643
 30
0.0
 11
785.0
 21
-172.0
 31
0.0
  0
LINE
  5
222
  8
VIDITELNE
  6
SLD-PLNÁ
 62
     2
 10
815.0
 20
-172.0
 30
0.0
 11
815.0
 21
-170.9999236757
 31
0.0
  0
ARC
  5
223
  8
VIDITELNE
  6
SLD-PLNÁ
 62
     2
 10
809.5
 20
-175.0
 30
0.0
 40
1.000000000000114
 50
270.0
 51
0.0
  0
ARC
  5
224
  8
VIDITELNE
  6
SLD-PLNÁ
 62
     2
 10
790.5
 20
-175.0
 30
0.0
 40
1.0
 50
180.0
 51
270.0
  0
LINE
  5
225
  8
VIDITELNE
  6
SLD-PLNÁ
 62
     2
 10
789.5
 20
-172.0
 30
0.0
 11
789.5
 21
-175.0
 31
0.0
  0
LINE
  5
226
  8
VIDITELNE
  6
SLD-PLNÁ
 62
     2
 10
810.5
 20
-175.0
 30
0.0
 11
810.5
 21
-172.0
 31
0.0
  0
LINE
  5
227
  8
VIDITELNE
  6
SLD-PLNÁ
 62
     2
 10
858.0
 20
-169.0
 30
0.0
 11
869.0
 21
-168.6158715356
 31
0.0
  0
LINE
  5
228
  8
VIDITELNE
  6
SLD-PLNÁ
 62
     2
 10
869.0
 20
80.6158715356
 30
0.0
 11
858.0
 21
81.0
 31
0.0
  0
ARC
  5
229
  8
VIDITELNE
  6
SLD-PLNÁ
 62
     2
 10
878.0
 20
-37.0
 30
0.0
 40
1.000000000000114
 50
360.0
 51
90.0
  0
ARC
  5
22A
  8
VIDITELNE
  6
SLD-PLNÁ
 62
     2
 10
878.0
 20
-51.0
 30
0.0
 40
1.000000000000114
 50
270.0
 51
360.0
  0
LINE
  5
22B
  8
VIDITELNE
  6
SLD-PLNÁ
 62
     2
 10
869.0
 20
-52.0
 30
0.0
 11
878.0
 21
-52.0
 31
0.0
  0
LINE
  5
22C
  8
VIDITELNE
  6
SLD-PLNÁ
 62
     2
 10
878.0
 20
-36.0
 30
0.0
 11
869.0
 21
-36.0
 31
0.0
  0
LINE
  5
22D
  8
VIDITELNE
  6
SLD-PLNÁ
 62
     2
 10
869.0
 20
29.3172798365
 30
0.0
 11
878.0
 21
29.3172798365
 31
0.0
  0
LINE
  5
22E
  8
VIDITELNE
  6
SLD-PLNÁ
 62
     2
 10
878.0
 20
45.3172798365
 30
0.0
 11
869.0
 21
45.3172798365
 31
0.0
  0
ARC
  5
22F
  8
VIDITELNE
  6
SLD-PLNÁ
 62
     2
 10
878.0
 20
44.3172798365
 30
0.0
 40
1.000000000000114
 50
0.0
 51
90.0
  0
ARC
  5
230
  8
VIDITELNE
  6
SLD-PLNÁ
 62
     2
 10
878.0
 20
30.3172798365
 30
0.0
 40
1.000000000000114
 50
270.0
 51
0.0
  0
LINE
  5
231
  8
VIDITELNE
  6
SLD-PLNÁ
 62
     2
 10
869.0
 20
-133.3172798365
 30
0.0
 11
878.0
 21
-133.3172798365
 31
0.0
  0
LINE
  5
232
  8
VIDITELNE
  6
SLD-PLNÁ
 62
     2
 10
878.0
 20
-117.3172798365
 30
0.0
 11
869.0
 21
-117.3172798365
 31
0.0
  0
ARC
  5
233
  8
VIDITELNE
  6
SLD-PLNÁ
 62
     2
 10
878.0
 20
-118.3172798365
 30
0.0
 40
1.0
 50
0.0
 51
90.0
  0
ARC
  5
234
  8
VIDITELNE
  6
SLD-PLNÁ
 62
     2
 10
878.0
 20
-132.3172798365
 30
0.0
 40
1.0
 50
270.0
 51
0.0
  0
LINE
  5
235
  8
VIDITELNE
  6
SLD-PLNÁ
 62
     2
 10
884.0
 20
21.0
 30
0.0
 11
880.5
 21
21.0
 31
0.0
  0
LINE
  5
236
  8
VIDITELNE
  6
SLD-PLNÁ
 62
     2
 10
880.5
 20
-109.0
 30
0.0
 11
884.0
 21
-109.0
 31
0.0
  0
LINE
  5
237
  8
VIDITELNE
  6
SLD-PLNÁ
 62
     2
 10
876.8731240234
 20
-141.0939778214
 30
0.0
 11
880.5
 21
-139.0
 31
0.0
  0
LINE
  5
238
  8
VIDITELNE
  6
SLD-PLNÁ
 62
     2
 10
880.5
 20
51.0
 30
0.0
 11
876.8731240234
 21
53.0939778214
 31
0.0
  0
LINE
  5
239
  8
VIDITELNE
  6
SLD-PLNÁ
 62
     2
 10
869.0
 20
-167.0
 30
0.0
 11
878.0
 21
-167.0
 31
0.0
  0
LINE
  5
23A
  8
VIDITELNE
  6
SLD-PLNÁ
 62
     2
 10
878.0
 20
-151.0
 30
0.0
 11
872.3094140097
 21
-151.0
 31
0.0
  0
ARC
  5
23B
  8
VIDITELNE
  6
SLD-PLNÁ
 62
     2
 10
878.0
 20
-152.0
 30
0.0
 40
1.0
 50
0.0
 51
90.0
  0
ARC
  5
23C
  8
VIDITELNE
  6
SLD-PLNÁ
 62
     2
 10
878.0
 20
-166.0
 30
0.0
 40
1.000000000000028
 50
270.0
 51
0.0
  0
LINE
  5
23D
  8
VIDITELNE
  6
SLD-PLNÁ
 62
     2
 10
872.3094140097
 20
63.0
 30
0.0
 11
878.0
 21
63.0
 31
0.0
  0
LINE
  5
23E
  8
VIDITELNE
  6
SLD-PLNÁ
 62
     2
 10
878.0
 20
79.0
 30
0.0
 11
869.0
 21
79.0
 31
0.0
  0
ARC
  5
23F
  8
VIDITELNE
  6
SLD-PLNÁ
 62
     2
 10
878.0
 20
78.0
 30
0.0
 40
1.000000000000114
 50
0.0
 51
90.0
  0
ARC
  5
240
  8
VIDITELNE
  6
SLD-PLNÁ
 62
     2
 10
878.0
 20
64.0
 30
0.0
 40
1.000000000000114
 50
270.0
 51
0.0
  0
LINE
  5
241
  8
VIDITELNE
  6
SLD-PLNÁ
 62
     2
 10
742.0
 20
81.0
 30
0.0
 11
731.0
 21
80.6158715356
 31
0.0
  0
LINE
  5
242
  8
VIDITELNE
  6
SLD-PLNÁ
 62
     2
 10
731.0
 20
-168.6158715356
 30
0.0
 11
742.0
 21
-169.0
 31
0.0
  0
LINE
  5
243
  8
VIDITELNE
  6
SLD-PLNÁ
 62
     2
 10
731.0
 20
-36.0
 30
0.0
 11
722.0
 21
-36.0
 31
0.0
  0
LINE
  5
244
  8
VIDITELNE
  6
SLD-PLNÁ
 62
     2
 10
722.0
 20
-52.0
 30
0.0
 11
731.0
 21
-52.0
 31
0.0
  0
ARC
  5
245
  8
VIDITELNE
  6
SLD-PLNÁ
 62
     2
 10
722.0
 20
-51.0
 30
0.0
 40
1.0
 50
180.0
 51
270.0
  0
ARC
  5
246
  8
VIDITELNE
  6
SLD-PLNÁ
 62
     2
 10
722.0
 20
-37.0
 30
0.0
 40
1.0
 50
90.0
 51
180.0
  0
ARC
  5
247
  8
VIDITELNE
  6
SLD-PLNÁ
 62
     2
 10
722.0
 20
-132.3172798365
 30
0.0
 40
1.0
 50
180.0
 51
270.0
  0
ARC
  5
248
  8
VIDITELNE
  6
SLD-PLNÁ
 62
     2
 10
722.0
 20
-118.3172798365
 30
0.0
 40
1.0
 50
90.0
 51
180.0
  0
ARC
  5
249
  8
VIDITELNE
  6
SLD-PLNÁ
 62
     2
 10
722.0
 20
30.3172798365
 30
0.0
 40
1.0
 50
180.0
 51
270.0
  0
ARC
  5
24A
  8
VIDITELNE
  6
SLD-PLNÁ
 62
     2
 10
722.0
 20
44.3172798365
 30
0.0
 40
1.0
 50
90.0
 51
180.0
  0
LINE
  5
24B
  8
VIDITELNE
  6
SLD-PLNÁ
 62
     2
 10
731.0
 20
-117.3172798365
 30
0.0
 11
722.0
 21
-117.3172798365
 31
0.0
  0
LINE
  5
24C
  8
VIDITELNE
  6
SLD-PLNÁ
 62
     2
 10
722.0
 20
-133.3172798365
 30
0.0
 11
731.0
 21
-133.3172798365
 31
0.0
  0
LINE
  5
24D
  8
VIDITELNE
  6
SLD-PLNÁ
 62
     2
 10
731.0
 20
45.3172798365
 30
0.0
 11
722.0
 21
45.3172798365
 31
0.0
  0
LINE
  5
24E
  8
VIDITELNE
  6
SLD-PLNÁ
 62
     2
 10
722.0
 20
29.3172798365
 30
0.0
 11
731.0
 21
29.3172798365
 31
0.0
  0
LINE
  5
24F
  8
VIDITELNE
  6
SLD-PLNÁ
 62
     2
 10
716.0
 20
-109.0
 30
0.0
 11
719.5
 21
-109.0
 31
0.0
  0
LINE
  5
250
  8
VIDITELNE
  6
SLD-PLNÁ
 62
     2
 10
719.5
 20
21.0
 30
0.0
 11
716.0
 21
21.0
 31
0.0
  0
LINE
  5
251
  8
VIDITELNE
  6
SLD-PLNÁ
 62
     2
 10
723.1268759766
 20
53.0939778214
 30
0.0
 11
719.5
 21
51.0
 31
0.0
  0
LINE
  5
252
  8
VIDITELNE
  6
SLD-PLNÁ
 62
     2
 10
719.5
 20
-139.0
 30
0.0
 11
723.1268759766
 21
-141.0939778214
 31
0.0
  0
LINE
  5
253
  8
VIDITELNE
  6
SLD-PLNÁ
 62
     2
 10
727.6905859903
 20
-151.0
 30
0.0
 11
722.0
 21
-151.0
 31
0.0
  0
LINE
  5
254
  8
VIDITELNE
  6
SLD-PLNÁ
 62
     2
 10
722.0
 20
-167.0
 30
0.0
 11
731.0
 21
-167.0
 31
0.0
  0
ARC
  5
255
  8
VIDITELNE
  6
SLD-PLNÁ
 62
     2
 10
722.0
 20
-166.0
 30
0.0
 40
1.000000000000114
 50
180.0
 51
270.0
  0
ARC
  5
256
  8
VIDITELNE
  6
SLD-PLNÁ
 62
     2
 10
722.0
 20
-152.0
 30
0.0
 40
1.000000000000114
 50
90.0
 51
180.0
  0
LINE
  5
257
  8
VIDITELNE
  6
SLD-PLNÁ
 62
     2
 10
731.0
 20
79.0
 30
0.0
 11
722.0
 21
79.0
 31
0.0
  0
LINE
  5
258
  8
VIDITELNE
  6
SLD-PLNÁ
 62
     2
 10
722.0
 20
63.0
 30
0.0
 11
727.6905859903
 21
63.0
 31
0.0
  0
ARC
  5
259
  8
VIDITELNE
  6
SLD-PLNÁ
 62
     2
 10
722.0
 20
64.0
 30
0.0
 40
1.0
 50
180.0
 51
270.0
  0
ARC
  5
25A
  8
VIDITELNE
  6
SLD-PLNÁ
 62
     2
 10
722.0
 20
78.0
 30
0.0
 40
1.0
 50
90.0
 51
180.0
  0
POLYLINE
  5
25B
  8
VIDITELNE
  6
SLD-PLNÁ
 62
     2
 66
     1
 10
0.0
 20
0.0
 30
0.0
  0
VERTEX
  5
712
  8
VIDITELNE
  6
SLD-PLNÁ
 62
     2
 10
805.4838923038
 20
137.5408034127
 30
0.0
  0
VERTEX
  5
713
  8
VIDITELNE
  6
SLD-PLNÁ
 62
     2
 10
805.4936648026
 20
137.5383400179
 30
0.0
  0
VERTEX
  5
714
  8
VIDITELNE
  6
SLD-PLNÁ
 62
     2
 10
805.5430087196
 20
137.960674774
 30
0.0
  0
VERTEX
  5
715
  8
VIDITELNE
  6
SLD-PLNÁ
 62
     2
 10
805.5103121073
 20
138.8194139581
 30
0.0
  0
VERTEX
  5
716
  8
VIDITELNE
  6
SLD-PLNÁ
 62
     2
 10
805.4480413558
 20
140.039647506
 30
0.0
  0
VERTEX
  5
717
  8
VIDITELNE
  6
SLD-PLNÁ
 62
     2
 10
805.3185821771
 20
142.8640293214
 30
0.0
  0
VERTEX
  5
718
  8
VIDITELNE
  6
SLD-PLNÁ
 62
     2
 10
805.1941411883
 20
145.9038789885
 30
0.0
  0
VERTEX
  5
719
  8
VIDITELNE
  6
SLD-PLNÁ
 62
     2
 10
805.0815821551
 20
148.8289308931
 30
0.0
  0
VERTEX
  5
71A
  8
VIDITELNE
  6
SLD-PLNÁ
 62
     2
 10
804.9949663855
 20
151.1336129485
 30
0.0
  0
VERTEX
  5
71B
  8
VIDITELNE
  6
SLD-PLNÁ
 62
     2
 10
804.9024641722
 20
153.5945934814
 30
0.0
  0
VERTEX
  5
71C
  8
VIDITELNE
  6
SLD-PLNÁ
 62
     2
 10
804.8215609129
 20
155.7085387206
 30
0.0
  0
VERTEX
  5
71D
  8
VIDITELNE
  6
SLD-PLNÁ
 62
     2
 10
804.7381446409
 20
157.8114521657
 30
0.0
  0
VERTEX
  5
71E
  8
VIDITELNE
  6
SLD-PLNÁ
 62
     2
 10
804.6624411103
 20
159.6221921006
 30
0.0
  0
VERTEX
  5
71F
  8
VIDITELNE
  6
SLD-PLNÁ
 62
     2
 10
804.594427891
 20
161.1484799275
 30
0.0
  0
VERTEX
  5
720
  8
VIDITELNE
  6
SLD-PLNÁ
 62
     2
 10
804.5166492915
 20
162.714589609
 30
0.0
  0
VERTEX
  5
721
  8
VIDITELNE
  6
SLD-PLNÁ
 62
     2
 10
804.367139301
 20
164.8272044742
 30
0.0
  0
VERTEX
  5
722
  8
VIDITELNE
  6
SLD-PLNÁ
 62
     2
 10
804.1535592603
 20
166.6639188209
 30
0.0
  0
VERTEX
  5
723
  8
VIDITELNE
  6
SLD-PLNÁ
 62
     2
 10
803.7971117064
 20
168.5277415745
 30
0.0
  0
VERTEX
  5
724
  8
VIDITELNE
  6
SLD-PLNÁ
 62
     2
 10
803.2551546555
 20
170.1476248812
 30
0.0
  0
VERTEX
  5
725
  8
VIDITELNE
  6
SLD-PLNÁ
 62
     2
 10
802.5151621247
 20
171.1102989385
 30
0.0
  0
SEQEND
  5
726
  8
VIDITELNE
  6
SLD-PLNÁ
 62
     2
  0
POLYLINE
  5
25C
  8
VIDITELNE
  6
SLD-PLNÁ
 62
     2
 66
     1
 10
0.0
 20
0.0
 30
0.0
  0
VERTEX
  5
727
  8
VIDITELNE
  6
SLD-PLNÁ
 62
     2
 10
797.486156296
 20
171.1113646253
 30
0.0
  0
VERTEX
  5
728
  8
VIDITELNE
  6
SLD-PLNÁ
 62
     2
 10
796.4354025557
 20
169.7480625782
 30
0.0
  0
VERTEX
  5
729
  8
VIDITELNE
  6
SLD-PLNÁ
 62
     2
 10
795.90554908
 20
167.9186105858
 30
0.0
  0
VERTEX
  5
72A
  8
VIDITELNE
  6
SLD-PLNÁ
 62
     2
 10
795.6865023441
 20
166.0711798079
 30
0.0
  0
VERTEX
  5
72B
  8
VIDITELNE
  6
SLD-PLNÁ
 62
     2
 10
795.5339776419
 20
163.7087679444
 30
0.0
  0
VERTEX
  5
72C
  8
VIDITELNE
  6
SLD-PLNÁ
 62
     2
 10
795.3796777265
 20
160.5794445263
 30
0.0
  0
VERTEX
  5
72D
  8
VIDITELNE
  6
SLD-PLNÁ
 62
     2
 10
795.233334822
 20
157.1040890636
 30
0.0
  0
VERTEX
  5
72E
  8
VIDITELNE
  6
SLD-PLNÁ
 62
     2
 10
795.1030141965
 20
153.7397123643
 30
0.0
  0
VERTEX
  5
72F
  8
VIDITELNE
  6
SLD-PLNÁ
 62
     2
 10
795.0075605066
 20
151.2000189312
 30
0.0
  0
VERTEX
  5
730
  8
VIDITELNE
  6
SLD-PLNÁ
 62
     2
 10
794.9191673012
 20
148.8482130952
 30
0.0
  0
VERTEX
  5
731
  8
VIDITELNE
  6
SLD-PLNÁ
 62
     2
 10
794.7973393191
 20
145.6892211534
 30
0.0
  0
VERTEX
  5
732
  8
VIDITELNE
  6
SLD-PLNÁ
 62
     2
 10
794.6664957584
 20
142.5250837333
 30
0.0
  0
VERTEX
  5
733
  8
VIDITELNE
  6
SLD-PLNÁ
 62
     2
 10
794.5376118295
 20
139.7709839179
 30
0.0
  0
VERTEX
  5
734
  8
VIDITELNE
  6
SLD-PLNÁ
 62
     2
 10
794.4255242702
 20
137.7632185024
 30
0.0
  0
VERTEX
  5
735
  8
VIDITELNE
  6
SLD-PLNÁ
 62
     2
 10
794.3794314823
 20
137.0610790114
 30
0.0
  0
VERTEX
  5
736
  8
VIDITELNE
  6
SLD-PLNÁ
 62
     2
 10
794.3612969793
 20
136.7976071462
 30
0.0
  0
VERTEX
  5
737
  8
VIDITELNE
  6
SLD-PLNÁ
 62
     2
 10
794.3611616892
 20
136.7674821504
 30
0.0
  0
SEQEND
  5
738
  8
VIDITELNE
  6
SLD-PLNÁ
 62
     2
  0
LINE
  5
25D
  8
VIDITELNE
  6
SLD-PLNÁ
 62
     2
 10
811.3563269083
 20
129.8148105929
 30
0.0
 11
810.2319551923
 21
136.1914394645
 31
0.0
  0
LINE
  5
25E
  8
VIDITELNE
  6
SLD-PLNÁ
 62
     2
 10
789.7680448077
 20
136.1914394645
 30
0.0
 11
788.6436730917
 21
129.8148105929
 31
0.0
  0
ARC
  5
25F
  8
VIDITELNE
  6
SLD-PLNÁ
 62
     2
 10
807.2775319332
 20
135.6704949315
 30
0.0
 40
3.000000000000027
 50
10.0
 51
80.0
  0
ARC
  5
260
  8
VIDITELNE
  6
SLD-PLNÁ
 62
     2
 10
792.7224680668
 20
135.6704949315
 30
0.0
 40
3.000000000000007
 50
100.0
 51
170.0
  0
LINE
  5
261
  8
VIDITELNE
  6
SLD-PLNÁ
 62
     2
 10
794.4962189408
 20
139.0295349034
 30
0.0
 11
792.2015235338
 21
138.6249181906
 31
0.0
  0
LINE
  5
262
  8
VIDITELNE
  6
SLD-PLNÁ
 62
     2
 10
807.7984764662
 20
138.6249181906
 30
0.0
 11
805.4995511893
 21
139.0302807435
 31
0.0
  0
CIRCLE
  5
263
  8
VIDITELNE
  6
SLD-PLNÁ
 62
     2
 10
800.0
 20
-4.0
 30
0.0
 40
9.500000000000002
  0
CIRCLE
  5
264
  8
VIDITELNE
  6
SLD-PLNÁ
 62
     2
 10
800.0
 20
-4.0
 30
0.0
 40
10.5
  0
LINE
  5
265
  8
VIDITELNE
  6
SLD-PLNÁ
 62
     2
 10
813.1270166538
 20
20.5321585622
 30
0.0
 11
813.2157910714
 21
21.0882603209
 31
0.0
  0
ARC
  5
266
  8
VIDITELNE
  6
SLD-PLNÁ
 62
     2
 10
800.0
 20
76.0
 30
0.0
 40
57.00000000000001
 50
256.6853514544
 51
283.3146485456
  0
POLYLINE
  5
267
  8
VIDITELNE
  6
SLD-PLNÁ
 62
     2
 66
     1
 10
0.0
 20
0.0
 30
0.0
  0
VERTEX
  5
739
  8
VIDITELNE
  6
SLD-PLNÁ
 62
     2
 10
786.7842089286
 20
21.0882603209
 30
0.0
  0
VERTEX
  5
73A
  8
VIDITELNE
  6
SLD-PLNÁ
 62
     2
 10
786.8323906995
 20
20.7436926326
 30
0.0
  0
VERTEX
  5
73B
  8
VIDITELNE
  6
SLD-PLNÁ
 62
     2
 10
786.8729833462
 20
20.5321585622
 30
0.0
  0
SEQEND
  5
73C
  8
VIDITELNE
  6
SLD-PLNÁ
 62
     2
  0
POLYLINE
  5
268
  8
VIDITELNE
  6
SLD-PLNÁ
 62
     2
 66
     1
 10
0.0
 20
0.0
 30
0.0
  0
VERTEX
  5
73D
  8
VIDITELNE
  6
SLD-PLNÁ
 62
     2
 10
786.2818964441
 20
22.0393123645
 30
0.0
  0
VERTEX
  5
73E
  8
VIDITELNE
  6
SLD-PLNÁ
 62
     2
 10
786.674989371
 20
21.4872917322
 30
0.0
  0
VERTEX
  5
73F
  8
VIDITELNE
  6
SLD-PLNÁ
 62
     2
 10
786.7842089286
 20
21.0882603209
 30
0.0
  0
SEQEND
  5
740
  8
VIDITELNE
  6
SLD-PLNÁ
 62
     2
  0
ARC
  5
269
  8
VIDITELNE
  6
SLD-PLNÁ
 62
     2
 10
781.5355931875
 20
16.5270812494
 30
0.0
 40
7.274069457287696
 50
49.2699238834
 51
73.5414756497
  0
ARC
  5
26A
  8
VIDITELNE
  6
SLD-PLNÁ
 62
     2
 10
800.0
 20
76.0
 30
0.0
 40
55.00000000000001
 50
252.6477389318
 51
287.3522610682
  0
ARC
  5
26B
  8
VIDITELNE
  6
SLD-PLNÁ
 62
     2
 10
818.4644068125
 20
16.5270812494
 30
0.0
 40
7.274069457345826
 50
106.4585243504
 51
130.7300761165
  0
ARC
  5
26C
  8
VIDITELNE
  6
SLD-PLNÁ
 62
     2
 10
814.8045301242
 20
20.8573218024
 30
0.0
 40
1.605435883813281
 50
132.5876668876
 51
171.7294329098
  0
ARC
  5
26D
  8
VIDITELNE
  6
SLD-PLNÁ
 62
     2
 10
814.1699173599
 20
23.2628514478
 30
0.0
 40
1.304294292683756
 50
249.7324263928
 51
321.8836335387
  0
ARC
  5
26E
  8
VIDITELNE
  6
SLD-PLNÁ
 62
     2
 10
817.0
 20
21.5941179651
 30
0.0
 40
1.999999999944792
 50
107.3522610675
 51
154.4167568453
  0
ARC
  5
26F
  8
VIDITELNE
  6
SLD-PLNÁ
 62
     2
 10
800.0
 20
76.0
 30
0.0
 40
55.00000000000001
 50
287.3522610682
 51
252.6477389318
  0
ARC
  5
270
  8
VIDITELNE
  6
SLD-PLNÁ
 62
     2
 10
785.8300826401
 20
23.2628514478
 30
0.0
 40
1.304294292684088
 50
218.1163664613
 51
290.2675736072
  0
ARC
  5
271
  8
VIDITELNE
  6
SLD-PLNÁ
 62
     2
 10
783.0
 20
21.5941179651
 30
0.0
 40
1.999999999930591
 50
25.5832431545
 51
72.6477389327
  0
POLYLINE
  5
272
  8
VIDITELNE
  6
SLD-PLNÁ
 62
     2
 66
     1
 10
0.0
 20
0.0
 30
0.0
  0
VERTEX
  5
741
  8
VIDITELNE
  6
SLD-PLNÁ
 62
     2
 10
784.9529776853
 20
21.5941179651
 30
0.0
  0
VERTEX
  5
742
  8
VIDITELNE
  6
SLD-PLNÁ
 62
     2
 10
784.9422500274
 20
21.9692596582
 30
0.0
  0
VERTEX
  5
743
  8
VIDITELNE
  6
SLD-PLNÁ
 62
     2
 10
784.8039177131
 20
22.457761922
 30
0.0
  0
SEQEND
  5
744
  8
VIDITELNE
  6
SLD-PLNÁ
 62
     2
  0
ARC
  5
273
  8
VIDITELNE
  6
SLD-PLNÁ
 62
     2
 10
786.6911314685
 20
24.3188204939
 30
0.0
 40
3.231900747997586
 50
237.4652096372
 51
271.650323919
  0
POLYLINE
  5
274
  8
VIDITELNE
  6
SLD-PLNÁ
 62
     2
 66
     1
 10
0.0
 20
0.0
 30
0.0
  0
VERTEX
  5
745
  8
VIDITELNE
  6
SLD-PLNÁ
 62
     2
 10
815.1960822869
 20
22.457761922
 30
0.0
  0
VERTEX
  5
746
  8
VIDITELNE
  6
SLD-PLNÁ
 62
     2
 10
815.0861610124
 20
22.1354535111
 30
0.0
  0
VERTEX
  5
747
  8
VIDITELNE
  6
SLD-PLNÁ
 62
     2
 10
815.0470223147
 20
21.5941179651
 30
0.0
  0
SEQEND
  5
748
  8
VIDITELNE
  6
SLD-PLNÁ
 62
     2
  0
ARC
  5
275
  8
VIDITELNE
  6
SLD-PLNÁ
 62
     2
 10
813.3088685315
 20
24.3188204939
 30
0.0
 40
3.231900747998801
 50
268.349676081
 51
302.5347903628
  0
LINE
  5
276
  8
VIDITELNE
  6
SLD-PLNÁ
 62
     2
 10
815.0470223147
 20
21.5941179651
 30
0.0
 11
815.0635083269
 21
20.5321585622
 31
0.0
  0
LINE
  5
277
  8
VIDITELNE
  6
SLD-PLNÁ
 62
     2
 10
815.0635083269
 20
20.5321585622
 30
0.0
 11
813.1270166538
 21
20.5321585622
 31
0.0
  0
POLYLINE
  5
278
  8
VIDITELNE
  6
SLD-PLNÁ
 62
     2
 66
     1
 10
0.0
 20
0.0
 30
0.0
  0
VERTEX
  5
749
  8
VIDITELNE
  6
SLD-PLNÁ
 62
     2
 10
784.9364916731
 20
20.5321585622
 30
0.0
  0
VERTEX
  5
74A
  8
VIDITELNE
  6
SLD-PLNÁ
 62
     2
 10
784.9389626527
 20
20.9347731939
 30
0.0
  0
VERTEX
  5
74B
  8
VIDITELNE
  6
SLD-PLNÁ
 62
     2
 10
784.9529776853
 20
21.5941179651
 30
0.0
  0
SEQEND
  5
74C
  8
VIDITELNE
  6
SLD-PLNÁ
 62
     2
  0
LINE
  5
279
  8
VIDITELNE
  6
SLD-PLNÁ
 62
     2
 10
784.9364916731
 20
20.5321585622
 30
0.0
 11
786.8729833462
 21
20.5321585622
 31
0.0
  0
LINE
  5
27A
  8
VIDITELNE
  6
SLD-PLNÁ
 62
     2
 10
815.0635083269
 20
20.5321585622
 30
0.0
 11
815.0635083269
 21
-4.0
 31
0.0
  0
LINE
  5
27B
  8
VIDITELNE
  6
SLD-PLNÁ
 62
     2
 10
815.0635083269
 20
-4.0
 30
0.0
 11
813.1270166538
 21
-4.0
 31
0.0
  0
LINE
  5
27C
  8
VIDITELNE
  6
SLD-PLNÁ
 62
     2
 10
813.1270166538
 20
-4.0
 30
0.0
 11
813.1270166538
 21
20.5321585622
 31
0.0
  0
LINE
  5
27D
  8
VIDITELNE
  6
SLD-PLNÁ
 62
     2
 10
784.9364916731
 20
-4.0
 30
0.0
 11
784.9364916731
 21
20.5321585622
 31
0.0
  0
LINE
  5
27E
  8
VIDITELNE
  6
SLD-PLNÁ
 62
     2
 10
786.8729833462
 20
20.5321585622
 30
0.0
 11
786.8729833462
 21
-4.0
 31
0.0
  0
LINE
  5
27F
  8
VIDITELNE
  6
SLD-PLNÁ
 62
     2
 10
784.9364916731
 20
-4.0
 30
0.0
 11
786.8729833462
 21
-4.0
 31
0.0
  0
ARC
  5
280
  8
VIDITELNE
  6
SLD-PLNÁ
 62
     2
 10
800.0
 20
-4.0
 30
0.0
 40
13.12701665379257
 50
180.0
 51
0.0
  0
ARC
  5
281
  8
VIDITELNE
  6
SLD-PLNÁ
 62
     2
 10
800.0
 20
-4.0
 30
0.0
 40
15.06350832689634
 50
180.0
 51
0.0
  0
LINE
  5
282
  8
VIDITELNE
  6
SLD-PLNÁ
 62
     2
 10
853.0
 20
55.0238230366
 30
0.0
 11
851.1403508772
 21
55.7598292458
 31
0.0
  0
ARC
  5
283
  8
VIDITELNE
  6
SLD-PLNÁ
 62
     2
 10
745.2158194151
 20
75.8840761672
 30
0.0
 40
109.7842417883062
 50
349.0465528217
 51
0.0605000088
  0
LINE
  5
284
  8
VIDITELNE
  6
SLD-PLNÁ
 62
     2
 10
748.8596491228
 20
55.7598292458
 30
0.0
 11
747.0
 21
55.0238230366
 31
0.0
  0
ARC
  5
285
  8
VIDITELNE
  6
SLD-PLNÁ
 62
     2
 10
854.7841805849
 20
75.8840761672
 30
0.0
 40
109.7842417882918
 50
179.9394999912
 51
190.9534471783
  0
LINE
  5
286
  8
VIDITELNE
  6
SLD-PLNÁ
 62
     2
 10
817.0
 20
21.5941179651
 30
0.0
 11
816.4035087719
 21
23.5030962821
 31
0.0
  0
LINE
  5
287
  8
VIDITELNE
  6
SLD-PLNÁ
 62
     2
 10
817.0
 20
21.5941179651
 30
0.0
 11
815.0470223147
 21
21.5941179651
 31
0.0
  0
LINE
  5
288
  8
VIDITELNE
  6
SLD-PLNÁ
 62
     2
 10
783.5964912281
 20
23.5030962821
 30
0.0
 11
783.0
 21
21.5941179651
 31
0.0
  0
LINE
  5
289
  8
VIDITELNE
  6
SLD-PLNÁ
 62
     2
 10
784.9529776853
 20
21.5941179651
 30
0.0
 11
783.0
 21
21.5941179651
 31
0.0
  0
ARC
  5
28A
  8
VIDITELNE
  6
SLD-PLNÁ
 62
     2
 10
800.0
 20
76.0
 30
0.0
 40
57.00000000000001
 50
201.5925161782
 51
252.6477389318
  0
ARC
  5
28B
  8
VIDITELNE
  6
SLD-PLNÁ
 62
     2
 10
800.0
 20
76.0
 30
0.0
 40
57.00000000000011
 50
287.3522610682
 51
338.4074838218
  0
LINE
  5
28C
  8
VIDITELNE
  6
SLD-PLNÁ
 62
     2
 10
817.0
 20
21.5941179651
 30
0.0
 11
817.0
 21
-4.0
 31
0.0
  0
LINE
  5
28D
  8
VIDITELNE
  6
SLD-PLNÁ
 62
     2
 10
817.0
 20
-4.0
 30
0.0
 11
815.0635083269
 21
-4.0
 31
0.0
  0
LINE
  5
28E
  8
VIDITELNE
  6
SLD-PLNÁ
 62
     2
 10
783.0
 20
-4.0
 30
0.0
 11
783.0
 21
21.5941179651
 31
0.0
  0
LINE
  5
28F
  8
VIDITELNE
  6
SLD-PLNÁ
 62
     2
 10
783.0
 20
-4.0
 30
0.0
 11
784.9364916731
 21
-4.0
 31
0.0
  0
ARC
  5
290
  8
VIDITELNE
  6
SLD-PLNÁ
 62
     2
 10
800.0
 20
-4.0
 30
0.0
 40
17.00000000000011
 50
180.0
 51
0.0
  0
LINE
  5
291
  8
VIDITELNE
  6
SLD-PLNÁ
 62
     2
 10
853.0
 20
-44.0
 30
0.0
 11
853.0
 21
55.0238230366
 31
0.0
  0
LINE
  5
292
  8
VIDITELNE
  6
SLD-PLNÁ
 62
     2
 10
747.0
 20
-44.0
 30
0.0
 11
853.0
 21
-44.0
 31
0.0
  0
LINE
  5
293
  8
VIDITELNE
  6
SLD-PLNÁ
 62
     2
 10
747.0
 20
55.0238230366
 30
0.0
 11
747.0
 21
-44.0
 31
0.0
  0
ARC
  5
294
  8
VIDITELNE
  6
SLD-PLNÁ
 62
     2
 10
393.4836740581
 20
0.9369980942
 30
0.0
 40
461.7083360790701
 50
354.4146933406
 51
358.3475401994
  0
ARC
  5
295
  8
VIDITELNE
  6
SLD-PLNÁ
 62
     2
 10
856.531000062
 20
-10.4936762046
 30
0.0
 40
2.427284742431795
 50
230.8948199055
 51
281.1407591919
  0
POLYLINE
  5
296
  8
VIDITELNE
  6
SLD-PLNÁ
 62
     2
 66
     1
 10
0.0
 20
0.0
 30
0.0
  0
VERTEX
  5
74D
  8
VIDITELNE
  6
SLD-PLNÁ
 62
     2
 10
857.0
 20
-12.8752198802
 30
0.0
  0
VERTEX
  5
74E
  8
VIDITELNE
  6
SLD-PLNÁ
 62
     2
 10
856.597986477
 20
-20.5630481992
 30
0.0
  0
VERTEX
  5
74F
  8
VIDITELNE
  6
SLD-PLNÁ
 62
     2
 10
855.9260824104
 20
-26.347783779
 30
0.0
  0
VERTEX
  5
750
  8
VIDITELNE
  6
SLD-PLNÁ
 62
     2
 10
855.0586030129
 20
-32.1661827184
 30
0.0
  0
VERTEX
  5
751
  8
VIDITELNE
  6
SLD-PLNÁ
 62
     2
 10
853.0125475578
 20
-43.9304114354
 30
0.0
  0
VERTEX
  5
752
  8
VIDITELNE
  6
SLD-PLNÁ
 62
     2
 10
853.0
 20
-44.0
 30
0.0
  0
SEQEND
  5
753
  8
VIDITELNE
  6
SLD-PLNÁ
 62
     2
  0
LINE
  5
297
  8
VIDITELNE
  6
SLD-PLNÁ
 62
     2
 10
855.0
 20
76.0
 30
0.0
 11
855.0
 21
-12.3772233983
 31
0.0
  0
LINE
  5
298
  8
VIDITELNE
  6
SLD-PLNÁ
 62
     2
 10
858.0
 20
-44.0
 30
0.0
 11
858.0
 21
81.0
 31
0.0
  0
LINE
  5
299
  8
VIDITELNE
  6
SLD-PLNÁ
 62
     2
 10
858.0
 20
-169.0
 30
0.0
 11
858.0
 21
-44.0
 31
0.0
  0
LINE
  5
29A
  8
VIDITELNE
  6
SLD-PLNÁ
 62
     2
 10
857.0
 20
74.1102362205
 30
0.0
 11
857.0
 21
-12.8752198802
 31
0.0
  0
LINE
  5
29B
  8
VIDITELNE
  6
SLD-PLNÁ
 62
     2
 10
743.0
 20
-12.8752198802
 30
0.0
 11
743.0
 21
74.1102362205
 31
0.0
  0
POLYLINE
  5
29C
  8
VIDITELNE
  6
SLD-PLNÁ
 62
     2
 66
     1
 10
0.0
 20
0.0
 30
0.0
  0
VERTEX
  5
754
  8
VIDITELNE
  6
SLD-PLNÁ
 62
     2
 10
747.0
 20
-44.0
 30
0.0
  0
VERTEX
  5
755
  8
VIDITELNE
  6
SLD-PLNÁ
 62
     2
 10
746.9874524422
 20
-43.9304114354
 30
0.0
  0
VERTEX
  5
756
  8
VIDITELNE
  6
SLD-PLNÁ
 62
     2
 10
744.9611180013
 20
-32.2885420161
 30
0.0
  0
VERTEX
  5
757
  8
VIDITELNE
  6
SLD-PLNÁ
 62
     2
 10
744.0847774843
 20
-26.4280447676
 30
0.0
  0
VERTEX
  5
758
  8
VIDITELNE
  6
SLD-PLNÁ
 62
     2
 10
743.402013523
 20
-20.5630481992
 30
0.0
  0
VERTEX
  5
759
  8
VIDITELNE
  6
SLD-PLNÁ
 62
     2
 10
743.0
 20
-12.8752198802
 30
0.0
  0
SEQEND
  5
75A
  8
VIDITELNE
  6
SLD-PLNÁ
 62
     2
  0
LINE
  5
29D
  8
VIDITELNE
  6
SLD-PLNÁ
 62
     2
 10
742.0
 20
-44.0
 30
0.0
 11
742.0
 21
81.0
 31
0.0
  0
LINE
  5
29E
  8
VIDITELNE
  6
SLD-PLNÁ
 62
     2
 10
742.0
 20
-169.0
 30
0.0
 11
742.0
 21
-44.0
 31
0.0
  0
LINE
  5
29F
  8
VIDITELNE
  6
SLD-PLNÁ
 62
     2
 10
745.0
 20
-12.3772233983
 30
0.0
 11
745.0
 21
76.0
 31
0.0
  0
ARC
  5
2A0
  8
VIDITELNE
  6
SLD-PLNÁ
 62
     2
 10
1206.3888040701
 20
0.9289329029
 30
0.0
 40
461.5806346856009
 50
181.651915554
 51
185.585850906
  0
ARC
  5
2A1
  8
VIDITELNE
  6
SLD-PLNÁ
 62
     2
 10
743.468999938
 20
-10.4936762046
 30
0.0
 40
2.427284742432217
 50
258.8592408081
 51
309.1051800945
  0
ARC
  5
2A2
  8
VIDITELNE
  6
SLD-PLNÁ
 62
     2
 10
743.0535991072
 20
76.0567257218
 30
0.0
 40
1.947227321863445
 50
268.4226851541
 51
358.3306497957
  0
ARC
  5
2A3
  8
VIDITELNE
  6
SLD-PLNÁ
 62
     2
 10
856.9464008928
 20
76.0567257218
 30
0.0
 40
1.947227321863328
 50
181.6693502043
 51
271.5773148459
  0
LINE
  5
2A4
  8
VIDITELNE
  6
SLD-PLNÁ
 62
     2
 10
714.0
 20
-44.0
 30
0.0
 11
714.0
 21
-13.5
 31
0.0
  0
LINE
  5
2A5
  8
VIDITELNE
  6
SLD-PLNÁ
 62
     2
 10
714.0
 20
-74.5
 30
0.0
 11
714.0
 21
-44.0
 31
0.0
  0
LINE
  5
2A6
  8
VIDITELNE
  6
SLD-PLNÁ
 62
     2
 10
886.0
 20
-13.5
 30
0.0
 11
886.0
 21
-74.5
 31
0.0
  0
LINE
  5
2A7
  8
VIDITELNE
  6
SLD-PLNÁ
 62
     2
 10
785.0
 20
-172.0
 30
0.0
 11
815.0
 21
-172.0
 31
0.0
  0
LINE
  5
2A8
  8
VIDITELNE
  6
SLD-PLNÁ
 62
     2
 10
800.0
 20
-176.0
 30
0.0
 11
790.5
 21
-176.0
 31
0.0
  0
LINE
  5
2A9
  8
VIDITELNE
  6
SLD-PLNÁ
 62
     2
 10
809.5
 20
-176.0
 30
0.0
 11
800.0
 21
-176.0
 31
0.0
  0
LINE
  5
2AA
  8
VIDITELNE
  6
SLD-PLNÁ
 62
     2
 10
869.0
 20
80.6158715356
 30
0.0
 11
869.0
 21
-168.6158715356
 31
0.0
  0
LINE
  5
2AB
  8
VIDITELNE
  6
SLD-PLNÁ
 62
     2
 10
858.0
 20
81.0
 30
0.0
 11
858.0
 21
-169.0
 31
0.0
  0
LINE
  5
2AC
  8
VIDITELNE
  6
SLD-PLNÁ
 62
     2
 10
879.0
 20
-37.0
 30
0.0
 11
879.0
 21
-51.0
 31
0.0
  0
LINE
  5
2AD
  8
VIDITELNE
  6
SLD-PLNÁ
 62
     2
 10
869.0
 20
-1.0332401246
 30
0.0
 11
880.5
 21
-11.3728323243
 31
0.0
  0
LINE
  5
2AE
  8
VIDITELNE
  6
SLD-PLNÁ
 62
     2
 10
880.5
 20
-11.3728323243
 30
0.0
 11
869.0
 21
-8.8298871613
 31
0.0
  0
LINE
  5
2AF
  8
VIDITELNE
  6
SLD-PLNÁ
 62
     2
 10
880.5
 20
-3.9817960642
 30
0.0
 11
869.0
 21
6.3577961355
 31
0.0
  0
LINE
  5
2B0
  8
VIDITELNE
  6
SLD-PLNÁ
 62
     2
 10
880.5
 20
-3.9817960642
 30
0.0
 11
880.5
 21
-11.3728323243
 31
0.0
  0
LINE
  5
2B1
  8
VIDITELNE
  6
SLD-PLNÁ
 62
     2
 10
880.5
 20
-76.6271676757
 30
0.0
 11
869.0
 21
-86.9667598754
 31
0.0
  0
LINE
  5
2B2
  8
VIDITELNE
  6
SLD-PLNÁ
 62
     2
 10
869.0
 20
-79.1701128387
 30
0.0
 11
880.5
 21
-76.6271676757
 31
0.0
  0
LINE
  5
2B3
  8
VIDITELNE
  6
SLD-PLNÁ
 62
     2
 10
880.5
 20
-76.6271676757
 30
0.0
 11
880.5
 21
-84.0182039358
 31
0.0
  0
LINE
  5
2B4
  8
VIDITELNE
  6
SLD-PLNÁ
 62
     2
 10
869.0
 20
-94.3577961355
 30
0.0
 11
880.5
 21
-84.0182039358
 31
0.0
  0
LINE
  5
2B5
  8
VIDITELNE
  6
SLD-PLNÁ
 62
     2
 10
880.5
 20
-11.3728323243
 30
0.0
 11
880.5
 21
-76.6271676757
 31
0.0
  0
LINE
  5
2B6
  8
VIDITELNE
  6
SLD-PLNÁ
 62
     2
 10
880.5
 20
42.1599869647
 30
0.0
 11
879.0
 21
42.9607538387
 31
0.0
  0
LINE
  5
2B7
  8
VIDITELNE
  6
SLD-PLNÁ
 62
     2
 10
874.5857452259
 20
45.3172798365
 30
0.0
 11
869.0
 21
48.2991996655
 31
0.0
  0
LINE
  5
2B8
  8
VIDITELNE
  6
SLD-PLNÁ
 62
     2
 10
880.5
 20
42.1599869647
 30
0.0
 11
880.5
 21
-3.9817960642
 31
0.0
  0
LINE
  5
2B9
  8
VIDITELNE
  6
SLD-PLNÁ
 62
     2
 10
869.0
 20
-136.2991996655
 30
0.0
 11
874.5857452259
 21
-133.3172798365
 31
0.0
  0
LINE
  5
2BA
  8
VIDITELNE
  6
SLD-PLNÁ
 62
     2
 10
879.0
 20
-130.9607538387
 30
0.0
 11
880.5
 21
-130.1599869647
 31
0.0
  0
LINE
  5
2BB
  8
VIDITELNE
  6
SLD-PLNÁ
 62
     2
 10
880.5
 20
-84.0182039358
 30
0.0
 11
880.5
 21
-130.1599869647
 31
0.0
  0
LINE
  5
2BC
  8
VIDITELNE
  6
SLD-PLNÁ
 62
     2
 10
879.0
 20
44.3172798365
 30
0.0
 11
879.0
 21
30.3172798365
 31
0.0
  0
LINE
  5
2BD
  8
VIDITELNE
  6
SLD-PLNÁ
 62
     2
 10
879.0
 20
-118.3172798365
 30
0.0
 11
879.0
 21
-132.3172798365
 31
0.0
  0
LINE
  5
2BE
  8
VIDITELNE
  6
SLD-PLNÁ
 62
     2
 10
884.0
 20
21.0
 30
0.0
 11
884.0
 21
-109.0
 31
0.0
  0
LINE
  5
2BF
  8
VIDITELNE
  6
SLD-PLNÁ
 62
     2
 10
880.5
 20
-130.1599869647
 30
0.0
 11
869.0
 21
-155.1219706826
 31
0.0
  0
LINE
  5
2C0
  8
VIDITELNE
  6
SLD-PLNÁ
 62
     2
 10
869.0
 20
-158.1834381415
 30
0.0
 11
880.5
 21
-133.2214544236
 31
0.0
  0
LINE
  5
2C1
  8
VIDITELNE
  6
SLD-PLNÁ
 62
     2
 10
880.5
 20
-130.1599869647
 30
0.0
 11
880.5
 21
-133.2214544236
 31
0.0
  0
LINE
  5
2C2
  8
VIDITELNE
  6
SLD-PLNÁ
 62
     2
 10
869.0
 20
67.1219706826
 30
0.0
 11
880.5
 21
42.1599869647
 31
0.0
  0
LINE
  5
2C3
  8
VIDITELNE
  6
SLD-PLNÁ
 62
     2
 10
880.5
 20
45.2214544236
 30
0.0
 11
869.0
 21
70.1834381415
 31
0.0
  0
LINE
  5
2C4
  8
VIDITELNE
  6
SLD-PLNÁ
 62
     2
 10
880.5
 20
45.2214544236
 30
0.0
 11
880.5
 21
42.1599869647
 31
0.0
  0
LINE
  5
2C5
  8
VIDITELNE
  6
SLD-PLNÁ
 62
     2
 10
880.5
 20
-133.2214544236
 30
0.0
 11
880.5
 21
-139.0
 31
0.0
  0
LINE
  5
2C6
  8
VIDITELNE
  6
SLD-PLNÁ
 62
     2
 10
880.5
 20
51.0
 30
0.0
 11
880.5
 21
45.2214544236
 31
0.0
  0
LINE
  5
2C7
  8
VIDITELNE
  6
SLD-PLNÁ
 62
     2
 10
879.0
 20
-152.0
 30
0.0
 11
879.0
 21
-166.0
 31
0.0
  0
LINE
  5
2C8
  8
VIDITELNE
  6
SLD-PLNÁ
 62
     2
 10
879.0
 20
78.0
 30
0.0
 11
879.0
 21
64.0
 31
0.0
  0
LINE
  5
2C9
  8
VIDITELNE
  6
SLD-PLNÁ
 62
     2
 10
731.0
 20
-44.0
 30
0.0
 11
731.0
 21
80.6158715356
 31
0.0
  0
LINE
  5
2CA
  8
VIDITELNE
  6
SLD-PLNÁ
 62
     2
 10
731.0
 20
-168.6158715356
 30
0.0
 11
731.0
 21
-44.0
 31
0.0
  0
LINE
  5
2CB
  8
VIDITELNE
  6
SLD-PLNÁ
 62
     2
 10
721.0
 20
-44.0
 30
0.0
 11
721.0
 21
-37.0
 31
0.0
  0
LINE
  5
2CC
  8
VIDITELNE
  6
SLD-PLNÁ
 62
     2
 10
721.0
 20
-51.0
 30
0.0
 11
721.0
 21
-44.0
 31
0.0
  0
LINE
  5
2CD
  8
VIDITELNE
  6
SLD-PLNÁ
 62
     2
 10
731.0
 20
-86.9667598754
 30
0.0
 11
719.5
 21
-76.6271676757
 31
0.0
  0
LINE
  5
2CE
  8
VIDITELNE
  6
SLD-PLNÁ
 62
     2
 10
719.5
 20
-76.6271676757
 30
0.0
 11
731.0
 21
-79.1701128387
 31
0.0
  0
LINE
  5
2CF
  8
VIDITELNE
  6
SLD-PLNÁ
 62
     2
 10
719.5
 20
-84.0182039358
 30
0.0
 11
731.0
 21
-94.3577961355
 31
0.0
  0
LINE
  5
2D0
  8
VIDITELNE
  6
SLD-PLNÁ
 62
     2
 10
719.5
 20
-84.0182039358
 30
0.0
 11
719.5
 21
-76.6271676757
 31
0.0
  0
LINE
  5
2D1
  8
VIDITELNE
  6
SLD-PLNÁ
 62
     2
 10
731.0
 20
6.3577961355
 30
0.0
 11
719.5
 21
-3.9817960642
 31
0.0
  0
LINE
  5
2D2
  8
VIDITELNE
  6
SLD-PLNÁ
 62
     2
 10
719.5
 20
-11.3728323243
 30
0.0
 11
731.0
 21
-1.0332401246
 31
0.0
  0
LINE
  5
2D3
  8
VIDITELNE
  6
SLD-PLNÁ
 62
     2
 10
719.5
 20
-11.3728323243
 30
0.0
 11
719.5
 21
-3.9817960642
 31
0.0
  0
LINE
  5
2D4
  8
VIDITELNE
  6
SLD-PLNÁ
 62
     2
 10
731.0
 20
-8.8298871613
 30
0.0
 11
719.5
 21
-11.3728323243
 31
0.0
  0
LINE
  5
2D5
  8
VIDITELNE
  6
SLD-PLNÁ
 62
     2
 10
719.5
 20
-76.6271676757
 30
0.0
 11
719.5
 21
-11.3728323243
 31
0.0
  0
LINE
  5
2D6
  8
VIDITELNE
  6
SLD-PLNÁ
 62
     2
 10
719.5
 20
-130.1599869647
 30
0.0
 11
721.0
 21
-130.9607538387
 31
0.0
  0
LINE
  5
2D7
  8
VIDITELNE
  6
SLD-PLNÁ
 62
     2
 10
725.4142547741
 20
-133.3172798365
 30
0.0
 11
731.0
 21
-136.2991996655
 31
0.0
  0
LINE
  5
2D8
  8
VIDITELNE
  6
SLD-PLNÁ
 62
     2
 10
719.5
 20
-130.1599869647
 30
0.0
 11
719.5
 21
-84.0182039358
 31
0.0
  0
LINE
  5
2D9
  8
VIDITELNE
  6
SLD-PLNÁ
 62
     2
 10
731.0
 20
48.2991996655
 30
0.0
 11
725.4142547741
 21
45.3172798365
 31
0.0
  0
LINE
  5
2DA
  8
VIDITELNE
  6
SLD-PLNÁ
 62
     2
 10
721.0
 20
42.9607538387
 30
0.0
 11
719.5
 21
42.1599869647
 31
0.0
  0
LINE
  5
2DB
  8
VIDITELNE
  6
SLD-PLNÁ
 62
     2
 10
719.5
 20
-3.9817960642
 30
0.0
 11
719.5
 21
42.1599869647
 31
0.0
  0
LINE
  5
2DC
  8
VIDITELNE
  6
SLD-PLNÁ
 62
     2
 10
721.0
 20
-125.3172798365
 30
0.0
 11
721.0
 21
-118.3172798365
 31
0.0
  0
LINE
  5
2DD
  8
VIDITELNE
  6
SLD-PLNÁ
 62
     2
 10
721.0
 20
-132.3172798365
 30
0.0
 11
721.0
 21
-125.3172798365
 31
0.0
  0
LINE
  5
2DE
  8
VIDITELNE
  6
SLD-PLNÁ
 62
     2
 10
721.0
 20
37.3172798365
 30
0.0
 11
721.0
 21
44.3172798365
 31
0.0
  0
LINE
  5
2DF
  8
VIDITELNE
  6
SLD-PLNÁ
 62
     2
 10
721.0
 20
30.3172798365
 30
0.0
 11
721.0
 21
37.3172798365
 31
0.0
  0
LINE
  5
2E0
  8
VIDITELNE
  6
SLD-PLNÁ
 62
     2
 10
716.0
 20
-44.0
 30
0.0
 11
716.0
 21
21.0
 31
0.0
  0
LINE
  5
2E1
  8
VIDITELNE
  6
SLD-PLNÁ
 62
     2
 10
716.0
 20
-109.0
 30
0.0
 11
716.0
 21
-44.0
 31
0.0
  0
LINE
  5
2E2
  8
VIDITELNE
  6
SLD-PLNÁ
 62
     2
 10
719.5
 20
42.1599869647
 30
0.0
 11
731.0
 21
67.1219706826
 31
0.0
  0
LINE
  5
2E3
  8
VIDITELNE
  6
SLD-PLNÁ
 62
     2
 10
731.0
 20
70.1834381415
 30
0.0
 11
719.5
 21
45.2214544236
 31
0.0
  0
LINE
  5
2E4
  8
VIDITELNE
  6
SLD-PLNÁ
 62
     2
 10
719.5
 20
42.1599869647
 30
0.0
 11
719.5
 21
45.2214544236
 31
0.0
  0
LINE
  5
2E5
  8
VIDITELNE
  6
SLD-PLNÁ
 62
     2
 10
731.0
 20
-155.1219706826
 30
0.0
 11
719.5
 21
-130.1599869647
 31
0.0
  0
LINE
  5
2E6
  8
VIDITELNE
  6
SLD-PLNÁ
 62
     2
 10
719.5
 20
-133.2214544236
 30
0.0
 11
731.0
 21
-158.1834381415
 31
0.0
  0
LINE
  5
2E7
  8
VIDITELNE
  6
SLD-PLNÁ
 62
     2
 10
719.5
 20
-133.2214544236
 30
0.0
 11
719.5
 21
-130.1599869647
 31
0.0
  0
LINE
  5
2E8
  8
VIDITELNE
  6
SLD-PLNÁ
 62
     2
 10
719.5
 20
45.2214544236
 30
0.0
 11
719.5
 21
51.0
 31
0.0
  0
LINE
  5
2E9
  8
VIDITELNE
  6
SLD-PLNÁ
 62
     2
 10
719.5
 20
-139.0
 30
0.0
 11
719.5
 21
-133.2214544236
 31
0.0
  0
LINE
  5
2EA
  8
VIDITELNE
  6
SLD-PLNÁ
 62
     2
 10
721.0
 20
-159.0
 30
0.0
 11
721.0
 21
-152.0
 31
0.0
  0
LINE
  5
2EB
  8
VIDITELNE
  6
SLD-PLNÁ
 62
     2
 10
721.0
 20
-166.0
 30
0.0
 11
721.0
 21
-159.0
 31
0.0
  0
LINE
  5
2EC
  8
VIDITELNE
  6
SLD-PLNÁ
 62
     2
 10
721.0
 20
71.0
 30
0.0
 11
721.0
 21
78.0
 31
0.0
  0
LINE
  5
2ED
  8
VIDITELNE
  6
SLD-PLNÁ
 62
     2
 10
721.0
 20
64.0
 30
0.0
 11
721.0
 21
71.0
 31
0.0
  0
CIRCLE
  5
2EE
  8
VIDITELNE
  6
SLD-PLNÁ
 62
     2
 10
858.3363094479
 20
134.3363094479
 30
0.0
 40
5.5
  0
CIRCLE
  5
2EF
  8
VIDITELNE
  6
SLD-PLNÁ
 62
     2
 10
741.6636905521
 20
134.3363094479
 30
0.0
 40
5.5
  0
ARC
  5
2F0
  8
VIDITELNE
  6
SLD-PLNÁ
 62
     2
 10
800.0
 20
76.0
 30
0.0
 40
100.0
 50
326.6329870308
 51
180.0
  0
ARC
  5
2F1
  8
VIDITELNE
  6
SLD-PLNÁ
 62
     2
 10
800.0
 20
76.0
 30
0.0
 40
99.99999999999991
 50
180.0
 51
213.3670129692
  0
POLYLINE
  5
2F2
  8
VIDITELNE
  6
SLD-PLNÁ
 62
     2
 66
     1
 10
0.0
 20
0.0
 30
0.0
  0
VERTEX
  5
75B
  8
VIDITELNE
  6
SLD-PLNÁ
 62
     2
 10
805.4743631485
 20
137.5394077687
 30
0.0
  0
VERTEX
  5
75C
  8
VIDITELNE
  6
SLD-PLNÁ
 62
     2
 10
805.6358776883
 20
136.8074052487
 30
0.0
  0
VERTEX
  5
75D
  8
VIDITELNE
  6
SLD-PLNÁ
 62
     2
 10
805.6670240867
 20
136.1914394645
 30
0.0
  0
SEQEND
  5
75E
  8
VIDITELNE
  6
SLD-PLNÁ
 62
     2
  0
POLYLINE
  5
2F3
  8
VIDITELNE
  6
SLD-PLNÁ
 62
     2
 66
     1
 10
0.0
 20
0.0
 30
0.0
  0
VERTEX
  5
75F
  8
VIDITELNE
  6
SLD-PLNÁ
 62
     2
 10
805.6670240867
 20
136.1914394645
 30
0.0
  0
VERTEX
  5
760
  8
VIDITELNE
  6
SLD-PLNÁ
 62
     2
 10
805.4253147328
 20
134.6277612272
 30
0.0
  0
VERTEX
  5
761
  8
VIDITELNE
  6
SLD-PLNÁ
 62
     2
 10
804.714613632
 20
133.2880016763
 30
0.0
  0
VERTEX
  5
762
  8
VIDITELNE
  6
SLD-PLNÁ
 62
     2
 10
803.5498608198
 20
132.2245790761
 30
0.0
  0
VERTEX
  5
763
  8
VIDITELNE
  6
SLD-PLNÁ
 62
     2
 10
801.9218947729
 20
131.4940584457
 30
0.0
  0
VERTEX
  5
764
  8
VIDITELNE
  6
SLD-PLNÁ
 62
     2
 10
800.0374859569
 20
131.2318826434
 30
0.0
  0
VERTEX
  5
765
  8
VIDITELNE
  6
SLD-PLNÁ
 62
     2
 10
798.1711223755
 20
131.4684125071
 30
0.0
  0
VERTEX
  5
766
  8
VIDITELNE
  6
SLD-PLNÁ
 62
     2
 10
796.5106253617
 20
132.1855581707
 30
0.0
  0
VERTEX
  5
767
  8
VIDITELNE
  6
SLD-PLNÁ
 62
     2
 10
795.2192258409
 20
133.3752672657
 30
0.0
  0
VERTEX
  5
768
  8
VIDITELNE
  6
SLD-PLNÁ
 62
     2
 10
794.4849058526
 20
134.9383145514
 30
0.0
  0
VERTEX
  5
769
  8
VIDITELNE
  6
SLD-PLNÁ
 62
     2
 10
794.3329731302
 20
136.1914394645
 30
0.0
  0
SEQEND
  5
76A
  8
VIDITELNE
  6
SLD-PLNÁ
 62
     2
  0
LINE
  5
2F4
  8
VIDITELNE
  6
SLD-PLNÁ
 62
     2
 10
794.3329731302
 20
136.1914394645
 30
0.0
 11
794.3817766056
 21
136.7658289505
 31
0.0
  0
ARC
  5
2F5
  8
VIDITELNE
  6
SLD-PLNÁ
 62
     2
 10
800.0
 20
168.0
 30
0.0
 40
3.999999999999943
 50
48.034127173
 51
90.0
  0
ARC
  5
2F6
  8
VIDITELNE
  6
SLD-PLNÁ
 62
     2
 10
800.0
 20
168.0
 30
0.0
 40
3.999999999999943
 50
90.0
 51
130.5654747754
  0
LINE
  5
2F7
  8
VIDITELNE
  6
SLD-PLNÁ
 62
     2
 10
754.2968060221
 20
96.6132486541
 30
0.0
 11
759.2968060221
 21
93.7264973081
 31
0.0
  0
LINE
  5
2F8
  8
VIDITELNE
  6
SLD-PLNÁ
 62
     2
 10
754.2968060221
 20
102.3867513459
 30
0.0
 11
754.2968060221
 21
96.6132486541
 31
0.0
  0
LINE
  5
2F9
  8
VIDITELNE
  6
SLD-PLNÁ
 62
     2
 10
759.2968060221
 20
105.2735026919
 30
0.0
 11
754.2968060221
 21
102.3867513459
 31
0.0
  0
LINE
  5
2FA
  8
VIDITELNE
  6
SLD-PLNÁ
 62
     2
 10
764.2968060221
 20
102.3867513459
 30
0.0
 11
759.2968060221
 21
105.2735026919
 31
0.0
  0
LINE
  5
2FB
  8
VIDITELNE
  6
SLD-PLNÁ
 62
     2
 10
764.2968060221
 20
96.6132486541
 30
0.0
 11
764.2968060221
 21
102.3867513459
 31
0.0
  0
LINE
  5
2FC
  8
VIDITELNE
  6
SLD-PLNÁ
 62
     2
 10
759.2968060221
 20
93.7264973081
 30
0.0
 11
764.2968060221
 21
96.6132486541
 31
0.0
  0
LINE
  5
2FD
  8
VIDITELNE
  6
SLD-PLNÁ
 62
     2
 10
845.7031939779
 20
96.6132486541
 30
0.0
 11
845.7031939779
 21
102.3867513459
 31
0.0
  0
LINE
  5
2FE
  8
VIDITELNE
  6
SLD-PLNÁ
 62
     2
 10
840.7031939779
 20
93.7264973081
 30
0.0
 11
845.7031939779
 21
96.6132486541
 31
0.0
  0
LINE
  5
2FF
  8
VIDITELNE
  6
SLD-PLNÁ
 62
     2
 10
835.7031939779
 20
96.6132486541
 30
0.0
 11
840.7031939779
 21
93.7264973081
 31
0.0
  0
LINE
  5
300
  8
VIDITELNE
  6
SLD-PLNÁ
 62
     2
 10
835.7031939779
 20
102.3867513459
 30
0.0
 11
835.7031939779
 21
96.6132486541
 31
0.0
  0
LINE
  5
301
  8
VIDITELNE
  6
SLD-PLNÁ
 62
     2
 10
840.7031939779
 20
105.2735026919
 30
0.0
 11
835.7031939779
 21
102.3867513459
 31
0.0
  0
LINE
  5
302
  8
VIDITELNE
  6
SLD-PLNÁ
 62
     2
 10
845.7031939779
 20
102.3867513459
 30
0.0
 11
840.7031939779
 21
105.2735026919
 31
0.0
  0
LINE
  5
303
  8
VIDITELNE
  6
SLD-PLNÁ
 62
     2
 10
845.7031939779
 20
55.3867513459
 30
0.0
 11
840.7031939779
 21
58.2735026919
 31
0.0
  0
LINE
  5
304
  8
VIDITELNE
  6
SLD-PLNÁ
 62
     2
 10
845.7031939779
 20
49.6132486541
 30
0.0
 11
845.7031939779
 21
55.3867513459
 31
0.0
  0
LINE
  5
305
  8
VIDITELNE
  6
SLD-PLNÁ
 62
     2
 10
840.7031939779
 20
46.7264973081
 30
0.0
 11
845.7031939779
 21
49.6132486541
 31
0.0
  0
LINE
  5
306
  8
VIDITELNE
  6
SLD-PLNÁ
 62
     2
 10
835.7031939779
 20
49.6132486541
 30
0.0
 11
840.7031939779
 21
46.7264973081
 31
0.0
  0
LINE
  5
307
  8
VIDITELNE
  6
SLD-PLNÁ
 62
     2
 10
835.7031939779
 20
55.3867513459
 30
0.0
 11
835.7031939779
 21
49.6132486541
 31
0.0
  0
LINE
  5
308
  8
VIDITELNE
  6
SLD-PLNÁ
 62
     2
 10
840.7031939779
 20
58.2735026919
 30
0.0
 11
835.7031939779
 21
55.3867513459
 31
0.0
  0
LINE
  5
309
  8
VIDITELNE
  6
SLD-PLNÁ
 62
     2
 10
805.0
 20
26.1132486541
 30
0.0
 11
805.0
 21
31.8867513459
 31
0.0
  0
LINE
  5
30A
  8
VIDITELNE
  6
SLD-PLNÁ
 62
     2
 10
800.0
 20
23.2264973081
 30
0.0
 11
805.0
 21
26.1132486541
 31
0.0
  0
LINE
  5
30B
  8
VIDITELNE
  6
SLD-PLNÁ
 62
     2
 10
795.0
 20
26.1132486541
 30
0.0
 11
800.0
 21
23.2264973081
 31
0.0
  0
LINE
  5
30C
  8
VIDITELNE
  6
SLD-PLNÁ
 62
     2
 10
795.0
 20
31.8867513459
 30
0.0
 11
795.0
 21
26.1132486541
 31
0.0
  0
LINE
  5
30D
  8
VIDITELNE
  6
SLD-PLNÁ
 62
     2
 10
800.0
 20
34.7735026919
 30
0.0
 11
795.0
 21
31.8867513459
 31
0.0
  0
LINE
  5
30E
  8
VIDITELNE
  6
SLD-PLNÁ
 62
     2
 10
805.0
 20
31.8867513459
 30
0.0
 11
800.0
 21
34.7735026919
 31
0.0
  0
LINE
  5
30F
  8
VIDITELNE
  6
SLD-PLNÁ
 62
     2
 10
759.2968060221
 20
46.7264973081
 30
0.0
 11
764.2968060221
 21
49.6132486541
 31
0.0
  0
LINE
  5
310
  8
VIDITELNE
  6
SLD-PLNÁ
 62
     2
 10
754.2968060221
 20
49.6132486541
 30
0.0
 11
759.2968060221
 21
46.7264973081
 31
0.0
  0
LINE
  5
311
  8
VIDITELNE
  6
SLD-PLNÁ
 62
     2
 10
754.2968060221
 20
55.3867513459
 30
0.0
 11
754.2968060221
 21
49.6132486541
 31
0.0
  0
LINE
  5
312
  8
VIDITELNE
  6
SLD-PLNÁ
 62
     2
 10
759.2968060221
 20
58.2735026919
 30
0.0
 11
754.2968060221
 21
55.3867513459
 31
0.0
  0
LINE
  5
313
  8
VIDITELNE
  6
SLD-PLNÁ
 62
     2
 10
764.2968060221
 20
55.3867513459
 30
0.0
 11
759.2968060221
 21
58.2735026919
 31
0.0
  0
LINE
  5
314
  8
VIDITELNE
  6
SLD-PLNÁ
 62
     2
 10
764.2968060221
 20
49.6132486541
 30
0.0
 11
764.2968060221
 21
55.3867513459
 31
0.0
  0
LINE
  5
315
  8
VIDITELNE
  6
SLD-PLNÁ
 62
     2
 10
805.0
 20
125.8867513459
 30
0.0
 11
800.0
 21
128.7735026919
 31
0.0
  0
LINE
  5
316
  8
VIDITELNE
  6
SLD-PLNÁ
 62
     2
 10
805.0
 20
120.1132486541
 30
0.0
 11
805.0
 21
125.8867513459
 31
0.0
  0
LINE
  5
317
  8
VIDITELNE
  6
SLD-PLNÁ
 62
     2
 10
800.0
 20
117.2264973081
 30
0.0
 11
805.0
 21
120.1132486541
 31
0.0
  0
LINE
  5
318
  8
VIDITELNE
  6
SLD-PLNÁ
 62
     2
 10
795.0
 20
120.1132486541
 30
0.0
 11
800.0
 21
117.2264973081
 31
0.0
  0
LINE
  5
319
  8
VIDITELNE
  6
SLD-PLNÁ
 62
     2
 10
800.0
 20
128.7735026919
 30
0.0
 11
795.0
 21
125.8867513459
 31
0.0
  0
LINE
  5
31A
  8
VIDITELNE
  6
SLD-PLNÁ
 62
     2
 10
795.0
 20
125.8867513459
 30
0.0
 11
795.0
 21
120.1132486541
 31
0.0
  0
ARC
  5
31B
  8
VIDITELNE
  6
SLD-PLNÁ
 62
     2
 10
800.0
 20
76.0
 30
0.0
 40
52.28925629445186
 50
90.9322222308
 51
149.0677777692
  0
ARC
  5
31C
  8
VIDITELNE
  6
SLD-PLNÁ
 62
     2
 10
800.0
 20
76.0
 30
0.0
 40
52.28925629445193
 50
30.9322222308
 51
89.0677777692
  0
ARC
  5
31D
  8
VIDITELNE
  6
SLD-PLNÁ
 62
     2
 10
800.0
 20
76.0
 30
0.0
 40
52.2892562944519
 50
330.9322222308
 51
29.0677777692
  0
ARC
  5
31E
  8
VIDITELNE
  6
SLD-PLNÁ
 62
     2
 10
800.0
 20
76.0
 30
0.0
 40
52.28925629445196
 50
270.9322222308
 51
329.0677777692
  0
ARC
  5
31F
  8
VIDITELNE
  6
SLD-PLNÁ
 62
     2
 10
800.0
 20
76.0
 30
0.0
 40
52.28925629445184
 50
210.9322222308
 51
269.0677777692
  0
ARC
  5
320
  8
VIDITELNE
  6
SLD-PLNÁ
 62
     2
 10
800.0
 20
76.0
 30
0.0
 40
52.28925629445181
 50
150.9322222308
 51
209.0677777692
  0
CIRCLE
  5
321
  8
VIDITELNE
  6
SLD-PLNÁ
 62
     2
 10
800.0
 20
76.0
 30
0.0
 40
54.28803794849
  0
CIRCLE
  5
322
  8
VIDITELNE
  6
SLD-PLNÁ
 62
     2
 10
800.0
 20
76.0
 30
0.0
 40
54.5
  0
POLYLINE
  5
323
  8
VIDITELNE
  6
SLD-PLNÁ
 62
     2
 66
     1
 10
0.0
 20
0.0
 30
0.0
  0
VERTEX
  5
76B
  8
VIDITELNE
  6
SLD-PLNÁ
 62
     2
 10
856.5703371369
 20
80.9852771489
 30
0.0
  0
VERTEX
  5
76C
  8
VIDITELNE
  6
SLD-PLNÁ
 62
     2
 10
856.5686062799
 20
80.999492638
 30
0.0
  0
VERTEX
  5
76D
  8
VIDITELNE
  6
SLD-PLNÁ
 62
     2
 10
856.6223021314
 20
80.5580183057
 30
0.0
  0
VERTEX
  5
76E
  8
VIDITELNE
  6
SLD-PLNÁ
 62
     2
 10
856.7571835531
 20
79.2831442559
 30
0.0
  0
VERTEX
  5
76F
  8
VIDITELNE
  6
SLD-PLNÁ
 62
     2
 10
856.9173060719
 20
77.131147399
 30
0.0
  0
VERTEX
  5
770
  8
VIDITELNE
  6
SLD-PLNÁ
 62
     2
 10
857.0
 20
74.1102362205
 30
0.0
  0
SEQEND
  5
771
  8
VIDITELNE
  6
SLD-PLNÁ
 62
     2
  0
ARC
  5
324
  8
VIDITELNE
  6
SLD-PLNÁ
 62
     2
 10
798.1826552803
 20
74.1124851248
 30
0.0
 40
55.18265532608443
 50
172.8454477425
 51
180.0023350222
  0
POLYLINE
  5
325
  8
VIDITELNE
  6
SLD-PLNÁ
 62
     2
 66
     1
 10
0.0
 20
0.0
 30
0.0
  0
VERTEX
  5
772
  8
VIDITELNE
  6
SLD-PLNÁ
 62
     2
 10
783.0488465579
 20
-168.9935804382
 30
0.0
  0
VERTEX
  5
773
  8
VIDITELNE
  6
SLD-PLNÁ
 62
     2
 10
783.0209368963
 20
-168.9972432266
 30
0.0
  0
VERTEX
  5
774
  8
VIDITELNE
  6
SLD-PLNÁ
 62
     2
 10
783.4097231563
 20
-168.9466579941
 30
0.0
  0
VERTEX
  5
775
  8
VIDITELNE
  6
SLD-PLNÁ
 62
     2
 10
784.2435669611
 20
-168.8420524753
 30
0.0
  0
VERTEX
  5
776
  8
VIDITELNE
  6
SLD-PLNÁ
 62
     2
 10
785.5441147751
 20
-168.6895076511
 30
0.0
  0
VERTEX
  5
777
  8
VIDITELNE
  6
SLD-PLNÁ
 62
     2
 10
787.2180442976
 20
-168.5122637472
 30
0.0
  0
VERTEX
  5
778
  8
VIDITELNE
  6
SLD-PLNÁ
 62
     2
 10
789.2990370426
 20
-168.3220135923
 30
0.0
  0
VERTEX
  5
779
  8
VIDITELNE
  6
SLD-PLNÁ
 62
     2
 10
791.6410426985
 20
-168.1479741574
 30
0.0
  0
VERTEX
  5
77A
  8
VIDITELNE
  6
SLD-PLNÁ
 62
     2
 10
794.2875722026
 20
-168.0025920693
 30
0.0
  0
VERTEX
  5
77B
  8
VIDITELNE
  6
SLD-PLNÁ
 62
     2
 10
798.1195923474
 20
-167.8888862326
 30
0.0
  0
VERTEX
  5
77C
  8
VIDITELNE
  6
SLD-PLNÁ
 62
     2
 10
800.9231638833
 20
-167.8783931565
 30
0.0
  0
VERTEX
  5
77D
  8
VIDITELNE
  6
SLD-PLNÁ
 62
     2
 10
803.7793688117
 20
-167.9309000329
 30
0.0
  0
VERTEX
  5
77E
  8
VIDITELNE
  6
SLD-PLNÁ
 62
     2
 10
806.4487797876
 20
-168.0375666688
 30
0.0
  0
VERTEX
  5
77F
  8
VIDITELNE
  6
SLD-PLNÁ
 62
     2
 10
809.0129370241
 20
-168.1922918258
 30
0.0
  0
VERTEX
  5
780
  8
VIDITELNE
  6
SLD-PLNÁ
 62
     2
 10
811.2624373119
 20
-168.3700510657
 30
0.0
  0
VERTEX
  5
781
  8
VIDITELNE
  6
SLD-PLNÁ
 62
     2
 10
813.2595113112
 20
-168.5606336826
 30
0.0
  0
VERTEX
  5
782
  8
VIDITELNE
  6
SLD-PLNÁ
 62
     2
 10
814.8383776052
 20
-168.7330269868
 30
0.0
  0
VERTEX
  5
783
  8
VIDITELNE
  6
SLD-PLNÁ
 62
     2
 10
816.0383098509
 20
-168.8768201693
 30
0.0
  0
VERTEX
  5
784
  8
VIDITELNE
  6
SLD-PLNÁ
 62
     2
 10
816.7496606398
 20
-168.9672562807
 30
0.0
  0
VERTEX
  5
785
  8
VIDITELNE
  6
SLD-PLNÁ
 62
     2
 10
816.9999986352
 20
-168.9999998202
 30
0.0
  0
VERTEX
  5
786
  8
VIDITELNE
  6
SLD-PLNÁ
 62
     2
 10
816.9994378438
 20
-168.9999264268
 30
0.0
  0
SEQEND
  5
787
  8
VIDITELNE
  6
SLD-PLNÁ
 62
     2
  0
POLYLINE
  5
326
  8
VIDITELNE
  6
SLD-PLNÁ
 62
     2
 66
     1
 10
0.0
 20
0.0
 30
0.0
  0
VERTEX
  5
788
  8
VIDITELNE
  6
SLD-PLNÁ
 62
     2
 10
814.9995350165
 20
-170.9999295088
 30
0.0
  0
VERTEX
  5
789
  8
VIDITELNE
  6
SLD-PLNÁ
 62
     2
 10
814.9999987957
 20
-170.9999998173
 30
0.0
  0
VERTEX
  5
78A
  8
VIDITELNE
  6
SLD-PLNÁ
 62
     2
 10
814.7841711765
 20
-170.967285603
 30
0.0
  0
VERTEX
  5
78B
  8
VIDITELNE
  6
SLD-PLNÁ
 62
     2
 10
814.1514498684
 20
-170.874849292
 30
0.0
  0
VERTEX
  5
78C
  8
VIDITELNE
  6
SLD-PLNÁ
 62
     2
 10
813.1107359875
 20
-170.7310850644
 30
0.0
  0
VERTEX
  5
78D
  8
VIDITELNE
  6
SLD-PLNÁ
 62
     2
 10
811.699568804
 20
-170.5536038215
 30
0.0
  0
VERTEX
  5
78E
  8
VIDITELNE
  6
SLD-PLNÁ
 62
     2
 10
809.9654718481
 20
-170.3629487798
 30
0.0
  0
VERTEX
  5
78F
  8
VIDITELNE
  6
SLD-PLNÁ
 62
     2
 10
807.9525914918
 20
-170.179368495
 30
0.0
  0
VERTEX
  5
790
  8
VIDITELNE
  6
SLD-PLNÁ
 62
     2
 10
805.724048176
 20
-170.0244871361
 30
0.0
  0
VERTEX
  5
791
  8
VIDITELNE
  6
SLD-PLNÁ
 62
     2
 10
803.3347371868
 20
-169.9137944334
 30
0.0
  0
VERTEX
  5
792
  8
VIDITELNE
  6
SLD-PLNÁ
 62
     2
 10
800.8498346579
 20
-169.8612050745
 30
0.0
  0
VERTEX
  5
793
  8
VIDITELNE
  6
SLD-PLNÁ
 62
     2
 10
798.3408167771
 20
-169.8711084123
 30
0.0
  0
VERTEX
  5
794
  8
VIDITELNE
  6
SLD-PLNÁ
 62
     2
 10
794.9596225317
 20
-169.9866335424
 30
0.0
  0
VERTEX
  5
795
  8
VIDITELNE
  6
SLD-PLNÁ
 62
     2
 10
792.6539020887
 20
-170.1324222538
 30
0.0
  0
VERTEX
  5
796
  8
VIDITELNE
  6
SLD-PLNÁ
 62
     2
 10
790.5579738611
 20
-170.3111658097
 30
0.0
  0
VERTEX
  5
797
  8
VIDITELNE
  6
SLD-PLNÁ
 62
     2
 10
788.7443868503
 20
-170.5019390623
 30
0.0
  0
VERTEX
  5
798
  8
VIDITELNE
  6
SLD-PLNÁ
 62
     2
 10
787.2448071545
 20
-170.6845397735
 30
0.0
  0
VERTEX
  5
799
  8
VIDITELNE
  6
SLD-PLNÁ
 62
     2
 10
786.1115079931
 20
-170.8373986009
 30
0.0
  0
VERTEX
  5
79A
  8
VIDITELNE
  6
SLD-PLNÁ
 62
     2
 10
785.361520432
 20
-170.9458045221
 30
0.0
  0
VERTEX
  5
79B
  8
VIDITELNE
  6
SLD-PLNÁ
 62
     2
 10
785.0219109877
 20
-170.9964623519
 30
0.0
  0
VERTEX
  5
79C
  8
VIDITELNE
  6
SLD-PLNÁ
 62
     2
 10
785.0462639171
 20
-170.9928496449
 30
0.0
  0
SEQEND
  5
79D
  8
VIDITELNE
  6
SLD-PLNÁ
 62
     2
  0
LINE
  5
327
  8
VIDITELNE
  6
SLD-PLNÁ
 62
     2
 10
800.0
 20
-175.0
 30
0.0
 11
810.5
 21
-175.0
 31
0.0
  0
LINE
  5
328
  8
VIDITELNE
  6
SLD-PLNÁ
 62
     2
 10
789.5
 20
-175.0
 30
0.0
 11
800.0
 21
-175.0
 31
0.0
  0
LINE
  5
329
  8
VIDITELNE
  6
SLD-PLNÁ
 62
     2
 10
878.0
 20
-52.0
 30
0.0
 11
878.0
 21
-36.0
 31
0.0
  0
LINE
  5
32A
  8
VIDITELNE
  6
SLD-PLNÁ
 62
     2
 10
878.0
 20
29.3172798365
 30
0.0
 11
878.0
 21
45.3172798365
 31
0.0
  0
LINE
  5
32B
  8
VIDITELNE
  6
SLD-PLNÁ
 62
     2
 10
878.0
 20
-133.3172798365
 30
0.0
 11
878.0
 21
-117.3172798365
 31
0.0
  0
LINE
  5
32C
  8
VIDITELNE
  6
SLD-PLNÁ
 62
     2
 10
878.0
 20
-167.0
 30
0.0
 11
878.0
 21
-151.0
 31
0.0
  0
LINE
  5
32D
  8
VIDITELNE
  6
SLD-PLNÁ
 62
     2
 10
878.0
 20
63.0
 30
0.0
 11
878.0
 21
79.0
 31
0.0
  0
LINE
  5
32E
  8
VIDITELNE
  6
SLD-PLNÁ
 62
     2
 10
722.0
 20
-44.0
 30
0.0
 11
722.0
 21
-52.0
 31
0.0
  0
LINE
  5
32F
  8
VIDITELNE
  6
SLD-PLNÁ
 62
     2
 10
722.0
 20
-36.0
 30
0.0
 11
722.0
 21
-44.0
 31
0.0
  0
LINE
  5
330
  8
VIDITELNE
  6
SLD-PLNÁ
 62
     2
 10
722.0
 20
-125.3172798365
 30
0.0
 11
722.0
 21
-133.3172798365
 31
0.0
  0
LINE
  5
331
  8
VIDITELNE
  6
SLD-PLNÁ
 62
     2
 10
722.0
 20
-117.3172798365
 30
0.0
 11
722.0
 21
-125.3172798365
 31
0.0
  0
LINE
  5
332
  8
VIDITELNE
  6
SLD-PLNÁ
 62
     2
 10
722.0
 20
37.3172798365
 30
0.0
 11
722.0
 21
29.3172798365
 31
0.0
  0
LINE
  5
333
  8
VIDITELNE
  6
SLD-PLNÁ
 62
     2
 10
722.0
 20
45.3172798365
 30
0.0
 11
722.0
 21
37.3172798365
 31
0.0
  0
LINE
  5
334
  8
VIDITELNE
  6
SLD-PLNÁ
 62
     2
 10
722.0
 20
-159.0
 30
0.0
 11
722.0
 21
-167.0
 31
0.0
  0
LINE
  5
335
  8
VIDITELNE
  6
SLD-PLNÁ
 62
     2
 10
722.0
 20
-151.0
 30
0.0
 11
722.0
 21
-159.0
 31
0.0
  0
LINE
  5
336
  8
VIDITELNE
  6
SLD-PLNÁ
 62
     2
 10
722.0
 20
71.0
 30
0.0
 11
722.0
 21
63.0
 31
0.0
  0
LINE
  5
337
  8
VIDITELNE
  6
SLD-PLNÁ
 62
     2
 10
722.0
 20
79.0
 30
0.0
 11
722.0
 21
71.0
 31
0.0
  0
ARC
  5
338
  8
VIDITELNE
  6
SLD-PLNÁ
 62
     2
 10
800.0
 20
76.0
 30
0.0
 40
55.24810153828136
 50
101.8125937097
 51
173.5726505724
  0
ARC
  5
339
  8
VIDITELNE
  6
SLD-PLNÁ
 62
     2
 10
800.0
 20
76.0
 30
0.0
 40
55.24810153828145
 50
6.5835785784
 51
78.1874062903
  0
ARC
  5
33A
  8
VIDITELNE
  6
SLD-PLNÁ
 62
     2
 10
800.0
 20
76.0
 30
0.0
 40
58.24627401933867
 50
100.6369716495
 51
175.0766134817
  0
ARC
  5
33B
  8
VIDITELNE
  6
SLD-PLNÁ
 62
     2
 10
800.0
 20
76.0
 30
0.0
 40
58.24627401933867
 50
4.9233865183
 51
79.3630283505
  0
ARC
  5
33C
  8
VIDITELNE
  6
SLD-PLNÁ
 62
     2
 10
800.0
 20
76.0
 30
0.0
 40
97.64957321648485
 50
325.719940585
 51
180.0
  0
ARC
  5
33D
  8
VIDITELNE
  6
SLD-PLNÁ
 62
     2
 10
800.0
 20
76.0
 30
0.0
 40
97.64957321648478
 50
180.0
 51
214.280059415
  0
ARC
  5
33E
  8
VIDITELNE
  6
SLD-PLNÁ
 62
     2
 10
800.0
 20
76.0
 30
0.0
 40
99.64835487052311
 50
326.4997328653
 51
180.0
  0
ARC
  5
33F
  8
VIDITELNE
  6
SLD-PLNÁ
 62
     2
 10
800.0
 20
76.0
 30
0.0
 40
99.64835487052301
 50
180.0
 51
213.5002671347
  0
LINE
  5
340
  8
VIDITELNE
  6
SLD-PLNÁ
 62
     2
 10
794.3329731302
 20
136.1914394645
 30
0.0
 11
789.7680448077
 21
136.1914394645
 31
0.0
  0
LINE
  5
341
  8
VIDITELNE
  6
SLD-PLNÁ
 62
     2
 10
810.2319551923
 20
136.1914394645
 30
0.0
 11
805.6670240867
 21
136.1914394645
 31
0.0
  0
LINE
  5
342
  8
VIDITELNE
  6
SLD-PLNÁ
 62
     2
 10
807.7984764662
 20
138.6249181906
 30
0.0
 11
805.5524454542
 21
138.6249181906
 31
0.0
  0
LINE
  5
343
  8
VIDITELNE
  6
SLD-PLNÁ
 62
     2
 10
794.3639880866
 20
138.6249181906
 30
0.0
 11
792.2015235338
 21
138.6249181906
 31
0.0
  0
LINE
  5
344
  8
VIDITELNE
  6
SLD-PLNÁ
 62
     2
 10
-500.65
 20
131.0
 30
0.0
 11
-525.65
 21
131.0
 31
0.0
  0
LINE
  5
345
  8
VIDITELNE
  6
SLD-PLNÁ
 62
     2
 10
-410.65
 20
131.0
 30
0.0
 11
-470.6725757509
 21
131.0
 31
0.0
  0
LINE
  5
346
  8
VIDITELNE
  6
SLD-PLNÁ
 62
     2
 10
-265.65
 20
131.0
 30
0.0
 11
-380.6725757509
 21
131.0
 31
0.0
  0
LINE
  5
347
  8
VIDITELNE
  6
SLD-PLNÁ
 62
     2
 10
-525.65
 20
21.0
 30
0.0
 11
-522.65
 21
21.0
 31
0.0
  0
ARC
  5
348
  8
VIDITELNE
  6
SLD-PLNÁ
 62
     2
 10
-522.65
 20
19.0
 30
0.0
 40
2.0
 50
0.0
 51
90.0
  0
ARC
  5
349
  8
VIDITELNE
  6
SLD-PLNÁ
 62
     2
 10
-378.7659473267
 20
-169.7475842702
 30
0.0
 40
1.859925676607356
 50
106.6824290623
 51
183.4553548992
  0
ARC
  5
34A
  8
VIDITELNE
  6
SLD-PLNÁ
 62
     2
 10
-412.645658942
 20
-169.8474675345
 30
0.0
 40
1.989728023677678
 50
359.6904780267
 51
81.8708829773
  0
ARC
  5
34B
  8
VIDITELNE
  6
SLD-PLNÁ
 62
     2
 10
-268.65
 20
-21.0
 30
0.0
 40
2.000000000000001
 50
104.4775121859
 51
180.0
  0
ARC
  5
34C
  8
VIDITELNE
  6
SLD-PLNÁ
 62
     2
 10
-265.65
 20
19.0
 30
0.0
 40
2.0
 50
90.0
 51
180.0
  0
ARC
  5
34D
  8
VIDITELNE
  6
SLD-PLNÁ
 62
     2
 10
-269.65
 20
-17.1270166538
 30
0.0
 40
2.000000000000001
 50
284.4775121859
 51
0.0
  0
LINE
  5
34E
  8
VIDITELNE
  6
SLD-PLNÁ
 62
     2
 10
-410.65
 20
-169.8570617804
 30
0.0
 11
-410.65
 21
-172.0
 31
0.0
  0
LINE
  5
34F
  8
VIDITELNE
  6
SLD-PLNÁ
 62
     2
 10
-380.65
 20
-172.0
 30
0.0
 11
-380.65
 21
-169.8645544299
 31
0.0
  0
ARC
  5
350
  8
VIDITELNE
  6
SLD-PLNÁ
 62
     2
 10
-264.65
 20
5.5
 30
0.0
 40
1.0
 50
0.0
 51
90.0
  0
ARC
  5
351
  8
VIDITELNE
  6
SLD-PLNÁ
 62
     2
 10
-264.65
 20
-13.5
 30
0.0
 40
1.0
 50
270.0
 51
0.0
  0
LINE
  5
352
  8
VIDITELNE
  6
SLD-PLNÁ
 62
     2
 10
-267.65
 20
-14.5
 30
0.0
 11
-264.65
 21
-14.5
 31
0.0
  0
LINE
  5
353
  8
VIDITELNE
  6
SLD-PLNÁ
 62
     2
 10
-264.65
 20
6.5
 30
0.0
 11
-267.65
 21
6.5
 31
0.0
  0
LINE
  5
354
  8
VIDITELNE
  6
SLD-PLNÁ
 62
     2
 10
-406.15
 20
-172.0
 30
0.0
 11
-406.15
 21
-175.0
 31
0.0
  0
LINE
  5
355
  8
VIDITELNE
  6
SLD-PLNÁ
 62
     2
 10
-385.15
 20
-175.0
 30
0.0
 11
-385.15
 21
-172.0
 31
0.0
  0
ARC
  5
356
  8
VIDITELNE
  6
SLD-PLNÁ
 62
     2
 10
-386.15
 20
-175.0
 30
0.0
 40
1.0
 50
270.0
 51
0.0
  0
ARC
  5
357
  8
VIDITELNE
  6
SLD-PLNÁ
 62
     2
 10
-405.15
 20
-175.0
 30
0.0
 40
1.0
 50
180.0
 51
270.0
  0
ARC
  5
358
  8
VIDITELNE
  6
SLD-PLNÁ
 62
     2
 10
-495.15
 20
132.0
 30
0.0
 40
1.0
 50
90.0
 51
180.0
  0
ARC
  5
359
  8
VIDITELNE
  6
SLD-PLNÁ
 62
     2
 10
-476.15
 20
132.0
 30
0.0
 40
1.0
 50
0.0
 51
90.0
  0
LINE
  5
35A
  8
VIDITELNE
  6
SLD-PLNÁ
 62
     2
 10
-475.15
 20
129.9468526219
 30
0.0
 11
-475.15
 21
132.0
 31
0.0
  0
LINE
  5
35B
  8
VIDITELNE
  6
SLD-PLNÁ
 62
     2
 10
-496.15
 20
132.0
 30
0.0
 11
-496.15
 21
129.9538204682
 31
0.0
  0
LINE
  5
35C
  8
VIDITELNE
  6
SLD-PLNÁ
 62
     2
 10
-547.65
 20
-24.0
 30
0.0
 11
-537.5802010066
 21
-23.6483548705
 31
0.0
  0
LINE
  5
35D
  8
VIDITELNE
  6
SLD-PLNÁ
 62
     2
 10
-537.5802010066
 20
175.6483548705
 30
0.0
 11
-547.65
 21
176.0
 31
0.0
  0
ARC
  5
35E
  8
VIDITELNE
  6
SLD-PLNÁ
 62
     2
 10
-537.65
 20
-21.6495732165
 30
0.0
 40
2.0
 50
272.0
 51
0.0
  0
ARC
  5
35F
  8
VIDITELNE
  6
SLD-PLNÁ
 62
     2
 10
-537.65
 20
173.6495732165
 30
0.0
 40
2.0
 50
0.0
 51
88.0
  0
ARC
  5
360
  8
VIDITELNE
  6
SLD-PLNÁ
 62
     2
 10
-532.65
 20
17.7537259807
 30
0.0
 40
3.000000000000003
 50
92.0
 51
180.0
  0
ARC
  5
361
  8
VIDITELNE
  6
SLD-PLNÁ
 62
     2
 10
-532.65
 20
134.2462740193
 30
0.0
 40
3.000000000000017
 50
180.0
 51
268.0
  0
LINE
  5
362
  8
VIDITELNE
  6
SLD-PLNÁ
 62
     2
 10
-532.7546984901
 20
20.7518984617
 30
0.0
 11
-525.65
 21
21.0
 31
0.0
  0
LINE
  5
363
  8
VIDITELNE
  6
SLD-PLNÁ
 62
     2
 10
-525.65
 20
131.0
 30
0.0
 11
-532.7546984901
 21
131.2481015383
 31
0.0
  0
LINE
  5
364
  8
VIDITELNE
  6
SLD-PLNÁ
 62
     2
 10
-384.3465354484
 20
130.1146079153
 30
0.0
 11
-384.5444667725
 21
131.237132235
 31
0.0
  0
LINE
  5
365
  8
VIDITELNE
  6
SLD-PLNÁ
 62
     2
 10
-406.7555279998
 20
131.237161883
 30
0.0
 11
-406.9540484586
 21
130.1112964142
 31
0.0
  0
POLYLINE
  5
366
  8
VIDITELNE
  6
SLD-PLNÁ
 62
     2
 66
     1
 10
0.0
 20
0.0
 30
0.0
  0
VERTEX
  5
79E
  8
VIDITELNE
  6
SLD-PLNÁ
 62
     2
 10
-395.65
 20
139.9999970044
 30
0.0
  0
VERTEX
  5
79F
  8
VIDITELNE
  6
SLD-PLNÁ
 62
     2
 10
-397.7428191919
 20
140.0751167251
 30
0.0
  0
VERTEX
  5
7A0
  8
VIDITELNE
  6
SLD-PLNÁ
 62
     2
 10
-399.562057361
 20
140.4779205152
 30
0.0
  0
VERTEX
  5
7A1
  8
VIDITELNE
  6
SLD-PLNÁ
 62
     2
 10
-401.0733746959
 20
141.0655231463
 30
0.0
  0
VERTEX
  5
7A2
  8
VIDITELNE
  6
SLD-PLNÁ
 62
     2
 10
-402.2777837383
 20
141.7304029164
 30
0.0
  0
VERTEX
  5
7A3
  8
VIDITELNE
  6
SLD-PLNÁ
 62
     2
 10
-403.9617245108
 20
143.0326723646
 30
0.0
  0
VERTEX
  5
7A4
  8
VIDITELNE
  6
SLD-PLNÁ
 62
     2
 10
-405.2652682567
 20
144.4742959825
 30
0.0
  0
VERTEX
  5
7A5
  8
VIDITELNE
  6
SLD-PLNÁ
 62
     2
 10
-407.0148040045
 20
147.7424726559
 30
0.0
  0
VERTEX
  5
7A6
  8
VIDITELNE
  6
SLD-PLNÁ
 62
     2
 10
-407.4945944462
 20
149.6109429624
 30
0.0
  0
VERTEX
  5
7A7
  8
VIDITELNE
  6
SLD-PLNÁ
 62
     2
 10
-407.666337906
 20
151.7547776654
 30
0.0
  0
VERTEX
  5
7A8
  8
VIDITELNE
  6
SLD-PLNÁ
 62
     2
 10
-407.4379029216
 20
153.9747213596
 30
0.0
  0
VERTEX
  5
7A9
  8
VIDITELNE
  6
SLD-PLNÁ
 62
     2
 10
-406.8872628654
 20
155.9079192091
 30
0.0
  0
VERTEX
  5
7AA
  8
VIDITELNE
  6
SLD-PLNÁ
 62
     2
 10
-406.092747048
 20
157.6111396459
 30
0.0
  0
VERTEX
  5
7AB
  8
VIDITELNE
  6
SLD-PLNÁ
 62
     2
 10
-404.9684249683
 20
159.2752100041
 30
0.0
  0
VERTEX
  5
7AC
  8
VIDITELNE
  6
SLD-PLNÁ
 62
     2
 10
-403.4742363332
 20
160.8410480743
 30
0.0
  0
VERTEX
  5
7AD
  8
VIDITELNE
  6
SLD-PLNÁ
 62
     2
 10
-401.5782991668
 20
162.2211952197
 30
0.0
  0
VERTEX
  5
7AE
  8
VIDITELNE
  6
SLD-PLNÁ
 62
     2
 10
-399.0266018055
 20
163.3791155065
 30
0.0
  0
VERTEX
  5
7AF
  8
VIDITELNE
  6
SLD-PLNÁ
 62
     2
 10
-395.65
 20
164.0
 30
0.0
  0
SEQEND
  5
7B0
  8
VIDITELNE
  6
SLD-PLNÁ
 62
     2
  0
POLYLINE
  5
367
  8
VIDITELNE
  6
SLD-PLNÁ
 62
     2
 66
     1
 10
0.0
 20
0.0
 30
0.0
  0
VERTEX
  5
7B1
  8
VIDITELNE
  6
SLD-PLNÁ
 62
     2
 10
-395.65
 20
172.0
 30
0.0
  0
VERTEX
  5
7B2
  8
VIDITELNE
  6
SLD-PLNÁ
 62
     2
 10
-398.879233336
 20
171.8529725031
 30
0.0
  0
VERTEX
  5
7B3
  8
VIDITELNE
  6
SLD-PLNÁ
 62
     2
 10
-401.7614519604
 20
171.2850077816
 30
0.0
  0
VERTEX
  5
7B4
  8
VIDITELNE
  6
SLD-PLNÁ
 62
     2
 10
-404.2601826606
 20
170.4433204157
 30
0.0
  0
VERTEX
  5
7B5
  8
VIDITELNE
  6
SLD-PLNÁ
 62
     2
 10
-406.3714700266
 20
169.4458864874
 30
0.0
  0
VERTEX
  5
7B6
  8
VIDITELNE
  6
SLD-PLNÁ
 62
     2
 10
-409.8830792131
 20
167.062780375
 30
0.0
  0
VERTEX
  5
7B7
  8
VIDITELNE
  6
SLD-PLNÁ
 62
     2
 10
-412.6515667316
 20
164.2865389868
 30
0.0
  0
VERTEX
  5
7B8
  8
VIDITELNE
  6
SLD-PLNÁ
 62
     2
 10
-414.8342549251
 20
161.1216577374
 30
0.0
  0
VERTEX
  5
7B9
  8
VIDITELNE
  6
SLD-PLNÁ
 62
     2
 10
-416.389217609
 20
157.7187596033
 30
0.0
  0
VERTEX
  5
7BA
  8
VIDITELNE
  6
SLD-PLNÁ
 62
     2
 10
-417.279155035
 20
154.4320120371
 30
0.0
  0
VERTEX
  5
7BB
  8
VIDITELNE
  6
SLD-PLNÁ
 62
     2
 10
-417.6562400309
 20
150.7212087837
 30
0.0
  0
VERTEX
  5
7BC
  8
VIDITELNE
  6
SLD-PLNÁ
 62
     2
 10
-417.5143084733
 20
147.8426583452
 30
0.0
  0
VERTEX
  5
7BD
  8
VIDITELNE
  6
SLD-PLNÁ
 62
     2
 10
-417.0498326995
 20
145.2156050363
 30
0.0
  0
VERTEX
  5
7BE
  8
VIDITELNE
  6
SLD-PLNÁ
 62
     2
 10
-416.4528626139
 20
143.1659477778
 30
0.0
  0
VERTEX
  5
7BF
  8
VIDITELNE
  6
SLD-PLNÁ
 62
     2
 10
-415.7791389334
 20
141.444871094
 30
0.0
  0
VERTEX
  5
7C0
  8
VIDITELNE
  6
SLD-PLNÁ
 62
     2
 10
-414.7262446607
 20
139.3571537725
 30
0.0
  0
VERTEX
  5
7C1
  8
VIDITELNE
  6
SLD-PLNÁ
 62
     2
 10
-413.1337401738
 20
136.9481080552
 30
0.0
  0
VERTEX
  5
7C2
  8
VIDITELNE
  6
SLD-PLNÁ
 62
     2
 10
-411.198380612
 20
134.7165244165
 30
0.0
  0
VERTEX
  5
7C3
  8
VIDITELNE
  6
SLD-PLNÁ
 62
     2
 10
-409.3459798051
 20
133.0414659818
 30
0.0
  0
VERTEX
  5
7C4
  8
VIDITELNE
  6
SLD-PLNÁ
 62
     2
 10
-407.6937173879
 20
131.8253704947
 30
0.0
  0
VERTEX
  5
7C5
  8
VIDITELNE
  6
SLD-PLNÁ
 62
     2
 10
-406.7446503933
 20
131.2487690326
 30
0.0
  0
SEQEND
  5
7C6
  8
VIDITELNE
  6
SLD-PLNÁ
 62
     2
  0
POLYLINE
  5
368
  8
VIDITELNE
  6
SLD-PLNÁ
 62
     2
 66
     1
 10
0.0
 20
0.0
 30
0.0
  0
VERTEX
  5
7C7
  8
VIDITELNE
  6
SLD-PLNÁ
 62
     2
 10
-384.554742827
 20
131.2491376789
 30
0.0
  0
VERTEX
  5
7C8
  8
VIDITELNE
  6
SLD-PLNÁ
 62
     2
 10
-383.6062826121
 20
131.8253704947
 30
0.0
  0
VERTEX
  5
7C9
  8
VIDITELNE
  6
SLD-PLNÁ
 62
     2
 10
-381.9540201949
 20
133.0414659818
 30
0.0
  0
VERTEX
  5
7CA
  8
VIDITELNE
  6
SLD-PLNÁ
 62
     2
 10
-380.101619388
 20
134.7165244165
 30
0.0
  0
VERTEX
  5
7CB
  8
VIDITELNE
  6
SLD-PLNÁ
 62
     2
 10
-378.1662598262
 20
136.9481080552
 30
0.0
  0
VERTEX
  5
7CC
  8
VIDITELNE
  6
SLD-PLNÁ
 62
     2
 10
-376.5737553393
 20
139.3571537725
 30
0.0
  0
VERTEX
  5
7CD
  8
VIDITELNE
  6
SLD-PLNÁ
 62
     2
 10
-375.5208610666
 20
141.444871094
 30
0.0
  0
VERTEX
  5
7CE
  8
VIDITELNE
  6
SLD-PLNÁ
 62
     2
 10
-374.8471373861
 20
143.1659477778
 30
0.0
  0
VERTEX
  5
7CF
  8
VIDITELNE
  6
SLD-PLNÁ
 62
     2
 10
-374.2501673005
 20
145.2156050363
 30
0.0
  0
VERTEX
  5
7D0
  8
VIDITELNE
  6
SLD-PLNÁ
 62
     2
 10
-373.7856915267
 20
147.8426583452
 30
0.0
  0
VERTEX
  5
7D1
  8
VIDITELNE
  6
SLD-PLNÁ
 62
     2
 10
-373.6437599691
 20
150.7212087837
 30
0.0
  0
VERTEX
  5
7D2
  8
VIDITELNE
  6
SLD-PLNÁ
 62
     2
 10
-374.020844965
 20
154.4320120371
 30
0.0
  0
VERTEX
  5
7D3
  8
VIDITELNE
  6
SLD-PLNÁ
 62
     2
 10
-374.910782391
 20
157.7187596033
 30
0.0
  0
VERTEX
  5
7D4
  8
VIDITELNE
  6
SLD-PLNÁ
 62
     2
 10
-376.4657450749
 20
161.1216577374
 30
0.0
  0
VERTEX
  5
7D5
  8
VIDITELNE
  6
SLD-PLNÁ
 62
     2
 10
-378.6484332684
 20
164.2865389867
 30
0.0
  0
VERTEX
  5
7D6
  8
VIDITELNE
  6
SLD-PLNÁ
 62
     2
 10
-381.4169207868
 20
167.062780375
 30
0.0
  0
VERTEX
  5
7D7
  8
VIDITELNE
  6
SLD-PLNÁ
 62
     2
 10
-384.9285299734
 20
169.4458864874
 30
0.0
  0
VERTEX
  5
7D8
  8
VIDITELNE
  6
SLD-PLNÁ
 62
     2
 10
-387.0398173394
 20
170.4433204157
 30
0.0
  0
VERTEX
  5
7D9
  8
VIDITELNE
  6
SLD-PLNÁ
 62
     2
 10
-389.5385480396
 20
171.2850077816
 30
0.0
  0
VERTEX
  5
7DA
  8
VIDITELNE
  6
SLD-PLNÁ
 62
     2
 10
-392.420766664
 20
171.8529725031
 30
0.0
  0
VERTEX
  5
7DB
  8
VIDITELNE
  6
SLD-PLNÁ
 62
     2
 10
-395.65
 20
172.0
 30
0.0
  0
SEQEND
  5
7DC
  8
VIDITELNE
  6
SLD-PLNÁ
 62
     2
  0
POLYLINE
  5
369
  8
VIDITELNE
  6
SLD-PLNÁ
 62
     2
 66
     1
 10
0.0
 20
0.0
 30
0.0
  0
VERTEX
  5
7DD
  8
VIDITELNE
  6
SLD-PLNÁ
 62
     2
 10
-395.65
 20
164.0
 30
0.0
  0
VERTEX
  5
7DE
  8
VIDITELNE
  6
SLD-PLNÁ
 62
     2
 10
-393.8612761694
 20
163.7878220539
 30
0.0
  0
VERTEX
  5
7DF
  8
VIDITELNE
  6
SLD-PLNÁ
 62
     2
 10
-392.2733981945
 20
163.3791155065
 30
0.0
  0
VERTEX
  5
7E0
  8
VIDITELNE
  6
SLD-PLNÁ
 62
     2
 10
-389.7217008332
 20
162.2211952197
 30
0.0
  0
VERTEX
  5
7E1
  8
VIDITELNE
  6
SLD-PLNÁ
 62
     2
 10
-387.8257636668
 20
160.8410480743
 30
0.0
  0
VERTEX
  5
7E2
  8
VIDITELNE
  6
SLD-PLNÁ
 62
     2
 10
-386.3315750317
 20
159.2752100041
 30
0.0
  0
VERTEX
  5
7E3
  8
VIDITELNE
  6
SLD-PLNÁ
 62
     2
 10
-385.207252952
 20
157.6111396459
 30
0.0
  0
VERTEX
  5
7E4
  8
VIDITELNE
  6
SLD-PLNÁ
 62
     2
 10
-384.4127371346
 20
155.9079192091
 30
0.0
  0
VERTEX
  5
7E5
  8
VIDITELNE
  6
SLD-PLNÁ
 62
     2
 10
-383.8620970784
 20
153.9747213596
 30
0.0
  0
VERTEX
  5
7E6
  8
VIDITELNE
  6
SLD-PLNÁ
 62
     2
 10
-383.633662094
 20
151.7547776654
 30
0.0
  0
VERTEX
  5
7E7
  8
VIDITELNE
  6
SLD-PLNÁ
 62
     2
 10
-383.8054055538
 20
149.6109429624
 30
0.0
  0
VERTEX
  5
7E8
  8
VIDITELNE
  6
SLD-PLNÁ
 62
     2
 10
-384.2851959955
 20
147.7424726559
 30
0.0
  0
VERTEX
  5
7E9
  8
VIDITELNE
  6
SLD-PLNÁ
 62
     2
 10
-386.0347317433
 20
144.4742959825
 30
0.0
  0
VERTEX
  5
7EA
  8
VIDITELNE
  6
SLD-PLNÁ
 62
     2
 10
-387.3382754892
 20
143.0326723646
 30
0.0
  0
VERTEX
  5
7EB
  8
VIDITELNE
  6
SLD-PLNÁ
 62
     2
 10
-389.0222162617
 20
141.7304029164
 30
0.0
  0
VERTEX
  5
7EC
  8
VIDITELNE
  6
SLD-PLNÁ
 62
     2
 10
-390.2266253041
 20
141.0655231463
 30
0.0
  0
VERTEX
  5
7ED
  8
VIDITELNE
  6
SLD-PLNÁ
 62
     2
 10
-391.737942639
 20
140.4779205152
 30
0.0
  0
VERTEX
  5
7EE
  8
VIDITELNE
  6
SLD-PLNÁ
 62
     2
 10
-393.5571808081
 20
140.0751167251
 30
0.0
  0
VERTEX
  5
7EF
  8
VIDITELNE
  6
SLD-PLNÁ
 62
     2
 10
-395.65
 20
139.9999970044
 30
0.0
  0
SEQEND
  5
7F0
  8
VIDITELNE
  6
SLD-PLNÁ
 62
     2
  0
LINE
  5
36A
  8
VIDITELNE
  6
SLD-PLNÁ
 62
     2
 10
-265.65
 20
21.5
 30
0.0
 11
-259.5802010066
 21
21.7119620515
 31
0.0
  0
LINE
  5
36B
  8
VIDITELNE
  6
SLD-PLNÁ
 62
     2
 10
-259.5802010066
 20
130.2880379485
 30
0.0
 11
-265.65
 21
130.5
 31
0.0
  0
ARC
  5
36C
  8
VIDITELNE
  6
SLD-PLNÁ
 62
     2
 10
-259.65
 20
23.7107437055
 30
0.0
 40
2.000000000000013
 50
272.0
 51
0.0
  0
ARC
  5
36D
  8
VIDITELNE
  6
SLD-PLNÁ
 62
     2
 10
-259.65
 20
128.2892562945
 30
0.0
 40
2.000000000000006
 50
0.0
 51
88.0
  0
ARC
  5
36E
  8
VIDITELNE
  6
SLD-PLNÁ
 62
     2
 10
-395.65
 20
-44.0
 30
0.0
 40
23.65470053837926
 50
107.2129689444
 51
72.7870310556
  0
LINE
  5
36F
  8
VIDITELNE
  6
SLD-PLNÁ
 62
     2
 10
-402.65
 20
-21.4047602898
 30
0.0
 11
-402.65
 21
-22.6165952197
 31
0.0
  0
ARC
  5
370
  8
VIDITELNE
  6
SLD-PLNÁ
 62
     2
 10
-395.65
 20
-44.0
 30
0.0
 40
22.5
 50
108.1262039606
 51
71.8737960394
  0
LINE
  5
371
  8
VIDITELNE
  6
SLD-PLNÁ
 62
     2
 10
-388.65
 20
-22.6165952197
 30
0.0
 11
-388.65
 21
-21.4047602898
 31
0.0
  0
CIRCLE
  5
372
  8
VIDITELNE
  6
SLD-PLNÁ
 62
     2
 10
-395.65
 20
-44.0
 30
0.0
 40
32.50000000000006
  0
CIRCLE
  5
373
  8
VIDITELNE
  6
SLD-PLNÁ
 62
     2
 10
-395.65
 20
-44.0
 30
0.0
 40
30.50000000000006
  0
LINE
  5
374
  8
VIDITELNE
  6
SLD-PLNÁ
 62
     2
 10
-402.65
 20
-17.7
 30
0.0
 11
-388.65
 21
-17.7
 31
0.0
  0
LINE
  5
375
  8
VIDITELNE
  6
SLD-PLNÁ
 62
     2
 10
-388.65
 20
-17.7
 30
0.0
 11
-388.65
 21
-21.4047602898
 31
0.0
  0
LINE
  5
376
  8
VIDITELNE
  6
SLD-PLNÁ
 62
     2
 10
-402.65
 20
-21.4047602898
 30
0.0
 11
-402.65
 21
-17.7
 31
0.0
  0
ARC
  5
377
  8
VIDITELNE
  6
SLD-PLNÁ
 62
     2
 10
-395.65
 20
-48.5718241501
 30
0.0
 40
131.3283646897413
 50
71.54133344
 51
108.45866656
  0
LINE
  5
378
  8
VIDITELNE
  6
SLD-PLNÁ
 62
     2
 10
-354.0687542274
 20
76.0
 30
0.0
 11
-354.7235769955
 21
74.1102362205
 31
0.0
  0
LINE
  5
379
  8
VIDITELNE
  6
SLD-PLNÁ
 62
     2
 10
-437.2312457726
 20
76.0
 30
0.0
 11
-436.5764230045
 21
74.1102362205
 31
0.0
  0
ARC
  5
37A
  8
VIDITELNE
  6
SLD-PLNÁ
 62
     2
 10
-519.8411611348
 20
-43.8855989853
 30
0.0
 40
249.1911873948997
 50
359.9736961182
 51
7.2640703418
  0
LINE
  5
37B
  8
VIDITELNE
  6
SLD-PLNÁ
 62
     2
 10
-272.65
 20
-12.3772233983
 30
0.0
 11
-274.587007874
 21
-12.8752198802
 31
0.0
  0
LINE
  5
37C
  8
VIDITELNE
  6
SLD-PLNÁ
 62
     2
 10
-518.65
 20
-12.3772233983
 30
0.0
 11
-516.712992126
 21
-12.8752198802
 31
0.0
  0
CIRCLE
  5
37D
  8
VIDITELNE
  6
SLD-PLNÁ
 62
     2
 10
-395.65
 20
-44.0
 30
0.0
 40
125.0
  0
ARC
  5
37E
  8
VIDITELNE
  6
SLD-PLNÁ
 62
     2
 10
-395.65
 20
-44.0
 30
0.0
 40
127.0
 50
14.4182411734
 51
70.8882678628
  0
ARC
  5
37F
  8
VIDITELNE
  6
SLD-PLNÁ
 62
     2
 10
-395.65
 20
-44.0
 30
0.0
 40
127.0
 50
109.1117321372
 51
165.5817588266
  0
ARC
  5
380
  8
VIDITELNE
  6
SLD-PLNÁ
 62
     2
 10
-291.9456673764
 20
43.8011552617
 30
0.0
 40
228.9795188063939
 50
171.9163399437
 51
177.1907128868
  0
POLYLINE
  5
381
  8
VIDITELNE
  6
SLD-PLNÁ
 62
     2
 66
     1
 10
0.0
 20
0.0
 30
0.0
  0
VERTEX
  5
7F1
  8
VIDITELNE
  6
SLD-PLNÁ
 62
     2
 10
-522.65
 20
55.7598292458
 30
0.0
  0
VERTEX
  5
7F2
  8
VIDITELNE
  6
SLD-PLNÁ
 62
     2
 10
-522.259819356
 20
55.7456870929
 30
0.0
  0
VERTEX
  5
7F3
  8
VIDITELNE
  6
SLD-PLNÁ
 62
     2
 10
-521.8846331353
 20
55.7038041091
 30
0.0
  0
VERTEX
  5
7F4
  8
VIDITELNE
  6
SLD-PLNÁ
 62
     2
 10
-521.538859534
 20
55.635789834
 30
0.0
  0
VERTEX
  5
7F5
  8
VIDITELNE
  6
SLD-PLNÁ
 62
     2
 10
-521.2357864376
 20
55.5442580181
 30
0.0
  0
VERTEX
  5
7F6
  8
VIDITELNE
  6
SLD-PLNÁ
 62
     2
 10
-520.9870607754
 20
55.4327261778
 30
0.0
  0
VERTEX
  5
7F7
  8
VIDITELNE
  6
SLD-PLNÁ
 62
     2
 10
-520.802240935
 20
55.305480419
 30
0.0
  0
VERTEX
  5
7F8
  8
VIDITELNE
  6
SLD-PLNÁ
 62
     2
 10
-520.6884294392
 20
55.167410725
 30
0.0
  0
VERTEX
  5
7F9
  8
VIDITELNE
  6
SLD-PLNÁ
 62
     2
 10
-520.65
 20
55.0238230366
 30
0.0
  0
SEQEND
  5
7FA
  8
VIDITELNE
  6
SLD-PLNÁ
 62
     2
  0
POLYLINE
  5
382
  8
VIDITELNE
  6
SLD-PLNÁ
 62
     2
 66
     1
 10
0.0
 20
0.0
 30
0.0
  0
VERTEX
  5
7FB
  8
VIDITELNE
  6
SLD-PLNÁ
 62
     2
 10
-522.65
 20
55.7598292458
 30
0.0
  0
VERTEX
  5
7FC
  8
VIDITELNE
  6
SLD-PLNÁ
 62
     2
 10
-522.418392374
 20
59.3985246006
 30
0.0
  0
VERTEX
  5
7FD
  8
VIDITELNE
  6
SLD-PLNÁ
 62
     2
 10
-521.8353411665
 20
63.1377630279
 30
0.0
  0
VERTEX
  5
7FE
  8
VIDITELNE
  6
SLD-PLNÁ
 62
     2
 10
-520.8636334368
 20
67.6021414993
 30
0.0
  0
VERTEX
  5
7FF
  8
VIDITELNE
  6
SLD-PLNÁ
 62
     2
 10
-519.7061374786
 20
72.1208847243
 30
0.0
  0
VERTEX
  5
800
  8
VIDITELNE
  6
SLD-PLNÁ
 62
     2
 10
-518.6624176874
 20
75.9547689701
 30
0.0
  0
VERTEX
  5
801
  8
VIDITELNE
  6
SLD-PLNÁ
 62
     2
 10
-518.65
 20
76.0
 30
0.0
  0
SEQEND
  5
802
  8
VIDITELNE
  6
SLD-PLNÁ
 62
     2
  0
LINE
  5
383
  8
VIDITELNE
  6
SLD-PLNÁ
 62
     2
 10
-272.65
 20
76.0
 30
0.0
 11
-354.0687542274
 21
76.0
 31
0.0
  0
LINE
  5
384
  8
VIDITELNE
  6
SLD-PLNÁ
 62
     2
 10
-272.65
 20
-12.3772233983
 30
0.0
 11
-272.65
 21
76.0
 31
0.0
  0
LINE
  5
385
  8
VIDITELNE
  6
SLD-PLNÁ
 62
     2
 10
-265.65
 20
23.5030962821
 30
0.0
 11
-265.65
 21
131.0
 31
0.0
  0
LINE
  5
386
  8
VIDITELNE
  6
SLD-PLNÁ
 62
     2
 10
-268.65
 20
23.5030962821
 30
0.0
 11
-265.65
 21
23.5030962821
 31
0.0
  0
LINE
  5
387
  8
VIDITELNE
  6
SLD-PLNÁ
 62
     2
 10
-268.65
 20
55.7598292458
 30
0.0
 11
-268.65
 21
23.5030962821
 31
0.0
  0
POLYLINE
  5
388
  8
VIDITELNE
  6
SLD-PLNÁ
 62
     2
 66
     1
 10
0.0
 20
0.0
 30
0.0
  0
VERTEX
  5
803
  8
VIDITELNE
  6
SLD-PLNÁ
 62
     2
 10
-272.65
 20
76.0
 30
0.0
  0
VERTEX
  5
804
  8
VIDITELNE
  6
SLD-PLNÁ
 62
     2
 10
-272.6375823126
 20
75.9547689701
 30
0.0
  0
VERTEX
  5
805
  8
VIDITELNE
  6
SLD-PLNÁ
 62
     2
 10
-271.5938625214
 20
72.1208847243
 30
0.0
  0
VERTEX
  5
806
  8
VIDITELNE
  6
SLD-PLNÁ
 62
     2
 10
-270.4450859643
 20
67.6383007558
 30
0.0
  0
VERTEX
  5
807
  8
VIDITELNE
  6
SLD-PLNÁ
 62
     2
 10
-269.4646588335
 20
63.1377630279
 30
0.0
  0
VERTEX
  5
808
  8
VIDITELNE
  6
SLD-PLNÁ
 62
     2
 10
-268.8872713326
 20
59.4467739134
 30
0.0
  0
VERTEX
  5
809
  8
VIDITELNE
  6
SLD-PLNÁ
 62
     2
 10
-268.65
 20
55.7598292458
 30
0.0
  0
SEQEND
  5
80A
  8
VIDITELNE
  6
SLD-PLNÁ
 62
     2
  0
LINE
  5
389
  8
VIDITELNE
  6
SLD-PLNÁ
 62
     2
 10
-518.65
 20
76.0
 30
0.0
 11
-437.2312457726
 21
76.0
 31
0.0
  0
LINE
  5
38A
  8
VIDITELNE
  6
SLD-PLNÁ
 62
     2
 10
-525.65
 20
76.0
 30
0.0
 11
-525.65
 21
131.0
 31
0.0
  0
LINE
  5
38B
  8
VIDITELNE
  6
SLD-PLNÁ
 62
     2
 10
-525.65
 20
21.0
 30
0.0
 11
-525.65
 21
76.0
 31
0.0
  0
ARC
  5
38C
  8
VIDITELNE
  6
SLD-PLNÁ
 62
     2
 10
-486.2046945436
 20
187.3254351159
 30
0.0
 40
58.43365669507169
 50
273.4876274061
 51
285.414954933
  0
ARC
  5
38D
  8
VIDITELNE
  6
SLD-PLNÁ
 62
     2
 10
-485.0566240479
 20
187.5602557126
 30
0.0
 40
58.67040054289295
 50
254.5867379966
 51
266.4886175874
  0
LINE
  5
38E
  8
VIDITELNE
  6
SLD-PLNÁ
 62
     2
 10
-488.65
 20
129.0
 30
0.0
 11
-482.65
 21
129.0
 31
0.0
  0
ARC
  5
38F
  8
VIDITELNE
  6
SLD-PLNÁ
 62
     2
 10
-396.2046945436
 20
187.3254351159
 30
0.0
 40
58.43365669506057
 50
273.4876274061
 51
285.414954933
  0
ARC
  5
390
  8
VIDITELNE
  6
SLD-PLNÁ
 62
     2
 10
-395.0566240479
 20
187.5602557126
 30
0.0
 40
58.67040054288537
 50
254.5867379966
 51
266.4886175874
  0
LINE
  5
391
  8
VIDITELNE
  6
SLD-PLNÁ
 62
     2
 10
-398.65
 20
129.0
 30
0.0
 11
-392.65
 21
129.0
 31
0.0
  0
LINE
  5
392
  8
VIDITELNE
  6
SLD-PLNÁ
 62
     2
 10
-518.65
 20
76.0
 30
0.0
 11
-518.65
 21
-12.3772233983
 31
0.0
  0
LINE
  5
393
  8
VIDITELNE
  6
SLD-PLNÁ
 62
     2
 10
-520.65
 20
-44.0
 30
0.0
 11
-520.65
 21
55.0238230366
 31
0.0
  0
ARC
  5
394
  8
VIDITELNE
  6
SLD-PLNÁ
 62
     2
 10
-499.3543326206
 20
43.801155262
 30
0.0
 40
228.9795188033088
 50
2.8092871131
 51
8.0836600564
  0
LINE
  5
395
  8
VIDITELNE
  6
SLD-PLNÁ
 62
     2
 10
-270.65
 20
55.0238230366
 30
0.0
 11
-270.65
 21
-44.0
 31
0.0
  0
POLYLINE
  5
396
  8
VIDITELNE
  6
SLD-PLNÁ
 62
     2
 66
     1
 10
0.0
 20
0.0
 30
0.0
  0
VERTEX
  5
80B
  8
VIDITELNE
  6
SLD-PLNÁ
 62
     2
 10
-268.65
 20
55.7598292458
 30
0.0
  0
VERTEX
  5
80C
  8
VIDITELNE
  6
SLD-PLNÁ
 62
     2
 10
-269.040180644
 20
55.7456870929
 30
0.0
  0
VERTEX
  5
80D
  8
VIDITELNE
  6
SLD-PLNÁ
 62
     2
 10
-269.4153668647
 20
55.7038041091
 30
0.0
  0
VERTEX
  5
80E
  8
VIDITELNE
  6
SLD-PLNÁ
 62
     2
 10
-269.761140466
 20
55.635789834
 30
0.0
  0
VERTEX
  5
80F
  8
VIDITELNE
  6
SLD-PLNÁ
 62
     2
 10
-270.0642135624
 20
55.5442580181
 30
0.0
  0
VERTEX
  5
810
  8
VIDITELNE
  6
SLD-PLNÁ
 62
     2
 10
-270.3129392246
 20
55.4327261778
 30
0.0
  0
VERTEX
  5
811
  8
VIDITELNE
  6
SLD-PLNÁ
 62
     2
 10
-270.497759065
 20
55.305480419
 30
0.0
  0
VERTEX
  5
812
  8
VIDITELNE
  6
SLD-PLNÁ
 62
     2
 10
-270.6115705608
 20
55.167410725
 30
0.0
  0
VERTEX
  5
813
  8
VIDITELNE
  6
SLD-PLNÁ
 62
     2
 10
-270.65
 20
55.0238230366
 30
0.0
  0
SEQEND
  5
814
  8
VIDITELNE
  6
SLD-PLNÁ
 62
     2
  0
ARC
  5
397
  8
VIDITELNE
  6
SLD-PLNÁ
 62
     2
 10
-268.6944752231
 20
21.5475221261
 30
0.0
 40
1.956079836075963
 50
88.6971583966
 51
178.635026332
  0
LINE
  5
398
  8
VIDITELNE
  6
SLD-PLNÁ
 62
     2
 10
-268.65
 20
22.457761922
 30
0.0
 11
-268.65
 21
23.5030962821
 31
0.0
  0
POLYLINE
  5
399
  8
VIDITELNE
  6
SLD-PLNÁ
 62
     2
 66
     1
 10
0.0
 20
0.0
 30
0.0
  0
VERTEX
  5
815
  8
VIDITELNE
  6
SLD-PLNÁ
 62
     2
 10
-269.0811358957
 20
21.5941179651
 30
0.0
  0
VERTEX
  5
816
  8
VIDITELNE
  6
SLD-PLNÁ
 62
     2
 10
-268.9448449443
 20
21.9692596582
 30
0.0
  0
VERTEX
  5
817
  8
VIDITELNE
  6
SLD-PLNÁ
 62
     2
 10
-268.65
 20
22.457761922
 30
0.0
  0
SEQEND
  5
818
  8
VIDITELNE
  6
SLD-PLNÁ
 62
     2
  0
LINE
  5
39A
  8
VIDITELNE
  6
SLD-PLNÁ
 62
     2
 10
-269.0811358957
 20
21.5941179651
 30
0.0
 11
-270.65
 21
21.5941179651
 31
0.0
  0
POLYLINE
  5
39B
  8
VIDITELNE
  6
SLD-PLNÁ
 62
     2
 66
     1
 10
0.0
 20
0.0
 30
0.0
  0
VERTEX
  5
819
  8
VIDITELNE
  6
SLD-PLNÁ
 62
     2
 10
-269.15
 20
20.5321585622
 30
0.0
  0
VERTEX
  5
81A
  8
VIDITELNE
  6
SLD-PLNÁ
 62
     2
 10
-269.1403303291
 20
20.9347731939
 30
0.0
  0
VERTEX
  5
81B
  8
VIDITELNE
  6
SLD-PLNÁ
 62
     2
 10
-269.0811358957
 20
21.5941179651
 30
0.0
  0
SEQEND
  5
81C
  8
VIDITELNE
  6
SLD-PLNÁ
 62
     2
  0
LINE
  5
39C
  8
VIDITELNE
  6
SLD-PLNÁ
 62
     2
 10
-269.15
 20
-4.0
 30
0.0
 11
-269.15
 21
20.5321585622
 31
0.0
  0
LINE
  5
39D
  8
VIDITELNE
  6
SLD-PLNÁ
 62
     2
 10
-270.65
 20
-4.0
 30
0.0
 11
-269.15
 21
-4.0
 31
0.0
  0
ARC
  5
39E
  8
VIDITELNE
  6
SLD-PLNÁ
 62
     2
 10
-264.6181425786
 20
15.7142637922
 30
0.0
 40
7.856884961140506
 50
97.5465482487
 51
120.8747017252
  0
ARC
  5
39F
  8
VIDITELNE
  6
SLD-PLNÁ
 62
     2
 10
-263.2818373619
 20
19.5758939357
 30
0.0
 40
4.585969096043383
 50
121.0906149335
 51
147.5091983728
  0
ARC
  5
3A0
  8
VIDITELNE
  6
SLD-PLNÁ
 62
     2
 10
-267.4214275267
 20
23.9640574421
 30
0.0
 40
1.943789215959049
 50
230.798450723
 51
278.0269198997
  0
POLYLINE
  5
3A1
  8
VIDITELNE
  6
SLD-PLNÁ
 62
     2
 66
     1
 10
0.0
 20
0.0
 30
0.0
  0
VERTEX
  5
81D
  8
VIDITELNE
  6
SLD-PLNÁ
 62
     2
 10
-267.5811358957
 20
21.0882603209
 30
0.0
  0
VERTEX
  5
81E
  8
VIDITELNE
  6
SLD-PLNÁ
 62
     2
 10
-267.6403303291
 20
20.7436926326
 30
0.0
  0
VERTEX
  5
81F
  8
VIDITELNE
  6
SLD-PLNÁ
 62
     2
 10
-267.65
 20
20.5321585622
 30
0.0
  0
SEQEND
  5
820
  8
VIDITELNE
  6
SLD-PLNÁ
 62
     2
  0
POLYLINE
  5
3A2
  8
VIDITELNE
  6
SLD-PLNÁ
 62
     2
 66
     1
 10
0.0
 20
0.0
 30
0.0
  0
VERTEX
  5
821
  8
VIDITELNE
  6
SLD-PLNÁ
 62
     2
 10
-267.15
 20
22.0393123645
 30
0.0
  0
VERTEX
  5
822
  8
VIDITELNE
  6
SLD-PLNÁ
 62
     2
 10
-267.4448449443
 20
21.4872917322
 30
0.0
  0
VERTEX
  5
823
  8
VIDITELNE
  6
SLD-PLNÁ
 62
     2
 10
-267.5811358957
 20
21.0882603209
 30
0.0
  0
SEQEND
  5
824
  8
VIDITELNE
  6
SLD-PLNÁ
 62
     2
  0
LINE
  5
3A3
  8
VIDITELNE
  6
SLD-PLNÁ
 62
     2
 10
-265.65
 20
21.0
 30
0.0
 11
-265.65
 21
23.5030962821
 31
0.0
  0
ARC
  5
3A4
  8
VIDITELNE
  6
SLD-PLNÁ
 62
     2
 10
-270.7537036547
 20
14.1576431775
 30
0.0
 40
7.622246399496977
 50
65.4035301721
 51
77.3243031631
  0
LINE
  5
3A5
  8
VIDITELNE
  6
SLD-PLNÁ
 62
     2
 10
-269.15
 20
20.5321585622
 30
0.0
 11
-267.65
 21
20.5321585622
 31
0.0
  0
LINE
  5
3A6
  8
VIDITELNE
  6
SLD-PLNÁ
 62
     2
 10
-267.65
 20
20.5321585622
 30
0.0
 11
-267.65
 21
-4.0
 31
0.0
  0
LINE
  5
3A7
  8
VIDITELNE
  6
SLD-PLNÁ
 62
     2
 10
-269.15
 20
-4.0
 30
0.0
 11
-267.65
 21
-4.0
 31
0.0
  0
LINE
  5
3A8
  8
VIDITELNE
  6
SLD-PLNÁ
 62
     2
 10
-267.65
 20
-4.0
 30
0.0
 11
-267.65
 21
-17.1270166538
 31
0.0
  0
LINE
  5
3A9
  8
VIDITELNE
  6
SLD-PLNÁ
 62
     2
 10
-410.65
 20
-172.0
 30
0.0
 11
-380.65
 21
-172.0
 31
0.0
  0
LINE
  5
3AA
  8
VIDITELNE
  6
SLD-PLNÁ
 62
     2
 10
-263.65
 20
5.5
 30
0.0
 11
-263.65
 21
-13.4999991648
 31
0.0
  0
LINE
  5
3AB
  8
VIDITELNE
  6
SLD-PLNÁ
 62
     2
 10
-386.15
 20
-176.0
 30
0.0
 11
-405.1499991648
 21
-176.0
 31
0.0
  0
LINE
  5
3AC
  8
VIDITELNE
  6
SLD-PLNÁ
 62
     2
 10
-495.15
 20
133.0
 30
0.0
 11
-476.1500008352
 21
133.0
 31
0.0
  0
CIRCLE
  5
3AD
  8
VIDITELNE
  6
SLD-PLNÁ
 62
     2
 10
-395.65
 20
-44.0
 30
0.0
 40
42.5
  0
CIRCLE
  5
3AE
  8
VIDITELNE
  6
SLD-PLNÁ
 62
     2
 10
-395.65
 20
-44.0
 30
0.0
 40
65.0
  0
ARC
  5
3AF
  8
VIDITELNE
  6
SLD-PLNÁ
 62
     2
 10
-395.65
 20
-44.0
 30
0.0
 40
95.00000000000003
 50
69.9131672646
 51
110.0868327354
  0
ARC
  5
3B0
  8
VIDITELNE
  6
SLD-PLNÁ
 62
     2
 10
-395.65
 20
-44.0
 30
0.0
 40
95.00000000000001
 50
65.0868327354
 51
69.9131672646
  0
ARC
  5
3B1
  8
VIDITELNE
  6
SLD-PLNÁ
 62
     2
 10
-395.65
 20
-44.0
 30
0.0
 40
95.00000000000001
 50
24.9131672646
 51
65.0868327354
  0
ARC
  5
3B2
  8
VIDITELNE
  6
SLD-PLNÁ
 62
     2
 10
-395.65
 20
-44.0
 30
0.0
 40
94.99999999999994
 50
20.0868327354
 51
24.9131672646
  0
ARC
  5
3B3
  8
VIDITELNE
  6
SLD-PLNÁ
 62
     2
 10
-395.65
 20
-44.0
 30
0.0
 40
95.00000000000007
 50
339.9131672646
 51
20.0868327354
  0
ARC
  5
3B4
  8
VIDITELNE
  6
SLD-PLNÁ
 62
     2
 10
-395.65
 20
-44.0
 30
0.0
 40
95.00000000000013
 50
335.0868327354
 51
339.9131672646
  0
ARC
  5
3B5
  8
VIDITELNE
  6
SLD-PLNÁ
 62
     2
 10
-395.65
 20
-44.0
 30
0.0
 40
95.00000000000013
 50
294.9131672646
 51
335.0868327354
  0
ARC
  5
3B6
  8
VIDITELNE
  6
SLD-PLNÁ
 62
     2
 10
-395.65
 20
-44.0
 30
0.0
 40
94.99999999999999
 50
290.0868327354
 51
294.9131672646
  0
ARC
  5
3B7
  8
VIDITELNE
  6
SLD-PLNÁ
 62
     2
 10
-395.65
 20
-44.0
 30
0.0
 40
95.00000000000009
 50
249.9131672646
 51
290.0868327354
  0
ARC
  5
3B8
  8
VIDITELNE
  6
SLD-PLNÁ
 62
     2
 10
-395.65
 20
-44.0
 30
0.0
 40
95.00000000000009
 50
245.0868327354
 51
249.9131672646
  0
ARC
  5
3B9
  8
VIDITELNE
  6
SLD-PLNÁ
 62
     2
 10
-395.65
 20
-44.0
 30
0.0
 40
95.00000000000004
 50
204.9131672646
 51
245.0868327354
  0
ARC
  5
3BA
  8
VIDITELNE
  6
SLD-PLNÁ
 62
     2
 10
-395.65
 20
-44.0
 30
0.0
 40
95.00000000000006
 50
200.0868327354
 51
204.9131672646
  0
ARC
  5
3BB
  8
VIDITELNE
  6
SLD-PLNÁ
 62
     2
 10
-395.65
 20
-44.0
 30
0.0
 40
95.00000000000006
 50
159.9131672646
 51
200.0868327354
  0
ARC
  5
3BC
  8
VIDITELNE
  6
SLD-PLNÁ
 62
     2
 10
-395.65
 20
-44.0
 30
0.0
 40
94.99999999999999
 50
155.0868327354
 51
159.9131672646
  0
ARC
  5
3BD
  8
VIDITELNE
  6
SLD-PLNÁ
 62
     2
 10
-395.65
 20
-44.0
 30
0.0
 40
95.00000000000004
 50
114.9131672646
 51
155.0868327354
  0
ARC
  5
3BE
  8
VIDITELNE
  6
SLD-PLNÁ
 62
     2
 10
-395.65
 20
-44.0
 30
0.0
 40
95.00000000000004
 50
110.0868327354
 51
114.9131672646
  0
CIRCLE
  5
3BF
  8
VIDITELNE
  6
SLD-PLNÁ
 62
     2
 10
-337.3136905521
 20
14.3363094479
 30
0.0
 40
6.000000000000057
  0
CIRCLE
  5
3C0
  8
VIDITELNE
  6
SLD-PLNÁ
 62
     2
 10
-337.3136905521
 20
-102.3363094479
 30
0.0
 40
6.000000000000057
  0
CIRCLE
  5
3C1
  8
VIDITELNE
  6
SLD-PLNÁ
 62
     2
 10
-453.9863094479
 20
-102.3363094479
 30
0.0
 40
6.0
  0
CIRCLE
  5
3C2
  8
VIDITELNE
  6
SLD-PLNÁ
 62
     2
 10
-453.9863094479
 20
14.3363094479
 30
0.0
 40
6.0
  0
CIRCLE
  5
3C3
  8
VIDITELNE
  6
SLD-PLNÁ
 62
     2
 10
-337.3136905521
 20
14.3363094479
 30
0.0
 40
5.250000000000057
  0
LINE
  5
3C4
  8
VIDITELNE
  6
SLD-PLNÁ
 62
     2
 10
-438.6167598754
 20
-158.1834381415
 30
0.0
 11
-428.2771676757
 21
-133.2214544236
 31
0.0
  0
ARC
  5
3C5
  8
VIDITELNE
  6
SLD-PLNÁ
 62
     2
 10
-395.65
 20
-44.0
 30
0.0
 40
122.0
 50
245.6211131219
 51
249.3788868781
  0
LINE
  5
3C6
  8
VIDITELNE
  6
SLD-PLNÁ
 62
     2
 10
-435.6682039358
 20
-130.1599869647
 30
0.0
 11
-446.0077961355
 21
-155.1219706826
 31
0.0
  0
ARC
  5
3C7
  8
VIDITELNE
  6
SLD-PLNÁ
 62
     2
 10
-395.65
 20
-44.0
 30
0.0
 40
101.6395280956808
 50
204.7554445434
 51
245.2445554566
  0
LINE
  5
3C8
  8
VIDITELNE
  6
SLD-PLNÁ
 62
     2
 10
-363.0228323243
 20
-133.2214544236
 30
0.0
 11
-352.6832401246
 21
-158.1834381415
 31
0.0
  0
ARC
  5
3C9
  8
VIDITELNE
  6
SLD-PLNÁ
 62
     2
 10
-395.65
 20
-44.0
 30
0.0
 40
122.0000000000001
 50
290.6211131219
 51
294.3788868781
  0
LINE
  5
3CA
  8
VIDITELNE
  6
SLD-PLNÁ
 62
     2
 10
-345.2922038645
 20
-155.1219706826
 30
0.0
 11
-355.6317960642
 21
-130.1599869647
 31
0.0
  0
ARC
  5
3CB
  8
VIDITELNE
  6
SLD-PLNÁ
 62
     2
 10
-395.65
 20
-44.0
 30
0.0
 40
101.6395280956808
 50
294.7554445434
 51
335.2445554566
  0
CIRCLE
  5
3CC
  8
VIDITELNE
  6
SLD-PLNÁ
 62
     2
 10
-337.3136905521
 20
-102.3363094479
 30
0.0
 40
5.25
  0
ARC
  5
3CD
  8
VIDITELNE
  6
SLD-PLNÁ
 62
     2
 10
-395.65
 20
-44.0
 30
0.0
 40
101.6395280956808
 50
249.7554445434
 51
290.2445554566
  0
LINE
  5
3CE
  8
VIDITELNE
  6
SLD-PLNÁ
 62
     2
 10
-281.4665618585
 20
-86.9667598754
 30
0.0
 11
-306.4285455764
 21
-76.6271676757
 31
0.0
  0
ARC
  5
3CF
  8
VIDITELNE
  6
SLD-PLNÁ
 62
     2
 10
-395.65
 20
-44.0
 30
0.0
 40
122.0000000000001
 50
335.6211131219
 51
339.3788868781
  0
LINE
  5
3D0
  8
VIDITELNE
  6
SLD-PLNÁ
 62
     2
 10
-309.4900130353
 20
-84.0182039358
 30
0.0
 11
-284.5280293174
 21
-94.3577961355
 31
0.0
  0
ARC
  5
3D1
  8
VIDITELNE
  6
SLD-PLNÁ
 62
     2
 10
-395.65
 20
-44.0
 30
0.0
 40
101.6395280956808
 50
339.7554445434
 51
20.2445554566
  0
ARC
  5
3D2
  8
VIDITELNE
  6
SLD-PLNÁ
 62
     2
 10
-395.65
 20
-44.0
 30
0.0
 40
101.6395280956806
 50
159.7554445434
 51
200.2445554566
  0
ARC
  5
3D3
  8
VIDITELNE
  6
SLD-PLNÁ
 62
     2
 10
-395.65
 20
-44.0
 30
0.0
 40
122.0
 50
200.6211131219
 51
204.3788868781
  0
LINE
  5
3D4
  8
VIDITELNE
  6
SLD-PLNÁ
 62
     2
 10
-484.8714544236
 20
-76.6271676757
 30
0.0
 11
-509.8334381415
 21
-86.9667598754
 31
0.0
  0
LINE
  5
3D5
  8
VIDITELNE
  6
SLD-PLNÁ
 62
     2
 10
-506.7719706826
 20
-94.3577961355
 30
0.0
 11
-481.8099869647
 21
-84.0182039358
 31
0.0
  0
CIRCLE
  5
3D6
  8
VIDITELNE
  6
SLD-PLNÁ
 62
     2
 10
-453.9863094479
 20
14.3363094479
 30
0.0
 40
5.250000000000057
  0
ARC
  5
3D7
  8
VIDITELNE
  6
SLD-PLNÁ
 62
     2
 10
-395.65
 20
-44.0
 30
0.0
 40
101.6395280956806
 50
114.7554445434
 51
155.2445554566
  0
ARC
  5
3D8
  8
VIDITELNE
  6
SLD-PLNÁ
 62
     2
 10
-395.65
 20
-44.0
 30
0.0
 40
101.6395280956806
 50
24.7554445434
 51
65.2445554566
  0
LINE
  5
3D9
  8
VIDITELNE
  6
SLD-PLNÁ
 62
     2
 10
-446.0077961355
 20
67.1219706826
 30
0.0
 11
-435.6682039358
 21
42.1599869647
 31
0.0
  0
ARC
  5
3DA
  8
VIDITELNE
  6
SLD-PLNÁ
 62
     2
 10
-395.65
 20
-44.0
 30
0.0
 40
121.9999999999999
 50
110.6211131219
 51
114.3788868781
  0
LINE
  5
3DB
  8
VIDITELNE
  6
SLD-PLNÁ
 62
     2
 10
-428.2771676757
 20
45.2214544236
 30
0.0
 11
-438.6167598754
 21
70.1834381415
 31
0.0
  0
LINE
  5
3DC
  8
VIDITELNE
  6
SLD-PLNÁ
 62
     2
 10
-355.6317960642
 20
42.1599869647
 30
0.0
 11
-345.2922038645
 21
67.1219706826
 31
0.0
  0
LINE
  5
3DD
  8
VIDITELNE
  6
SLD-PLNÁ
 62
     2
 10
-352.6832401246
 20
70.1834381415
 30
0.0
 11
-363.0228323243
 21
45.2214544236
 31
0.0
  0
ARC
  5
3DE
  8
VIDITELNE
  6
SLD-PLNÁ
 62
     2
 10
-395.65
 20
-44.0
 30
0.0
 40
122.0
 50
65.6211131219
 51
69.3788868781
  0
ARC
  5
3DF
  8
VIDITELNE
  6
SLD-PLNÁ
 62
     2
 10
-395.65
 20
-44.0
 30
0.0
 40
101.6395280956806
 50
69.7554445434
 51
110.2445554566
  0
ARC
  5
3E0
  8
VIDITELNE
  6
SLD-PLNÁ
 62
     2
 10
-395.65
 20
-44.0
 30
0.0
 40
121.9999999999996
 50
20.6211131219
 51
24.3788868781
  0
LINE
  5
3E1
  8
VIDITELNE
  6
SLD-PLNÁ
 62
     2
 10
-284.5280293174
 20
6.3577961355
 30
0.0
 11
-309.4900130353
 21
-3.9817960642
 31
0.0
  0
LINE
  5
3E2
  8
VIDITELNE
  6
SLD-PLNÁ
 62
     2
 10
-306.4285455764
 20
-11.3728323243
 30
0.0
 11
-281.4665618585
 21
-1.0332401246
 31
0.0
  0
ARC
  5
3E3
  8
VIDITELNE
  6
SLD-PLNÁ
 62
     2
 10
-395.65
 20
-44.0
 30
0.0
 40
122.0000000000004
 50
155.6211131219
 51
159.3788868781
  0
LINE
  5
3E4
  8
VIDITELNE
  6
SLD-PLNÁ
 62
     2
 10
-509.8334381415
 20
-1.0332401246
 30
0.0
 11
-484.8714544236
 21
-11.3728323243
 31
0.0
  0
LINE
  5
3E5
  8
VIDITELNE
  6
SLD-PLNÁ
 62
     2
 10
-481.8099869647
 20
-3.9817960642
 30
0.0
 11
-506.7719706826
 21
6.3577961355
 31
0.0
  0
CIRCLE
  5
3E6
  8
VIDITELNE
  6
SLD-PLNÁ
 62
     2
 10
-453.9863094479
 20
-102.3363094479
 30
0.0
 40
5.25
  0
CIRCLE
  5
3E7
  8
VIDITELNE
  6
SLD-PLNÁ
 62
     2
 10
-395.65
 20
-159.0
 30
0.0
 40
7.000000000000455
  0
CIRCLE
  5
3E8
  8
VIDITELNE
  6
SLD-PLNÁ
 62
     2
 10
-395.65
 20
-159.0
 30
0.0
 40
8.000000000000455
  0
CIRCLE
  5
3E9
  8
VIDITELNE
  6
SLD-PLNÁ
 62
     2
 10
-510.65
 20
-44.0
 30
0.0
 40
7.000000000003183
  0
CIRCLE
  5
3EA
  8
VIDITELNE
  6
SLD-PLNÁ
 62
     2
 10
-510.65
 20
-44.0
 30
0.0
 40
8.000000000003183
  0
CIRCLE
  5
3EB
  8
VIDITELNE
  6
SLD-PLNÁ
 62
     2
 10
-476.9672798365
 20
37.3172798365
 30
0.0
 40
7.000000000001364
  0
CIRCLE
  5
3EC
  8
VIDITELNE
  6
SLD-PLNÁ
 62
     2
 10
-476.9672798365
 20
37.3172798365
 30
0.0
 40
8.000000000001364
  0
CIRCLE
  5
3ED
  8
VIDITELNE
  6
SLD-PLNÁ
 62
     2
 10
-476.9672798365
 20
-125.3172798365
 30
0.0
 40
7.000000000000796
  0
CIRCLE
  5
3EE
  8
VIDITELNE
  6
SLD-PLNÁ
 62
     2
 10
-476.9672798365
 20
-125.3172798365
 30
0.0
 40
8.000000000000796
  0
CIRCLE
  5
3EF
  8
VIDITELNE
  6
SLD-PLNÁ
 62
     2
 10
-314.3327201635
 20
-125.3172798365
 30
0.0
 40
7.000000000000171
  0
CIRCLE
  5
3F0
  8
VIDITELNE
  6
SLD-PLNÁ
 62
     2
 10
-314.3327201635
 20
-125.3172798365
 30
0.0
 40
8.00000000000017
  0
CIRCLE
  5
3F1
  8
VIDITELNE
  6
SLD-PLNÁ
 62
     2
 10
-280.65
 20
-44.0
 30
0.0
 40
7.0
  0
CIRCLE
  5
3F2
  8
VIDITELNE
  6
SLD-PLNÁ
 62
     2
 10
-280.65
 20
-44.0
 30
0.0
 40
8.0
  0
CIRCLE
  5
3F3
  8
VIDITELNE
  6
SLD-PLNÁ
 62
     2
 10
-395.65
 20
71.0
 30
0.0
 40
7.0
  0
CIRCLE
  5
3F4
  8
VIDITELNE
  6
SLD-PLNÁ
 62
     2
 10
-395.65
 20
71.0
 30
0.0
 40
8.0
  0
CIRCLE
  5
3F5
  8
VIDITELNE
  6
SLD-PLNÁ
 62
     2
 10
-314.3327201635
 20
37.3172798365
 30
0.0
 40
7.0
  0
CIRCLE
  5
3F6
  8
VIDITELNE
  6
SLD-PLNÁ
 62
     2
 10
-314.3327201635
 20
37.3172798365
 30
0.0
 40
8.0
  0
CIRCLE
  5
3F7
  8
VIDITELNE
  6
SLD-PLNÁ
 62
     2
 10
-395.65
 20
-44.0
 30
0.0
 40
124.6158715355908
  0
LINE
  5
3F8
  8
VIDITELNE
  6
SLD-PLNÁ
 62
     2
 10
-547.65
 20
76.0
 30
0.0
 11
-547.65
 21
176.0
 31
0.0
  0
LINE
  5
3F9
  8
VIDITELNE
  6
SLD-PLNÁ
 62
     2
 10
-547.65
 20
-24.0
 30
0.0
 11
-547.65
 21
76.0
 31
0.0
  0
LINE
  5
3FA
  8
VIDITELNE
  6
SLD-PLNÁ
 62
     2
 10
-535.65
 20
76.0
 30
0.0
 11
-535.65
 21
173.6495732165
 31
0.0
  0
LINE
  5
3FB
  8
VIDITELNE
  6
SLD-PLNÁ
 62
     2
 10
-535.65
 20
-21.6495732165
 30
0.0
 11
-535.65
 21
76.0
 31
0.0
  0
POLYLINE
  5
3FC
  8
VIDITELNE
  6
SLD-PLNÁ
 62
     2
 66
     1
 10
0.0
 20
0.0
 30
0.0
  0
VERTEX
  5
825
  8
VIDITELNE
  6
SLD-PLNÁ
 62
     2
 10
-404.1692554554
 20
136.1914394645
 30
0.0
  0
VERTEX
  5
826
  8
VIDITELNE
  6
SLD-PLNÁ
 62
     2
 10
-404.6487081846
 20
134.6277756026
 30
0.0
  0
VERTEX
  5
827
  8
VIDITELNE
  6
SLD-PLNÁ
 62
     2
 10
-405.3041849041
 20
133.2880196604
 30
0.0
  0
VERTEX
  5
828
  8
VIDITELNE
  6
SLD-PLNÁ
 62
     2
 10
-405.9889337185
 20
132.2245975606
 30
0.0
  0
VERTEX
  5
829
  8
VIDITELNE
  6
SLD-PLNÁ
 62
     2
 10
-406.5419378384
 20
131.4940745027
 30
0.0
  0
VERTEX
  5
82A
  8
VIDITELNE
  6
SLD-PLNÁ
 62
     2
 10
-406.7563948069
 20
131.2318831232
 30
0.0
  0
VERTEX
  5
82B
  8
VIDITELNE
  6
SLD-PLNÁ
 62
     2
 10
-406.752505923
 20
131.2366290093
 30
0.0
  0
SEQEND
  5
82C
  8
VIDITELNE
  6
SLD-PLNÁ
 62
     2
  0
LINE
  5
3FD
  8
VIDITELNE
  6
SLD-PLNÁ
 62
     2
 10
-387.1307445446
 20
136.1914394645
 30
0.0
 11
-404.1692554554
 21
136.1914394645
 31
0.0
  0
ARC
  5
3FE
  8
VIDITELNE
  6
SLD-PLNÁ
 62
     2
 10
-375.6802414125
 20
139.0104856597
 30
0.0
 40
11.79241465639853
 50
193.8308250074
 51
221.2409797489
  0
ARC
  5
3FF
  8
VIDITELNE
  6
SLD-PLNÁ
 62
     2
 10
-401.1692358746
 20
135.6506902044
 30
0.0
 40
3.048364684108485
 50
102.6620759841
 51
169.7822314405
  0
LINE
  5
400
  8
VIDITELNE
  6
SLD-PLNÁ
 62
     2
 10
-389.4625612119
 20
138.6249181906
 30
0.0
 11
-401.8374387881
 21
138.6249181906
 31
0.0
  0
ARC
  5
401
  8
VIDITELNE
  6
SLD-PLNÁ
 62
     2
 10
-390.0964800131
 20
135.6835420488
 30
0.0
 40
3.008911207379342
 50
9.7179245609
 51
77.8377680145
  0
ARC
  5
402
  8
VIDITELNE
  6
SLD-PLNÁ
 62
     2
 10
-386.0577489244
 20
61.6633588614
 30
0.0
 40
78.56258795743537
 50
97.0131380634
 51
101.5869624879
  0
ARC
  5
403
  8
VIDITELNE
  6
SLD-PLNÁ
 62
     2
 10
-399.6265383251
 20
95.9562839898
 30
0.0
 40
43.86249850748266
 50
76.6014300383
 51
84.7984694104
  0
LINE
  5
404
  8
VIDITELNE
  6
SLD-PLNÁ
 62
     2
 10
-395.65
 20
139.6381557247
 30
0.0
 11
-395.65
 21
140.0
 31
0.0
  0
LINE
  5
405
  8
VIDITELNE
  6
SLD-PLNÁ
 62
     2
 10
-395.65
 20
164.0000045633
 30
0.0
 11
-395.65
 21
172.0
 31
0.0
  0
LINE
  5
406
  8
VIDITELNE
  6
SLD-PLNÁ
 62
     2
 10
-257.65
 20
102.8779187065
 30
0.0
 11
-257.65
 21
128.2823353313
 31
0.0
  0
LINE
  5
407
  8
VIDITELNE
  6
SLD-PLNÁ
 62
     2
 10
-257.65
 20
50.5955833752
 30
0.0
 11
-257.65
 21
101.4044166248
 31
0.0
  0
LINE
  5
408
  8
VIDITELNE
  6
SLD-PLNÁ
 62
     2
 10
-257.65
 20
23.7176646687
 30
0.0
 11
-257.65
 21
49.1220812935
 31
0.0
  0
LINE
  5
409
  8
VIDITELNE
  6
SLD-PLNÁ
 62
     2
 10
-252.35
 20
49.6132486541
 30
0.0
 11
-257.65
 21
49.6132486541
 31
0.0
  0
LINE
  5
40A
  8
VIDITELNE
  6
SLD-PLNÁ
 62
     2
 10
-252.35
 20
46.7264973081
 30
0.0
 11
-257.65
 21
46.7264973081
 31
0.0
  0
LINE
  5
40B
  8
VIDITELNE
  6
SLD-PLNÁ
 62
     2
 10
-257.65
 20
49.6132486541
 30
0.0
 11
-257.65
 21
49.1220812935
 31
0.0
  0
LINE
  5
40C
  8
VIDITELNE
  6
SLD-PLNÁ
 62
     2
 10
-252.35
 20
49.6132486541
 30
0.0
 11
-252.35
 21
46.7264973081
 31
0.0
  0
LINE
  5
40D
  8
VIDITELNE
  6
SLD-PLNÁ
 62
     2
 10
-252.35
 20
55.3867513459
 30
0.0
 11
-257.65
 21
55.3867513459
 31
0.0
  0
LINE
  5
40E
  8
VIDITELNE
  6
SLD-PLNÁ
 62
     2
 10
-257.65
 20
50.5955833752
 30
0.0
 11
-257.65
 21
49.6132486541
 31
0.0
  0
LINE
  5
40F
  8
VIDITELNE
  6
SLD-PLNÁ
 62
     2
 10
-252.35
 20
55.3867513459
 30
0.0
 11
-252.35
 21
49.6132486541
 31
0.0
  0
LINE
  5
410
  8
VIDITELNE
  6
SLD-PLNÁ
 62
     2
 10
-252.35
 20
58.2735026919
 30
0.0
 11
-257.65
 21
58.2735026919
 31
0.0
  0
LINE
  5
411
  8
VIDITELNE
  6
SLD-PLNÁ
 62
     2
 10
-252.35
 20
58.2735026919
 30
0.0
 11
-252.35
 21
55.3867513459
 31
0.0
  0
LINE
  5
412
  8
VIDITELNE
  6
SLD-PLNÁ
 62
     2
 10
-252.35
 20
96.6132486541
 30
0.0
 11
-257.65
 21
96.6132486541
 31
0.0
  0
LINE
  5
413
  8
VIDITELNE
  6
SLD-PLNÁ
 62
     2
 10
-252.35
 20
96.6132486541
 30
0.0
 11
-252.35
 21
93.7264973081
 31
0.0
  0
LINE
  5
414
  8
VIDITELNE
  6
SLD-PLNÁ
 62
     2
 10
-252.35
 20
93.7264973081
 30
0.0
 11
-257.65
 21
93.7264973081
 31
0.0
  0
LINE
  5
415
  8
VIDITELNE
  6
SLD-PLNÁ
 62
     2
 10
-252.35
 20
102.3867513459
 30
0.0
 11
-257.65
 21
102.3867513459
 31
0.0
  0
LINE
  5
416
  8
VIDITELNE
  6
SLD-PLNÁ
 62
     2
 10
-252.35
 20
102.3867513459
 30
0.0
 11
-252.35
 21
96.6132486541
 31
0.0
  0
LINE
  5
417
  8
VIDITELNE
  6
SLD-PLNÁ
 62
     2
 10
-257.65
 20
102.3867513459
 30
0.0
 11
-257.65
 21
101.4044166248
 31
0.0
  0
LINE
  5
418
  8
VIDITELNE
  6
SLD-PLNÁ
 62
     2
 10
-252.35
 20
105.2735026919
 30
0.0
 11
-257.65
 21
105.2735026919
 31
0.0
  0
LINE
  5
419
  8
VIDITELNE
  6
SLD-PLNÁ
 62
     2
 10
-257.65
 20
102.8779187065
 30
0.0
 11
-257.65
 21
102.3867513459
 31
0.0
  0
LINE
  5
41A
  8
VIDITELNE
  6
SLD-PLNÁ
 62
     2
 10
-252.35
 20
105.2735026919
 30
0.0
 11
-252.35
 21
102.3867513459
 31
0.0
  0
LINE
  5
41B
  8
VIDITELNE
  6
SLD-PLNÁ
 62
     2
 10
-252.35
 20
26.1132486541
 30
0.0
 11
-257.65
 21
26.1132486541
 31
0.0
  0
LINE
  5
41C
  8
VIDITELNE
  6
SLD-PLNÁ
 62
     2
 10
-252.35
 20
26.1132486541
 30
0.0
 11
-252.35
 21
23.2264973081
 31
0.0
  0
LINE
  5
41D
  8
VIDITELNE
  6
SLD-PLNÁ
 62
     2
 10
-252.35
 20
23.2264973081
 30
0.0
 11
-257.65
 21
23.2264973081
 31
0.0
  0
LINE
  5
41E
  8
VIDITELNE
  6
SLD-PLNÁ
 62
     2
 10
-257.65
 20
23.7176646687
 30
0.0
 11
-257.65
 21
23.2264973081
 31
0.0
  0
LINE
  5
41F
  8
VIDITELNE
  6
SLD-PLNÁ
 62
     2
 10
-252.35
 20
34.7735026919
 30
0.0
 11
-257.65
 21
34.7735026919
 31
0.0
  0
LINE
  5
420
  8
VIDITELNE
  6
SLD-PLNÁ
 62
     2
 10
-252.35
 20
34.7735026919
 30
0.0
 11
-252.35
 21
31.8867513459
 31
0.0
  0
LINE
  5
421
  8
VIDITELNE
  6
SLD-PLNÁ
 62
     2
 10
-252.35
 20
31.8867513459
 30
0.0
 11
-257.65
 21
31.8867513459
 31
0.0
  0
LINE
  5
422
  8
VIDITELNE
  6
SLD-PLNÁ
 62
     2
 10
-252.35
 20
31.8867513459
 30
0.0
 11
-252.35
 21
26.1132486541
 31
0.0
  0
LINE
  5
423
  8
VIDITELNE
  6
SLD-PLNÁ
 62
     2
 10
-252.35
 20
120.1132486541
 30
0.0
 11
-257.65
 21
120.1132486541
 31
0.0
  0
LINE
  5
424
  8
VIDITELNE
  6
SLD-PLNÁ
 62
     2
 10
-252.35
 20
117.2264973081
 30
0.0
 11
-257.65
 21
117.2264973081
 31
0.0
  0
LINE
  5
425
  8
VIDITELNE
  6
SLD-PLNÁ
 62
     2
 10
-252.35
 20
120.1132486541
 30
0.0
 11
-252.35
 21
117.2264973081
 31
0.0
  0
LINE
  5
426
  8
VIDITELNE
  6
SLD-PLNÁ
 62
     2
 10
-252.35
 20
125.8867513459
 30
0.0
 11
-257.65
 21
125.8867513459
 31
0.0
  0
LINE
  5
427
  8
VIDITELNE
  6
SLD-PLNÁ
 62
     2
 10
-252.35
 20
125.8867513459
 30
0.0
 11
-252.35
 21
120.1132486541
 31
0.0
  0
LINE
  5
428
  8
VIDITELNE
  6
SLD-PLNÁ
 62
     2
 10
-252.35
 20
128.7735026919
 30
0.0
 11
-257.65
 21
128.7735026919
 31
0.0
  0
LINE
  5
429
  8
VIDITELNE
  6
SLD-PLNÁ
 62
     2
 10
-257.65
 20
128.7735026919
 30
0.0
 11
-257.65
 21
128.2823353313
 31
0.0
  0
LINE
  5
42A
  8
VIDITELNE
  6
SLD-PLNÁ
 62
     2
 10
-252.35
 20
128.7735026919
 30
0.0
 11
-252.35
 21
125.8867513459
 31
0.0
  0
ARC
  5
42B
  8
VIDITELNE
  6
SLD-PLNÁ
 62
     2
 10
-275.171013616
 20
-43.560107057
 30
0.0
 40
245.4676945013987
 50
172.7017349957
 51
179.9749441731
  0
POLYLINE
  5
42C
  8
VIDITELNE
  6
SLD-PLNÁ
 62
     2
 66
     1
 10
0.0
 20
0.0
 30
0.0
  0
VERTEX
  5
82D
  8
VIDITELNE
  6
SLD-PLNÁ
 62
     2
 10
-520.645338525
 20
-43.7330304306
 30
0.0
  0
VERTEX
  5
82E
  8
VIDITELNE
  6
SLD-PLNÁ
 62
     2
 10
-520.649990065
 20
-43.9289579506
 30
0.0
  0
VERTEX
  5
82F
  8
VIDITELNE
  6
SLD-PLNÁ
 62
     2
 10
-520.65
 20
-44.0
 30
0.0
  0
SEQEND
  5
830
  8
VIDITELNE
  6
SLD-PLNÁ
 62
     2
  0
LINE
  5
42D
  8
VIDITELNE
  6
SLD-PLNÁ
 62
     2
 10
-522.65
 20
21.0
 30
0.0
 11
-522.65
 21
55.7598292458
 31
0.0
  0
ARC
  5
42E
  8
VIDITELNE
  6
SLD-PLNÁ
 62
     2
 10
-395.649552513
 20
-71.9339182704
 30
0.0
 40
99.06541000623805
 50
261.2907949855
 51
278.680362701
  0
LINE
  5
42F
  8
VIDITELNE
  6
SLD-PLNÁ
 62
     2
 10
-269.15
 20
-19.0635083269
 30
0.0
 11
-269.15
 21
-4.0
 31
0.0
  0
LINE
  5
430
  8
VIDITELNE
  6
SLD-PLNÁ
 62
     2
 10
-264.65
 20
-14.5
 30
0.0
 11
-264.65
 21
6.5
 31
0.0
  0
LINE
  5
431
  8
VIDITELNE
  6
SLD-PLNÁ
 62
     2
 10
-406.15
 20
-175.0
 30
0.0
 11
-385.15
 21
-175.0
 31
0.0
  0
LINE
  5
432
  8
VIDITELNE
  6
SLD-PLNÁ
 62
     2
 10
-475.15
 20
132.0
 30
0.0
 11
-496.15
 21
132.0
 31
0.0
  0
LINE
  5
433
  8
VIDITELNE
  6
SLD-PLNÁ
 62
     2
 10
-537.5802010066
 20
76.0
 30
0.0
 11
-537.5802010066
 21
175.6483548705
 31
0.0
  0
LINE
  5
434
  8
VIDITELNE
  6
SLD-PLNÁ
 62
     2
 10
-537.5802010066
 20
-23.6483548705
 30
0.0
 11
-537.5802010066
 21
76.0
 31
0.0
  0
LINE
  5
435
  8
VIDITELNE
  6
SLD-PLNÁ
 62
     2
 10
-532.7546984901
 20
76.0
 30
0.0
 11
-532.7546984901
 21
131.2481015383
 31
0.0
  0
LINE
  5
436
  8
VIDITELNE
  6
SLD-PLNÁ
 62
     2
 10
-532.7546984901
 20
20.7518984617
 30
0.0
 11
-532.7546984901
 21
76.0
 31
0.0
  0
LINE
  5
437
  8
VIDITELNE
  6
SLD-PLNÁ
 62
     2
 10
-259.5802010066
 20
76.0
 30
0.0
 11
-259.5802010066
 21
130.2880379485
 31
0.0
  0
LINE
  5
438
  8
VIDITELNE
  6
SLD-PLNÁ
 62
     2
 10
-259.5802010066
 20
21.7119620515
 30
0.0
 11
-259.5802010066
 21
76.0
 31
0.0
  0
LINE
  5
439
  8
VIDITELNE
  6
SLD-PLNÁ
 62
     2
 10
522.65
 20
21.0
 30
0.0
 11
525.65
 21
21.0
 31
0.0
  0
LINE
  5
43A
  8
VIDITELNE
  6
SLD-PLNÁ
 62
     2
 10
380.6725757509
 20
131.0
 30
0.0
 11
265.65
 21
131.0
 31
0.0
  0
LINE
  5
43B
  8
VIDITELNE
  6
SLD-PLNÁ
 62
     2
 10
470.6725757509
 20
131.0
 30
0.0
 11
410.65
 21
131.0
 31
0.0
  0
LINE
  5
43C
  8
VIDITELNE
  6
SLD-PLNÁ
 62
     2
 10
525.65
 20
131.0
 30
0.0
 11
500.65
 21
131.0
 31
0.0
  0
ARC
  5
43D
  8
VIDITELNE
  6
SLD-PLNÁ
 62
     2
 10
522.65
 20
19.0
 30
0.0
 40
2.0
 50
90.0
 51
180.0
  0
POLYLINE
  5
43E
  8
VIDITELNE
  6
SLD-PLNÁ
 62
     2
 66
     1
 10
0.0
 20
0.0
 30
0.0
  0
VERTEX
  5
831
  8
VIDITELNE
  6
SLD-PLNÁ
 62
     2
 10
412.1098188076
 20
-167.9339748053
 30
0.0
  0
VERTEX
  5
832
  8
VIDITELNE
  6
SLD-PLNÁ
 62
     2
 10
412.1710995676
 20
-167.9152702935
 30
0.0
  0
VERTEX
  5
833
  8
VIDITELNE
  6
SLD-PLNÁ
 62
     2
 10
412.2988898621
 20
-167.888242049
 30
0.0
  0
VERTEX
  5
834
  8
VIDITELNE
  6
SLD-PLNÁ
 62
     2
 10
412.3271691378
 20
-167.8834291333
 30
0.0
  0
VERTEX
  5
835
  8
VIDITELNE
  6
SLD-PLNÁ
 62
     2
 10
412.3413545155
 20
-167.8811721863
 30
0.0
  0
VERTEX
  5
836
  8
VIDITELNE
  6
SLD-PLNÁ
 62
     2
 10
412.351937644
 20
-167.8795568829
 30
0.0
  0
VERTEX
  5
837
  8
VIDITELNE
  6
SLD-PLNÁ
 62
     2
 10
412.3614464961
 20
-167.8781560337
 30
0.0
  0
VERTEX
  5
838
  8
VIDITELNE
  6
SLD-PLNÁ
 62
     2
 10
412.36938717
 20
-167.8770247564
 30
0.0
  0
VERTEX
  5
839
  8
VIDITELNE
  6
SLD-PLNÁ
 62
     2
 10
412.3683581278
 20
-167.8771636969
 30
0.0
  0
SEQEND
  5
83A
  8
VIDITELNE
  6
SLD-PLNÁ
 62
     2
  0
ARC
  5
43F
  8
VIDITELNE
  6
SLD-PLNÁ
 62
     2
 10
412.6115909434
 20
-169.8183214013
 30
0.0
 40
1.950009582025965
 50
104.9109680005
 51
180.7446930243
  0
ARC
  5
440
  8
VIDITELNE
  6
SLD-PLNÁ
 62
     2
 10
378.7492255134
 20
-169.8044583652
 30
0.0
 40
1.895304584921859
 50
357.9336098973
 51
73.324713761
  0
ARC
  5
441
  8
VIDITELNE
  6
SLD-PLNÁ
 62
     2
 10
268.65
 20
-21.0
 30
0.0
 40
2.000000000000001
 50
0.0
 51
75.5224878141
  0
ARC
  5
442
  8
VIDITELNE
  6
SLD-PLNÁ
 62
     2
 10
265.65
 20
19.0
 30
0.0
 40
2.0
 50
0.0
 51
90.0
  0
ARC
  5
443
  8
VIDITELNE
  6
SLD-PLNÁ
 62
     2
 10
269.65
 20
-17.1270166538
 30
0.0
 40
2.000000000000001
 50
180.0
 51
255.5224878141
  0
LINE
  5
444
  8
VIDITELNE
  6
SLD-PLNÁ
 62
     2
 10
380.65
 20
-169.8645544299
 30
0.0
 11
380.65
 21
-172.0
 31
0.0
  0
LINE
  5
445
  8
VIDITELNE
  6
SLD-PLNÁ
 62
     2
 10
410.65
 20
-172.0
 30
0.0
 11
410.65
 21
-169.8570617804
 31
0.0
  0
ARC
  5
446
  8
VIDITELNE
  6
SLD-PLNÁ
 62
     2
 10
264.65
 20
-13.5
 30
0.0
 40
1.0
 50
180.0
 51
270.0
  0
ARC
  5
447
  8
VIDITELNE
  6
SLD-PLNÁ
 62
     2
 10
264.65
 20
5.5
 30
0.0
 40
1.0
 50
90.0
 51
180.0
  0
LINE
  5
448
  8
VIDITELNE
  6
SLD-PLNÁ
 62
     2
 10
267.65
 20
6.5
 30
0.0
 11
264.65
 21
6.5
 31
0.0
  0
LINE
  5
449
  8
VIDITELNE
  6
SLD-PLNÁ
 62
     2
 10
264.65
 20
-14.5
 30
0.0
 11
267.65
 21
-14.5
 31
0.0
  0
LINE
  5
44A
  8
VIDITELNE
  6
SLD-PLNÁ
 62
     2
 10
385.15
 20
-172.0
 30
0.0
 11
385.15
 21
-175.0
 31
0.0
  0
LINE
  5
44B
  8
VIDITELNE
  6
SLD-PLNÁ
 62
     2
 10
406.15
 20
-175.0
 30
0.0
 11
406.15
 21
-172.0
 31
0.0
  0
ARC
  5
44C
  8
VIDITELNE
  6
SLD-PLNÁ
 62
     2
 10
405.15
 20
-175.0
 30
0.0
 40
1.0
 50
270.0
 51
0.0
  0
ARC
  5
44D
  8
VIDITELNE
  6
SLD-PLNÁ
 62
     2
 10
386.15
 20
-175.0
 30
0.0
 40
1.0
 50
180.0
 51
270.0
  0
LINE
  5
44E
  8
VIDITELNE
  6
SLD-PLNÁ
 62
     2
 10
496.15
 20
129.9503855205
 30
0.0
 11
496.15
 21
132.0
 31
0.0
  0
LINE
  5
44F
  8
VIDITELNE
  6
SLD-PLNÁ
 62
     2
 10
475.15
 20
132.0
 30
0.0
 11
475.15
 21
129.9538204682
 31
0.0
  0
ARC
  5
450
  8
VIDITELNE
  6
SLD-PLNÁ
 62
     2
 10
476.15
 20
132.0
 30
0.0
 40
1.0
 50
90.0
 51
180.0
  0
ARC
  5
451
  8
VIDITELNE
  6
SLD-PLNÁ
 62
     2
 10
495.15
 20
132.0
 30
0.0
 40
1.0
 50
0.0
 51
90.0
  0
LINE
  5
452
  8
VIDITELNE
  6
SLD-PLNÁ
 62
     2
 10
547.65
 20
176.0
 30
0.0
 11
537.5802010066
 21
175.6483548705
 31
0.0
  0
LINE
  5
453
  8
VIDITELNE
  6
SLD-PLNÁ
 62
     2
 10
537.5802010066
 20
-23.6483548705
 30
0.0
 11
547.65
 21
-24.0
 31
0.0
  0
ARC
  5
454
  8
VIDITELNE
  6
SLD-PLNÁ
 62
     2
 10
537.65
 20
173.6495732165
 30
0.0
 40
2.0
 50
92.0
 51
180.0
  0
ARC
  5
455
  8
VIDITELNE
  6
SLD-PLNÁ
 62
     2
 10
537.65
 20
-21.6495732165
 30
0.0
 40
2.0
 50
180.0
 51
268.0
  0
ARC
  5
456
  8
VIDITELNE
  6
SLD-PLNÁ
 62
     2
 10
532.65
 20
134.2462740193
 30
0.0
 40
3.000000000000021
 50
272.0
 51
0.0
  0
ARC
  5
457
  8
VIDITELNE
  6
SLD-PLNÁ
 62
     2
 10
532.65
 20
17.7537259807
 30
0.0
 40
3.000000000000007
 50
0.0
 51
88.0
  0
LINE
  5
458
  8
VIDITELNE
  6
SLD-PLNÁ
 62
     2
 10
532.7546984901
 20
131.2481015383
 30
0.0
 11
525.65
 21
131.0
 31
0.0
  0
LINE
  5
459
  8
VIDITELNE
  6
SLD-PLNÁ
 62
     2
 10
525.65
 20
21.0
 30
0.0
 11
532.7546984901
 21
20.7518984617
 31
0.0
  0
LINE
  5
45A
  8
VIDITELNE
  6
SLD-PLNÁ
 62
     2
 10
406.9535078104
 20
130.1143625827
 30
0.0
 11
406.7555279998
 21
131.237161883
 31
0.0
  0
LINE
  5
45B
  8
VIDITELNE
  6
SLD-PLNÁ
 62
     2
 10
384.5444667725
 20
131.237132235
 30
0.0
 11
384.3459515414
 21
130.1112964142
 31
0.0
  0
POLYLINE
  5
45C
  8
VIDITELNE
  6
SLD-PLNÁ
 62
     2
 66
     1
 10
0.0
 20
0.0
 30
0.0
  0
VERTEX
  5
83B
  8
VIDITELNE
  6
SLD-PLNÁ
 62
     2
 10
395.65
 20
139.9999970044
 30
0.0
  0
VERTEX
  5
83C
  8
VIDITELNE
  6
SLD-PLNÁ
 62
     2
 10
393.5571808081
 20
140.0751167251
 30
0.0
  0
VERTEX
  5
83D
  8
VIDITELNE
  6
SLD-PLNÁ
 62
     2
 10
391.737942639
 20
140.4779205152
 30
0.0
  0
VERTEX
  5
83E
  8
VIDITELNE
  6
SLD-PLNÁ
 62
     2
 10
390.2266253041
 20
141.0655231463
 30
0.0
  0
VERTEX
  5
83F
  8
VIDITELNE
  6
SLD-PLNÁ
 62
     2
 10
389.0222162617
 20
141.7304029164
 30
0.0
  0
VERTEX
  5
840
  8
VIDITELNE
  6
SLD-PLNÁ
 62
     2
 10
387.3382754892
 20
143.0326723646
 30
0.0
  0
VERTEX
  5
841
  8
VIDITELNE
  6
SLD-PLNÁ
 62
     2
 10
386.0347317433
 20
144.4742959825
 30
0.0
  0
VERTEX
  5
842
  8
VIDITELNE
  6
SLD-PLNÁ
 62
     2
 10
384.2851959955
 20
147.7424726559
 30
0.0
  0
VERTEX
  5
843
  8
VIDITELNE
  6
SLD-PLNÁ
 62
     2
 10
383.8054055538
 20
149.6109429624
 30
0.0
  0
VERTEX
  5
844
  8
VIDITELNE
  6
SLD-PLNÁ
 62
     2
 10
383.633662094
 20
151.7547776654
 30
0.0
  0
VERTEX
  5
845
  8
VIDITELNE
  6
SLD-PLNÁ
 62
     2
 10
383.8620970784
 20
153.9747213596
 30
0.0
  0
VERTEX
  5
846
  8
VIDITELNE
  6
SLD-PLNÁ
 62
     2
 10
384.4127371346
 20
155.9079192091
 30
0.0
  0
VERTEX
  5
847
  8
VIDITELNE
  6
SLD-PLNÁ
 62
     2
 10
385.207252952
 20
157.6111396459
 30
0.0
  0
VERTEX
  5
848
  8
VIDITELNE
  6
SLD-PLNÁ
 62
     2
 10
386.3315750317
 20
159.2752100041
 30
0.0
  0
VERTEX
  5
849
  8
VIDITELNE
  6
SLD-PLNÁ
 62
     2
 10
387.8257636668
 20
160.8410480743
 30
0.0
  0
VERTEX
  5
84A
  8
VIDITELNE
  6
SLD-PLNÁ
 62
     2
 10
389.7217008332
 20
162.2211952197
 30
0.0
  0
VERTEX
  5
84B
  8
VIDITELNE
  6
SLD-PLNÁ
 62
     2
 10
392.2733981945
 20
163.3791155065
 30
0.0
  0
VERTEX
  5
84C
  8
VIDITELNE
  6
SLD-PLNÁ
 62
     2
 10
395.65
 20
164.0
 30
0.0
  0
SEQEND
  5
84D
  8
VIDITELNE
  6
SLD-PLNÁ
 62
     2
  0
POLYLINE
  5
45D
  8
VIDITELNE
  6
SLD-PLNÁ
 62
     2
 66
     1
 10
0.0
 20
0.0
 30
0.0
  0
VERTEX
  5
84E
  8
VIDITELNE
  6
SLD-PLNÁ
 62
     2
 10
395.65
 20
172.0
 30
0.0
  0
VERTEX
  5
84F
  8
VIDITELNE
  6
SLD-PLNÁ
 62
     2
 10
392.420766664
 20
171.8529725031
 30
0.0
  0
VERTEX
  5
850
  8
VIDITELNE
  6
SLD-PLNÁ
 62
     2
 10
389.5385480396
 20
171.2850077816
 30
0.0
  0
VERTEX
  5
851
  8
VIDITELNE
  6
SLD-PLNÁ
 62
     2
 10
387.0398173394
 20
170.4433204157
 30
0.0
  0
VERTEX
  5
852
  8
VIDITELNE
  6
SLD-PLNÁ
 62
     2
 10
384.9285299734
 20
169.4458864874
 30
0.0
  0
VERTEX
  5
853
  8
VIDITELNE
  6
SLD-PLNÁ
 62
     2
 10
381.4169207868
 20
167.062780375
 30
0.0
  0
VERTEX
  5
854
  8
VIDITELNE
  6
SLD-PLNÁ
 62
     2
 10
378.6484332684
 20
164.2865389867
 30
0.0
  0
VERTEX
  5
855
  8
VIDITELNE
  6
SLD-PLNÁ
 62
     2
 10
376.4657450749
 20
161.1216577374
 30
0.0
  0
VERTEX
  5
856
  8
VIDITELNE
  6
SLD-PLNÁ
 62
     2
 10
374.910782391
 20
157.7187596033
 30
0.0
  0
VERTEX
  5
857
  8
VIDITELNE
  6
SLD-PLNÁ
 62
     2
 10
374.020844965
 20
154.4320120371
 30
0.0
  0
VERTEX
  5
858
  8
VIDITELNE
  6
SLD-PLNÁ
 62
     2
 10
373.6437599691
 20
150.7212087837
 30
0.0
  0
VERTEX
  5
859
  8
VIDITELNE
  6
SLD-PLNÁ
 62
     2
 10
373.7856915267
 20
147.8426583452
 30
0.0
  0
VERTEX
  5
85A
  8
VIDITELNE
  6
SLD-PLNÁ
 62
     2
 10
374.2501673005
 20
145.2156050363
 30
0.0
  0
VERTEX
  5
85B
  8
VIDITELNE
  6
SLD-PLNÁ
 62
     2
 10
374.8471373861
 20
143.1659477778
 30
0.0
  0
VERTEX
  5
85C
  8
VIDITELNE
  6
SLD-PLNÁ
 62
     2
 10
375.5208610666
 20
141.444871094
 30
0.0
  0
VERTEX
  5
85D
  8
VIDITELNE
  6
SLD-PLNÁ
 62
     2
 10
376.5737553393
 20
139.3571537725
 30
0.0
  0
VERTEX
  5
85E
  8
VIDITELNE
  6
SLD-PLNÁ
 62
     2
 10
378.1662598262
 20
136.9481080552
 30
0.0
  0
VERTEX
  5
85F
  8
VIDITELNE
  6
SLD-PLNÁ
 62
     2
 10
380.101619388
 20
134.7165244165
 30
0.0
  0
VERTEX
  5
860
  8
VIDITELNE
  6
SLD-PLNÁ
 62
     2
 10
381.9540201949
 20
133.0414659818
 30
0.0
  0
VERTEX
  5
861
  8
VIDITELNE
  6
SLD-PLNÁ
 62
     2
 10
383.6062826121
 20
131.8253704947
 30
0.0
  0
VERTEX
  5
862
  8
VIDITELNE
  6
SLD-PLNÁ
 62
     2
 10
384.554742827
 20
131.2491376789
 30
0.0
  0
SEQEND
  5
863
  8
VIDITELNE
  6
SLD-PLNÁ
 62
     2
  0
POLYLINE
  5
45E
  8
VIDITELNE
  6
SLD-PLNÁ
 62
     2
 66
     1
 10
0.0
 20
0.0
 30
0.0
  0
VERTEX
  5
864
  8
VIDITELNE
  6
SLD-PLNÁ
 62
     2
 10
406.7446503933
 20
131.2487690326
 30
0.0
  0
VERTEX
  5
865
  8
VIDITELNE
  6
SLD-PLNÁ
 62
     2
 10
407.6937173879
 20
131.8253704947
 30
0.0
  0
VERTEX
  5
866
  8
VIDITELNE
  6
SLD-PLNÁ
 62
     2
 10
409.3459798051
 20
133.0414659818
 30
0.0
  0
VERTEX
  5
867
  8
VIDITELNE
  6
SLD-PLNÁ
 62
     2
 10
411.198380612
 20
134.7165244165
 30
0.0
  0
VERTEX
  5
868
  8
VIDITELNE
  6
SLD-PLNÁ
 62
     2
 10
413.1337401738
 20
136.9481080552
 30
0.0
  0
VERTEX
  5
869
  8
VIDITELNE
  6
SLD-PLNÁ
 62
     2
 10
414.7262446607
 20
139.3571537725
 30
0.0
  0
VERTEX
  5
86A
  8
VIDITELNE
  6
SLD-PLNÁ
 62
     2
 10
415.7791389334
 20
141.444871094
 30
0.0
  0
VERTEX
  5
86B
  8
VIDITELNE
  6
SLD-PLNÁ
 62
     2
 10
416.4528626139
 20
143.1659477778
 30
0.0
  0
VERTEX
  5
86C
  8
VIDITELNE
  6
SLD-PLNÁ
 62
     2
 10
417.0498326995
 20
145.2156050363
 30
0.0
  0
VERTEX
  5
86D
  8
VIDITELNE
  6
SLD-PLNÁ
 62
     2
 10
417.5143084733
 20
147.8426583452
 30
0.0
  0
VERTEX
  5
86E
  8
VIDITELNE
  6
SLD-PLNÁ
 62
     2
 10
417.6562400309
 20
150.7212087837
 30
0.0
  0
VERTEX
  5
86F
  8
VIDITELNE
  6
SLD-PLNÁ
 62
     2
 10
417.279155035
 20
154.4320120371
 30
0.0
  0
VERTEX
  5
870
  8
VIDITELNE
  6
SLD-PLNÁ
 62
     2
 10
416.389217609
 20
157.7187596033
 30
0.0
  0
VERTEX
  5
871
  8
VIDITELNE
  6
SLD-PLNÁ
 62
     2
 10
414.8342549251
 20
161.1216577374
 30
0.0
  0
VERTEX
  5
872
  8
VIDITELNE
  6
SLD-PLNÁ
 62
     2
 10
412.6515667316
 20
164.2865389868
 30
0.0
  0
VERTEX
  5
873
  8
VIDITELNE
  6
SLD-PLNÁ
 62
     2
 10
409.8830792131
 20
167.062780375
 30
0.0
  0
VERTEX
  5
874
  8
VIDITELNE
  6
SLD-PLNÁ
 62
     2
 10
406.3714700266
 20
169.4458864874
 30
0.0
  0
VERTEX
  5
875
  8
VIDITELNE
  6
SLD-PLNÁ
 62
     2
 10
404.2601826606
 20
170.4433204157
 30
0.0
  0
VERTEX
  5
876
  8
VIDITELNE
  6
SLD-PLNÁ
 62
     2
 10
401.7614519604
 20
171.2850077816
 30
0.0
  0
VERTEX
  5
877
  8
VIDITELNE
  6
SLD-PLNÁ
 62
     2
 10
398.879233336
 20
171.8529725031
 30
0.0
  0
VERTEX
  5
878
  8
VIDITELNE
  6
SLD-PLNÁ
 62
     2
 10
395.65
 20
172.0
 30
0.0
  0
SEQEND
  5
879
  8
VIDITELNE
  6
SLD-PLNÁ
 62
     2
  0
POLYLINE
  5
45F
  8
VIDITELNE
  6
SLD-PLNÁ
 62
     2
 66
     1
 10
0.0
 20
0.0
 30
0.0
  0
VERTEX
  5
87A
  8
VIDITELNE
  6
SLD-PLNÁ
 62
     2
 10
395.65
 20
164.0
 30
0.0
  0
VERTEX
  5
87B
  8
VIDITELNE
  6
SLD-PLNÁ
 62
     2
 10
397.4387238306
 20
163.7878220539
 30
0.0
  0
VERTEX
  5
87C
  8
VIDITELNE
  6
SLD-PLNÁ
 62
     2
 10
399.0266018055
 20
163.3791155065
 30
0.0
  0
VERTEX
  5
87D
  8
VIDITELNE
  6
SLD-PLNÁ
 62
     2
 10
401.5782991668
 20
162.2211952197
 30
0.0
  0
VERTEX
  5
87E
  8
VIDITELNE
  6
SLD-PLNÁ
 62
     2
 10
403.4742363332
 20
160.8410480743
 30
0.0
  0
VERTEX
  5
87F
  8
VIDITELNE
  6
SLD-PLNÁ
 62
     2
 10
404.9684249683
 20
159.2752100041
 30
0.0
  0
VERTEX
  5
880
  8
VIDITELNE
  6
SLD-PLNÁ
 62
     2
 10
406.092747048
 20
157.6111396459
 30
0.0
  0
VERTEX
  5
881
  8
VIDITELNE
  6
SLD-PLNÁ
 62
     2
 10
406.8872628654
 20
155.9079192091
 30
0.0
  0
VERTEX
  5
882
  8
VIDITELNE
  6
SLD-PLNÁ
 62
     2
 10
407.4379029216
 20
153.9747213596
 30
0.0
  0
VERTEX
  5
883
  8
VIDITELNE
  6
SLD-PLNÁ
 62
     2
 10
407.666337906
 20
151.7547776654
 30
0.0
  0
VERTEX
  5
884
  8
VIDITELNE
  6
SLD-PLNÁ
 62
     2
 10
407.4945944462
 20
149.6109429624
 30
0.0
  0
VERTEX
  5
885
  8
VIDITELNE
  6
SLD-PLNÁ
 62
     2
 10
407.0148040045
 20
147.7424726559
 30
0.0
  0
VERTEX
  5
886
  8
VIDITELNE
  6
SLD-PLNÁ
 62
     2
 10
405.2652682567
 20
144.4742959825
 30
0.0
  0
VERTEX
  5
887
  8
VIDITELNE
  6
SLD-PLNÁ
 62
     2
 10
403.9617245108
 20
143.0326723646
 30
0.0
  0
VERTEX
  5
888
  8
VIDITELNE
  6
SLD-PLNÁ
 62
     2
 10
402.2777837383
 20
141.7304029164
 30
0.0
  0
VERTEX
  5
889
  8
VIDITELNE
  6
SLD-PLNÁ
 62
     2
 10
401.0733746959
 20
141.0655231463
 30
0.0
  0
VERTEX
  5
88A
  8
VIDITELNE
  6
SLD-PLNÁ
 62
     2
 10
399.562057361
 20
140.4779205152
 30
0.0
  0
VERTEX
  5
88B
  8
VIDITELNE
  6
SLD-PLNÁ
 62
     2
 10
397.7428191919
 20
140.0751167251
 30
0.0
  0
VERTEX
  5
88C
  8
VIDITELNE
  6
SLD-PLNÁ
 62
     2
 10
395.65
 20
139.9999970044
 30
0.0
  0
SEQEND
  5
88D
  8
VIDITELNE
  6
SLD-PLNÁ
 62
     2
  0
LINE
  5
460
  8
VIDITELNE
  6
SLD-PLNÁ
 62
     2
 10
265.65
 20
130.5
 30
0.0
 11
259.5802010066
 21
130.2880379485
 31
0.0
  0
LINE
  5
461
  8
VIDITELNE
  6
SLD-PLNÁ
 62
     2
 10
259.5802010066
 20
21.7119620515
 30
0.0
 11
265.65
 21
21.5
 31
0.0
  0
ARC
  5
462
  8
VIDITELNE
  6
SLD-PLNÁ
 62
     2
 10
259.65
 20
128.2892562945
 30
0.0
 40
2.000000000000006
 50
92.0
 51
180.0
  0
ARC
  5
463
  8
VIDITELNE
  6
SLD-PLNÁ
 62
     2
 10
259.65
 20
23.7107437055
 30
0.0
 40
2.000000000000013
 50
180.0
 51
268.0
  0
CIRCLE
  5
464
  8
VIDITELNE
  6
SLD-PLNÁ
 62
     2
 10
395.65
 20
-44.0
 30
0.0
 40
30.49999999999994
  0
CIRCLE
  5
465
  8
VIDITELNE
  6
SLD-PLNÁ
 62
     2
 10
395.65
 20
-44.0
 30
0.0
 40
32.49999999999994
  0
ARC
  5
466
  8
VIDITELNE
  6
SLD-PLNÁ
 62
     2
 10
395.65
 20
-44.0
 30
0.0
 40
22.5
 50
108.1262039606
 51
71.8737960394
  0
LINE
  5
467
  8
VIDITELNE
  6
SLD-PLNÁ
 62
     2
 10
402.65
 20
-22.6165952197
 30
0.0
 11
402.65
 21
-21.4047602898
 31
0.0
  0
ARC
  5
468
  8
VIDITELNE
  6
SLD-PLNÁ
 62
     2
 10
395.65
 20
-44.0
 30
0.0
 40
23.65470053837924
 50
107.2129689444
 51
72.7870310556
  0
LINE
  5
469
  8
VIDITELNE
  6
SLD-PLNÁ
 62
     2
 10
388.65
 20
-21.4047602898
 30
0.0
 11
388.65
 21
-22.6165952197
 31
0.0
  0
LINE
  5
46A
  8
VIDITELNE
  6
SLD-PLNÁ
 62
     2
 10
402.65
 20
-21.4047602898
 30
0.0
 11
402.65
 21
-17.7
 31
0.0
  0
LINE
  5
46B
  8
VIDITELNE
  6
SLD-PLNÁ
 62
     2
 10
388.65
 20
-17.7
 30
0.0
 11
388.65
 21
-21.4047602898
 31
0.0
  0
LINE
  5
46C
  8
VIDITELNE
  6
SLD-PLNÁ
 62
     2
 10
402.65
 20
-17.7
 30
0.0
 11
388.65
 21
-17.7
 31
0.0
  0
LINE
  5
46D
  8
VIDITELNE
  6
SLD-PLNÁ
 62
     2
 10
354.7235769955
 20
74.1102362205
 30
0.0
 11
354.0687542274
 21
76.0
 31
0.0
  0
ARC
  5
46E
  8
VIDITELNE
  6
SLD-PLNÁ
 62
     2
 10
395.65
 20
-48.5718241501
 30
0.0
 40
131.3283646897415
 50
71.54133344
 51
108.45866656
  0
LINE
  5
46F
  8
VIDITELNE
  6
SLD-PLNÁ
 62
     2
 10
436.5764230045
 20
74.1102362205
 30
0.0
 11
437.2312457726
 21
76.0
 31
0.0
  0
LINE
  5
470
  8
VIDITELNE
  6
SLD-PLNÁ
 62
     2
 10
274.587007874
 20
-12.8752198802
 30
0.0
 11
272.65
 21
-12.3772233983
 31
0.0
  0
LINE
  5
471
  8
VIDITELNE
  6
SLD-PLNÁ
 62
     2
 10
516.712992126
 20
-12.8752198802
 30
0.0
 11
518.65
 21
-12.3772233983
 31
0.0
  0
ARC
  5
472
  8
VIDITELNE
  6
SLD-PLNÁ
 62
     2
 10
271.4571175435
 20
-43.8857078513
 30
0.0
 40
249.1929086664778
 50
359.9737213309
 51
7.264045129
  0
CIRCLE
  5
473
  8
VIDITELNE
  6
SLD-PLNÁ
 62
     2
 10
395.65
 20
-44.0
 30
0.0
 40
125.0
  0
ARC
  5
474
  8
VIDITELNE
  6
SLD-PLNÁ
 62
     2
 10
395.65
 20
-44.0
 30
0.0
 40
127.0
 50
109.1117321372
 51
165.5817588266
  0
ARC
  5
475
  8
VIDITELNE
  6
SLD-PLNÁ
 62
     2
 10
395.65
 20
-44.0
 30
0.0
 40
127.0
 50
14.4182411734
 51
70.8882678628
  0
LINE
  5
476
  8
VIDITELNE
  6
SLD-PLNÁ
 62
     2
 10
270.65
 20
-44.0
 30
0.0
 11
270.65
 21
55.0238230366
 31
0.0
  0
ARC
  5
477
  8
VIDITELNE
  6
SLD-PLNÁ
 62
     2
 10
499.3543326206
 20
43.801155262
 30
0.0
 40
228.9795188033086
 50
171.9163399436
 51
177.1907128869
  0
LINE
  5
478
  8
VIDITELNE
  6
SLD-PLNÁ
 62
     2
 10
272.65
 20
76.0
 30
0.0
 11
272.65
 21
-12.3772233983
 31
0.0
  0
POLYLINE
  5
479
  8
VIDITELNE
  6
SLD-PLNÁ
 62
     2
 66
     1
 10
0.0
 20
0.0
 30
0.0
  0
VERTEX
  5
88E
  8
VIDITELNE
  6
SLD-PLNÁ
 62
     2
 10
270.65
 20
55.0238230366
 30
0.0
  0
VERTEX
  5
88F
  8
VIDITELNE
  6
SLD-PLNÁ
 62
     2
 10
270.6115705608
 20
55.167410725
 30
0.0
  0
VERTEX
  5
890
  8
VIDITELNE
  6
SLD-PLNÁ
 62
     2
 10
270.497759065
 20
55.305480419
 30
0.0
  0
VERTEX
  5
891
  8
VIDITELNE
  6
SLD-PLNÁ
 62
     2
 10
270.3129392246
 20
55.4327261778
 30
0.0
  0
VERTEX
  5
892
  8
VIDITELNE
  6
SLD-PLNÁ
 62
     2
 10
270.0642135624
 20
55.5442580181
 30
0.0
  0
VERTEX
  5
893
  8
VIDITELNE
  6
SLD-PLNÁ
 62
     2
 10
269.761140466
 20
55.635789834
 30
0.0
  0
VERTEX
  5
894
  8
VIDITELNE
  6
SLD-PLNÁ
 62
     2
 10
269.4153668647
 20
55.7038041091
 30
0.0
  0
VERTEX
  5
895
  8
VIDITELNE
  6
SLD-PLNÁ
 62
     2
 10
269.040180644
 20
55.7456870929
 30
0.0
  0
VERTEX
  5
896
  8
VIDITELNE
  6
SLD-PLNÁ
 62
     2
 10
268.65
 20
55.7598292458
 30
0.0
  0
SEQEND
  5
897
  8
VIDITELNE
  6
SLD-PLNÁ
 62
     2
  0
POLYLINE
  5
47A
  8
VIDITELNE
  6
SLD-PLNÁ
 62
     2
 66
     1
 10
0.0
 20
0.0
 30
0.0
  0
VERTEX
  5
898
  8
VIDITELNE
  6
SLD-PLNÁ
 62
     2
 10
268.65
 20
55.7598292458
 30
0.0
  0
VERTEX
  5
899
  8
VIDITELNE
  6
SLD-PLNÁ
 62
     2
 10
268.881607626
 20
59.3985246006
 30
0.0
  0
VERTEX
  5
89A
  8
VIDITELNE
  6
SLD-PLNÁ
 62
     2
 10
269.4646588335
 20
63.1377630279
 30
0.0
  0
VERTEX
  5
89B
  8
VIDITELNE
  6
SLD-PLNÁ
 62
     2
 10
270.4363665632
 20
67.6021414993
 30
0.0
  0
VERTEX
  5
89C
  8
VIDITELNE
  6
SLD-PLNÁ
 62
     2
 10
271.5938625214
 20
72.1208847243
 30
0.0
  0
VERTEX
  5
89D
  8
VIDITELNE
  6
SLD-PLNÁ
 62
     2
 10
272.6375823126
 20
75.9547689701
 30
0.0
  0
VERTEX
  5
89E
  8
VIDITELNE
  6
SLD-PLNÁ
 62
     2
 10
272.65
 20
76.0
 30
0.0
  0
SEQEND
  5
89F
  8
VIDITELNE
  6
SLD-PLNÁ
 62
     2
  0
LINE
  5
47B
  8
VIDITELNE
  6
SLD-PLNÁ
 62
     2
 10
520.65
 20
55.0238230366
 30
0.0
 11
520.65
 21
-44.0
 31
0.0
  0
LINE
  5
47C
  8
VIDITELNE
  6
SLD-PLNÁ
 62
     2
 10
518.65
 20
-12.3772233983
 30
0.0
 11
518.65
 21
76.0
 31
0.0
  0
ARC
  5
47D
  8
VIDITELNE
  6
SLD-PLNÁ
 62
     2
 10
291.9456673764
 20
43.8011552617
 30
0.0
 40
228.9795188063939
 50
2.8092871132
 51
8.0836600563
  0
POLYLINE
  5
47E
  8
VIDITELNE
  6
SLD-PLNÁ
 62
     2
 66
     1
 10
0.0
 20
0.0
 30
0.0
  0
VERTEX
  5
8A0
  8
VIDITELNE
  6
SLD-PLNÁ
 62
     2
 10
518.65
 20
76.0
 30
0.0
  0
VERTEX
  5
8A1
  8
VIDITELNE
  6
SLD-PLNÁ
 62
     2
 10
518.6624176874
 20
75.9547689701
 30
0.0
  0
VERTEX
  5
8A2
  8
VIDITELNE
  6
SLD-PLNÁ
 62
     2
 10
519.7061374786
 20
72.1208847243
 30
0.0
  0
VERTEX
  5
8A3
  8
VIDITELNE
  6
SLD-PLNÁ
 62
     2
 10
520.8549140357
 20
67.6383007558
 30
0.0
  0
VERTEX
  5
8A4
  8
VIDITELNE
  6
SLD-PLNÁ
 62
     2
 10
521.8353411665
 20
63.1377630279
 30
0.0
  0
VERTEX
  5
8A5
  8
VIDITELNE
  6
SLD-PLNÁ
 62
     2
 10
522.4127286674
 20
59.4467739134
 30
0.0
  0
VERTEX
  5
8A6
  8
VIDITELNE
  6
SLD-PLNÁ
 62
     2
 10
522.65
 20
55.7598292458
 30
0.0
  0
SEQEND
  5
8A7
  8
VIDITELNE
  6
SLD-PLNÁ
 62
     2
  0
POLYLINE
  5
47F
  8
VIDITELNE
  6
SLD-PLNÁ
 62
     2
 66
     1
 10
0.0
 20
0.0
 30
0.0
  0
VERTEX
  5
8A8
  8
VIDITELNE
  6
SLD-PLNÁ
 62
     2
 10
522.65
 20
55.7598292458
 30
0.0
  0
VERTEX
  5
8A9
  8
VIDITELNE
  6
SLD-PLNÁ
 62
     2
 10
522.259819356
 20
55.7456870929
 30
0.0
  0
VERTEX
  5
8AA
  8
VIDITELNE
  6
SLD-PLNÁ
 62
     2
 10
521.8846331353
 20
55.7038041091
 30
0.0
  0
VERTEX
  5
8AB
  8
VIDITELNE
  6
SLD-PLNÁ
 62
     2
 10
521.538859534
 20
55.635789834
 30
0.0
  0
VERTEX
  5
8AC
  8
VIDITELNE
  6
SLD-PLNÁ
 62
     2
 10
521.2357864376
 20
55.5442580181
 30
0.0
  0
VERTEX
  5
8AD
  8
VIDITELNE
  6
SLD-PLNÁ
 62
     2
 10
520.9870607754
 20
55.4327261778
 30
0.0
  0
VERTEX
  5
8AE
  8
VIDITELNE
  6
SLD-PLNÁ
 62
     2
 10
520.802240935
 20
55.305480419
 30
0.0
  0
VERTEX
  5
8AF
  8
VIDITELNE
  6
SLD-PLNÁ
 62
     2
 10
520.6884294392
 20
55.167410725
 30
0.0
  0
VERTEX
  5
8B0
  8
VIDITELNE
  6
SLD-PLNÁ
 62
     2
 10
520.65
 20
55.0238230366
 30
0.0
  0
SEQEND
  5
8B1
  8
VIDITELNE
  6
SLD-PLNÁ
 62
     2
  0
LINE
  5
480
  8
VIDITELNE
  6
SLD-PLNÁ
 62
     2
 10
518.65
 20
76.0
 30
0.0
 11
437.2312457726
 21
76.0
 31
0.0
  0
LINE
  5
481
  8
VIDITELNE
  6
SLD-PLNÁ
 62
     2
 10
272.65
 20
76.0
 30
0.0
 11
354.0687542274
 21
76.0
 31
0.0
  0
LINE
  5
482
  8
VIDITELNE
  6
SLD-PLNÁ
 62
     2
 10
268.65
 20
23.5030962821
 30
0.0
 11
268.65
 21
55.7598292458
 31
0.0
  0
LINE
  5
483
  8
VIDITELNE
  6
SLD-PLNÁ
 62
     2
 10
265.65
 20
23.5030962821
 30
0.0
 11
268.65
 21
23.5030962821
 31
0.0
  0
POLYLINE
  5
484
  8
VIDITELNE
  6
SLD-PLNÁ
 62
     2
 66
     1
 10
0.0
 20
0.0
 30
0.0
  0
VERTEX
  5
8B2
  8
VIDITELNE
  6
SLD-PLNÁ
 62
     2
 10
482.65
 20
129.0
 30
0.0
  0
VERTEX
  5
8B3
  8
VIDITELNE
  6
SLD-PLNÁ
 62
     2
 10
480.2707620186
 20
129.1877448409
 30
0.0
  0
VERTEX
  5
8B4
  8
VIDITELNE
  6
SLD-PLNÁ
 62
     2
 10
477.9816440011
 20
129.4677817356
 30
0.0
  0
VERTEX
  5
8B5
  8
VIDITELNE
  6
SLD-PLNÁ
 62
     2
 10
475.9747534306
 20
129.7922893748
 30
0.0
  0
VERTEX
  5
8B6
  8
VIDITELNE
  6
SLD-PLNÁ
 62
     2
 10
474.1857750952
 20
130.1426675799
 30
0.0
  0
VERTEX
  5
8B7
  8
VIDITELNE
  6
SLD-PLNÁ
 62
     2
 10
472.7326400132
 20
130.4688735796
 30
0.0
  0
VERTEX
  5
8B8
  8
VIDITELNE
  6
SLD-PLNÁ
 62
     2
 10
471.6126164061
 20
130.7453024301
 30
0.0
  0
VERTEX
  5
8B9
  8
VIDITELNE
  6
SLD-PLNÁ
 62
     2
 10
470.9301726762
 20
130.9242507135
 30
0.0
  0
VERTEX
  5
8BA
  8
VIDITELNE
  6
SLD-PLNÁ
 62
     2
 10
470.6534433167
 20
130.9990610134
 30
0.0
  0
VERTEX
  5
8BB
  8
VIDITELNE
  6
SLD-PLNÁ
 62
     2
 10
470.6725757509
 20
130.9938674068
 30
0.0
  0
SEQEND
  5
8BC
  8
VIDITELNE
  6
SLD-PLNÁ
 62
     2
  0
LINE
  5
485
  8
VIDITELNE
  6
SLD-PLNÁ
 62
     2
 10
482.65
 20
129.0
 30
0.0
 11
488.65
 21
129.0
 31
0.0
  0
ARC
  5
486
  8
VIDITELNE
  6
SLD-PLNÁ
 62
     2
 10
485.034659165
 20
187.6920450102
 30
0.0
 40
58.80328933688151
 50
273.5248792676
 51
285.3997651485
  0
POLYLINE
  5
487
  8
VIDITELNE
  6
SLD-PLNÁ
 62
     2
 66
     1
 10
0.0
 20
0.0
 30
0.0
  0
VERTEX
  5
8BD
  8
VIDITELNE
  6
SLD-PLNÁ
 62
     2
 10
392.65
 20
129.0
 30
0.0
  0
VERTEX
  5
8BE
  8
VIDITELNE
  6
SLD-PLNÁ
 62
     2
 10
390.2707620186
 20
129.1877448409
 30
0.0
  0
VERTEX
  5
8BF
  8
VIDITELNE
  6
SLD-PLNÁ
 62
     2
 10
387.9816440011
 20
129.4677817356
 30
0.0
  0
VERTEX
  5
8C0
  8
VIDITELNE
  6
SLD-PLNÁ
 62
     2
 10
385.9747534306
 20
129.7922893748
 30
0.0
  0
VERTEX
  5
8C1
  8
VIDITELNE
  6
SLD-PLNÁ
 62
     2
 10
384.1857750952
 20
130.1426675799
 30
0.0
  0
VERTEX
  5
8C2
  8
VIDITELNE
  6
SLD-PLNÁ
 62
     2
 10
382.7326400132
 20
130.4688735796
 30
0.0
  0
VERTEX
  5
8C3
  8
VIDITELNE
  6
SLD-PLNÁ
 62
     2
 10
381.6126164061
 20
130.7453024301
 30
0.0
  0
VERTEX
  5
8C4
  8
VIDITELNE
  6
SLD-PLNÁ
 62
     2
 10
380.9301726762
 20
130.9242507135
 30
0.0
  0
VERTEX
  5
8C5
  8
VIDITELNE
  6
SLD-PLNÁ
 62
     2
 10
380.6534433167
 20
130.9990610134
 30
0.0
  0
VERTEX
  5
8C6
  8
VIDITELNE
  6
SLD-PLNÁ
 62
     2
 10
380.6725757509
 20
130.9938674068
 30
0.0
  0
SEQEND
  5
8C7
  8
VIDITELNE
  6
SLD-PLNÁ
 62
     2
  0
LINE
  5
488
  8
VIDITELNE
  6
SLD-PLNÁ
 62
     2
 10
392.65
 20
129.0
 30
0.0
 11
398.65
 21
129.0
 31
0.0
  0
ARC
  5
489
  8
VIDITELNE
  6
SLD-PLNÁ
 62
     2
 10
395.034659165
 20
187.6920450102
 30
0.0
 40
58.80328933688054
 50
273.5248792676
 51
285.3997651485
  0
LINE
  5
48A
  8
VIDITELNE
  6
SLD-PLNÁ
 62
     2
 10
265.65
 20
131.0
 30
0.0
 11
265.65
 21
23.5030962821
 31
0.0
  0
LINE
  5
48B
  8
VIDITELNE
  6
SLD-PLNÁ
 62
     2
 10
525.65
 20
131.0
 30
0.0
 11
525.65
 21
21.0
 31
0.0
  0
ARC
  5
48C
  8
VIDITELNE
  6
SLD-PLNÁ
 62
     2
 10
268.6944752231
 20
21.5475221261
 30
0.0
 40
1.956079836075963
 50
1.364973668
 51
91.3028416034
  0
LINE
  5
48D
  8
VIDITELNE
  6
SLD-PLNÁ
 62
     2
 10
270.65
 20
-4.0
 30
0.0
 11
269.15
 21
-4.0
 31
0.0
  0
LINE
  5
48E
  8
VIDITELNE
  6
SLD-PLNÁ
 62
     2
 10
270.65
 20
21.5941179651
 30
0.0
 11
269.0811358957
 21
21.5941179651
 31
0.0
  0
POLYLINE
  5
48F
  8
VIDITELNE
  6
SLD-PLNÁ
 62
     2
 66
     1
 10
0.0
 20
0.0
 30
0.0
  0
VERTEX
  5
8C8
  8
VIDITELNE
  6
SLD-PLNÁ
 62
     2
 10
268.65
 20
22.457761922
 30
0.0
  0
VERTEX
  5
8C9
  8
VIDITELNE
  6
SLD-PLNÁ
 62
     2
 10
268.8601812454
 20
22.1354535111
 30
0.0
  0
VERTEX
  5
8CA
  8
VIDITELNE
  6
SLD-PLNÁ
 62
     2
 10
269.0811358957
 20
21.5941179651
 30
0.0
  0
SEQEND
  5
8CB
  8
VIDITELNE
  6
SLD-PLNÁ
 62
     2
  0
LINE
  5
490
  8
VIDITELNE
  6
SLD-PLNÁ
 62
     2
 10
268.65
 20
23.5030962821
 30
0.0
 11
268.65
 21
22.457761922
 31
0.0
  0
LINE
  5
491
  8
VIDITELNE
  6
SLD-PLNÁ
 62
     2
 10
269.15
 20
20.5321585622
 30
0.0
 11
269.15
 21
-4.0
 31
0.0
  0
LINE
  5
492
  8
VIDITELNE
  6
SLD-PLNÁ
 62
     2
 10
269.0811358957
 20
21.5941179651
 30
0.0
 11
269.15
 21
20.5321585622
 31
0.0
  0
ARC
  5
493
  8
VIDITELNE
  6
SLD-PLNÁ
 62
     2
 10
264.6181425786
 20
15.7142637922
 30
0.0
 40
7.856884961140506
 50
59.1252982748
 51
82.4534517513
  0
ARC
  5
494
  8
VIDITELNE
  6
SLD-PLNÁ
 62
     2
 10
267.4214275267
 20
23.9640574421
 30
0.0
 40
1.943789215959049
 50
261.9730801003
 51
309.201549277
  0
ARC
  5
495
  8
VIDITELNE
  6
SLD-PLNÁ
 62
     2
 10
263.2818373619
 20
19.5758939357
 30
0.0
 40
4.585969096043383
 50
32.4908016272
 51
58.9093850665
  0
LINE
  5
496
  8
VIDITELNE
  6
SLD-PLNÁ
 62
     2
 10
267.65
 20
20.5321585622
 30
0.0
 11
267.5811358957
 21
21.0882603209
 31
0.0
  0
ARC
  5
497
  8
VIDITELNE
  6
SLD-PLNÁ
 62
     2
 10
264.3448018361
 20
20.1943968207
 30
0.0
 40
3.35750653047763
 50
15.4399556875
 51
33.3320171732
  0
LINE
  5
498
  8
VIDITELNE
  6
SLD-PLNÁ
 62
     2
 10
265.65
 20
23.5030962821
 30
0.0
 11
265.65
 21
21.0
 31
0.0
  0
ARC
  5
499
  8
VIDITELNE
  6
SLD-PLNÁ
 62
     2
 10
270.7537036547
 20
14.1576431775
 30
0.0
 40
7.622246399496977
 50
102.6756968369
 51
114.5964698279
  0
LINE
  5
49A
  8
VIDITELNE
  6
SLD-PLNÁ
 62
     2
 10
269.15
 20
20.5321585622
 30
0.0
 11
267.65
 21
20.5321585622
 31
0.0
  0
LINE
  5
49B
  8
VIDITELNE
  6
SLD-PLNÁ
 62
     2
 10
267.65
 20
-17.1270166538
 30
0.0
 11
267.65
 21
-4.0
 31
0.0
  0
LINE
  5
49C
  8
VIDITELNE
  6
SLD-PLNÁ
 62
     2
 10
269.15
 20
-4.0
 30
0.0
 11
267.65
 21
-4.0
 31
0.0
  0
LINE
  5
49D
  8
VIDITELNE
  6
SLD-PLNÁ
 62
     2
 10
267.65
 20
-4.0
 30
0.0
 11
267.65
 21
20.5321585622
 31
0.0
  0
LINE
  5
49E
  8
VIDITELNE
  6
SLD-PLNÁ
 62
     2
 10
380.65
 20
-172.0
 30
0.0
 11
410.65
 21
-172.0
 31
0.0
  0
LINE
  5
49F
  8
VIDITELNE
  6
SLD-PLNÁ
 62
     2
 10
263.65
 20
-13.4999991648
 30
0.0
 11
263.65
 21
5.5
 31
0.0
  0
LINE
  5
4A0
  8
VIDITELNE
  6
SLD-PLNÁ
 62
     2
 10
405.1499991648
 20
-176.0
 30
0.0
 11
386.15
 21
-176.0
 31
0.0
  0
LINE
  5
4A1
  8
VIDITELNE
  6
SLD-PLNÁ
 62
     2
 10
476.1500008352
 20
133.0
 30
0.0
 11
495.15
 21
133.0
 31
0.0
  0
CIRCLE
  5
4A2
  8
VIDITELNE
  6
SLD-PLNÁ
 62
     2
 10
395.65
 20
-44.0
 30
0.0
 40
42.49999999999994
  0
CIRCLE
  5
4A3
  8
VIDITELNE
  6
SLD-PLNÁ
 62
     2
 10
395.65
 20
-44.0
 30
0.0
 40
64.99999999999994
  0
ARC
  5
4A4
  8
VIDITELNE
  6
SLD-PLNÁ
 62
     2
 10
395.65
 20
-44.0
 30
0.0
 40
95.00000000000003
 50
69.9131672646
 51
110.0868327354
  0
ARC
  5
4A5
  8
VIDITELNE
  6
SLD-PLNÁ
 62
     2
 10
395.65
 20
-44.0
 30
0.0
 40
95.00000000000001
 50
65.0868327354
 51
69.9131672646
  0
ARC
  5
4A6
  8
VIDITELNE
  6
SLD-PLNÁ
 62
     2
 10
395.65
 20
-44.0
 30
0.0
 40
95.00000000000001
 50
24.9131672646
 51
65.0868327354
  0
ARC
  5
4A7
  8
VIDITELNE
  6
SLD-PLNÁ
 62
     2
 10
395.65
 20
-44.0
 30
0.0
 40
94.9999999999999
 50
20.0868327354
 51
24.9131672646
  0
ARC
  5
4A8
  8
VIDITELNE
  6
SLD-PLNÁ
 62
     2
 10
395.65
 20
-44.0
 30
0.0
 40
95.00000000000007
 50
339.9131672646
 51
20.0868327354
  0
ARC
  5
4A9
  8
VIDITELNE
  6
SLD-PLNÁ
 62
     2
 10
395.65
 20
-44.0
 30
0.0
 40
95.00000000000007
 50
335.0868327354
 51
339.9131672646
  0
ARC
  5
4AA
  8
VIDITELNE
  6
SLD-PLNÁ
 62
     2
 10
395.65
 20
-44.0
 30
0.0
 40
95.00000000000007
 50
294.9131672646
 51
335.0868327354
  0
ARC
  5
4AB
  8
VIDITELNE
  6
SLD-PLNÁ
 62
     2
 10
395.65
 20
-44.0
 30
0.0
 40
94.99999999999999
 50
290.0868327354
 51
294.9131672646
  0
ARC
  5
4AC
  8
VIDITELNE
  6
SLD-PLNÁ
 62
     2
 10
395.65
 20
-44.0
 30
0.0
 40
95.00000000000009
 50
249.9131672646
 51
290.0868327354
  0
ARC
  5
4AD
  8
VIDITELNE
  6
SLD-PLNÁ
 62
     2
 10
395.65
 20
-44.0
 30
0.0
 40
95.00000000000009
 50
245.0868327354
 51
249.9131672646
  0
ARC
  5
4AE
  8
VIDITELNE
  6
SLD-PLNÁ
 62
     2
 10
395.65
 20
-44.0
 30
0.0
 40
95.00000000000004
 50
204.9131672646
 51
245.0868327354
  0
ARC
  5
4AF
  8
VIDITELNE
  6
SLD-PLNÁ
 62
     2
 10
395.65
 20
-44.0
 30
0.0
 40
95.00000000000006
 50
200.0868327354
 51
204.9131672646
  0
ARC
  5
4B0
  8
VIDITELNE
  6
SLD-PLNÁ
 62
     2
 10
395.65
 20
-44.0
 30
0.0
 40
95.00000000000006
 50
159.9131672646
 51
200.0868327354
  0
ARC
  5
4B1
  8
VIDITELNE
  6
SLD-PLNÁ
 62
     2
 10
395.65
 20
-44.0
 30
0.0
 40
94.99999999999997
 50
155.0868327354
 51
159.9131672646
  0
ARC
  5
4B2
  8
VIDITELNE
  6
SLD-PLNÁ
 62
     2
 10
395.65
 20
-44.0
 30
0.0
 40
95.00000000000004
 50
114.9131672646
 51
155.0868327354
  0
ARC
  5
4B3
  8
VIDITELNE
  6
SLD-PLNÁ
 62
     2
 10
395.65
 20
-44.0
 30
0.0
 40
95.00000000000004
 50
110.0868327354
 51
114.9131672646
  0
CIRCLE
  5
4B4
  8
VIDITELNE
  6
SLD-PLNÁ
 62
     2
 10
453.9863094479
 20
14.3363094479
 30
0.0
 40
6.0
  0
CIRCLE
  5
4B5
  8
VIDITELNE
  6
SLD-PLNÁ
 62
     2
 10
453.9863094479
 20
-102.3363094479
 30
0.0
 40
6.0
  0
CIRCLE
  5
4B6
  8
VIDITELNE
  6
SLD-PLNÁ
 62
     2
 10
337.3136905521
 20
-102.3363094479
 30
0.0
 40
6.0
  0
CIRCLE
  5
4B7
  8
VIDITELNE
  6
SLD-PLNÁ
 62
     2
 10
337.3136905521
 20
14.3363094479
 30
0.0
 40
6.0
  0
CIRCLE
  5
4B8
  8
VIDITELNE
  6
SLD-PLNÁ
 62
     2
 10
453.9863094479
 20
14.3363094479
 30
0.0
 40
5.25
  0
LINE
  5
4B9
  8
VIDITELNE
  6
SLD-PLNÁ
 62
     2
 10
363.0228323243
 20
45.2214544236
 30
0.0
 11
352.6832401246
 21
70.1834381415
 31
0.0
  0
LINE
  5
4BA
  8
VIDITELNE
  6
SLD-PLNÁ
 62
     2
 10
345.2922038645
 20
67.1219706826
 30
0.0
 11
355.6317960642
 21
42.1599869647
 31
0.0
  0
ARC
  5
4BB
  8
VIDITELNE
  6
SLD-PLNÁ
 62
     2
 10
395.65
 20
-44.0
 30
0.0
 40
122.0
 50
110.6211131219
 51
114.3788868781
  0
LINE
  5
4BC
  8
VIDITELNE
  6
SLD-PLNÁ
 62
     2
 10
435.6682039358
 20
42.1599869647
 30
0.0
 11
446.0077961355
 21
67.1219706826
 31
0.0
  0
LINE
  5
4BD
  8
VIDITELNE
  6
SLD-PLNÁ
 62
     2
 10
438.6167598754
 20
70.1834381415
 30
0.0
 11
428.2771676757
 21
45.2214544236
 31
0.0
  0
ARC
  5
4BE
  8
VIDITELNE
  6
SLD-PLNÁ
 62
     2
 10
395.65
 20
-44.0
 30
0.0
 40
122.0
 50
65.6211131219
 51
69.3788868781
  0
ARC
  5
4BF
  8
VIDITELNE
  6
SLD-PLNÁ
 62
     2
 10
395.65
 20
-44.0
 30
0.0
 40
101.6395280956807
 50
114.7554445434
 51
155.2445554566
  0
ARC
  5
4C0
  8
VIDITELNE
  6
SLD-PLNÁ
 62
     2
 10
395.65
 20
-44.0
 30
0.0
 40
101.6395280956807
 50
69.7554445434
 51
110.2445554566
  0
ARC
  5
4C1
  8
VIDITELNE
  6
SLD-PLNÁ
 62
     2
 10
395.65
 20
-44.0
 30
0.0
 40
101.6395280956807
 50
339.7554445434
 51
20.2445554566
  0
ARC
  5
4C2
  8
VIDITELNE
  6
SLD-PLNÁ
 62
     2
 10
395.65
 20
-44.0
 30
0.0
 40
101.6395280956808
 50
204.7554445434
 51
245.2445554566
  0
CIRCLE
  5
4C3
  8
VIDITELNE
  6
SLD-PLNÁ
 62
     2
 10
337.3136905521
 20
14.3363094479
 30
0.0
 40
5.25
  0
LINE
  5
4C4
  8
VIDITELNE
  6
SLD-PLNÁ
 62
     2
 10
481.8099869647
 20
-84.0182039358
 30
0.0
 11
506.7719706826
 21
-94.3577961355
 31
0.0
  0
LINE
  5
4C5
  8
VIDITELNE
  6
SLD-PLNÁ
 62
     2
 10
509.8334381415
 20
-86.9667598754
 30
0.0
 11
484.8714544236
 21
-76.6271676757
 31
0.0
  0
ARC
  5
4C6
  8
VIDITELNE
  6
SLD-PLNÁ
 62
     2
 10
395.65
 20
-44.0
 30
0.0
 40
122.0
 50
335.6211131219
 51
339.3788868781
  0
ARC
  5
4C7
  8
VIDITELNE
  6
SLD-PLNÁ
 62
     2
 10
395.65
 20
-44.0
 30
0.0
 40
101.6395280956808
 50
294.7554445434
 51
335.2445554566
  0
LINE
  5
4C8
  8
VIDITELNE
  6
SLD-PLNÁ
 62
     2
 10
352.6832401246
 20
-158.1834381415
 30
0.0
 11
363.0228323243
 21
-133.2214544236
 31
0.0
  0
ARC
  5
4C9
  8
VIDITELNE
  6
SLD-PLNÁ
 62
     2
 10
395.65
 20
-44.0
 30
0.0
 40
122.0000000000001
 50
245.6211131219
 51
249.3788868781
  0
LINE
  5
4CA
  8
VIDITELNE
  6
SLD-PLNÁ
 62
     2
 10
355.6317960642
 20
-130.1599869647
 30
0.0
 11
345.2922038645
 21
-155.1219706826
 31
0.0
  0
ARC
  5
4CB
  8
VIDITELNE
  6
SLD-PLNÁ
 62
     2
 10
395.65
 20
-44.0
 30
0.0
 40
101.6395280956807
 50
159.7554445434
 51
200.2445554566
  0
CIRCLE
  5
4CC
  8
VIDITELNE
  6
SLD-PLNÁ
 62
     2
 10
453.9863094479
 20
-102.3363094479
 30
0.0
 40
5.25
  0
LINE
  5
4CD
  8
VIDITELNE
  6
SLD-PLNÁ
 62
     2
 10
428.2771676757
 20
-133.2214544236
 30
0.0
 11
438.6167598754
 21
-158.1834381415
 31
0.0
  0
ARC
  5
4CE
  8
VIDITELNE
  6
SLD-PLNÁ
 62
     2
 10
395.65
 20
-44.0
 30
0.0
 40
122.0
 50
290.6211131219
 51
294.3788868781
  0
LINE
  5
4CF
  8
VIDITELNE
  6
SLD-PLNÁ
 62
     2
 10
446.0077961355
 20
-155.1219706826
 30
0.0
 11
435.6682039358
 21
-130.1599869647
 31
0.0
  0
ARC
  5
4D0
  8
VIDITELNE
  6
SLD-PLNÁ
 62
     2
 10
395.65
 20
-44.0
 30
0.0
 40
101.6395280956808
 50
249.7554445434
 51
290.2445554566
  0
ARC
  5
4D1
  8
VIDITELNE
  6
SLD-PLNÁ
 62
     2
 10
395.65
 20
-44.0
 30
0.0
 40
122.0000000000001
 50
200.6211131219
 51
204.3788868781
  0
LINE
  5
4D2
  8
VIDITELNE
  6
SLD-PLNÁ
 62
     2
 10
306.4285455764
 20
-76.6271676757
 30
0.0
 11
281.4665618585
 21
-86.9667598754
 31
0.0
  0
LINE
  5
4D3
  8
VIDITELNE
  6
SLD-PLNÁ
 62
     2
 10
284.5280293174
 20
-94.3577961355
 30
0.0
 11
309.4900130353
 21
-84.0182039358
 31
0.0
  0
LINE
  5
4D4
  8
VIDITELNE
  6
SLD-PLNÁ
 62
     2
 10
506.7719706826
 20
6.3577961355
 30
0.0
 11
481.8099869647
 21
-3.9817960642
 31
0.0
  0
ARC
  5
4D5
  8
VIDITELNE
  6
SLD-PLNÁ
 62
     2
 10
395.65
 20
-44.0
 30
0.0
 40
121.9999999999996
 50
20.6211131219
 51
24.3788868781
  0
LINE
  5
4D6
  8
VIDITELNE
  6
SLD-PLNÁ
 62
     2
 10
484.8714544236
 20
-11.3728323243
 30
0.0
 11
509.8334381415
 21
-1.0332401246
 31
0.0
  0
ARC
  5
4D7
  8
VIDITELNE
  6
SLD-PLNÁ
 62
     2
 10
395.65
 20
-44.0
 30
0.0
 40
122.0000000000005
 50
155.6211131219
 51
159.3788868781
  0
LINE
  5
4D8
  8
VIDITELNE
  6
SLD-PLNÁ
 62
     2
 10
309.4900130353
 20
-3.9817960642
 30
0.0
 11
284.5280293174
 21
6.3577961355
 31
0.0
  0
LINE
  5
4D9
  8
VIDITELNE
  6
SLD-PLNÁ
 62
     2
 10
281.4665618585
 20
-1.0332401246
 30
0.0
 11
306.4285455764
 21
-11.3728323243
 31
0.0
  0
ARC
  5
4DA
  8
VIDITELNE
  6
SLD-PLNÁ
 62
     2
 10
395.65
 20
-44.0
 30
0.0
 40
101.6395280956806
 50
24.7554445434
 51
65.2445554566
  0
CIRCLE
  5
4DB
  8
VIDITELNE
  6
SLD-PLNÁ
 62
     2
 10
337.3136905521
 20
-102.3363094479
 30
0.0
 40
5.25
  0
CIRCLE
  5
4DC
  8
VIDITELNE
  6
SLD-PLNÁ
 62
     2
 10
280.65
 20
-44.0
 30
0.0
 40
7.000000000003297
  0
CIRCLE
  5
4DD
  8
VIDITELNE
  6
SLD-PLNÁ
 62
     2
 10
280.65
 20
-44.0
 30
0.0
 40
8.000000000003297
  0
CIRCLE
  5
4DE
  8
VIDITELNE
  6
SLD-PLNÁ
 62
     2
 10
395.65
 20
71.0
 30
0.0
 40
6.999999999999943
  0
CIRCLE
  5
4DF
  8
VIDITELNE
  6
SLD-PLNÁ
 62
     2
 10
395.65
 20
71.0
 30
0.0
 40
7.999999999999943
  0
CIRCLE
  5
4E0
  8
VIDITELNE
  6
SLD-PLNÁ
 62
     2
 10
314.3327201635
 20
37.3172798365
 30
0.0
 40
7.000000000001364
  0
CIRCLE
  5
4E1
  8
VIDITELNE
  6
SLD-PLNÁ
 62
     2
 10
314.3327201635
 20
37.3172798365
 30
0.0
 40
8.000000000001364
  0
CIRCLE
  5
4E2
  8
VIDITELNE
  6
SLD-PLNÁ
 62
     2
 10
314.3327201635
 20
-125.3172798365
 30
0.0
 40
7.000000000000853
  0
CIRCLE
  5
4E3
  8
VIDITELNE
  6
SLD-PLNÁ
 62
     2
 10
510.65
 20
-44.0
 30
0.0
 40
7.0
  0
CIRCLE
  5
4E4
  8
VIDITELNE
  6
SLD-PLNÁ
 62
     2
 10
510.65
 20
-44.0
 30
0.0
 40
8.0
  0
CIRCLE
  5
4E5
  8
VIDITELNE
  6
SLD-PLNÁ
 62
     2
 10
395.65
 20
-159.0
 30
0.0
 40
7.000000000000455
  0
CIRCLE
  5
4E6
  8
VIDITELNE
  6
SLD-PLNÁ
 62
     2
 10
314.3327201635
 20
-125.3172798365
 30
0.0
 40
8.000000000000853
  0
CIRCLE
  5
4E7
  8
VIDITELNE
  6
SLD-PLNÁ
 62
     2
 10
395.65
 20
-159.0
 30
0.0
 40
8.000000000000455
  0
CIRCLE
  5
4E8
  8
VIDITELNE
  6
SLD-PLNÁ
 62
     2
 10
476.9672798365
 20
-125.3172798365
 30
0.0
 40
7.000000000000171
  0
CIRCLE
  5
4E9
  8
VIDITELNE
  6
SLD-PLNÁ
 62
     2
 10
476.9672798365
 20
-125.3172798365
 30
0.0
 40
8.00000000000017
  0
CIRCLE
  5
4EA
  8
VIDITELNE
  6
SLD-PLNÁ
 62
     2
 10
476.9672798365
 20
37.3172798365
 30
0.0
 40
7.000000000000057
  0
CIRCLE
  5
4EB
  8
VIDITELNE
  6
SLD-PLNÁ
 62
     2
 10
476.9672798365
 20
37.3172798365
 30
0.0
 40
8.000000000000057
  0
CIRCLE
  5
4EC
  8
VIDITELNE
  6
SLD-PLNÁ
 62
     2
 10
395.65
 20
-44.0
 30
0.0
 40
124.6158715355907
  0
LINE
  5
4ED
  8
VIDITELNE
  6
SLD-PLNÁ
 62
     2
 10
547.65
 20
176.0
 30
0.0
 11
547.65
 21
-24.0
 31
0.0
  0
LINE
  5
4EE
  8
VIDITELNE
  6
SLD-PLNÁ
 62
     2
 10
535.65
 20
173.6495732165
 30
0.0
 11
535.65
 21
-21.6495732165
 31
0.0
  0
ARC
  5
4EF
  8
VIDITELNE
  6
SLD-PLNÁ
 62
     2
 10
415.6210376872
 20
139.0111509183
 30
0.0
 40
11.79381391100151
 50
193.8324798594
 51
221.2391457448
  0
POLYLINE
  5
4F0
  8
VIDITELNE
  6
SLD-PLNÁ
 62
     2
 66
     1
 10
0.0
 20
0.0
 30
0.0
  0
VERTEX
  5
8CC
  8
VIDITELNE
  6
SLD-PLNÁ
 62
     2
 10
387.1307426933
 20
136.1914394645
 30
0.0
  0
VERTEX
  5
8CD
  8
VIDITELNE
  6
SLD-PLNÁ
 62
     2
 10
386.651268429
 20
134.6277612272
 30
0.0
  0
VERTEX
  5
8CE
  8
VIDITELNE
  6
SLD-PLNÁ
 62
     2
 10
385.9957775024
 20
133.2880016763
 30
0.0
  0
VERTEX
  5
8CF
  8
VIDITELNE
  6
SLD-PLNÁ
 62
     2
 10
385.3110239878
 20
132.2245790761
 30
0.0
  0
VERTEX
  5
8D0
  8
VIDITELNE
  6
SLD-PLNÁ
 62
     2
 10
384.7580299
 20
131.4940584457
 30
0.0
  0
VERTEX
  5
8D1
  8
VIDITELNE
  6
SLD-PLNÁ
 62
     2
 10
384.5436043883
 20
131.2318826434
 30
0.0
  0
VERTEX
  5
8D2
  8
VIDITELNE
  6
SLD-PLNÁ
 62
     2
 10
384.5474721538
 20
131.2366023052
 30
0.0
  0
SEQEND
  5
8D3
  8
VIDITELNE
  6
SLD-PLNÁ
 62
     2
  0
LINE
  5
4F1
  8
VIDITELNE
  6
SLD-PLNÁ
 62
     2
 10
404.1692573066
 20
136.1914394645
 30
0.0
 11
387.1307426933
 21
136.1914394645
 31
0.0
  0
ARC
  5
4F2
  8
VIDITELNE
  6
SLD-PLNÁ
 62
     2
 10
401.2034729824
 20
135.6834925097
 30
0.0
 40
3.008967724450947
 50
9.7186973008
 51
77.8372519959
  0
ARC
  5
4F3
  8
VIDITELNE
  6
SLD-PLNÁ
 62
     2
 10
390.1308160818
 20
135.6506357729
 30
0.0
 40
3.048427294392497
 50
102.6626466901
 51
169.7814040132
  0
LINE
  5
4F4
  8
VIDITELNE
  6
SLD-PLNÁ
 62
     2
 10
401.8374301818
 20
138.6249181906
 30
0.0
 11
389.4625698182
 21
138.6249181906
 31
0.0
  0
ARC
  5
4F5
  8
VIDITELNE
  6
SLD-PLNÁ
 62
     2
 10
405.1657628038
 20
62.1305757082
 30
0.0
 40
78.08953003926155
 50
96.999292596
 51
101.6008333747
  0
ARC
  5
4F6
  8
VIDITELNE
  6
SLD-PLNÁ
 62
     2
 10
391.6757789155
 20
95.9705207681
 30
0.0
 40
43.84811028922867
 50
76.6000757132
 51
84.7997983161
  0
LINE
  5
4F7
  8
VIDITELNE
  6
SLD-PLNÁ
 62
     2
 10
395.65
 20
139.9999952734
 30
0.0
 11
395.65
 21
139.6381557247
 31
0.0
  0
LINE
  5
4F8
  8
VIDITELNE
  6
SLD-PLNÁ
 62
     2
 10
395.65
 20
172.0
 30
0.0
 11
395.65
 21
164.0000045633
 31
0.0
  0
LINE
  5
4F9
  8
VIDITELNE
  6
SLD-PLNÁ
 62
     2
 10
257.65
 20
49.1220812935
 30
0.0
 11
257.65
 21
23.7176646687
 31
0.0
  0
LINE
  5
4FA
  8
VIDITELNE
  6
SLD-PLNÁ
 62
     2
 10
257.65
 20
101.4044166248
 30
0.0
 11
257.65
 21
50.5955833752
 31
0.0
  0
LINE
  5
4FB
  8
VIDITELNE
  6
SLD-PLNÁ
 62
     2
 10
257.65
 20
128.2823353313
 30
0.0
 11
257.65
 21
102.8779187065
 31
0.0
  0
LINE
  5
4FC
  8
VIDITELNE
  6
SLD-PLNÁ
 62
     2
 10
252.35
 20
93.7264973081
 30
0.0
 11
257.65
 21
93.7264973081
 31
0.0
  0
LINE
  5
4FD
  8
VIDITELNE
  6
SLD-PLNÁ
 62
     2
 10
252.35
 20
96.6132486541
 30
0.0
 11
257.65
 21
96.6132486541
 31
0.0
  0
LINE
  5
4FE
  8
VIDITELNE
  6
SLD-PLNÁ
 62
     2
 10
252.35
 20
93.7264973081
 30
0.0
 11
252.35
 21
96.6132486541
 31
0.0
  0
LINE
  5
4FF
  8
VIDITELNE
  6
SLD-PLNÁ
 62
     2
 10
252.35
 20
102.3867513459
 30
0.0
 11
257.65
 21
102.3867513459
 31
0.0
  0
LINE
  5
500
  8
VIDITELNE
  6
SLD-PLNÁ
 62
     2
 10
257.65
 20
101.4044166248
 30
0.0
 11
257.65
 21
102.3867513459
 31
0.0
  0
LINE
  5
501
  8
VIDITELNE
  6
SLD-PLNÁ
 62
     2
 10
252.35
 20
96.6132486541
 30
0.0
 11
252.35
 21
102.3867513459
 31
0.0
  0
LINE
  5
502
  8
VIDITELNE
  6
SLD-PLNÁ
 62
     2
 10
252.35
 20
105.2735026919
 30
0.0
 11
257.65
 21
105.2735026919
 31
0.0
  0
LINE
  5
503
  8
VIDITELNE
  6
SLD-PLNÁ
 62
     2
 10
257.65
 20
102.3867513459
 30
0.0
 11
257.65
 21
102.8779187065
 31
0.0
  0
LINE
  5
504
  8
VIDITELNE
  6
SLD-PLNÁ
 62
     2
 10
252.35
 20
102.3867513459
 30
0.0
 11
252.35
 21
105.2735026919
 31
0.0
  0
LINE
  5
505
  8
VIDITELNE
  6
SLD-PLNÁ
 62
     2
 10
252.35
 20
55.3867513459
 30
0.0
 11
257.65
 21
55.3867513459
 31
0.0
  0
LINE
  5
506
  8
VIDITELNE
  6
SLD-PLNÁ
 62
     2
 10
252.35
 20
58.2735026919
 30
0.0
 11
257.65
 21
58.2735026919
 31
0.0
  0
LINE
  5
507
  8
VIDITELNE
  6
SLD-PLNÁ
 62
     2
 10
252.35
 20
55.3867513459
 30
0.0
 11
252.35
 21
58.2735026919
 31
0.0
  0
LINE
  5
508
  8
VIDITELNE
  6
SLD-PLNÁ
 62
     2
 10
252.35
 20
49.6132486541
 30
0.0
 11
257.65
 21
49.6132486541
 31
0.0
  0
LINE
  5
509
  8
VIDITELNE
  6
SLD-PLNÁ
 62
     2
 10
257.65
 20
49.6132486541
 30
0.0
 11
257.65
 21
50.5955833752
 31
0.0
  0
LINE
  5
50A
  8
VIDITELNE
  6
SLD-PLNÁ
 62
     2
 10
252.35
 20
49.6132486541
 30
0.0
 11
252.35
 21
55.3867513459
 31
0.0
  0
LINE
  5
50B
  8
VIDITELNE
  6
SLD-PLNÁ
 62
     2
 10
252.35
 20
46.7264973081
 30
0.0
 11
257.65
 21
46.7264973081
 31
0.0
  0
LINE
  5
50C
  8
VIDITELNE
  6
SLD-PLNÁ
 62
     2
 10
257.65
 20
49.1220812935
 30
0.0
 11
257.65
 21
49.6132486541
 31
0.0
  0
LINE
  5
50D
  8
VIDITELNE
  6
SLD-PLNÁ
 62
     2
 10
252.35
 20
46.7264973081
 30
0.0
 11
252.35
 21
49.6132486541
 31
0.0
  0
LINE
  5
50E
  8
VIDITELNE
  6
SLD-PLNÁ
 62
     2
 10
252.35
 20
117.2264973081
 30
0.0
 11
257.65
 21
117.2264973081
 31
0.0
  0
LINE
  5
50F
  8
VIDITELNE
  6
SLD-PLNÁ
 62
     2
 10
252.35
 20
120.1132486541
 30
0.0
 11
257.65
 21
120.1132486541
 31
0.0
  0
LINE
  5
510
  8
VIDITELNE
  6
SLD-PLNÁ
 62
     2
 10
252.35
 20
117.2264973081
 30
0.0
 11
252.35
 21
120.1132486541
 31
0.0
  0
LINE
  5
511
  8
VIDITELNE
  6
SLD-PLNÁ
 62
     2
 10
252.35
 20
125.8867513459
 30
0.0
 11
257.65
 21
125.8867513459
 31
0.0
  0
LINE
  5
512
  8
VIDITELNE
  6
SLD-PLNÁ
 62
     2
 10
252.35
 20
120.1132486541
 30
0.0
 11
252.35
 21
125.8867513459
 31
0.0
  0
LINE
  5
513
  8
VIDITELNE
  6
SLD-PLNÁ
 62
     2
 10
252.35
 20
128.7735026919
 30
0.0
 11
257.65
 21
128.7735026919
 31
0.0
  0
LINE
  5
514
  8
VIDITELNE
  6
SLD-PLNÁ
 62
     2
 10
257.65
 20
128.2823353313
 30
0.0
 11
257.65
 21
128.7735026919
 31
0.0
  0
LINE
  5
515
  8
VIDITELNE
  6
SLD-PLNÁ
 62
     2
 10
252.35
 20
125.8867513459
 30
0.0
 11
252.35
 21
128.7735026919
 31
0.0
  0
LINE
  5
516
  8
VIDITELNE
  6
SLD-PLNÁ
 62
     2
 10
252.35
 20
26.1132486541
 30
0.0
 11
257.65
 21
26.1132486541
 31
0.0
  0
LINE
  5
517
  8
VIDITELNE
  6
SLD-PLNÁ
 62
     2
 10
252.35
 20
26.1132486541
 30
0.0
 11
252.35
 21
31.8867513459
 31
0.0
  0
LINE
  5
518
  8
VIDITELNE
  6
SLD-PLNÁ
 62
     2
 10
252.35
 20
31.8867513459
 30
0.0
 11
257.65
 21
31.8867513459
 31
0.0
  0
LINE
  5
519
  8
VIDITELNE
  6
SLD-PLNÁ
 62
     2
 10
252.35
 20
23.2264973081
 30
0.0
 11
257.65
 21
23.2264973081
 31
0.0
  0
LINE
  5
51A
  8
VIDITELNE
  6
SLD-PLNÁ
 62
     2
 10
257.65
 20
23.2264973081
 30
0.0
 11
257.65
 21
23.7176646687
 31
0.0
  0
LINE
  5
51B
  8
VIDITELNE
  6
SLD-PLNÁ
 62
     2
 10
252.35
 20
23.2264973081
 30
0.0
 11
252.35
 21
26.1132486541
 31
0.0
  0
LINE
  5
51C
  8
VIDITELNE
  6
SLD-PLNÁ
 62
     2
 10
252.35
 20
34.7735026919
 30
0.0
 11
257.65
 21
34.7735026919
 31
0.0
  0
LINE
  5
51D
  8
VIDITELNE
  6
SLD-PLNÁ
 62
     2
 10
252.35
 20
31.8867513459
 30
0.0
 11
252.35
 21
34.7735026919
 31
0.0
  0
POLYLINE
  5
51E
  8
VIDITELNE
  6
SLD-PLNÁ
 62
     2
 66
     1
 10
0.0
 20
0.0
 30
0.0
  0
VERTEX
  5
8D4
  8
VIDITELNE
  6
SLD-PLNÁ
 62
     2
 10
270.65
 20
-44.0
 30
0.0
  0
VERTEX
  5
8D5
  8
VIDITELNE
  6
SLD-PLNÁ
 62
     2
 10
270.650009935
 20
-43.9289579506
 30
0.0
  0
VERTEX
  5
8D6
  8
VIDITELNE
  6
SLD-PLNÁ
 62
     2
 10
270.6546531584
 20
-43.7328625686
 30
0.0
  0
SEQEND
  5
8D7
  8
VIDITELNE
  6
SLD-PLNÁ
 62
     2
  0
ARC
  5
51F
  8
VIDITELNE
  6
SLD-PLNÁ
 62
     2
 10
516.1395364533
 20
-43.5611922934
 30
0.0
 40
245.4782969597973
 50
172.7017965631
 51
179.9749133154
  0
LINE
  5
520
  8
VIDITELNE
  6
SLD-PLNÁ
 62
     2
 10
522.65
 20
55.7598292458
 30
0.0
 11
522.65
 21
21.0
 31
0.0
  0
POLYLINE
  5
521
  8
VIDITELNE
  6
SLD-PLNÁ
 62
     2
 66
     1
 10
0.0
 20
0.0
 30
0.0
  0
VERTEX
  5
8D8
  8
VIDITELNE
  6
SLD-PLNÁ
 62
     2
 10
410.65
 20
-169.8570617804
 30
0.0
  0
VERTEX
  5
8D9
  8
VIDITELNE
  6
SLD-PLNÁ
 62
     2
 10
410.2660171155
 20
-169.9150775655
 30
0.0
  0
VERTEX
  5
8DA
  8
VIDITELNE
  6
SLD-PLNÁ
 62
     2
 10
409.4898591321
 20
-170.0277990231
 30
0.0
  0
VERTEX
  5
8DB
  8
VIDITELNE
  6
SLD-PLNÁ
 62
     2
 10
408.3238798069
 20
-170.1851150002
 30
0.0
  0
VERTEX
  5
8DC
  8
VIDITELNE
  6
SLD-PLNÁ
 62
     2
 10
408.317531557
 20
-170.1859337678
 30
0.0
  0
VERTEX
  5
8DD
  8
VIDITELNE
  6
SLD-PLNÁ
 62
     2
 10
406.7910093215
 20
-170.3706897936
 30
0.0
  0
VERTEX
  5
8DE
  8
VIDITELNE
  6
SLD-PLNÁ
 62
     2
 10
404.9518247486
 20
-170.5617035333
 30
0.0
  0
VERTEX
  5
8DF
  8
VIDITELNE
  6
SLD-PLNÁ
 62
     2
 10
402.8640693802
 20
-170.7362667966
 30
0.0
  0
VERTEX
  5
8E0
  8
VIDITELNE
  6
SLD-PLNÁ
 62
     2
 10
400.5747750034
 20
-170.8772944374
 30
0.0
  0
VERTEX
  5
8E1
  8
VIDITELNE
  6
SLD-PLNÁ
 62
     2
 10
398.1446946624
 20
-170.9680965093
 30
0.0
  0
VERTEX
  5
8E2
  8
VIDITELNE
  6
SLD-PLNÁ
 62
     2
 10
395.643989353
 20
-170.9999998173
 30
0.0
  0
VERTEX
  5
8E3
  8
VIDITELNE
  6
SLD-PLNÁ
 62
     2
 10
393.1238900176
 20
-170.967285603
 30
0.0
  0
VERTEX
  5
8E4
  8
VIDITELNE
  6
SLD-PLNÁ
 62
     2
 10
390.6764231561
 20
-170.874849292
 30
0.0
  0
VERTEX
  5
8E5
  8
VIDITELNE
  6
SLD-PLNÁ
 62
     2
 10
388.3655414012
 20
-170.7310850644
 30
0.0
  0
VERTEX
  5
8E6
  8
VIDITELNE
  6
SLD-PLNÁ
 62
     2
 10
386.2627698547
 20
-170.5536038215
 30
0.0
  0
VERTEX
  5
8E7
  8
VIDITELNE
  6
SLD-PLNÁ
 62
     2
 10
384.440794193
 20
-170.3629487798
 30
0.0
  0
VERTEX
  5
8E8
  8
VIDITELNE
  6
SLD-PLNÁ
 62
     2
 10
382.9316554315
 20
-170.179368495
 30
0.0
  0
VERTEX
  5
8E9
  8
VIDITELNE
  6
SLD-PLNÁ
 62
     2
 10
381.7866971456
 20
-170.0244871361
 30
0.0
  0
VERTEX
  5
8EA
  8
VIDITELNE
  6
SLD-PLNÁ
 62
     2
 10
381.0253793931
 20
-169.9137944334
 30
0.0
  0
VERTEX
  5
8EB
  8
VIDITELNE
  6
SLD-PLNÁ
 62
     2
 10
380.6756297536
 20
-169.8612050745
 30
0.0
  0
VERTEX
  5
8EC
  8
VIDITELNE
  6
SLD-PLNÁ
 62
     2
 10
380.6984169829
 20
-169.864602914
 30
0.0
  0
SEQEND
  5
8ED
  8
VIDITELNE
  6
SLD-PLNÁ
 62
     2
  0
LINE
  5
522
  8
VIDITELNE
  6
SLD-PLNÁ
 62
     2
 10
269.15
 20
-4.0
 30
0.0
 11
269.15
 21
-19.0635083269
 31
0.0
  0
LINE
  5
523
  8
VIDITELNE
  6
SLD-PLNÁ
 62
     2
 10
264.65
 20
6.5
 30
0.0
 11
264.65
 21
-14.5
 31
0.0
  0
LINE
  5
524
  8
VIDITELNE
  6
SLD-PLNÁ
 62
     2
 10
385.15
 20
-175.0
 30
0.0
 11
406.15
 21
-175.0
 31
0.0
  0
LINE
  5
525
  8
VIDITELNE
  6
SLD-PLNÁ
 62
     2
 10
496.15
 20
132.0
 30
0.0
 11
475.15
 21
132.0
 31
0.0
  0
LINE
  5
526
  8
VIDITELNE
  6
SLD-PLNÁ
 62
     2
 10
537.5802010066
 20
175.6483548705
 30
0.0
 11
537.5802010066
 21
-23.6483548705
 31
0.0
  0
LINE
  5
527
  8
VIDITELNE
  6
SLD-PLNÁ
 62
     2
 10
532.7546984901
 20
131.2481015383
 30
0.0
 11
532.7546984901
 21
20.7518984617
 31
0.0
  0
LINE
  5
528
  8
VIDITELNE
  6
SLD-PLNÁ
 62
     2
 10
259.5802010066
 20
130.2880379485
 30
0.0
 11
259.5802010066
 21
21.7119620515
 31
0.0
  0
LINE
  5
529
  8
VIDITELNE
  6
SLD-PLNÁ
 62
     2
 10
53.0
 20
270.65
 30
0.0
 11
58.0
 21
270.65
 31
0.0
  0
LINE
  5
52A
  8
VIDITELNE
  6
SLD-PLNÁ
 62
     2
 10
-58.0
 20
270.65
 30
0.0
 11
-53.0
 21
270.65
 31
0.0
  0
LINE
  5
52B
  8
VIDITELNE
  6
SLD-PLNÁ
 62
     2
 10
-53.0
 20
520.65
 30
0.0
 11
-58.0
 21
520.65
 31
0.0
  0
LINE
  5
52C
  8
VIDITELNE
  6
SLD-PLNÁ
 62
     2
 10
58.0
 20
520.65
 30
0.0
 11
53.0
 21
520.65
 31
0.0
  0
ARC
  5
52D
  8
VIDITELNE
  6
SLD-PLNÁ
 62
     2
 10
-84.0
 20
365.15
 30
0.0
 40
2.0
 50
180.0
 51
270.0
  0
ARC
  5
52E
  8
VIDITELNE
  6
SLD-PLNÁ
 62
     2
 10
-84.0
 20
426.15
 30
0.0
 40
2.0
 50
90.0
 51
180.0
  0
ARC
  5
52F
  8
VIDITELNE
  6
SLD-PLNÁ
 62
     2
 10
84.0
 20
426.15
 30
0.0
 40
2.0
 50
0.0
 51
90.0
  0
ARC
  5
530
  8
VIDITELNE
  6
SLD-PLNÁ
 62
     2
 10
84.0
 20
365.15
 30
0.0
 40
2.0
 50
270.0
 51
0.0
  0
LINE
  5
531
  8
VIDITELNE
  6
SLD-PLNÁ
 62
     2
 10
-10.5
 20
267.65
 30
0.0
 11
-10.5
 21
264.65
 31
0.0
  0
LINE
  5
532
  8
VIDITELNE
  6
SLD-PLNÁ
 62
     2
 10
10.5
 20
264.65
 30
0.0
 11
10.5
 21
267.65
 31
0.0
  0
ARC
  5
533
  8
VIDITELNE
  6
SLD-PLNÁ
 62
     2
 10
9.5
 20
264.65
 30
0.0
 40
1.000000000000002
 50
270.0
 51
0.0
  0
ARC
  5
534
  8
VIDITELNE
  6
SLD-PLNÁ
 62
     2
 10
-9.5
 20
264.65
 30
0.0
 40
1.000000000000002
 50
180.0
 51
270.0
  0
LINE
  5
535
  8
VIDITELNE
  6
SLD-PLNÁ
 62
     2
 10
55.0
 20
520.65
 30
0.0
 11
55.0
 21
525.65
 31
0.0
  0
LINE
  5
536
  8
VIDITELNE
  6
SLD-PLNÁ
 62
     2
 10
55.0
 20
265.65
 30
0.0
 11
55.0
 21
270.65
 31
0.0
  0
LINE
  5
537
  8
VIDITELNE
  6
SLD-PLNÁ
 62
     2
 10
-55.0
 20
270.65
 30
0.0
 11
-55.0
 21
265.65
 31
0.0
  0
LINE
  5
538
  8
VIDITELNE
  6
SLD-PLNÁ
 62
     2
 10
-55.0
 20
525.65
 30
0.0
 11
-55.0
 21
520.65
 31
0.0
  0
LINE
  5
539
  8
VIDITELNE
  6
SLD-PLNÁ
 62
     2
 10
-58.0
 20
520.65
 30
0.0
 11
-69.0
 21
520.2658715356
 31
0.0
  0
LINE
  5
53A
  8
VIDITELNE
  6
SLD-PLNÁ
 62
     2
 10
-69.0
 20
271.0341284644
 30
0.0
 11
-58.0
 21
270.65
 31
0.0
  0
ARC
  5
53B
  8
VIDITELNE
  6
SLD-PLNÁ
 62
     2
 10
-78.0
 20
388.65
 30
0.0
 40
1.0
 50
180.0
 51
270.0
  0
ARC
  5
53C
  8
VIDITELNE
  6
SLD-PLNÁ
 62
     2
 10
-78.0
 20
402.65
 30
0.0
 40
1.0
 50
90.0
 51
180.0
  0
LINE
  5
53D
  8
VIDITELNE
  6
SLD-PLNÁ
 62
     2
 10
-69.0
 20
403.65
 30
0.0
 11
-78.0
 21
403.65
 31
0.0
  0
LINE
  5
53E
  8
VIDITELNE
  6
SLD-PLNÁ
 62
     2
 10
-78.0
 20
387.65
 30
0.0
 11
-69.0
 21
387.65
 31
0.0
  0
ARC
  5
53F
  8
VIDITELNE
  6
SLD-PLNÁ
 62
     2
 10
-78.0
 20
307.3327201635
 30
0.0
 40
1.0
 50
180.0
 51
270.0
  0
ARC
  5
540
  8
VIDITELNE
  6
SLD-PLNÁ
 62
     2
 10
-78.0
 20
321.3327201635
 30
0.0
 40
1.0
 50
90.0
 51
180.0
  0
LINE
  5
541
  8
VIDITELNE
  6
SLD-PLNÁ
 62
     2
 10
-69.0
 20
322.3327201635
 30
0.0
 11
-78.0
 21
322.3327201635
 31
0.0
  0
LINE
  5
542
  8
VIDITELNE
  6
SLD-PLNÁ
 62
     2
 10
-78.0
 20
306.3327201635
 30
0.0
 11
-69.0
 21
306.3327201635
 31
0.0
  0
LINE
  5
543
  8
VIDITELNE
  6
SLD-PLNÁ
 62
     2
 10
-69.0
 20
484.9672798365
 30
0.0
 11
-78.0
 21
484.9672798365
 31
0.0
  0
LINE
  5
544
  8
VIDITELNE
  6
SLD-PLNÁ
 62
     2
 10
-78.0
 20
468.9672798365
 30
0.0
 11
-69.0
 21
468.9672798365
 31
0.0
  0
ARC
  5
545
  8
VIDITELNE
  6
SLD-PLNÁ
 62
     2
 10
-78.0
 20
469.9672798365
 30
0.0
 40
1.0
 50
180.0
 51
270.0
  0
ARC
  5
546
  8
VIDITELNE
  6
SLD-PLNÁ
 62
     2
 10
-78.0
 20
483.9672798365
 30
0.0
 40
1.0
 50
90.0
 51
180.0
  0
LINE
  5
547
  8
VIDITELNE
  6
SLD-PLNÁ
 62
     2
 10
-84.0
 20
330.65
 30
0.0
 11
-80.5
 21
330.65
 31
0.0
  0
LINE
  5
548
  8
VIDITELNE
  6
SLD-PLNÁ
 62
     2
 10
-80.5
 20
460.65
 30
0.0
 11
-84.0
 21
460.65
 31
0.0
  0
LINE
  5
549
  8
VIDITELNE
  6
SLD-PLNÁ
 62
     2
 10
-80.5
 20
300.65
 30
0.0
 11
-76.8731240234
 21
298.5560221786
 31
0.0
  0
LINE
  5
54A
  8
VIDITELNE
  6
SLD-PLNÁ
 62
     2
 10
-76.8731240234
 20
492.7439778214
 30
0.0
 11
-80.5
 21
490.65
 31
0.0
  0
ARC
  5
54B
  8
VIDITELNE
  6
SLD-PLNÁ
 62
     2
 10
-78.0
 20
273.65
 30
0.0
 40
1.0
 50
180.0
 51
270.0
  0
ARC
  5
54C
  8
VIDITELNE
  6
SLD-PLNÁ
 62
     2
 10
-78.0
 20
287.65
 30
0.0
 40
1.0
 50
90.0
 51
180.0
  0
LINE
  5
54D
  8
VIDITELNE
  6
SLD-PLNÁ
 62
     2
 10
-72.3094140097
 20
288.65
 30
0.0
 11
-78.0
 21
288.65
 31
0.0
  0
LINE
  5
54E
  8
VIDITELNE
  6
SLD-PLNÁ
 62
     2
 10
-78.0
 20
272.65
 30
0.0
 11
-69.0
 21
272.65
 31
0.0
  0
LINE
  5
54F
  8
VIDITELNE
  6
SLD-PLNÁ
 62
     2
 10
-69.0
 20
518.65
 30
0.0
 11
-78.0
 21
518.65
 31
0.0
  0
LINE
  5
550
  8
VIDITELNE
  6
SLD-PLNÁ
 62
     2
 10
-78.0
 20
502.65
 30
0.0
 11
-72.3094140097
 21
502.65
 31
0.0
  0
ARC
  5
551
  8
VIDITELNE
  6
SLD-PLNÁ
 62
     2
 10
-78.0
 20
503.65
 30
0.0
 40
1.0
 50
180.0
 51
270.0
  0
ARC
  5
552
  8
VIDITELNE
  6
SLD-PLNÁ
 62
     2
 10
-78.0
 20
517.65
 30
0.0
 40
1.0
 50
90.0
 51
180.0
  0
LINE
  5
553
  8
VIDITELNE
  6
SLD-PLNÁ
 62
     2
 10
58.0
 20
270.65
 30
0.0
 11
69.0
 21
271.0341284644
 31
0.0
  0
LINE
  5
554
  8
VIDITELNE
  6
SLD-PLNÁ
 62
     2
 10
69.0
 20
520.2658715356
 30
0.0
 11
58.0
 21
520.65
 31
0.0
  0
ARC
  5
555
  8
VIDITELNE
  6
SLD-PLNÁ
 62
     2
 10
78.0
 20
402.65
 30
0.0
 40
1.0
 50
0.0
 51
90.0
  0
ARC
  5
556
  8
VIDITELNE
  6
SLD-PLNÁ
 62
     2
 10
78.0
 20
388.65
 30
0.0
 40
1.0
 50
270.0
 51
0.0
  0
LINE
  5
557
  8
VIDITELNE
  6
SLD-PLNÁ
 62
     2
 10
69.0
 20
387.65
 30
0.0
 11
78.0
 21
387.65
 31
0.0
  0
LINE
  5
558
  8
VIDITELNE
  6
SLD-PLNÁ
 62
     2
 10
78.0
 20
403.65
 30
0.0
 11
69.0
 21
403.65
 31
0.0
  0
LINE
  5
559
  8
VIDITELNE
  6
SLD-PLNÁ
 62
     2
 10
69.0
 20
468.9672798365
 30
0.0
 11
78.0
 21
468.9672798365
 31
0.0
  0
LINE
  5
55A
  8
VIDITELNE
  6
SLD-PLNÁ
 62
     2
 10
78.0
 20
484.9672798365
 30
0.0
 11
69.0
 21
484.9672798365
 31
0.0
  0
ARC
  5
55B
  8
VIDITELNE
  6
SLD-PLNÁ
 62
     2
 10
78.0
 20
483.9672798365
 30
0.0
 40
1.0
 50
0.0
 51
90.0
  0
ARC
  5
55C
  8
VIDITELNE
  6
SLD-PLNÁ
 62
     2
 10
78.0
 20
469.9672798365
 30
0.0
 40
1.0
 50
270.0
 51
0.0
  0
ARC
  5
55D
  8
VIDITELNE
  6
SLD-PLNÁ
 62
     2
 10
78.0
 20
321.3327201635
 30
0.0
 40
1.0
 50
0.0
 51
90.0
  0
ARC
  5
55E
  8
VIDITELNE
  6
SLD-PLNÁ
 62
     2
 10
78.0
 20
307.3327201635
 30
0.0
 40
1.0
 50
270.0
 51
0.0
  0
LINE
  5
55F
  8
VIDITELNE
  6
SLD-PLNÁ
 62
     2
 10
69.0
 20
306.3327201635
 30
0.0
 11
78.0
 21
306.3327201635
 31
0.0
  0
LINE
  5
560
  8
VIDITELNE
  6
SLD-PLNÁ
 62
     2
 10
78.0
 20
322.3327201635
 30
0.0
 11
69.0
 21
322.3327201635
 31
0.0
  0
LINE
  5
561
  8
VIDITELNE
  6
SLD-PLNÁ
 62
     2
 10
84.0
 20
460.65
 30
0.0
 11
80.5
 21
460.65
 31
0.0
  0
LINE
  5
562
  8
VIDITELNE
  6
SLD-PLNÁ
 62
     2
 10
80.5
 20
330.65
 30
0.0
 11
84.0
 21
330.65
 31
0.0
  0
LINE
  5
563
  8
VIDITELNE
  6
SLD-PLNÁ
 62
     2
 10
80.5
 20
490.65
 30
0.0
 11
76.8731240234
 21
492.7439778214
 31
0.0
  0
LINE
  5
564
  8
VIDITELNE
  6
SLD-PLNÁ
 62
     2
 10
76.8731240234
 20
298.5560221786
 30
0.0
 11
80.5
 21
300.65
 31
0.0
  0
LINE
  5
565
  8
VIDITELNE
  6
SLD-PLNÁ
 62
     2
 10
72.3094140097
 20
502.65
 30
0.0
 11
78.0
 21
502.65
 31
0.0
  0
LINE
  5
566
  8
VIDITELNE
  6
SLD-PLNÁ
 62
     2
 10
78.0
 20
518.65
 30
0.0
 11
69.0
 21
518.65
 31
0.0
  0
ARC
  5
567
  8
VIDITELNE
  6
SLD-PLNÁ
 62
     2
 10
78.0
 20
517.65
 30
0.0
 40
1.0
 50
0.0
 51
90.0
  0
ARC
  5
568
  8
VIDITELNE
  6
SLD-PLNÁ
 62
     2
 10
78.0
 20
503.65
 30
0.0
 40
1.0
 50
270.0
 51
0.0
  0
LINE
  5
569
  8
VIDITELNE
  6
SLD-PLNÁ
 62
     2
 10
69.0
 20
272.65
 30
0.0
 11
78.0
 21
272.65
 31
0.0
  0
LINE
  5
56A
  8
VIDITELNE
  6
SLD-PLNÁ
 62
     2
 10
78.0
 20
288.65
 30
0.0
 11
72.3094140097
 21
288.65
 31
0.0
  0
ARC
  5
56B
  8
VIDITELNE
  6
SLD-PLNÁ
 62
     2
 10
78.0
 20
287.65
 30
0.0
 40
1.0
 50
0.0
 51
90.0
  0
ARC
  5
56C
  8
VIDITELNE
  6
SLD-PLNÁ
 62
     2
 10
78.0
 20
273.65
 30
0.0
 40
1.0
 50
270.0
 51
0.0
  0
LINE
  5
56D
  8
VIDITELNE
  6
SLD-PLNÁ
 62
     2
 10
-100.0
 20
547.65
 30
0.0
 11
-99.6483548705
 21
537.5802010066
 31
0.0
  0
LINE
  5
56E
  8
VIDITELNE
  6
SLD-PLNÁ
 62
     2
 10
99.6483548705
 20
537.5802010066
 30
0.0
 11
100.0
 21
547.65
 31
0.0
  0
ARC
  5
56F
  8
VIDITELNE
  6
SLD-PLNÁ
 62
     2
 10
-97.6495732165
 20
537.65
 30
0.0
 40
2.000000000000341
 50
182.0
 51
270.0
  0
ARC
  5
570
  8
VIDITELNE
  6
SLD-PLNÁ
 62
     2
 10
97.6495732165
 20
537.65
 30
0.0
 40
1.999999999999976
 50
270.0
 51
358.0
  0
ARC
  5
571
  8
VIDITELNE
  6
SLD-PLNÁ
 62
     2
 10
-58.2462740193
 20
532.65
 30
0.0
 40
2.999999999999985
 50
2.0
 51
90.0
  0
ARC
  5
572
  8
VIDITELNE
  6
SLD-PLNÁ
 62
     2
 10
58.2462740193
 20
532.65
 30
0.0
 40
3.000000000000227
 50
90.0
 51
178.0
  0
LINE
  5
573
  8
VIDITELNE
  6
SLD-PLNÁ
 62
     2
 10
-55.2481015383
 20
532.7546984901
 30
0.0
 11
-55.0
 21
525.65
 31
0.0
  0
LINE
  5
574
  8
VIDITELNE
  6
SLD-PLNÁ
 62
     2
 10
55.0
 20
525.65
 30
0.0
 11
55.2481015383
 21
532.7546984901
 31
0.0
  0
LINE
  5
575
  8
VIDITELNE
  6
SLD-PLNÁ
 62
     2
 10
-54.5
 20
265.65
 30
0.0
 11
-54.2880379485
 21
259.5802010066
 31
0.0
  0
LINE
  5
576
  8
VIDITELNE
  6
SLD-PLNÁ
 62
     2
 10
54.2880379485
 20
259.5802010066
 30
0.0
 11
54.5
 21
265.65
 31
0.0
  0
ARC
  5
577
  8
VIDITELNE
  6
SLD-PLNÁ
 62
     2
 10
-52.2892562945
 20
259.65
 30
0.0
 40
2.000000000000013
 50
182.0
 51
270.0
  0
ARC
  5
578
  8
VIDITELNE
  6
SLD-PLNÁ
 62
     2
 10
52.2892562945
 20
259.65
 30
0.0
 40
2.000000000000006
 50
270.0
 51
358.0
  0
CIRCLE
  5
579
  8
VIDITELNE
  6
SLD-PLNÁ
 62
     2
 10
0.0
 20
395.65
 30
0.0
 40
9.5
  0
CIRCLE
  5
57A
  8
VIDITELNE
  6
SLD-PLNÁ
 62
     2
 10
0.0
 20
395.65
 30
0.0
 40
10.5
  0
CIRCLE
  5
57B
  8
VIDITELNE
  6
SLD-PLNÁ
 62
     2
 10
0.0
 20
395.65
 30
0.0
 40
14.99999999999994
  0
POLYLINE
  5
57C
  8
VIDITELNE
  6
SLD-PLNÁ
 62
     2
 66
     1
 10
0.0
 20
0.0
 30
0.0
  0
VERTEX
  5
8EE
  8
VIDITELNE
  6
SLD-PLNÁ
 62
     2
 10
0.0
 20
412.3822834646
 30
0.0
  0
VERTEX
  5
8EF
  8
VIDITELNE
  6
SLD-PLNÁ
 62
     2
 10
1.8657836043
 20
412.2812038237
 30
0.0
  0
VERTEX
  5
8F0
  8
VIDITELNE
  6
SLD-PLNÁ
 62
     2
 10
4.6122414471
 20
411.7546971923
 30
0.0
  0
VERTEX
  5
8F1
  8
VIDITELNE
  6
SLD-PLNÁ
 62
     2
 10
7.306772763
 20
410.7579013199
 30
0.0
  0
VERTEX
  5
8F2
  8
VIDITELNE
  6
SLD-PLNÁ
 62
     2
 10
9.7282675314
 20
409.371786038
 30
0.0
  0
VERTEX
  5
8F3
  8
VIDITELNE
  6
SLD-PLNÁ
 62
     2
 10
11.9462296926
 20
407.5544694206
 30
0.0
  0
VERTEX
  5
8F4
  8
VIDITELNE
  6
SLD-PLNÁ
 62
     2
 10
13.7817328465
 20
405.4463404746
 30
0.0
  0
VERTEX
  5
8F5
  8
VIDITELNE
  6
SLD-PLNÁ
 62
     2
 10
15.2780433489
 20
402.98788666
 30
0.0
  0
VERTEX
  5
8F6
  8
VIDITELNE
  6
SLD-PLNÁ
 62
     2
 10
16.3018276398
 20
400.3959335397
 30
0.0
  0
VERTEX
  5
8F7
  8
VIDITELNE
  6
SLD-PLNÁ
 62
     2
 10
16.8861593759
 20
397.5831524342
 30
0.0
  0
VERTEX
  5
8F8
  8
VIDITELNE
  6
SLD-PLNÁ
 62
     2
 10
16.9790631037
 20
394.819827882
 30
0.0
  0
VERTEX
  5
8F9
  8
VIDITELNE
  6
SLD-PLNÁ
 62
     2
 10
16.5902768437
 20
391.9986090193
 30
0.0
  0
VERTEX
  5
8FA
  8
VIDITELNE
  6
SLD-PLNÁ
 62
     2
 10
15.7564330389
 20
389.3681265729
 30
0.0
  0
VERTEX
  5
8FB
  8
VIDITELNE
  6
SLD-PLNÁ
 62
     2
 10
14.4558852249
 20
386.8450762798
 30
0.0
  0
VERTEX
  5
8FC
  8
VIDITELNE
  6
SLD-PLNÁ
 62
     2
 10
12.7819557024
 20
384.6184009976
 30
0.0
  0
VERTEX
  5
8FD
  8
VIDITELNE
  6
SLD-PLNÁ
 62
     2
 10
10.7009629574
 20
382.6485794482
 30
0.0
  0
VERTEX
  5
8FE
  8
VIDITELNE
  6
SLD-PLNÁ
 62
     2
 10
8.3589573015
 20
381.080150563
 30
0.0
  0
VERTEX
  5
8FF
  8
VIDITELNE
  6
SLD-PLNÁ
 62
     2
 10
5.7124277974
 20
379.8906484872
 30
0.0
  0
VERTEX
  5
900
  8
VIDITELNE
  6
SLD-PLNÁ
 62
     2
 10
1.8804076526
 20
379.0203918251
 30
0.0
  0
VERTEX
  5
901
  8
VIDITELNE
  6
SLD-PLNÁ
 62
     2
 10
-0.9231638833
 20
378.9424056499
 30
0.0
  0
VERTEX
  5
902
  8
VIDITELNE
  6
SLD-PLNÁ
 62
     2
 10
-3.7793688117
 20
379.3364468296
 30
0.0
  0
VERTEX
  5
903
  8
VIDITELNE
  6
SLD-PLNÁ
 62
     2
 10
-6.4487797876
 20
380.1683316504
 30
0.0
  0
VERTEX
  5
904
  8
VIDITELNE
  6
SLD-PLNÁ
 62
     2
 10
-9.0129370241
 20
381.4628702319
 30
0.0
  0
VERTEX
  5
905
  8
VIDITELNE
  6
SLD-PLNÁ
 62
     2
 10
-11.2624373119
 20
383.1164291632
 30
0.0
  0
VERTEX
  5
906
  8
VIDITELNE
  6
SLD-PLNÁ
 62
     2
 10
-13.2595113112
 20
385.1786802841
 30
0.0
  0
VERTEX
  5
907
  8
VIDITELNE
  6
SLD-PLNÁ
 62
     2
 10
-14.8383776052
 20
387.484708903
 30
0.0
  0
VERTEX
  5
908
  8
VIDITELNE
  6
SLD-PLNÁ
 62
     2
 10
-16.0383098509
 20
390.1020468277
 30
0.0
  0
VERTEX
  5
909
  8
VIDITELNE
  6
SLD-PLNÁ
 62
     2
 10
-16.7496606398
 20
392.7890809726
 30
0.0
  0
VERTEX
  5
90A
  8
VIDITELNE
  6
SLD-PLNÁ
 62
     2
 10
-16.9999986352
 20
395.64329521
 30
0.0
  0
VERTEX
  5
90B
  8
VIDITELNE
  6
SLD-PLNÁ
 62
     2
 10
-16.7699590051
 20
398.3933055199
 30
0.0
  0
VERTEX
  5
90C
  8
VIDITELNE
  6
SLD-PLNÁ
 62
     2
 10
-16.0576412889
 20
401.1435154238
 30
0.0
  0
VERTEX
  5
90D
  8
VIDITELNE
  6
SLD-PLNÁ
 62
     2
 10
-14.9225908835
 20
403.6652371156
 30
0.0
  0
VERTEX
  5
90E
  8
VIDITELNE
  6
SLD-PLNÁ
 62
     2
 10
-13.3365963148
 20
406.0260512288
 30
0.0
  0
VERTEX
  5
90F
  8
VIDITELNE
  6
SLD-PLNÁ
 62
     2
 10
-11.4089458599
 20
408.054541045
 30
0.0
  0
VERTEX
  5
910
  8
VIDITELNE
  6
SLD-PLNÁ
 62
     2
 10
-9.1043879992
 20
409.7804485872
 30
0.0
  0
VERTEX
  5
911
  8
VIDITELNE
  6
SLD-PLNÁ
 62
     2
 10
-6.5928928377
 20
411.0727529847
 30
0.0
  0
VERTEX
  5
912
  8
VIDITELNE
  6
SLD-PLNÁ
 62
     2
 10
-3.8218788999
 20
411.9539561
 30
0.0
  0
VERTEX
  5
913
  8
VIDITELNE
  6
SLD-PLNÁ
 62
     2
 10
0.0
 20
412.3822834646
 30
0.0
  0
SEQEND
  5
914
  8
VIDITELNE
  6
SLD-PLNÁ
 62
     2
  0
LINE
  5
57D
  8
VIDITELNE
  6
SLD-PLNÁ
 62
     2
 10
-58.0
 20
520.65
 30
0.0
 11
-58.0
 21
270.65
 31
0.0
  0
LINE
  5
57E
  8
VIDITELNE
  6
SLD-PLNÁ
 62
     2
 10
53.0
 20
520.65
 30
0.0
 11
-53.0
 21
520.65
 31
0.0
  0
LINE
  5
57F
  8
VIDITELNE
  6
SLD-PLNÁ
 62
     2
 10
53.0
 20
270.65
 30
0.0
 11
-53.0
 21
270.65
 31
0.0
  0
LINE
  5
580
  8
VIDITELNE
  6
SLD-PLNÁ
 62
     2
 10
58.0
 20
520.65
 30
0.0
 11
58.0
 21
270.65
 31
0.0
  0
LINE
  5
581
  8
VIDITELNE
  6
SLD-PLNÁ
 62
     2
 10
-86.0
 20
365.1500000841
 30
0.0
 11
-86.0
 21
426.15
 31
0.0
  0
LINE
  5
582
  8
VIDITELNE
  6
SLD-PLNÁ
 62
     2
 10
86.0
 20
426.1499999159
 30
0.0
 11
86.0
 21
365.15
 31
0.0
  0
ARC
  5
583
  8
VIDITELNE
  6
SLD-PLNÁ
 62
     2
 10
17.0
 20
268.65
 30
0.0
 40
2.000000000000001
 50
90.0
 51
165.5224878141
  0
LINE
  5
584
  8
VIDITELNE
  6
SLD-PLNÁ
 62
     2
 10
-15.0635083269
 20
269.15
 30
0.0
 11
15.0635083269
 21
269.15
 31
0.0
  0
ARC
  5
585
  8
VIDITELNE
  6
SLD-PLNÁ
 62
     2
 10
-17.0
 20
268.65
 30
0.0
 40
2.000000000000003
 50
14.4775121859
 51
90.0
  0
ARC
  5
586
  8
VIDITELNE
  6
SLD-PLNÁ
 62
     2
 10
13.1270166538
 20
269.65
 30
0.0
 40
2.0
 50
270.0
 51
345.5224878141
  0
LINE
  5
587
  8
VIDITELNE
  6
SLD-PLNÁ
 62
     2
 10
13.1270166538
 20
267.65
 30
0.0
 11
-13.1270166538
 21
267.65
 31
0.0
  0
ARC
  5
588
  8
VIDITELNE
  6
SLD-PLNÁ
 62
     2
 10
-13.1270166538
 20
269.65
 30
0.0
 40
2.000000000000001
 50
194.4775121859
 51
270.0
  0
LINE
  5
589
  8
VIDITELNE
  6
SLD-PLNÁ
 62
     2
 10
9.5
 20
263.65
 30
0.0
 11
-9.5
 21
263.65
 31
0.0
  0
LINE
  5
58A
  8
VIDITELNE
  6
SLD-PLNÁ
 62
     2
 10
-51.1403508772
 20
522.65
 30
0.0
 11
51.1403508772
 21
522.65
 31
0.0
  0
ARC
  5
58B
  8
VIDITELNE
  6
SLD-PLNÁ
 62
     2
 10
53.0728235684
 20
522.5822868575
 30
0.0
 40
1.933658649233249
 50
177.9931976903
 51
267.8416717502
  0
ARC
  5
58C
  8
VIDITELNE
  6
SLD-PLNÁ
 62
     2
 10
-53.0728235684
 20
522.5822868575
 30
0.0
 40
1.933658649233235
 50
272.1583282498
 51
2.0068023097
  0
POLYLINE
  5
58D
  8
VIDITELNE
  6
SLD-PLNÁ
 62
     2
 66
     1
 10
0.0
 20
0.0
 30
0.0
  0
VERTEX
  5
915
  8
VIDITELNE
  6
SLD-PLNÁ
 62
     2
 10
13.7181035559
 20
267.15
 30
0.0
  0
VERTEX
  5
916
  8
VIDITELNE
  6
SLD-PLNÁ
 62
     2
 10
13.325010629
 20
267.4448449443
 30
0.0
  0
VERTEX
  5
917
  8
VIDITELNE
  6
SLD-PLNÁ
 62
     2
 10
13.2157910714
 20
267.5811358957
 30
0.0
  0
SEQEND
  5
918
  8
VIDITELNE
  6
SLD-PLNÁ
 62
     2
  0
ARC
  5
58E
  8
VIDITELNE
  6
SLD-PLNÁ
 62
     2
 10
39.4346120057
 20
310.0356968947
 30
0.0
 40
50.00521777765773
 50
239.0508924142
 51
242.575847044
  0
LINE
  5
58F
  8
VIDITELNE
  6
SLD-PLNÁ
 62
     2
 10
-16.4035087719
 20
265.65
 30
0.0
 11
-10.5
 21
265.65
 31
0.0
  0
LINE
  5
590
  8
VIDITELNE
  6
SLD-PLNÁ
 62
     2
 10
10.5
 20
265.65
 30
0.0
 11
16.4035087719
 21
265.65
 31
0.0
  0
POLYLINE
  5
591
  8
VIDITELNE
  6
SLD-PLNÁ
 62
     2
 66
     1
 10
0.0
 20
0.0
 30
0.0
  0
VERTEX
  5
919
  8
VIDITELNE
  6
SLD-PLNÁ
 62
     2
 10
-13.7181035559
 20
267.15
 30
0.0
  0
VERTEX
  5
91A
  8
VIDITELNE
  6
SLD-PLNÁ
 62
     2
 10
-14.6991091165
 20
266.5729198154
 30
0.0
  0
VERTEX
  5
91B
  8
VIDITELNE
  6
SLD-PLNÁ
 62
     2
 10
-16.39259117
 20
265.6557163898
 30
0.0
  0
VERTEX
  5
91C
  8
VIDITELNE
  6
SLD-PLNÁ
 62
     2
 10
-16.4035087719
 20
265.65
 30
0.0
  0
SEQEND
  5
91D
  8
VIDITELNE
  6
SLD-PLNÁ
 62
     2
  0
ARC
  5
592
  8
VIDITELNE
  6
SLD-PLNÁ
 62
     2
 10
-14.4517462998
 20
268.5129482294
 30
0.0
 40
1.547856437721889
 50
298.2925277769
 51
322.9866003528
  0
ARC
  5
593
  8
VIDITELNE
  6
SLD-PLNÁ
 62
     2
 10
-13.1555350578
 20
269.5225003143
 30
0.0
 40
1.942299305736555
 50
193.1345219316
 51
268.2222259523
  0
ARC
  5
594
  8
VIDITELNE
  6
SLD-PLNÁ
 62
     2
 10
13.1555350578
 20
269.5225003143
 30
0.0
 40
1.942299305736557
 50
271.7777740477
 51
346.8654780684
  0
LINE
  5
595
  8
VIDITELNE
  6
SLD-PLNÁ
 62
     2
 10
-16.4035087719
 20
268.65
 30
0.0
 11
-51.1403508772
 21
268.65
 31
0.0
  0
LINE
  5
596
  8
VIDITELNE
  6
SLD-PLNÁ
 62
     2
 10
-16.4035087719
 20
265.65
 30
0.0
 11
-16.4035087719
 21
268.65
 31
0.0
  0
LINE
  5
597
  8
VIDITELNE
  6
SLD-PLNÁ
 62
     2
 10
16.4035087719
 20
268.65
 30
0.0
 11
16.4035087719
 21
265.65
 31
0.0
  0
LINE
  5
598
  8
VIDITELNE
  6
SLD-PLNÁ
 62
     2
 10
51.1403508772
 20
268.65
 30
0.0
 11
16.4035087719
 21
268.65
 31
0.0
  0
LINE
  5
599
  8
VIDITELNE
  6
SLD-PLNÁ
 62
     2
 10
16.4035087719
 20
265.65
 30
0.0
 11
55.0
 21
265.65
 31
0.0
  0
LINE
  5
59A
  8
VIDITELNE
  6
SLD-PLNÁ
 62
     2
 10
-55.0
 20
265.65
 30
0.0
 11
-16.4035087719
 21
265.65
 31
0.0
  0
LINE
  5
59B
  8
VIDITELNE
  6
SLD-PLNÁ
 62
     2
 10
-55.0
 20
525.65
 30
0.0
 11
55.0
 21
525.65
 31
0.0
  0
POLYLINE
  5
59C
  8
VIDITELNE
  6
SLD-PLNÁ
 62
     2
 66
     1
 10
0.0
 20
0.0
 30
0.0
  0
VERTEX
  5
91E
  8
VIDITELNE
  6
SLD-PLNÁ
 62
     2
 10
15.0470223147
 20
269.0811358957
 30
0.0
  0
VERTEX
  5
91F
  8
VIDITELNE
  6
SLD-PLNÁ
 62
     2
 10
15.0577499726
 20
268.9448449443
 30
0.0
  0
VERTEX
  5
920
  8
VIDITELNE
  6
SLD-PLNÁ
 62
     2
 10
15.1960822869
 20
268.65
 30
0.0
  0
SEQEND
  5
921
  8
VIDITELNE
  6
SLD-PLNÁ
 62
     2
  0
ARC
  5
59D
  8
VIDITELNE
  6
SLD-PLNÁ
 62
     2
 10
12.8940542318
 20
269.4400919593
 30
0.0
 40
2.433840272163316
 50
289.790375707
 51
341.056979422
  0
POLYLINE
  5
59E
  8
VIDITELNE
  6
SLD-PLNÁ
 62
     2
 66
     1
 10
0.0
 20
0.0
 30
0.0
  0
VERTEX
  5
922
  8
VIDITELNE
  6
SLD-PLNÁ
 62
     2
 10
-15.1960822869
 20
268.65
 30
0.0
  0
VERTEX
  5
923
  8
VIDITELNE
  6
SLD-PLNÁ
 62
     2
 10
-15.0861610124
 20
268.8601812454
 30
0.0
  0
VERTEX
  5
924
  8
VIDITELNE
  6
SLD-PLNÁ
 62
     2
 10
-15.0470223147
 20
269.0811358957
 30
0.0
  0
SEQEND
  5
925
  8
VIDITELNE
  6
SLD-PLNÁ
 62
     2
  0
ARC
  5
59F
  8
VIDITELNE
  6
SLD-PLNÁ
 62
     2
 10
-12.8940542318
 20
269.4400919593
 30
0.0
 40
2.433840272163317
 50
198.943020578
 51
250.209624293
  0
POLYLINE
  5
5A0
  8
VIDITELNE
  6
SLD-PLNÁ
 62
     2
 66
     1
 10
0.0
 20
0.0
 30
0.0
  0
VERTEX
  5
926
  8
VIDITELNE
  6
SLD-PLNÁ
 62
     2
 10
-17.0
 20
270.65
 30
0.0
  0
VERTEX
  5
927
  8
VIDITELNE
  6
SLD-PLNÁ
 62
     2
 10
-16.8836303342
 20
270.6115705608
 30
0.0
  0
VERTEX
  5
928
  8
VIDITELNE
  6
SLD-PLNÁ
 62
     2
 10
-16.7717326895
 20
270.497759065
 30
0.0
  0
VERTEX
  5
929
  8
VIDITELNE
  6
SLD-PLNÁ
 62
     2
 10
-16.6686072294
 20
270.3129392246
 30
0.0
  0
VERTEX
  5
92A
  8
VIDITELNE
  6
SLD-PLNÁ
 62
     2
 10
-16.5782170077
 20
270.0642135624
 30
0.0
  0
VERTEX
  5
92B
  8
VIDITELNE
  6
SLD-PLNÁ
 62
     2
 10
-16.5040356699
 20
269.761140466
 30
0.0
  0
VERTEX
  5
92C
  8
VIDITELNE
  6
SLD-PLNÁ
 62
     2
 10
-16.4489139631
 20
269.4153668647
 30
0.0
  0
VERTEX
  5
92D
  8
VIDITELNE
  6
SLD-PLNÁ
 62
     2
 10
-16.4149701836
 20
269.040180644
 30
0.0
  0
VERTEX
  5
92E
  8
VIDITELNE
  6
SLD-PLNÁ
 62
     2
 10
-16.4035087719
 20
268.65
 30
0.0
  0
SEQEND
  5
92F
  8
VIDITELNE
  6
SLD-PLNÁ
 62
     2
  0
LINE
  5
5A1
  8
VIDITELNE
  6
SLD-PLNÁ
 62
     2
 10
-16.4035087719
 20
268.65
 30
0.0
 11
-15.1960822869
 21
268.65
 31
0.0
  0
ARC
  5
5A2
  8
VIDITELNE
  6
SLD-PLNÁ
 62
     2
 10
-53.0728235684
 20
268.7177131425
 30
0.0
 40
1.933658649233242
 50
357.9931976903
 51
87.8416717502
  0
POLYLINE
  5
5A3
  8
VIDITELNE
  6
SLD-PLNÁ
 62
     2
 66
     1
 10
0.0
 20
0.0
 30
0.0
  0
VERTEX
  5
930
  8
VIDITELNE
  6
SLD-PLNÁ
 62
     2
 10
16.4035087719
 20
268.65
 30
0.0
  0
VERTEX
  5
931
  8
VIDITELNE
  6
SLD-PLNÁ
 62
     2
 10
16.4149701836
 20
269.040180644
 30
0.0
  0
VERTEX
  5
932
  8
VIDITELNE
  6
SLD-PLNÁ
 62
     2
 10
16.4489139631
 20
269.4153668647
 30
0.0
  0
VERTEX
  5
933
  8
VIDITELNE
  6
SLD-PLNÁ
 62
     2
 10
16.5040356699
 20
269.761140466
 30
0.0
  0
VERTEX
  5
934
  8
VIDITELNE
  6
SLD-PLNÁ
 62
     2
 10
16.5782170077
 20
270.0642135624
 30
0.0
  0
VERTEX
  5
935
  8
VIDITELNE
  6
SLD-PLNÁ
 62
     2
 10
16.6686072294
 20
270.3129392246
 30
0.0
  0
VERTEX
  5
936
  8
VIDITELNE
  6
SLD-PLNÁ
 62
     2
 10
16.7717326895
 20
270.497759065
 30
0.0
  0
VERTEX
  5
937
  8
VIDITELNE
  6
SLD-PLNÁ
 62
     2
 10
16.8836303342
 20
270.6115705608
 30
0.0
  0
VERTEX
  5
938
  8
VIDITELNE
  6
SLD-PLNÁ
 62
     2
 10
17.0
 20
270.65
 30
0.0
  0
SEQEND
  5
939
  8
VIDITELNE
  6
SLD-PLNÁ
 62
     2
  0
LINE
  5
5A4
  8
VIDITELNE
  6
SLD-PLNÁ
 62
     2
 10
15.1960822869
 20
268.65
 30
0.0
 11
16.4035087719
 21
268.65
 31
0.0
  0
ARC
  5
5A5
  8
VIDITELNE
  6
SLD-PLNÁ
 62
     2
 10
53.0728235684
 20
268.7177131425
 30
0.0
 40
1.933658649233267
 50
92.1583282498
 51
182.0068023097
  0
ARC
  5
5A6
  8
VIDITELNE
  6
SLD-PLNÁ
 62
     2
 10
44.2281742879
 20
278.591725813
 30
0.0
 40
30.68713538431586
 50
198.9032131712
 51
204.9439406828
  0
ARC
  5
5A7
  8
VIDITELNE
  6
SLD-PLNÁ
 62
     2
 10
-44.2281742879
 20
278.591725813
 30
0.0
 40
30.68713538431581
 50
335.0560593172
 51
341.0967868288
  0
LINE
  5
5A8
  8
VIDITELNE
  6
SLD-PLNÁ
 62
     2
 10
-69.0
 20
271.0341284644
 30
0.0
 11
-69.0
 21
520.2658715356
 31
0.0
  0
LINE
  5
5A9
  8
VIDITELNE
  6
SLD-PLNÁ
 62
     2
 10
-79.0
 20
388.6500008432
 30
0.0
 11
-79.0
 21
402.65
 31
0.0
  0
LINE
  5
5AA
  8
VIDITELNE
  6
SLD-PLNÁ
 62
     2
 10
-80.5
 20
428.2771676757
 30
0.0
 11
-69.0
 21
438.6167598754
 31
0.0
  0
LINE
  5
5AB
  8
VIDITELNE
  6
SLD-PLNÁ
 62
     2
 10
-69.0
 20
430.8201128387
 30
0.0
 11
-80.5
 21
428.2771676757
 31
0.0
  0
LINE
  5
5AC
  8
VIDITELNE
  6
SLD-PLNÁ
 62
     2
 10
-80.5
 20
428.2771676757
 30
0.0
 11
-80.5
 21
435.6682039358
 31
0.0
  0
LINE
  5
5AD
  8
VIDITELNE
  6
SLD-PLNÁ
 62
     2
 10
-69.0
 20
446.0077961355
 30
0.0
 11
-80.5
 21
435.6682039358
 31
0.0
  0
LINE
  5
5AE
  8
VIDITELNE
  6
SLD-PLNÁ
 62
     2
 10
-69.0
 20
352.6832401246
 30
0.0
 11
-80.5
 21
363.0228323243
 31
0.0
  0
LINE
  5
5AF
  8
VIDITELNE
  6
SLD-PLNÁ
 62
     2
 10
-80.5
 20
355.6317960642
 30
0.0
 11
-69.0
 21
345.2922038645
 31
0.0
  0
LINE
  5
5B0
  8
VIDITELNE
  6
SLD-PLNÁ
 62
     2
 10
-80.5
 20
355.6317960642
 30
0.0
 11
-80.5
 21
363.0228323243
 31
0.0
  0
LINE
  5
5B1
  8
VIDITELNE
  6
SLD-PLNÁ
 62
     2
 10
-80.5
 20
363.0228323243
 30
0.0
 11
-69.0
 21
360.4798871613
 31
0.0
  0
LINE
  5
5B2
  8
VIDITELNE
  6
SLD-PLNÁ
 62
     2
 10
-80.5
 20
363.0228323243
 30
0.0
 11
-80.5
 21
428.2771676757
 31
0.0
  0
LINE
  5
5B3
  8
VIDITELNE
  6
SLD-PLNÁ
 62
     2
 10
-69.0
 20
487.9491996655
 30
0.0
 11
-74.5857452259
 21
484.9672798365
 31
0.0
  0
LINE
  5
5B4
  8
VIDITELNE
  6
SLD-PLNÁ
 62
     2
 10
-79.0
 20
482.6107538387
 30
0.0
 11
-80.5
 21
481.8099869647
 31
0.0
  0
LINE
  5
5B5
  8
VIDITELNE
  6
SLD-PLNÁ
 62
     2
 10
-80.5
 20
435.6682039358
 30
0.0
 11
-80.5
 21
481.8099869647
 31
0.0
  0
LINE
  5
5B6
  8
VIDITELNE
  6
SLD-PLNÁ
 62
     2
 10
-80.5
 20
309.4900130353
 30
0.0
 11
-79.0
 21
308.6892461613
 31
0.0
  0
LINE
  5
5B7
  8
VIDITELNE
  6
SLD-PLNÁ
 62
     2
 10
-74.5857452259
 20
306.3327201635
 30
0.0
 11
-69.0
 21
303.3508003345
 31
0.0
  0
LINE
  5
5B8
  8
VIDITELNE
  6
SLD-PLNÁ
 62
     2
 10
-80.5
 20
309.4900130353
 30
0.0
 11
-80.5
 21
355.6317960642
 31
0.0
  0
LINE
  5
5B9
  8
VIDITELNE
  6
SLD-PLNÁ
 62
     2
 10
-79.0
 20
307.3327210067
 30
0.0
 11
-79.0
 21
321.3327201635
 31
0.0
  0
LINE
  5
5BA
  8
VIDITELNE
  6
SLD-PLNÁ
 62
     2
 10
-79.0
 20
469.9672806796
 30
0.0
 11
-79.0
 21
483.9672798365
 31
0.0
  0
LINE
  5
5BB
  8
VIDITELNE
  6
SLD-PLNÁ
 62
     2
 10
-84.0
 20
330.65
 30
0.0
 11
-84.0
 21
460.65
 31
0.0
  0
LINE
  5
5BC
  8
VIDITELNE
  6
SLD-PLNÁ
 62
     2
 10
-80.5
 20
306.4285455764
 30
0.0
 11
-69.0
 21
281.4665618585
 31
0.0
  0
LINE
  5
5BD
  8
VIDITELNE
  6
SLD-PLNÁ
 62
     2
 10
-69.0
 20
284.5280293174
 30
0.0
 11
-80.5
 21
309.4900130353
 31
0.0
  0
LINE
  5
5BE
  8
VIDITELNE
  6
SLD-PLNÁ
 62
     2
 10
-80.5
 20
306.4285455764
 30
0.0
 11
-80.5
 21
309.4900130353
 31
0.0
  0
LINE
  5
5BF
  8
VIDITELNE
  6
SLD-PLNÁ
 62
     2
 10
-80.5
 20
481.8099869647
 30
0.0
 11
-69.0
 21
506.7719706826
 31
0.0
  0
LINE
  5
5C0
  8
VIDITELNE
  6
SLD-PLNÁ
 62
     2
 10
-69.0
 20
509.8334381415
 30
0.0
 11
-80.5
 21
484.8714544236
 31
0.0
  0
LINE
  5
5C1
  8
VIDITELNE
  6
SLD-PLNÁ
 62
     2
 10
-80.5
 20
481.8099869647
 30
0.0
 11
-80.5
 21
484.8714544236
 31
0.0
  0
LINE
  5
5C2
  8
VIDITELNE
  6
SLD-PLNÁ
 62
     2
 10
-80.5
 20
300.65
 30
0.0
 11
-80.5
 21
306.4285455764
 31
0.0
  0
LINE
  5
5C3
  8
VIDITELNE
  6
SLD-PLNÁ
 62
     2
 10
-80.5
 20
484.8714544236
 30
0.0
 11
-80.5
 21
490.65
 31
0.0
  0
LINE
  5
5C4
  8
VIDITELNE
  6
SLD-PLNÁ
 62
     2
 10
-79.0
 20
273.6500008432
 30
0.0
 11
-79.0
 21
287.65
 31
0.0
  0
LINE
  5
5C5
  8
VIDITELNE
  6
SLD-PLNÁ
 62
     2
 10
-79.0
 20
503.6500008432
 30
0.0
 11
-79.0
 21
517.65
 31
0.0
  0
LINE
  5
5C6
  8
VIDITELNE
  6
SLD-PLNÁ
 62
     2
 10
69.0
 20
520.2658715356
 30
0.0
 11
69.0
 21
271.0341284644
 31
0.0
  0
LINE
  5
5C7
  8
VIDITELNE
  6
SLD-PLNÁ
 62
     2
 10
79.0
 20
402.6499991568
 30
0.0
 11
79.0
 21
388.65
 31
0.0
  0
LINE
  5
5C8
  8
VIDITELNE
  6
SLD-PLNÁ
 62
     2
 10
80.5
 20
363.0228323243
 30
0.0
 11
69.0
 21
352.6832401246
 31
0.0
  0
LINE
  5
5C9
  8
VIDITELNE
  6
SLD-PLNÁ
 62
     2
 10
80.5
 20
363.0228323243
 30
0.0
 11
80.5
 21
355.6317960642
 31
0.0
  0
LINE
  5
5CA
  8
VIDITELNE
  6
SLD-PLNÁ
 62
     2
 10
69.0
 20
345.2922038645
 30
0.0
 11
80.5
 21
355.6317960642
 31
0.0
  0
LINE
  5
5CB
  8
VIDITELNE
  6
SLD-PLNÁ
 62
     2
 10
69.0
 20
360.4798871613
 30
0.0
 11
80.5
 21
363.0228323243
 31
0.0
  0
LINE
  5
5CC
  8
VIDITELNE
  6
SLD-PLNÁ
 62
     2
 10
69.0
 20
438.6167598754
 30
0.0
 11
80.5
 21
428.2771676757
 31
0.0
  0
LINE
  5
5CD
  8
VIDITELNE
  6
SLD-PLNÁ
 62
     2
 10
80.5
 20
428.2771676757
 30
0.0
 11
69.0
 21
430.8201128387
 31
0.0
  0
LINE
  5
5CE
  8
VIDITELNE
  6
SLD-PLNÁ
 62
     2
 10
80.5
 20
435.6682039358
 30
0.0
 11
69.0
 21
446.0077961355
 31
0.0
  0
LINE
  5
5CF
  8
VIDITELNE
  6
SLD-PLNÁ
 62
     2
 10
80.5
 20
435.6682039358
 30
0.0
 11
80.5
 21
428.2771676757
 31
0.0
  0
LINE
  5
5D0
  8
VIDITELNE
  6
SLD-PLNÁ
 62
     2
 10
80.5
 20
428.2771676757
 30
0.0
 11
80.5
 21
363.0228323243
 31
0.0
  0
LINE
  5
5D1
  8
VIDITELNE
  6
SLD-PLNÁ
 62
     2
 10
69.0
 20
303.3508003345
 30
0.0
 11
74.5857452259
 21
306.3327201635
 31
0.0
  0
LINE
  5
5D2
  8
VIDITELNE
  6
SLD-PLNÁ
 62
     2
 10
79.0
 20
308.6892461613
 30
0.0
 11
80.5
 21
309.4900130353
 31
0.0
  0
LINE
  5
5D3
  8
VIDITELNE
  6
SLD-PLNÁ
 62
     2
 10
80.5
 20
355.6317960642
 30
0.0
 11
80.5
 21
309.4900130353
 31
0.0
  0
LINE
  5
5D4
  8
VIDITELNE
  6
SLD-PLNÁ
 62
     2
 10
80.5
 20
481.8099869647
 30
0.0
 11
79.0
 21
482.6107538387
 31
0.0
  0
LINE
  5
5D5
  8
VIDITELNE
  6
SLD-PLNÁ
 62
     2
 10
74.5857452259
 20
484.9672798365
 30
0.0
 11
69.0
 21
487.9491996655
 31
0.0
  0
LINE
  5
5D6
  8
VIDITELNE
  6
SLD-PLNÁ
 62
     2
 10
80.5
 20
481.8099869647
 30
0.0
 11
80.5
 21
435.6682039358
 31
0.0
  0
LINE
  5
5D7
  8
VIDITELNE
  6
SLD-PLNÁ
 62
     2
 10
79.0
 20
483.9672789933
 30
0.0
 11
79.0
 21
469.9672798365
 31
0.0
  0
LINE
  5
5D8
  8
VIDITELNE
  6
SLD-PLNÁ
 62
     2
 10
79.0
 20
321.3327193204
 30
0.0
 11
79.0
 21
307.3327201635
 31
0.0
  0
LINE
  5
5D9
  8
VIDITELNE
  6
SLD-PLNÁ
 62
     2
 10
84.0
 20
460.65
 30
0.0
 11
84.0
 21
330.65
 31
0.0
  0
LINE
  5
5DA
  8
VIDITELNE
  6
SLD-PLNÁ
 62
     2
 10
69.0
 20
506.7719706826
 30
0.0
 11
80.5
 21
481.8099869647
 31
0.0
  0
LINE
  5
5DB
  8
VIDITELNE
  6
SLD-PLNÁ
 62
     2
 10
80.5
 20
484.8714544236
 30
0.0
 11
69.0
 21
509.8334381415
 31
0.0
  0
LINE
  5
5DC
  8
VIDITELNE
  6
SLD-PLNÁ
 62
     2
 10
80.5
 20
484.8714544236
 30
0.0
 11
80.5
 21
481.8099869647
 31
0.0
  0
LINE
  5
5DD
  8
VIDITELNE
  6
SLD-PLNÁ
 62
     2
 10
80.5
 20
309.4900130353
 30
0.0
 11
69.0
 21
284.5280293174
 31
0.0
  0
LINE
  5
5DE
  8
VIDITELNE
  6
SLD-PLNÁ
 62
     2
 10
69.0
 20
281.4665618585
 30
0.0
 11
80.5
 21
306.4285455764
 31
0.0
  0
LINE
  5
5DF
  8
VIDITELNE
  6
SLD-PLNÁ
 62
     2
 10
80.5
 20
309.4900130353
 30
0.0
 11
80.5
 21
306.4285455764
 31
0.0
  0
LINE
  5
5E0
  8
VIDITELNE
  6
SLD-PLNÁ
 62
     2
 10
80.5
 20
490.65
 30
0.0
 11
80.5
 21
484.8714544236
 31
0.0
  0
LINE
  5
5E1
  8
VIDITELNE
  6
SLD-PLNÁ
 62
     2
 10
80.5
 20
306.4285455764
 30
0.0
 11
80.5
 21
300.65
 31
0.0
  0
LINE
  5
5E2
  8
VIDITELNE
  6
SLD-PLNÁ
 62
     2
 10
79.0
 20
517.6499991568
 30
0.0
 11
79.0
 21
503.65
 31
0.0
  0
LINE
  5
5E3
  8
VIDITELNE
  6
SLD-PLNÁ
 62
     2
 10
79.0
 20
287.6499991568
 30
0.0
 11
79.0
 21
273.65
 31
0.0
  0
LINE
  5
5E4
  8
VIDITELNE
  6
SLD-PLNÁ
 62
     2
 10
-100.0
 20
547.65
 30
0.0
 11
100.0
 21
547.65
 31
0.0
  0
LINE
  5
5E5
  8
VIDITELNE
  6
SLD-PLNÁ
 62
     2
 10
-97.6495732161
 20
535.65
 30
0.0
 11
97.6495732165
 21
535.65
 31
0.0
  0
LINE
  5
5E6
  8
VIDITELNE
  6
SLD-PLNÁ
 62
     2
 10
45.7031939779
 20
257.65
 30
0.0
 11
52.2892562945
 21
257.65
 31
0.0
  0
LINE
  5
5E7
  8
VIDITELNE
  6
SLD-PLNÁ
 62
     2
 10
0.8507268235
 20
257.65
 30
0.0
 11
44.8524671544
 21
257.65
 31
0.0
  0
LINE
  5
5E8
  8
VIDITELNE
  6
SLD-PLNÁ
 62
     2
 10
-44.8524671544
 20
257.65
 30
0.0
 11
-0.8507268235
 21
257.65
 31
0.0
  0
LINE
  5
5E9
  8
VIDITELNE
  6
SLD-PLNÁ
 62
     2
 10
-52.2892562945
 20
257.65
 30
0.0
 11
-45.7031939779
 21
257.65
 31
0.0
  0
LINE
  5
5EA
  8
VIDITELNE
  6
SLD-PLNÁ
 62
     2
 10
0.0
 20
252.35
 30
0.0
 11
0.0
 21
257.65
 31
0.0
  0
LINE
  5
5EB
  8
VIDITELNE
  6
SLD-PLNÁ
 62
     2
 10
0.0
 20
252.35
 30
0.0
 11
-5.0
 21
252.35
 31
0.0
  0
LINE
  5
5EC
  8
VIDITELNE
  6
SLD-PLNÁ
 62
     2
 10
-5.0
 20
252.35
 30
0.0
 11
-5.0
 21
257.65
 31
0.0
  0
LINE
  5
5ED
  8
VIDITELNE
  6
SLD-PLNÁ
 62
     2
 10
0.0
 20
257.65
 30
0.0
 11
-0.8507268235
 21
257.65
 31
0.0
  0
LINE
  5
5EE
  8
VIDITELNE
  6
SLD-PLNÁ
 62
     2
 10
5.0
 20
252.35
 30
0.0
 11
5.0
 21
257.65
 31
0.0
  0
LINE
  5
5EF
  8
VIDITELNE
  6
SLD-PLNÁ
 62
     2
 10
0.8507268235
 20
257.65
 30
0.0
 11
0.0
 21
257.65
 31
0.0
  0
LINE
  5
5F0
  8
VIDITELNE
  6
SLD-PLNÁ
 62
     2
 10
5.0
 20
252.35
 30
0.0
 11
0.0
 21
252.35
 31
0.0
  0
LINE
  5
5F1
  8
VIDITELNE
  6
SLD-PLNÁ
 62
     2
 10
-40.7031939779
 20
252.35
 30
0.0
 11
-40.7031939779
 21
257.65
 31
0.0
  0
LINE
  5
5F2
  8
VIDITELNE
  6
SLD-PLNÁ
 62
     2
 10
-45.7031939779
 20
252.35
 30
0.0
 11
-45.7031939779
 21
257.65
 31
0.0
  0
LINE
  5
5F3
  8
VIDITELNE
  6
SLD-PLNÁ
 62
     2
 10
-44.8524671544
 20
257.65
 30
0.0
 11
-45.7031939779
 21
257.65
 31
0.0
  0
LINE
  5
5F4
  8
VIDITELNE
  6
SLD-PLNÁ
 62
     2
 10
-40.7031939779
 20
252.35
 30
0.0
 11
-45.7031939779
 21
252.35
 31
0.0
  0
LINE
  5
5F5
  8
VIDITELNE
  6
SLD-PLNÁ
 62
     2
 10
-35.7031939779
 20
252.35
 30
0.0
 11
-35.7031939779
 21
257.65
 31
0.0
  0
LINE
  5
5F6
  8
VIDITELNE
  6
SLD-PLNÁ
 62
     2
 10
-35.7031939779
 20
252.35
 30
0.0
 11
-40.7031939779
 21
252.35
 31
0.0
  0
LINE
  5
5F7
  8
VIDITELNE
  6
SLD-PLNÁ
 62
     2
 10
45.7031939779
 20
252.35
 30
0.0
 11
45.7031939779
 21
257.65
 31
0.0
  0
LINE
  5
5F8
  8
VIDITELNE
  6
SLD-PLNÁ
 62
     2
 10
40.7031939779
 20
252.35
 30
0.0
 11
40.7031939779
 21
257.65
 31
0.0
  0
LINE
  5
5F9
  8
VIDITELNE
  6
SLD-PLNÁ
 62
     2
 10
45.7031939779
 20
257.65
 30
0.0
 11
44.8524671544
 21
257.65
 31
0.0
  0
LINE
  5
5FA
  8
VIDITELNE
  6
SLD-PLNÁ
 62
     2
 10
45.7031939779
 20
252.35
 30
0.0
 11
40.7031939779
 21
252.35
 31
0.0
  0
LINE
  5
5FB
  8
VIDITELNE
  6
SLD-PLNÁ
 62
     2
 10
35.7031939779
 20
252.35
 30
0.0
 11
35.7031939779
 21
257.65
 31
0.0
  0
LINE
  5
5FC
  8
VIDITELNE
  6
SLD-PLNÁ
 62
     2
 10
40.7031939779
 20
252.35
 30
0.0
 11
35.7031939779
 21
252.35
 31
0.0
  0
LINE
  5
5FD
  8
VIDITELNE
  6
SLD-PLNÁ
 62
     2
 10
-10.5
 20
264.65
 30
0.0
 11
10.5
 21
264.65
 31
0.0
  0
ARC
  5
5FE
  8
VIDITELNE
  6
SLD-PLNÁ
 62
     2
 10
-51.2573344869
 20
272.1930054716
 30
0.0
 40
3.544936238730453
 50
205.8024949382
 51
271.8911156085
  0
ARC
  5
5FF
  8
VIDITELNE
  6
SLD-PLNÁ
 62
     2
 10
51.2566761971
 20
272.1963872092
 30
0.0
 40
3.548294494215293
 50
268.1213102984
 51
334.1630639129
  0
ARC
  5
600
  8
VIDITELNE
  6
SLD-PLNÁ
 62
     2
 10
51.2573344869
 20
519.1069945284
 30
0.0
 40
3.544936238730673
 50
25.8024949382
 51
91.8911156085
  0
ARC
  5
601
  8
VIDITELNE
  6
SLD-PLNÁ
 62
     2
 10
-51.2566761971
 20
519.1036127908
 30
0.0
 40
3.548294494215168
 50
88.1213102984
 51
154.1630639129
  0
LINE
  5
602
  8
VIDITELNE
  6
SLD-PLNÁ
 62
     2
 10
-78.0
 20
403.65
 30
0.0
 11
-78.0
 21
387.65
 31
0.0
  0
LINE
  5
603
  8
VIDITELNE
  6
SLD-PLNÁ
 62
     2
 10
-78.0
 20
322.3327201635
 30
0.0
 11
-78.0
 21
306.3327201635
 31
0.0
  0
LINE
  5
604
  8
VIDITELNE
  6
SLD-PLNÁ
 62
     2
 10
-78.0
 20
484.9672798365
 30
0.0
 11
-78.0
 21
468.9672798365
 31
0.0
  0
LINE
  5
605
  8
VIDITELNE
  6
SLD-PLNÁ
 62
     2
 10
-78.0
 20
288.65
 30
0.0
 11
-78.0
 21
272.65
 31
0.0
  0
LINE
  5
606
  8
VIDITELNE
  6
SLD-PLNÁ
 62
     2
 10
-78.0
 20
518.65
 30
0.0
 11
-78.0
 21
502.65
 31
0.0
  0
LINE
  5
607
  8
VIDITELNE
  6
SLD-PLNÁ
 62
     2
 10
78.0
 20
387.65
 30
0.0
 11
78.0
 21
403.65
 31
0.0
  0
LINE
  5
608
  8
VIDITELNE
  6
SLD-PLNÁ
 62
     2
 10
78.0
 20
468.9672798365
 30
0.0
 11
78.0
 21
484.9672798365
 31
0.0
  0
LINE
  5
609
  8
VIDITELNE
  6
SLD-PLNÁ
 62
     2
 10
78.0
 20
306.3327201635
 30
0.0
 11
78.0
 21
322.3327201635
 31
0.0
  0
LINE
  5
60A
  8
VIDITELNE
  6
SLD-PLNÁ
 62
     2
 10
78.0
 20
502.65
 30
0.0
 11
78.0
 21
518.65
 31
0.0
  0
LINE
  5
60B
  8
VIDITELNE
  6
SLD-PLNÁ
 62
     2
 10
78.0
 20
272.65
 30
0.0
 11
78.0
 21
288.65
 31
0.0
  0
LINE
  5
60C
  8
VIDITELNE
  6
SLD-PLNÁ
 62
     2
 10
-99.6483548705
 20
537.5802010066
 30
0.0
 11
99.6483548705
 21
537.5802010066
 31
0.0
  0
LINE
  5
60D
  8
VIDITELNE
  6
SLD-PLNÁ
 62
     2
 10
-55.2481015383
 20
532.7546984901
 30
0.0
 11
55.2481015383
 21
532.7546984901
 31
0.0
  0
LINE
  5
60E
  8
VIDITELNE
  6
SLD-PLNÁ
 62
     2
 10
-54.2880379485
 20
259.5802010066
 30
0.0
 11
54.2880379485
 21
259.5802010066
 31
0.0
  0
LINE
  5
60F
  8
VIDITELNE
  6
SLD-PLNÁ
 62
     2
 10
-55.0
 20
-518.65
 30
0.0
 11
-55.0
 21
-525.65
 31
0.0
  0
LINE
  5
610
  8
VIDITELNE
  6
SLD-PLNÁ
 62
     2
 10
-55.0
 20
-265.65
 30
0.0
 11
-55.0
 21
-272.65
 31
0.0
  0
LINE
  5
611
  8
VIDITELNE
  6
SLD-PLNÁ
 62
     2
 10
55.0
 20
-272.65
 30
0.0
 11
55.0
 21
-265.65
 31
0.0
  0
LINE
  5
612
  8
VIDITELNE
  6
SLD-PLNÁ
 62
     2
 10
55.0
 20
-525.65
 30
0.0
 11
55.0
 21
-518.65
 31
0.0
  0
LINE
  5
613
  8
VIDITELNE
  6
SLD-PLNÁ
 62
     2
 10
55.0
 20
-520.65
 30
0.0
 11
58.0
 21
-520.65
 31
0.0
  0
LINE
  5
614
  8
VIDITELNE
  6
SLD-PLNÁ
 62
     2
 10
-58.0
 20
-520.65
 30
0.0
 11
-55.0
 21
-520.65
 31
0.0
  0
LINE
  5
615
  8
VIDITELNE
  6
SLD-PLNÁ
 62
     2
 10
-55.0
 20
-270.65
 30
0.0
 11
-58.0
 21
-270.65
 31
0.0
  0
LINE
  5
616
  8
VIDITELNE
  6
SLD-PLNÁ
 62
     2
 10
58.0
 20
-270.65
 30
0.0
 11
55.0
 21
-270.65
 31
0.0
  0
ARC
  5
617
  8
VIDITELNE
  6
SLD-PLNÁ
 62
     2
 10
-84.0
 20
-426.15
 30
0.0
 40
2.0
 50
180.0
 51
270.0
  0
ARC
  5
618
  8
VIDITELNE
  6
SLD-PLNÁ
 62
     2
 10
-84.0
 20
-365.15
 30
0.0
 40
2.0
 50
90.0
 51
180.0
  0
ARC
  5
619
  8
VIDITELNE
  6
SLD-PLNÁ
 62
     2
 10
84.0
 20
-365.15
 30
0.0
 40
2.0
 50
0.0
 51
90.0
  0
ARC
  5
61A
  8
VIDITELNE
  6
SLD-PLNÁ
 62
     2
 10
84.0
 20
-426.15
 30
0.0
 40
2.0
 50
270.0
 51
0.0
  0
LINE
  5
61B
  8
VIDITELNE
  6
SLD-PLNÁ
 62
     2
 10
-58.0
 20
-270.65
 30
0.0
 11
-69.0
 21
-271.0341284644
 31
0.0
  0
LINE
  5
61C
  8
VIDITELNE
  6
SLD-PLNÁ
 62
     2
 10
-69.0
 20
-520.2658715356
 30
0.0
 11
-58.0
 21
-520.65
 31
0.0
  0
ARC
  5
61D
  8
VIDITELNE
  6
SLD-PLNÁ
 62
     2
 10
-78.0
 20
-402.65
 30
0.0
 40
1.0
 50
180.0
 51
270.0
  0
ARC
  5
61E
  8
VIDITELNE
  6
SLD-PLNÁ
 62
     2
 10
-78.0
 20
-388.65
 30
0.0
 40
1.0
 50
90.0
 51
180.0
  0
LINE
  5
61F
  8
VIDITELNE
  6
SLD-PLNÁ
 62
     2
 10
-69.0
 20
-387.65
 30
0.0
 11
-78.0
 21
-387.65
 31
0.0
  0
LINE
  5
620
  8
VIDITELNE
  6
SLD-PLNÁ
 62
     2
 10
-78.0
 20
-403.65
 30
0.0
 11
-69.0
 21
-403.65
 31
0.0
  0
ARC
  5
621
  8
VIDITELNE
  6
SLD-PLNÁ
 62
     2
 10
-78.0
 20
-321.3327201635
 30
0.0
 40
1.0
 50
180.0
 51
270.0
  0
ARC
  5
622
  8
VIDITELNE
  6
SLD-PLNÁ
 62
     2
 10
-78.0
 20
-307.3327201635
 30
0.0
 40
1.0
 50
90.0
 51
180.0
  0
LINE
  5
623
  8
VIDITELNE
  6
SLD-PLNÁ
 62
     2
 10
-69.0
 20
-306.3327201635
 30
0.0
 11
-78.0
 21
-306.3327201635
 31
0.0
  0
LINE
  5
624
  8
VIDITELNE
  6
SLD-PLNÁ
 62
     2
 10
-78.0
 20
-322.3327201635
 30
0.0
 11
-69.0
 21
-322.3327201635
 31
0.0
  0
ARC
  5
625
  8
VIDITELNE
  6
SLD-PLNÁ
 62
     2
 10
-78.0
 20
-483.9672798365
 30
0.0
 40
1.000000000000014
 50
180.0
 51
270.0
  0
ARC
  5
626
  8
VIDITELNE
  6
SLD-PLNÁ
 62
     2
 10
-78.0
 20
-469.9672798365
 30
0.0
 40
1.000000000000014
 50
90.0
 51
180.0
  0
LINE
  5
627
  8
VIDITELNE
  6
SLD-PLNÁ
 62
     2
 10
-69.0
 20
-468.9672798365
 30
0.0
 11
-78.0
 21
-468.9672798365
 31
0.0
  0
LINE
  5
628
  8
VIDITELNE
  6
SLD-PLNÁ
 62
     2
 10
-78.0
 20
-484.9672798365
 30
0.0
 11
-69.0
 21
-484.9672798365
 31
0.0
  0
LINE
  5
629
  8
VIDITELNE
  6
SLD-PLNÁ
 62
     2
 10
-84.0
 20
-460.65
 30
0.0
 11
-80.5
 21
-460.65
 31
0.0
  0
LINE
  5
62A
  8
VIDITELNE
  6
SLD-PLNÁ
 62
     2
 10
-80.5
 20
-330.65
 30
0.0
 11
-84.0
 21
-330.65
 31
0.0
  0
LINE
  5
62B
  8
VIDITELNE
  6
SLD-PLNÁ
 62
     2
 10
-80.5
 20
-490.65
 30
0.0
 11
-76.8731240234
 21
-492.7439778214
 31
0.0
  0
LINE
  5
62C
  8
VIDITELNE
  6
SLD-PLNÁ
 62
     2
 10
-76.8731240234
 20
-298.5560221786
 30
0.0
 11
-80.5
 21
-300.65
 31
0.0
  0
LINE
  5
62D
  8
VIDITELNE
  6
SLD-PLNÁ
 62
     2
 10
-69.0
 20
-272.65
 30
0.0
 11
-78.0
 21
-272.65
 31
0.0
  0
LINE
  5
62E
  8
VIDITELNE
  6
SLD-PLNÁ
 62
     2
 10
-78.0
 20
-288.65
 30
0.0
 11
-72.3094140097
 21
-288.65
 31
0.0
  0
ARC
  5
62F
  8
VIDITELNE
  6
SLD-PLNÁ
 62
     2
 10
-78.0
 20
-287.65
 30
0.0
 40
1.0
 50
180.0
 51
270.0
  0
ARC
  5
630
  8
VIDITELNE
  6
SLD-PLNÁ
 62
     2
 10
-78.0
 20
-273.65
 30
0.0
 40
1.0
 50
90.0
 51
180.0
  0
LINE
  5
631
  8
VIDITELNE
  6
SLD-PLNÁ
 62
     2
 10
-72.3094140097
 20
-502.65
 30
0.0
 11
-78.0
 21
-502.65
 31
0.0
  0
LINE
  5
632
  8
VIDITELNE
  6
SLD-PLNÁ
 62
     2
 10
-78.0
 20
-518.65
 30
0.0
 11
-69.0
 21
-518.65
 31
0.0
  0
ARC
  5
633
  8
VIDITELNE
  6
SLD-PLNÁ
 62
     2
 10
-78.0
 20
-517.65
 30
0.0
 40
1.0
 50
180.0
 51
270.0
  0
ARC
  5
634
  8
VIDITELNE
  6
SLD-PLNÁ
 62
     2
 10
-78.0
 20
-503.65
 30
0.0
 40
1.0
 50
90.0
 51
180.0
  0
LINE
  5
635
  8
VIDITELNE
  6
SLD-PLNÁ
 62
     2
 10
58.0
 20
-520.65
 30
0.0
 11
69.0
 21
-520.2658715356
 31
0.0
  0
LINE
  5
636
  8
VIDITELNE
  6
SLD-PLNÁ
 62
     2
 10
69.0
 20
-271.0341284644
 30
0.0
 11
58.0
 21
-270.65
 31
0.0
  0
LINE
  5
637
  8
VIDITELNE
  6
SLD-PLNÁ
 62
     2
 10
69.0
 20
-403.65
 30
0.0
 11
78.0
 21
-403.65
 31
0.0
  0
LINE
  5
638
  8
VIDITELNE
  6
SLD-PLNÁ
 62
     2
 10
78.0
 20
-387.65
 30
0.0
 11
69.0
 21
-387.65
 31
0.0
  0
ARC
  5
639
  8
VIDITELNE
  6
SLD-PLNÁ
 62
     2
 10
78.0
 20
-388.65
 30
0.0
 40
1.0
 50
0.0
 51
90.0
  0
ARC
  5
63A
  8
VIDITELNE
  6
SLD-PLNÁ
 62
     2
 10
78.0
 20
-402.65
 30
0.0
 40
1.0
 50
270.0
 51
0.0
  0
ARC
  5
63B
  8
VIDITELNE
  6
SLD-PLNÁ
 62
     2
 10
78.0
 20
-469.9672798365
 30
0.0
 40
1.0
 50
0.0
 51
90.0
  0
ARC
  5
63C
  8
VIDITELNE
  6
SLD-PLNÁ
 62
     2
 10
78.0
 20
-483.9672798365
 30
0.0
 40
1.0
 50
270.0
 51
0.0
  0
LINE
  5
63D
  8
VIDITELNE
  6
SLD-PLNÁ
 62
     2
 10
69.0
 20
-484.9672798365
 30
0.0
 11
78.0
 21
-484.9672798365
 31
0.0
  0
LINE
  5
63E
  8
VIDITELNE
  6
SLD-PLNÁ
 62
     2
 10
78.0
 20
-468.9672798365
 30
0.0
 11
69.0
 21
-468.9672798365
 31
0.0
  0
ARC
  5
63F
  8
VIDITELNE
  6
SLD-PLNÁ
 62
     2
 10
78.0
 20
-307.3327201635
 30
0.0
 40
1.0
 50
0.0
 51
90.0
  0
ARC
  5
640
  8
VIDITELNE
  6
SLD-PLNÁ
 62
     2
 10
78.0
 20
-321.3327201635
 30
0.0
 40
1.0
 50
270.0
 51
0.0
  0
LINE
  5
641
  8
VIDITELNE
  6
SLD-PLNÁ
 62
     2
 10
69.0
 20
-322.3327201635
 30
0.0
 11
78.0
 21
-322.3327201635
 31
0.0
  0
LINE
  5
642
  8
VIDITELNE
  6
SLD-PLNÁ
 62
     2
 10
78.0
 20
-306.3327201635
 30
0.0
 11
69.0
 21
-306.3327201635
 31
0.0
  0
LINE
  5
643
  8
VIDITELNE
  6
SLD-PLNÁ
 62
     2
 10
84.0
 20
-330.65
 30
0.0
 11
80.5
 21
-330.65
 31
0.0
  0
LINE
  5
644
  8
VIDITELNE
  6
SLD-PLNÁ
 62
     2
 10
80.5
 20
-460.65
 30
0.0
 11
84.0
 21
-460.65
 31
0.0
  0
LINE
  5
645
  8
VIDITELNE
  6
SLD-PLNÁ
 62
     2
 10
80.5
 20
-300.65
 30
0.0
 11
76.8731240234
 21
-298.5560221786
 31
0.0
  0
LINE
  5
646
  8
VIDITELNE
  6
SLD-PLNÁ
 62
     2
 10
76.8731240234
 20
-492.7439778214
 30
0.0
 11
80.5
 21
-490.65
 31
0.0
  0
ARC
  5
647
  8
VIDITELNE
  6
SLD-PLNÁ
 62
     2
 10
78.0
 20
-503.65
 30
0.0
 40
1.0
 50
0.0
 51
90.0
  0
ARC
  5
648
  8
VIDITELNE
  6
SLD-PLNÁ
 62
     2
 10
78.0
 20
-517.65
 30
0.0
 40
1.0
 50
270.0
 51
0.0
  0
LINE
  5
649
  8
VIDITELNE
  6
SLD-PLNÁ
 62
     2
 10
69.0
 20
-518.65
 30
0.0
 11
78.0
 21
-518.65
 31
0.0
  0
LINE
  5
64A
  8
VIDITELNE
  6
SLD-PLNÁ
 62
     2
 10
78.0
 20
-502.65
 30
0.0
 11
72.3094140097
 21
-502.65
 31
0.0
  0
LINE
  5
64B
  8
VIDITELNE
  6
SLD-PLNÁ
 62
     2
 10
72.3094140097
 20
-288.65
 30
0.0
 11
78.0
 21
-288.65
 31
0.0
  0
LINE
  5
64C
  8
VIDITELNE
  6
SLD-PLNÁ
 62
     2
 10
78.0
 20
-272.65
 30
0.0
 11
69.0
 21
-272.65
 31
0.0
  0
ARC
  5
64D
  8
VIDITELNE
  6
SLD-PLNÁ
 62
     2
 10
78.0
 20
-273.65
 30
0.0
 40
1.0
 50
0.0
 51
90.0
  0
ARC
  5
64E
  8
VIDITELNE
  6
SLD-PLNÁ
 62
     2
 10
78.0
 20
-287.65
 30
0.0
 40
1.0
 50
270.0
 51
0.0
  0
LINE
  5
64F
  8
VIDITELNE
  6
SLD-PLNÁ
 62
     2
 10
100.0
 20
-547.65
 30
0.0
 11
99.6483548705
 21
-537.5802010066
 31
0.0
  0
LINE
  5
650
  8
VIDITELNE
  6
SLD-PLNÁ
 62
     2
 10
-99.6483548705
 20
-537.5802010066
 30
0.0
 11
-100.0
 21
-547.65
 31
0.0
  0
ARC
  5
651
  8
VIDITELNE
  6
SLD-PLNÁ
 62
     2
 10
97.6495732165
 20
-537.65
 30
0.0
 40
1.99999999999998
 50
2.0
 51
90.0
  0
ARC
  5
652
  8
VIDITELNE
  6
SLD-PLNÁ
 62
     2
 10
-97.6495732165
 20
-537.65
 30
0.0
 40
2.000000000000455
 50
90.0
 51
178.0
  0
ARC
  5
653
  8
VIDITELNE
  6
SLD-PLNÁ
 62
     2
 10
58.2462740193
 20
-532.65
 30
0.0
 40
3.000000000000227
 50
182.0
 51
270.0
  0
ARC
  5
654
  8
VIDITELNE
  6
SLD-PLNÁ
 62
     2
 10
-58.2462740193
 20
-532.65
 30
0.0
 40
2.999999999999981
 50
270.0
 51
358.0
  0
LINE
  5
655
  8
VIDITELNE
  6
SLD-PLNÁ
 62
     2
 10
55.2481015383
 20
-532.7546984901
 30
0.0
 11
55.0
 21
-525.65
 31
0.0
  0
LINE
  5
656
  8
VIDITELNE
  6
SLD-PLNÁ
 62
     2
 10
-55.0
 20
-525.65
 30
0.0
 11
-55.2481015383
 21
-532.7546984901
 31
0.0
  0
POLYLINE
  5
657
  8
VIDITELNE
  6
SLD-PLNÁ
 62
     2
 66
     1
 10
0.0
 20
0.0
 30
0.0
  0
VERTEX
  5
93A
  8
VIDITELNE
  6
SLD-PLNÁ
 62
     2
 10
5.6666846725
 20
-387.1306102589
 30
0.0
  0
VERTEX
  5
93B
  8
VIDITELNE
  6
SLD-PLNÁ
 62
     2
 10
5.6469290453
 20
-386.6636939954
 30
0.0
  0
VERTEX
  5
93C
  8
VIDITELNE
  6
SLD-PLNÁ
 62
     2
 10
5.5695338792
 20
-384.9596062025
 30
0.0
  0
VERTEX
  5
93D
  8
VIDITELNE
  6
SLD-PLNÁ
 62
     2
 10
5.4848058498
 20
-383.2711937163
 30
0.0
  0
VERTEX
  5
93E
  8
VIDITELNE
  6
SLD-PLNÁ
 62
     2
 10
5.3922397945
 20
-381.666711847
 30
0.0
  0
VERTEX
  5
93F
  8
VIDITELNE
  6
SLD-PLNÁ
 62
     2
 10
5.2941389348
 20
-380.2671891699
 30
0.0
  0
VERTEX
  5
940
  8
VIDITELNE
  6
SLD-PLNÁ
 62
     2
 10
5.1840504156
 20
-379.0908963203
 30
0.0
  0
VERTEX
  5
941
  8
VIDITELNE
  6
SLD-PLNÁ
 62
     2
 10
5.0568832559
 20
-378.1855286419
 30
0.0
  0
VERTEX
  5
942
  8
VIDITELNE
  6
SLD-PLNÁ
 62
     2
 10
4.9253837934
 20
-377.5716119229
 30
0.0
  0
VERTEX
  5
943
  8
VIDITELNE
  6
SLD-PLNÁ
 62
     2
 10
4.7345654673
 20
-376.9633048764
 30
0.0
  0
VERTEX
  5
944
  8
VIDITELNE
  6
SLD-PLNÁ
 62
     2
 10
4.2882497035
 20
-376.0496659084
 30
0.0
  0
VERTEX
  5
945
  8
VIDITELNE
  6
SLD-PLNÁ
 62
     2
 10
3.396082496
 20
-374.9661860828
 30
0.0
  0
VERTEX
  5
946
  8
VIDITELNE
  6
SLD-PLNÁ
 62
     2
 10
1.9181534028
 20
-374.0229568418
 30
0.0
  0
VERTEX
  5
947
  8
VIDITELNE
  6
SLD-PLNÁ
 62
     2
 10
0.0257601348
 20
-373.6412475265
 30
0.0
  0
VERTEX
  5
948
  8
VIDITELNE
  6
SLD-PLNÁ
 62
     2
 10
-1.835044558
 20
-373.9883008487
 30
0.0
  0
VERTEX
  5
949
  8
VIDITELNE
  6
SLD-PLNÁ
 62
     2
 10
-2.5621207621
 20
-374.3438944204
 30
0.0
  0
VERTEX
  5
94A
  8
VIDITELNE
  6
SLD-PLNÁ
 62
     2
 10
-3.1265307852
 20
-374.7337320124
 30
0.0
  0
VERTEX
  5
94B
  8
VIDITELNE
  6
SLD-PLNÁ
 62
     2
 10
-3.9607825056
 20
-375.5822648389
 30
0.0
  0
VERTEX
  5
94C
  8
VIDITELNE
  6
SLD-PLNÁ
 62
     2
 10
-4.555558835
 20
-376.5671640636
 30
0.0
  0
VERTEX
  5
94D
  8
VIDITELNE
  6
SLD-PLNÁ
 62
     2
 10
-4.9785910573
 20
-377.8551908071
 30
0.0
  0
VERTEX
  5
94E
  8
VIDITELNE
  6
SLD-PLNÁ
 62
     2
 10
-5.1727795124
 20
-379.0743777347
 30
0.0
  0
VERTEX
  5
94F
  8
VIDITELNE
  6
SLD-PLNÁ
 62
     2
 10
-5.307184418
 20
-380.4600382301
 30
0.0
  0
VERTEX
  5
950
  8
VIDITELNE
  6
SLD-PLNÁ
 62
     2
 10
-5.4622563474
 20
-382.856176907
 30
0.0
  0
VERTEX
  5
951
  8
VIDITELNE
  6
SLD-PLNÁ
 62
     2
 10
-5.6013826799
 20
-385.6466833756
 30
0.0
  0
VERTEX
  5
952
  8
VIDITELNE
  6
SLD-PLNÁ
 62
     2
 10
-5.6658456659
 20
-387.1062559607
 30
0.0
  0
SEQEND
  5
953
  8
VIDITELNE
  6
SLD-PLNÁ
 62
     2
  0
POLYLINE
  5
658
  8
VIDITELNE
  6
SLD-PLNÁ
 62
     2
 66
     1
 10
0.0
 20
0.0
 30
0.0
  0
VERTEX
  5
954
  8
VIDITELNE
  6
SLD-PLNÁ
 62
     2
 10
4.0
 20
-395.65
 30
0.0
  0
VERTEX
  5
955
  8
VIDITELNE
  6
SLD-PLNÁ
 62
     2
 10
4.1124347247
 20
-392.6704624991
 30
0.0
  0
VERTEX
  5
956
  8
VIDITELNE
  6
SLD-PLNÁ
 62
     2
 10
4.2051998722
 20
-390.2705819662
 30
0.0
  0
VERTEX
  5
957
  8
VIDITELNE
  6
SLD-PLNÁ
 62
     2
 10
4.2792266692
 20
-388.4457101775
 30
0.0
  0
VERTEX
  5
958
  8
VIDITELNE
  6
SLD-PLNÁ
 62
     2
 10
4.3546746922
 20
-386.6884231237
 30
0.0
  0
VERTEX
  5
959
  8
VIDITELNE
  6
SLD-PLNÁ
 62
     2
 10
4.3967059425
 20
-385.7637232165
 30
0.0
  0
VERTEX
  5
95A
  8
VIDITELNE
  6
SLD-PLNÁ
 62
     2
 10
4.502494763
 20
-383.6432814518
 30
0.0
  0
VERTEX
  5
95B
  8
VIDITELNE
  6
SLD-PLNÁ
 62
     2
 10
4.5699347908
 20
-382.4685732026
 30
0.0
  0
VERTEX
  5
95C
  8
VIDITELNE
  6
SLD-PLNÁ
 62
     2
 10
4.6376503409
 20
-381.4477312076
 30
0.0
  0
VERTEX
  5
95D
  8
VIDITELNE
  6
SLD-PLNÁ
 62
     2
 10
4.7593691836
 20
-380.0719299346
 30
0.0
  0
VERTEX
  5
95E
  8
VIDITELNE
  6
SLD-PLNÁ
 62
     2
 10
4.7841102591
 20
-379.8792981513
 30
0.0
  0
VERTEX
  5
95F
  8
VIDITELNE
  6
SLD-PLNÁ
 62
     2
 10
4.7851628186
 20
-379.8800260101
 30
0.0
  0
SEQEND
  5
960
  8
VIDITELNE
  6
SLD-PLNÁ
 62
     2
  0
POLYLINE
  5
659
  8
VIDITELNE
  6
SLD-PLNÁ
 62
     2
 66
     1
 10
0.0
 20
0.0
 30
0.0
  0
VERTEX
  5
961
  8
VIDITELNE
  6
SLD-PLNÁ
 62
     2
 10
-4.5609406031
 20
-380.9052247045
 30
0.0
  0
VERTEX
  5
962
  8
VIDITELNE
  6
SLD-PLNÁ
 62
     2
 10
-4.6083093105
 20
-381.0825876396
 30
0.0
  0
VERTEX
  5
963
  8
VIDITELNE
  6
SLD-PLNÁ
 62
     2
 10
-4.5872829293
 20
-381.7992030088
 30
0.0
  0
VERTEX
  5
964
  8
VIDITELNE
  6
SLD-PLNÁ
 62
     2
 10
-4.5334301933
 20
-382.9024763961
 30
0.0
  0
VERTEX
  5
965
  8
VIDITELNE
  6
SLD-PLNÁ
 62
     2
 10
-4.4772049396
 20
-384.0617190805
 30
0.0
  0
VERTEX
  5
966
  8
VIDITELNE
  6
SLD-PLNÁ
 62
     2
 10
-4.4253123188
 20
-385.1495109281
 30
0.0
  0
VERTEX
  5
967
  8
VIDITELNE
  6
SLD-PLNÁ
 62
     2
 10
-4.3825684312
 20
-386.0696092096
 30
0.0
  0
VERTEX
  5
968
  8
VIDITELNE
  6
SLD-PLNÁ
 62
     2
 10
-4.359869123
 20
-386.5718730035
 30
0.0
  0
VERTEX
  5
969
  8
VIDITELNE
  6
SLD-PLNÁ
 62
     2
 10
-4.3254665392
 20
-387.355087054
 30
0.0
  0
VERTEX
  5
96A
  8
VIDITELNE
  6
SLD-PLNÁ
 62
     2
 10
-4.2723584433
 20
-388.6117743898
 30
0.0
  0
VERTEX
  5
96B
  8
VIDITELNE
  6
SLD-PLNÁ
 62
     2
 10
-4.200442606
 20
-390.3922920467
 30
0.0
  0
VERTEX
  5
96C
  8
VIDITELNE
  6
SLD-PLNÁ
 62
     2
 10
-4.1098831469
 20
-392.7361780941
 30
0.0
  0
VERTEX
  5
96D
  8
VIDITELNE
  6
SLD-PLNÁ
 62
     2
 10
-4.0
 20
-395.65
 30
0.0
  0
SEQEND
  5
96E
  8
VIDITELNE
  6
SLD-PLNÁ
 62
     2
  0
POLYLINE
  5
65A
  8
VIDITELNE
  6
SLD-PLNÁ
 62
     2
 66
     1
 10
0.0
 20
0.0
 30
0.0
  0
VERTEX
  5
96F
  8
VIDITELNE
  6
SLD-PLNÁ
 62
     2
 10
-5.6645806007
 20
-404.2223876775
 30
0.0
  0
VERTEX
  5
970
  8
VIDITELNE
  6
SLD-PLNÁ
 62
     2
 10
-5.6013826799
 20
-405.6533166244
 30
0.0
  0
VERTEX
  5
971
  8
VIDITELNE
  6
SLD-PLNÁ
 62
     2
 10
-5.4622563474
 20
-408.443823093
 30
0.0
  0
VERTEX
  5
972
  8
VIDITELNE
  6
SLD-PLNÁ
 62
     2
 10
-5.307184418
 20
-410.8399617699
 30
0.0
  0
VERTEX
  5
973
  8
VIDITELNE
  6
SLD-PLNÁ
 62
     2
 10
-5.1727795124
 20
-412.2256222653
 30
0.0
  0
VERTEX
  5
974
  8
VIDITELNE
  6
SLD-PLNÁ
 62
     2
 10
-4.9785910573
 20
-413.4448091929
 30
0.0
  0
VERTEX
  5
975
  8
VIDITELNE
  6
SLD-PLNÁ
 62
     2
 10
-4.555558835
 20
-414.7328359364
 30
0.0
  0
VERTEX
  5
976
  8
VIDITELNE
  6
SLD-PLNÁ
 62
     2
 10
-3.9607825056
 20
-415.7177351611
 30
0.0
  0
VERTEX
  5
977
  8
VIDITELNE
  6
SLD-PLNÁ
 62
     2
 10
-3.1265307852
 20
-416.5662679876
 30
0.0
  0
VERTEX
  5
978
  8
VIDITELNE
  6
SLD-PLNÁ
 62
     2
 10
-2.5621207621
 20
-416.9561055796
 30
0.0
  0
VERTEX
  5
979
  8
VIDITELNE
  6
SLD-PLNÁ
 62
     2
 10
-1.835044558
 20
-417.3116991513
 30
0.0
  0
VERTEX
  5
97A
  8
VIDITELNE
  6
SLD-PLNÁ
 62
     2
 10
0.0257601348
 20
-417.6587524735
 30
0.0
  0
VERTEX
  5
97B
  8
VIDITELNE
  6
SLD-PLNÁ
 62
     2
 10
1.9181534028
 20
-417.2770431582
 30
0.0
  0
VERTEX
  5
97C
  8
VIDITELNE
  6
SLD-PLNÁ
 62
     2
 10
3.396082496
 20
-416.3338139172
 30
0.0
  0
VERTEX
  5
97D
  8
VIDITELNE
  6
SLD-PLNÁ
 62
     2
 10
4.2882497035
 20
-415.2503340916
 30
0.0
  0
VERTEX
  5
97E
  8
VIDITELNE
  6
SLD-PLNÁ
 62
     2
 10
4.7345654673
 20
-414.3366951236
 30
0.0
  0
VERTEX
  5
97F
  8
VIDITELNE
  6
SLD-PLNÁ
 62
     2
 10
4.9652466052
 20
-413.5657153042
 30
0.0
  0
VERTEX
  5
980
  8
VIDITELNE
  6
SLD-PLNÁ
 62
     2
 10
5.115144877
 20
-412.7497748113
 30
0.0
  0
VERTEX
  5
981
  8
VIDITELNE
  6
SLD-PLNÁ
 62
     2
 10
5.2941389348
 20
-411.0328108301
 30
0.0
  0
VERTEX
  5
982
  8
VIDITELNE
  6
SLD-PLNÁ
 62
     2
 10
5.3922397945
 20
-409.633288153
 30
0.0
  0
VERTEX
  5
983
  8
VIDITELNE
  6
SLD-PLNÁ
 62
     2
 10
5.4848058498
 20
-408.0288062837
 30
0.0
  0
VERTEX
  5
984
  8
VIDITELNE
  6
SLD-PLNÁ
 62
     2
 10
5.5695338792
 20
-406.3403937975
 30
0.0
  0
VERTEX
  5
985
  8
VIDITELNE
  6
SLD-PLNÁ
 62
     2
 10
5.6469290453
 20
-404.6363060046
 30
0.0
  0
VERTEX
  5
986
  8
VIDITELNE
  6
SLD-PLNÁ
 62
     2
 10
5.6666858978
 20
-404.1693607805
 30
0.0
  0
SEQEND
  5
987
  8
VIDITELNE
  6
SLD-PLNÁ
 62
     2
  0
POLYLINE
  5
65B
  8
VIDITELNE
  6
SLD-PLNÁ
 62
     2
 66
     1
 10
0.0
 20
0.0
 30
0.0
  0
VERTEX
  5
988
  8
VIDITELNE
  6
SLD-PLNÁ
 62
     2
 10
-4.0
 20
-395.65
 30
0.0
  0
VERTEX
  5
989
  8
VIDITELNE
  6
SLD-PLNÁ
 62
     2
 10
-4.1098831469
 20
-398.5638219059
 30
0.0
  0
VERTEX
  5
98A
  8
VIDITELNE
  6
SLD-PLNÁ
 62
     2
 10
-4.200442606
 20
-400.9077079532
 30
0.0
  0
VERTEX
  5
98B
  8
VIDITELNE
  6
SLD-PLNÁ
 62
     2
 10
-4.2723584433
 20
-402.6882256102
 30
0.0
  0
VERTEX
  5
98C
  8
VIDITELNE
  6
SLD-PLNÁ
 62
     2
 10
-4.3449951295
 20
-404.3927147306
 30
0.0
  0
VERTEX
  5
98D
  8
VIDITELNE
  6
SLD-PLNÁ
 62
     2
 10
-4.3825684312
 20
-405.2303907904
 30
0.0
  0
VERTEX
  5
98E
  8
VIDITELNE
  6
SLD-PLNÁ
 62
     2
 10
-4.4253123188
 20
-406.1504890719
 30
0.0
  0
VERTEX
  5
98F
  8
VIDITELNE
  6
SLD-PLNÁ
 62
     2
 10
-4.4772049396
 20
-407.2382809195
 30
0.0
  0
VERTEX
  5
990
  8
VIDITELNE
  6
SLD-PLNÁ
 62
     2
 10
-4.5334301933
 20
-408.3975236039
 30
0.0
  0
VERTEX
  5
991
  8
VIDITELNE
  6
SLD-PLNÁ
 62
     2
 10
-4.5872829293
 20
-409.5007969912
 30
0.0
  0
VERTEX
  5
992
  8
VIDITELNE
  6
SLD-PLNÁ
 62
     2
 10
-4.6083093105
 20
-410.2174123604
 30
0.0
  0
VERTEX
  5
993
  8
VIDITELNE
  6
SLD-PLNÁ
 62
     2
 10
-4.5609406031
 20
-410.3947752955
 30
0.0
  0
SEQEND
  5
994
  8
VIDITELNE
  6
SLD-PLNÁ
 62
     2
  0
POLYLINE
  5
65C
  8
VIDITELNE
  6
SLD-PLNÁ
 62
     2
 66
     1
 10
0.0
 20
0.0
 30
0.0
  0
VERTEX
  5
995
  8
VIDITELNE
  6
SLD-PLNÁ
 62
     2
 10
4.7851628186
 20
-411.4199739899
 30
0.0
  0
VERTEX
  5
996
  8
VIDITELNE
  6
SLD-PLNÁ
 62
     2
 10
4.7841102591
 20
-411.4207018487
 30
0.0
  0
VERTEX
  5
997
  8
VIDITELNE
  6
SLD-PLNÁ
 62
     2
 10
4.7160283167
 20
-410.8118452987
 30
0.0
  0
VERTEX
  5
998
  8
VIDITELNE
  6
SLD-PLNÁ
 62
     2
 10
4.6376503409
 20
-409.8522687924
 30
0.0
  0
VERTEX
  5
999
  8
VIDITELNE
  6
SLD-PLNÁ
 62
     2
 10
4.5699347908
 20
-408.8314267974
 30
0.0
  0
VERTEX
  5
99A
  8
VIDITELNE
  6
SLD-PLNÁ
 62
     2
 10
4.502494763
 20
-407.6567185482
 30
0.0
  0
VERTEX
  5
99B
  8
VIDITELNE
  6
SLD-PLNÁ
 62
     2
 10
4.3967059425
 20
-405.5362767835
 30
0.0
  0
VERTEX
  5
99C
  8
VIDITELNE
  6
SLD-PLNÁ
 62
     2
 10
4.370339666
 20
-404.9611526733
 30
0.0
  0
VERTEX
  5
99D
  8
VIDITELNE
  6
SLD-PLNÁ
 62
     2
 10
4.3342702199
 20
-404.1478962046
 30
0.0
  0
VERTEX
  5
99E
  8
VIDITELNE
  6
SLD-PLNÁ
 62
     2
 10
4.2792266692
 20
-402.8542898225
 30
0.0
  0
VERTEX
  5
99F
  8
VIDITELNE
  6
SLD-PLNÁ
 62
     2
 10
4.2051998722
 20
-401.0294180338
 30
0.0
  0
VERTEX
  5
9A0
  8
VIDITELNE
  6
SLD-PLNÁ
 62
     2
 10
4.1124347247
 20
-398.6295375009
 30
0.0
  0
VERTEX
  5
9A1
  8
VIDITELNE
  6
SLD-PLNÁ
 62
     2
 10
4.0
 20
-395.65
 30
0.0
  0
SEQEND
  5
9A2
  8
VIDITELNE
  6
SLD-PLNÁ
 62
     2
  0
LINE
  5
65D
  8
VIDITELNE
  6
SLD-PLNÁ
 62
     2
 10
54.5
 20
-265.65
 30
0.0
 11
54.2880379485
 21
-259.5802010066
 31
0.0
  0
LINE
  5
65E
  8
VIDITELNE
  6
SLD-PLNÁ
 62
     2
 10
-54.2880379485
 20
-259.5802010066
 30
0.0
 11
-54.5
 21
-265.65
 31
0.0
  0
ARC
  5
65F
  8
VIDITELNE
  6
SLD-PLNÁ
 62
     2
 10
52.2892562945
 20
-259.65
 30
0.0
 40
2.000000000000006
 50
2.0
 51
90.0
  0
ARC
  5
660
  8
VIDITELNE
  6
SLD-PLNÁ
 62
     2
 10
-52.2892562945
 20
-259.65
 30
0.0
 40
2.000000000000013
 50
90.0
 51
178.0
  0
CIRCLE
  5
661
  8
VIDITELNE
  6
SLD-PLNÁ
 62
     2
 10
0.0
 20
-485.65
 30
0.0
 40
9.5
  0
CIRCLE
  5
662
  8
VIDITELNE
  6
SLD-PLNÁ
 62
     2
 10
0.0
 20
-485.65
 30
0.0
 40
10.5
  0
LINE
  5
663
  8
VIDITELNE
  6
SLD-PLNÁ
 62
     2
 10
55.0
 20
-272.65
 30
0.0
 11
55.0
 21
-354.0687542274
 31
0.0
  0
POLYLINE
  5
664
  8
VIDITELNE
  6
SLD-PLNÁ
 62
     2
 66
     1
 10
0.0
 20
0.0
 30
0.0
  0
VERTEX
  5
9A3
  8
VIDITELNE
  6
SLD-PLNÁ
 62
     2
 10
55.0
 20
-437.2312457726
 30
0.0
  0
VERTEX
  5
9A4
  8
VIDITELNE
  6
SLD-PLNÁ
 62
     2
 10
54.9244562995
 20
-427.3253482867
 30
0.0
  0
VERTEX
  5
9A5
  8
VIDITELNE
  6
SLD-PLNÁ
 62
     2
 10
54.7737032823
 20
-417.1589070791
 30
0.0
  0
VERTEX
  5
9A6
  8
VIDITELNE
  6
SLD-PLNÁ
 62
     2
 10
54.6387595913
 20
-406.6563376722
 30
0.0
  0
VERTEX
  5
9A7
  8
VIDITELNE
  6
SLD-PLNÁ
 62
     2
 10
54.5837429017
 20
-396.0118447351
 30
0.0
  0
VERTEX
  5
9A8
  8
VIDITELNE
  6
SLD-PLNÁ
 62
     2
 10
54.6304935584
 20
-385.5296635596
 30
0.0
  0
VERTEX
  5
9A9
  8
VIDITELNE
  6
SLD-PLNÁ
 62
     2
 10
54.7601596688
 20
-375.0451319364
 30
0.0
  0
VERTEX
  5
9AA
  8
VIDITELNE
  6
SLD-PLNÁ
 62
     2
 10
54.9176842556
 20
-364.4872838873
 30
0.0
  0
VERTEX
  5
9AB
  8
VIDITELNE
  6
SLD-PLNÁ
 62
     2
 10
55.0
 20
-354.0687542274
 30
0.0
  0
SEQEND
  5
9AC
  8
VIDITELNE
  6
SLD-PLNÁ
 62
     2
  0
LINE
  5
665
  8
VIDITELNE
  6
SLD-PLNÁ
 62
     2
 10
55.0
 20
-518.65
 30
0.0
 11
55.0
 21
-437.2312457726
 31
0.0
  0
LINE
  5
666
  8
VIDITELNE
  6
SLD-PLNÁ
 62
     2
 10
-55.0
 20
-518.65
 30
0.0
 11
-55.0
 21
-437.2312457726
 31
0.0
  0
POLYLINE
  5
667
  8
VIDITELNE
  6
SLD-PLNÁ
 62
     2
 66
     1
 10
0.0
 20
0.0
 30
0.0
  0
VERTEX
  5
9AD
  8
VIDITELNE
  6
SLD-PLNÁ
 62
     2
 10
-55.0
 20
-354.0687542274
 30
0.0
  0
VERTEX
  5
9AE
  8
VIDITELNE
  6
SLD-PLNÁ
 62
     2
 10
-54.9244562995
 20
-363.9746517133
 30
0.0
  0
VERTEX
  5
9AF
  8
VIDITELNE
  6
SLD-PLNÁ
 62
     2
 10
-54.7737032823
 20
-374.1410929209
 30
0.0
  0
VERTEX
  5
9B0
  8
VIDITELNE
  6
SLD-PLNÁ
 62
     2
 10
-54.6387595913
 20
-384.6436623278
 30
0.0
  0
VERTEX
  5
9B1
  8
VIDITELNE
  6
SLD-PLNÁ
 62
     2
 10
-54.5837429017
 20
-395.2881552649
 30
0.0
  0
VERTEX
  5
9B2
  8
VIDITELNE
  6
SLD-PLNÁ
 62
     2
 10
-54.6304935584
 20
-405.7703364404
 30
0.0
  0
VERTEX
  5
9B3
  8
VIDITELNE
  6
SLD-PLNÁ
 62
     2
 10
-54.7601596688
 20
-416.2548680636
 30
0.0
  0
VERTEX
  5
9B4
  8
VIDITELNE
  6
SLD-PLNÁ
 62
     2
 10
-54.9176842556
 20
-426.8127161127
 30
0.0
  0
VERTEX
  5
9B5
  8
VIDITELNE
  6
SLD-PLNÁ
 62
     2
 10
-55.0
 20
-437.2312457726
 30
0.0
  0
SEQEND
  5
9B6
  8
VIDITELNE
  6
SLD-PLNÁ
 62
     2
  0
LINE
  5
668
  8
VIDITELNE
  6
SLD-PLNÁ
 62
     2
 10
-55.0
 20
-272.65
 30
0.0
 11
-55.0
 21
-354.0687542274
 31
0.0
  0
LINE
  5
669
  8
VIDITELNE
  6
SLD-PLNÁ
 62
     2
 10
-14.6969384567
 20
-482.65
 30
0.0
 11
-14.6969384567
 21
-488.65
 31
0.0
  0
ARC
  5
66A
  8
VIDITELNE
  6
SLD-PLNÁ
 62
     2
 10
0.0
 20
-485.65
 30
0.0
 40
15.0
 50
191.5369590328
 51
348.4630409672
  0
LINE
  5
66B
  8
VIDITELNE
  6
SLD-PLNÁ
 62
     2
 10
14.6969384567
 20
-488.65
 30
0.0
 11
14.6969384567
 21
-482.65
 31
0.0
  0
ARC
  5
66C
  8
VIDITELNE
  6
SLD-PLNÁ
 62
     2
 10
-0.0490832506
 20
-395.6206744422
 30
0.0
 40
14.94605529163442
 50
110.9160083024
 51
168.5355571455
  0
ARC
  5
66D
  8
VIDITELNE
  6
SLD-PLNÁ
 62
     2
 10
0.1840675937
 20
-395.5563880321
 30
0.0
 40
14.80103077756513
 50
11.3244094782
 51
69.3891184066
  0
LINE
  5
66E
  8
VIDITELNE
  6
SLD-PLNÁ
 62
     2
 10
-14.6969384567
 20
-392.65
 30
0.0
 11
-14.6969384567
 21
-398.65
 31
0.0
  0
LINE
  5
66F
  8
VIDITELNE
  6
SLD-PLNÁ
 62
     2
 10
14.6969384567
 20
-398.65
 30
0.0
 11
14.6969384567
 21
-392.65
 31
0.0
  0
ARC
  5
670
  8
VIDITELNE
  6
SLD-PLNÁ
 62
     2
 10
0.0
 20
-485.65
 30
0.0
 40
15.0
 50
11.5369590328
 51
168.4630409672
  0
ARC
  5
671
  8
VIDITELNE
  6
SLD-PLNÁ
 62
     2
 10
0.0526373742
 20
-395.681456797
 30
0.0
 40
14.94214853839164
 50
290.9365547945
 51
348.5408575868
  0
ARC
  5
672
  8
VIDITELNE
  6
SLD-PLNÁ
 62
     2
 10
-0.2314185869
 20
-395.7982008778
 30
0.0
 40
14.74394870236873
 50
191.1525364468
 51
249.5338957352
  0
LINE
  5
673
  8
VIDITELNE
  6
SLD-PLNÁ
 62
     2
 10
55.0
 20
-265.65
 30
0.0
 11
-55.0
 21
-265.65
 31
0.0
  0
LINE
  5
674
  8
VIDITELNE
  6
SLD-PLNÁ
 62
     2
 10
55.0
 20
-525.65
 30
0.0
 11
-55.0
 21
-525.65
 31
0.0
  0
POLYLINE
  5
675
  8
VIDITELNE
  6
SLD-PLNÁ
 62
     2
 66
     1
 10
0.0
 20
0.0
 30
0.0
  0
VERTEX
  5
9B7
  8
VIDITELNE
  6
SLD-PLNÁ
 62
     2
 10
-57.0
 20
-436.5764230045
 30
0.0
  0
VERTEX
  5
9B8
  8
VIDITELNE
  6
SLD-PLNÁ
 62
     2
 10
-56.9198240852
 20
-426.6897091363
 30
0.0
  0
VERTEX
  5
9B9
  8
VIDITELNE
  6
SLD-PLNÁ
 62
     2
 10
-56.7607301576
 20
-416.5208943088
 30
0.0
  0
VERTEX
  5
9BA
  8
VIDITELNE
  6
SLD-PLNÁ
 62
     2
 10
-56.6206470441
 20
-405.984221409
 30
0.0
  0
VERTEX
  5
9BB
  8
VIDITELNE
  6
SLD-PLNÁ
 62
     2
 10
-56.5686062799
 20
-395.2938536072
 30
0.0
  0
VERTEX
  5
9BC
  8
VIDITELNE
  6
SLD-PLNÁ
 62
     2
 10
-56.6223021314
 20
-385.1476157112
 30
0.0
  0
VERTEX
  5
9BD
  8
VIDITELNE
  6
SLD-PLNÁ
 62
     2
 10
-56.7571835531
 20
-375.0037814026
 30
0.0
  0
VERTEX
  5
9BE
  8
VIDITELNE
  6
SLD-PLNÁ
 62
     2
 10
-56.9173060719
 20
-364.7915306635
 30
0.0
  0
VERTEX
  5
9BF
  8
VIDITELNE
  6
SLD-PLNÁ
 62
     2
 10
-57.0
 20
-354.7235769955
 30
0.0
  0
SEQEND
  5
9C0
  8
VIDITELNE
  6
SLD-PLNÁ
 62
     2
  0
POLYLINE
  5
676
  8
VIDITELNE
  6
SLD-PLNÁ
 62
     2
 66
     1
 10
0.0
 20
0.0
 30
0.0
  0
VERTEX
  5
9C1
  8
VIDITELNE
  6
SLD-PLNÁ
 62
     2
 10
-57.0
 20
-354.7235769955
 30
0.0
  0
VERTEX
  5
9C2
  8
VIDITELNE
  6
SLD-PLNÁ
 62
     2
 10
-56.609819356
 20
-354.7109947596
 30
0.0
  0
VERTEX
  5
9C3
  8
VIDITELNE
  6
SLD-PLNÁ
 62
     2
 10
-56.2346331353
 20
-354.6737315803
 30
0.0
  0
VERTEX
  5
9C4
  8
VIDITELNE
  6
SLD-PLNÁ
 62
     2
 10
-55.888859534
 20
-354.6132194605
 30
0.0
  0
VERTEX
  5
9C5
  8
VIDITELNE
  6
SLD-PLNÁ
 62
     2
 10
-55.5857864376
 20
-354.5317838472
 30
0.0
  0
VERTEX
  5
9C6
  8
VIDITELNE
  6
SLD-PLNÁ
 62
     2
 10
-55.3370607754
 20
-354.4325542653
 30
0.0
  0
VERTEX
  5
9C7
  8
VIDITELNE
  6
SLD-PLNÁ
 62
     2
 10
-55.152240935
 20
-354.3193440519
 30
0.0
  0
VERTEX
  5
9C8
  8
VIDITELNE
  6
SLD-PLNÁ
 62
     2
 10
-55.0384294392
 20
-354.1965038121
 30
0.0
  0
VERTEX
  5
9C9
  8
VIDITELNE
  6
SLD-PLNÁ
 62
     2
 10
-55.0
 20
-354.0687542274
 30
0.0
  0
SEQEND
  5
9CA
  8
VIDITELNE
  6
SLD-PLNÁ
 62
     2
  0
POLYLINE
  5
677
  8
VIDITELNE
  6
SLD-PLNÁ
 62
     2
 66
     1
 10
0.0
 20
0.0
 30
0.0
  0
VERTEX
  5
9CB
  8
VIDITELNE
  6
SLD-PLNÁ
 62
     2
 10
-57.0
 20
-436.5764230045
 30
0.0
  0
VERTEX
  5
9CC
  8
VIDITELNE
  6
SLD-PLNÁ
 62
     2
 10
-56.609819356
 20
-436.5890052404
 30
0.0
  0
VERTEX
  5
9CD
  8
VIDITELNE
  6
SLD-PLNÁ
 62
     2
 10
-56.2346331353
 20
-436.6262684197
 30
0.0
  0
VERTEX
  5
9CE
  8
VIDITELNE
  6
SLD-PLNÁ
 62
     2
 10
-55.888859534
 20
-436.6867805395
 30
0.0
  0
VERTEX
  5
9CF
  8
VIDITELNE
  6
SLD-PLNÁ
 62
     2
 10
-55.5857864376
 20
-436.7682161528
 30
0.0
  0
VERTEX
  5
9D0
  8
VIDITELNE
  6
SLD-PLNÁ
 62
     2
 10
-55.3370607754
 20
-436.8674457347
 30
0.0
  0
VERTEX
  5
9D1
  8
VIDITELNE
  6
SLD-PLNÁ
 62
     2
 10
-55.152240935
 20
-436.9806559481
 30
0.0
  0
VERTEX
  5
9D2
  8
VIDITELNE
  6
SLD-PLNÁ
 62
     2
 10
-55.0384294392
 20
-437.1034961879
 30
0.0
  0
VERTEX
  5
9D3
  8
VIDITELNE
  6
SLD-PLNÁ
 62
     2
 10
-55.0
 20
-437.2312457726
 30
0.0
  0
SEQEND
  5
9D4
  8
VIDITELNE
  6
SLD-PLNÁ
 62
     2
  0
POLYLINE
  5
678
  8
VIDITELNE
  6
SLD-PLNÁ
 62
     2
 66
     1
 10
0.0
 20
0.0
 30
0.0
  0
VERTEX
  5
9D5
  8
VIDITELNE
  6
SLD-PLNÁ
 62
     2
 10
55.0
 20
-354.0687542274
 30
0.0
  0
VERTEX
  5
9D6
  8
VIDITELNE
  6
SLD-PLNÁ
 62
     2
 10
55.0384294392
 20
-354.1965038121
 30
0.0
  0
VERTEX
  5
9D7
  8
VIDITELNE
  6
SLD-PLNÁ
 62
     2
 10
55.152240935
 20
-354.3193440519
 30
0.0
  0
VERTEX
  5
9D8
  8
VIDITELNE
  6
SLD-PLNÁ
 62
     2
 10
55.3370607754
 20
-354.4325542653
 30
0.0
  0
VERTEX
  5
9D9
  8
VIDITELNE
  6
SLD-PLNÁ
 62
     2
 10
55.5857864376
 20
-354.5317838472
 30
0.0
  0
VERTEX
  5
9DA
  8
VIDITELNE
  6
SLD-PLNÁ
 62
     2
 10
55.888859534
 20
-354.6132194605
 30
0.0
  0
VERTEX
  5
9DB
  8
VIDITELNE
  6
SLD-PLNÁ
 62
     2
 10
56.2346331353
 20
-354.6737315803
 30
0.0
  0
VERTEX
  5
9DC
  8
VIDITELNE
  6
SLD-PLNÁ
 62
     2
 10
56.609819356
 20
-354.7109947596
 30
0.0
  0
VERTEX
  5
9DD
  8
VIDITELNE
  6
SLD-PLNÁ
 62
     2
 10
57.0
 20
-354.7235769955
 30
0.0
  0
SEQEND
  5
9DE
  8
VIDITELNE
  6
SLD-PLNÁ
 62
     2
  0
POLYLINE
  5
679
  8
VIDITELNE
  6
SLD-PLNÁ
 62
     2
 66
     1
 10
0.0
 20
0.0
 30
0.0
  0
VERTEX
  5
9DF
  8
VIDITELNE
  6
SLD-PLNÁ
 62
     2
 10
57.0
 20
-354.7235769955
 30
0.0
  0
VERTEX
  5
9E0
  8
VIDITELNE
  6
SLD-PLNÁ
 62
     2
 10
56.9198240852
 20
-364.6102908637
 30
0.0
  0
VERTEX
  5
9E1
  8
VIDITELNE
  6
SLD-PLNÁ
 62
     2
 10
56.7607301576
 20
-374.7791056912
 30
0.0
  0
VERTEX
  5
9E2
  8
VIDITELNE
  6
SLD-PLNÁ
 62
     2
 10
56.6206470441
 20
-385.315778591
 30
0.0
  0
VERTEX
  5
9E3
  8
VIDITELNE
  6
SLD-PLNÁ
 62
     2
 10
56.5686062799
 20
-396.0061463928
 30
0.0
  0
VERTEX
  5
9E4
  8
VIDITELNE
  6
SLD-PLNÁ
 62
     2
 10
56.6223021314
 20
-406.1523842888
 30
0.0
  0
VERTEX
  5
9E5
  8
VIDITELNE
  6
SLD-PLNÁ
 62
     2
 10
56.7571835531
 20
-416.2962185974
 30
0.0
  0
VERTEX
  5
9E6
  8
VIDITELNE
  6
SLD-PLNÁ
 62
     2
 10
56.9173060719
 20
-426.5084693365
 30
0.0
  0
VERTEX
  5
9E7
  8
VIDITELNE
  6
SLD-PLNÁ
 62
     2
 10
57.0
 20
-436.5764230045
 30
0.0
  0
SEQEND
  5
9E8
  8
VIDITELNE
  6
SLD-PLNÁ
 62
     2
  0
POLYLINE
  5
67A
  8
VIDITELNE
  6
SLD-PLNÁ
 62
     2
 66
     1
 10
0.0
 20
0.0
 30
0.0
  0
VERTEX
  5
9E9
  8
VIDITELNE
  6
SLD-PLNÁ
 62
     2
 10
55.0
 20
-437.2312457726
 30
0.0
  0
VERTEX
  5
9EA
  8
VIDITELNE
  6
SLD-PLNÁ
 62
     2
 10
55.0384294392
 20
-437.1034961879
 30
0.0
  0
VERTEX
  5
9EB
  8
VIDITELNE
  6
SLD-PLNÁ
 62
     2
 10
55.152240935
 20
-436.9806559481
 30
0.0
  0
VERTEX
  5
9EC
  8
VIDITELNE
  6
SLD-PLNÁ
 62
     2
 10
55.3370607754
 20
-436.8674457347
 30
0.0
  0
VERTEX
  5
9ED
  8
VIDITELNE
  6
SLD-PLNÁ
 62
     2
 10
55.5857864376
 20
-436.7682161528
 30
0.0
  0
VERTEX
  5
9EE
  8
VIDITELNE
  6
SLD-PLNÁ
 62
     2
 10
55.888859534
 20
-436.6867805395
 30
0.0
  0
VERTEX
  5
9EF
  8
VIDITELNE
  6
SLD-PLNÁ
 62
     2
 10
56.2346331353
 20
-436.6262684197
 30
0.0
  0
VERTEX
  5
9F0
  8
VIDITELNE
  6
SLD-PLNÁ
 62
     2
 10
56.609819356
 20
-436.5890052404
 30
0.0
  0
VERTEX
  5
9F1
  8
VIDITELNE
  6
SLD-PLNÁ
 62
     2
 10
57.0
 20
-436.5764230045
 30
0.0
  0
SEQEND
  5
9F2
  8
VIDITELNE
  6
SLD-PLNÁ
 62
     2
  0
LINE
  5
67B
  8
VIDITELNE
  6
SLD-PLNÁ
 62
     2
 10
-58.0
 20
-270.65
 30
0.0
 11
-58.0
 21
-520.65
 31
0.0
  0
LINE
  5
67C
  8
VIDITELNE
  6
SLD-PLNÁ
 62
     2
 10
-57.0
 20
-354.7235769955
 30
0.0
 11
-57.0
 21
-274.587007874
 31
0.0
  0
LINE
  5
67D
  8
VIDITELNE
  6
SLD-PLNÁ
 62
     2
 10
-57.0
 20
-516.712992126
 30
0.0
 11
-57.0
 21
-436.5764230045
 31
0.0
  0
LINE
  5
67E
  8
VIDITELNE
  6
SLD-PLNÁ
 62
     2
 10
57.0
 20
-436.5764230045
 30
0.0
 11
57.0
 21
-516.712992126
 31
0.0
  0
LINE
  5
67F
  8
VIDITELNE
  6
SLD-PLNÁ
 62
     2
 10
57.0
 20
-274.587007874
 30
0.0
 11
57.0
 21
-354.7235769955
 31
0.0
  0
LINE
  5
680
  8
VIDITELNE
  6
SLD-PLNÁ
 62
     2
 10
58.0
 20
-270.65
 30
0.0
 11
58.0
 21
-520.65
 31
0.0
  0
ARC
  5
681
  8
VIDITELNE
  6
SLD-PLNÁ
 62
     2
 10
-56.968999938
 20
-272.6179918059
 30
0.0
 40
1.969260084481762
 50
269.0980134629
 51
359.0686780244
  0
ARC
  5
682
  8
VIDITELNE
  6
SLD-PLNÁ
 62
     2
 10
56.968999938
 20
-272.6179918059
 30
0.0
 40
1.969260084481762
 50
180.9313219756
 51
270.9019865372
  0
ARC
  5
683
  8
VIDITELNE
  6
SLD-PLNÁ
 62
     2
 10
56.968999938
 20
-518.6820081941
 30
0.0
 40
1.969260084481594
 50
89.0980134628
 51
179.0686780244
  0
ARC
  5
684
  8
VIDITELNE
  6
SLD-PLNÁ
 62
     2
 10
-56.968999938
 20
-518.6820081941
 30
0.0
 40
1.969260084481594
 50
0.9313219756
 51
90.9019865372
  0
LINE
  5
685
  8
VIDITELNE
  6
SLD-PLNÁ
 62
     2
 10
-86.0
 20
-426.15
 30
0.0
 11
-86.0
 21
-365.1500000841
 31
0.0
  0
LINE
  5
686
  8
VIDITELNE
  6
SLD-PLNÁ
 62
     2
 10
86.0
 20
-365.15
 30
0.0
 11
86.0
 21
-426.1499999159
 31
0.0
  0
LINE
  5
687
  8
VIDITELNE
  6
SLD-PLNÁ
 62
     2
 10
-69.0
 20
-520.2658715356
 30
0.0
 11
-69.0
 21
-271.0341284644
 31
0.0
  0
LINE
  5
688
  8
VIDITELNE
  6
SLD-PLNÁ
 62
     2
 10
-79.0
 20
-402.65
 30
0.0
 11
-79.0
 21
-388.65
 31
0.0
  0
LINE
  5
689
  8
VIDITELNE
  6
SLD-PLNÁ
 62
     2
 10
-69.0
 20
-438.6167598754
 30
0.0
 11
-80.5
 21
-428.2771676757
 31
0.0
  0
LINE
  5
68A
  8
VIDITELNE
  6
SLD-PLNÁ
 62
     2
 10
-80.5
 20
-428.2771676757
 30
0.0
 11
-69.0
 21
-430.8201128387
 31
0.0
  0
LINE
  5
68B
  8
VIDITELNE
  6
SLD-PLNÁ
 62
     2
 10
-80.5
 20
-435.6682039358
 30
0.0
 11
-69.0
 21
-446.0077961355
 31
0.0
  0
LINE
  5
68C
  8
VIDITELNE
  6
SLD-PLNÁ
 62
     2
 10
-80.5
 20
-435.6682039358
 30
0.0
 11
-80.5
 21
-428.2771676757
 31
0.0
  0
LINE
  5
68D
  8
VIDITELNE
  6
SLD-PLNÁ
 62
     2
 10
-80.5
 20
-363.0228323243
 30
0.0
 11
-69.0
 21
-352.6832401246
 31
0.0
  0
LINE
  5
68E
  8
VIDITELNE
  6
SLD-PLNÁ
 62
     2
 10
-69.0
 20
-360.4798871613
 30
0.0
 11
-80.5
 21
-363.0228323243
 31
0.0
  0
LINE
  5
68F
  8
VIDITELNE
  6
SLD-PLNÁ
 62
     2
 10
-80.5
 20
-363.0228323243
 30
0.0
 11
-80.5
 21
-355.6317960642
 31
0.0
  0
LINE
  5
690
  8
VIDITELNE
  6
SLD-PLNÁ
 62
     2
 10
-69.0
 20
-345.2922038645
 30
0.0
 11
-80.5
 21
-355.6317960642
 31
0.0
  0
LINE
  5
691
  8
VIDITELNE
  6
SLD-PLNÁ
 62
     2
 10
-80.5
 20
-428.2771676757
 30
0.0
 11
-80.5
 21
-363.0228323243
 31
0.0
  0
LINE
  5
692
  8
VIDITELNE
  6
SLD-PLNÁ
 62
     2
 10
-69.0
 20
-303.3508003345
 30
0.0
 11
-74.5857452259
 21
-306.3327201635
 31
0.0
  0
LINE
  5
693
  8
VIDITELNE
  6
SLD-PLNÁ
 62
     2
 10
-79.0
 20
-308.6892461613
 30
0.0
 11
-80.5
 21
-309.4900130353
 31
0.0
  0
LINE
  5
694
  8
VIDITELNE
  6
SLD-PLNÁ
 62
     2
 10
-80.5
 20
-355.6317960642
 30
0.0
 11
-80.5
 21
-309.4900130353
 31
0.0
  0
LINE
  5
695
  8
VIDITELNE
  6
SLD-PLNÁ
 62
     2
 10
-80.5
 20
-481.8099869647
 30
0.0
 11
-79.0
 21
-482.6107538387
 31
0.0
  0
LINE
  5
696
  8
VIDITELNE
  6
SLD-PLNÁ
 62
     2
 10
-74.5857452259
 20
-484.9672798365
 30
0.0
 11
-69.0
 21
-487.9491996655
 31
0.0
  0
LINE
  5
697
  8
VIDITELNE
  6
SLD-PLNÁ
 62
     2
 10
-80.5
 20
-481.8099869647
 30
0.0
 11
-80.5
 21
-435.6682039358
 31
0.0
  0
LINE
  5
698
  8
VIDITELNE
  6
SLD-PLNÁ
 62
     2
 10
-79.0
 20
-321.3327201635
 30
0.0
 11
-79.0
 21
-307.3327201635
 31
0.0
  0
LINE
  5
699
  8
VIDITELNE
  6
SLD-PLNÁ
 62
     2
 10
-79.0
 20
-483.9672798365
 30
0.0
 11
-79.0
 21
-469.9672798365
 31
0.0
  0
LINE
  5
69A
  8
VIDITELNE
  6
SLD-PLNÁ
 62
     2
 10
-84.0
 20
-460.65
 30
0.0
 11
-84.0
 21
-330.65
 31
0.0
  0
LINE
  5
69B
  8
VIDITELNE
  6
SLD-PLNÁ
 62
     2
 10
-69.0
 20
-506.7719706826
 30
0.0
 11
-80.5
 21
-481.8099869647
 31
0.0
  0
LINE
  5
69C
  8
VIDITELNE
  6
SLD-PLNÁ
 62
     2
 10
-80.5
 20
-484.8714544236
 30
0.0
 11
-69.0
 21
-509.8334381415
 31
0.0
  0
LINE
  5
69D
  8
VIDITELNE
  6
SLD-PLNÁ
 62
     2
 10
-80.5
 20
-484.8714544236
 30
0.0
 11
-80.5
 21
-481.8099869647
 31
0.0
  0
LINE
  5
69E
  8
VIDITELNE
  6
SLD-PLNÁ
 62
     2
 10
-80.5
 20
-309.4900130353
 30
0.0
 11
-69.0
 21
-284.5280293174
 31
0.0
  0
LINE
  5
69F
  8
VIDITELNE
  6
SLD-PLNÁ
 62
     2
 10
-69.0
 20
-281.4665618585
 30
0.0
 11
-80.5
 21
-306.4285455764
 31
0.0
  0
LINE
  5
6A0
  8
VIDITELNE
  6
SLD-PLNÁ
 62
     2
 10
-80.5
 20
-309.4900130353
 30
0.0
 11
-80.5
 21
-306.4285455764
 31
0.0
  0
LINE
  5
6A1
  8
VIDITELNE
  6
SLD-PLNÁ
 62
     2
 10
-80.5
 20
-490.65
 30
0.0
 11
-80.5
 21
-484.8714544236
 31
0.0
  0
LINE
  5
6A2
  8
VIDITELNE
  6
SLD-PLNÁ
 62
     2
 10
-80.5
 20
-306.4285455764
 30
0.0
 11
-80.5
 21
-300.65
 31
0.0
  0
LINE
  5
6A3
  8
VIDITELNE
  6
SLD-PLNÁ
 62
     2
 10
-79.0
 20
-287.65
 30
0.0
 11
-79.0
 21
-273.65
 31
0.0
  0
LINE
  5
6A4
  8
VIDITELNE
  6
SLD-PLNÁ
 62
     2
 10
-79.0
 20
-517.65
 30
0.0
 11
-79.0
 21
-503.65
 31
0.0
  0
LINE
  5
6A5
  8
VIDITELNE
  6
SLD-PLNÁ
 62
     2
 10
69.0
 20
-271.0341284644
 30
0.0
 11
69.0
 21
-520.2658715356
 31
0.0
  0
LINE
  5
6A6
  8
VIDITELNE
  6
SLD-PLNÁ
 62
     2
 10
79.0
 20
-388.65
 30
0.0
 11
79.0
 21
-402.65
 31
0.0
  0
LINE
  5
6A7
  8
VIDITELNE
  6
SLD-PLNÁ
 62
     2
 10
69.0
 20
-352.6832401246
 30
0.0
 11
80.5
 21
-363.0228323243
 31
0.0
  0
LINE
  5
6A8
  8
VIDITELNE
  6
SLD-PLNÁ
 62
     2
 10
80.5
 20
-363.0228323243
 30
0.0
 11
69.0
 21
-360.4798871613
 31
0.0
  0
LINE
  5
6A9
  8
VIDITELNE
  6
SLD-PLNÁ
 62
     2
 10
80.5
 20
-428.2771676757
 30
0.0
 11
69.0
 21
-438.6167598754
 31
0.0
  0
LINE
  5
6AA
  8
VIDITELNE
  6
SLD-PLNÁ
 62
     2
 10
80.5
 20
-428.2771676757
 30
0.0
 11
80.5
 21
-435.6682039358
 31
0.0
  0
LINE
  5
6AB
  8
VIDITELNE
  6
SLD-PLNÁ
 62
     2
 10
69.0
 20
-446.0077961355
 30
0.0
 11
80.5
 21
-435.6682039358
 31
0.0
  0
LINE
  5
6AC
  8
VIDITELNE
  6
SLD-PLNÁ
 62
     2
 10
80.5
 20
-355.6317960642
 30
0.0
 11
69.0
 21
-345.2922038645
 31
0.0
  0
LINE
  5
6AD
  8
VIDITELNE
  6
SLD-PLNÁ
 62
     2
 10
80.5
 20
-355.6317960642
 30
0.0
 11
80.5
 21
-363.0228323243
 31
0.0
  0
LINE
  5
6AE
  8
VIDITELNE
  6
SLD-PLNÁ
 62
     2
 10
69.0
 20
-430.8201128387
 30
0.0
 11
80.5
 21
-428.2771676757
 31
0.0
  0
LINE
  5
6AF
  8
VIDITELNE
  6
SLD-PLNÁ
 62
     2
 10
80.5
 20
-363.0228323243
 30
0.0
 11
80.5
 21
-428.2771676757
 31
0.0
  0
LINE
  5
6B0
  8
VIDITELNE
  6
SLD-PLNÁ
 62
     2
 10
69.0
 20
-487.9491996655
 30
0.0
 11
74.5857452259
 21
-484.9672798365
 31
0.0
  0
LINE
  5
6B1
  8
VIDITELNE
  6
SLD-PLNÁ
 62
     2
 10
79.0
 20
-482.6107538387
 30
0.0
 11
80.5
 21
-481.8099869647
 31
0.0
  0
LINE
  5
6B2
  8
VIDITELNE
  6
SLD-PLNÁ
 62
     2
 10
80.5
 20
-435.6682039358
 30
0.0
 11
80.5
 21
-481.8099869647
 31
0.0
  0
LINE
  5
6B3
  8
VIDITELNE
  6
SLD-PLNÁ
 62
     2
 10
80.5
 20
-309.4900130353
 30
0.0
 11
79.0
 21
-308.6892461613
 31
0.0
  0
LINE
  5
6B4
  8
VIDITELNE
  6
SLD-PLNÁ
 62
     2
 10
74.5857452259
 20
-306.3327201635
 30
0.0
 11
69.0
 21
-303.3508003345
 31
0.0
  0
LINE
  5
6B5
  8
VIDITELNE
  6
SLD-PLNÁ
 62
     2
 10
80.5
 20
-309.4900130353
 30
0.0
 11
80.5
 21
-355.6317960642
 31
0.0
  0
LINE
  5
6B6
  8
VIDITELNE
  6
SLD-PLNÁ
 62
     2
 10
79.0
 20
-469.9672798365
 30
0.0
 11
79.0
 21
-483.9672798365
 31
0.0
  0
LINE
  5
6B7
  8
VIDITELNE
  6
SLD-PLNÁ
 62
     2
 10
79.0
 20
-307.3327201635
 30
0.0
 11
79.0
 21
-321.3327201635
 31
0.0
  0
LINE
  5
6B8
  8
VIDITELNE
  6
SLD-PLNÁ
 62
     2
 10
84.0
 20
-330.65
 30
0.0
 11
84.0
 21
-460.65
 31
0.0
  0
LINE
  5
6B9
  8
VIDITELNE
  6
SLD-PLNÁ
 62
     2
 10
69.0
 20
-284.5280293174
 30
0.0
 11
80.5
 21
-309.4900130353
 31
0.0
  0
LINE
  5
6BA
  8
VIDITELNE
  6
SLD-PLNÁ
 62
     2
 10
80.5
 20
-306.4285455764
 30
0.0
 11
69.0
 21
-281.4665618585
 31
0.0
  0
LINE
  5
6BB
  8
VIDITELNE
  6
SLD-PLNÁ
 62
     2
 10
80.5
 20
-306.4285455764
 30
0.0
 11
80.5
 21
-309.4900130353
 31
0.0
  0
LINE
  5
6BC
  8
VIDITELNE
  6
SLD-PLNÁ
 62
     2
 10
80.5
 20
-481.8099869647
 30
0.0
 11
69.0
 21
-506.7719706826
 31
0.0
  0
LINE
  5
6BD
  8
VIDITELNE
  6
SLD-PLNÁ
 62
     2
 10
69.0
 20
-509.8334381415
 30
0.0
 11
80.5
 21
-484.8714544236
 31
0.0
  0
LINE
  5
6BE
  8
VIDITELNE
  6
SLD-PLNÁ
 62
     2
 10
80.5
 20
-481.8099869647
 30
0.0
 11
80.5
 21
-484.8714544236
 31
0.0
  0
LINE
  5
6BF
  8
VIDITELNE
  6
SLD-PLNÁ
 62
     2
 10
80.5
 20
-300.65
 30
0.0
 11
80.5
 21
-306.4285455764
 31
0.0
  0
LINE
  5
6C0
  8
VIDITELNE
  6
SLD-PLNÁ
 62
     2
 10
80.5
 20
-484.8714544236
 30
0.0
 11
80.5
 21
-490.65
 31
0.0
  0
LINE
  5
6C1
  8
VIDITELNE
  6
SLD-PLNÁ
 62
     2
 10
79.0
 20
-503.65
 30
0.0
 11
79.0
 21
-517.65
 31
0.0
  0
LINE
  5
6C2
  8
VIDITELNE
  6
SLD-PLNÁ
 62
     2
 10
79.0
 20
-273.65
 30
0.0
 11
79.0
 21
-287.65
 31
0.0
  0
LINE
  5
6C3
  8
VIDITELNE
  6
SLD-PLNÁ
 62
     2
 10
100.0
 20
-547.65
 30
0.0
 11
-100.0
 21
-547.65
 31
0.0
  0
LINE
  5
6C4
  8
VIDITELNE
  6
SLD-PLNÁ
 62
     2
 10
97.6495732165
 20
-535.65
 30
0.0
 11
-97.6495732165
 21
-535.65
 31
0.0
  0
POLYLINE
  5
6C5
  8
VIDITELNE
  6
SLD-PLNÁ
 62
     2
 66
     1
 10
0.0
 20
0.0
 30
0.0
  0
VERTEX
  5
9F3
  8
VIDITELNE
  6
SLD-PLNÁ
 62
     2
 10
-4.1831571891
 20
-390.8396781935
 30
0.0
  0
VERTEX
  5
9F4
  8
VIDITELNE
  6
SLD-PLNÁ
 62
     2
 10
-4.2160692673
 20
-390.7744250205
 30
0.0
  0
VERTEX
  5
9F5
  8
VIDITELNE
  6
SLD-PLNÁ
 62
     2
 10
-4.7467823776
 20
-389.4625698182
 30
0.0
  0
SEQEND
  5
9F6
  8
VIDITELNE
  6
SLD-PLNÁ
 62
     2
  0
ARC
  5
6C6
  8
VIDITELNE
  6
SLD-PLNÁ
 62
     2
 10
12.4820932479
 20
-381.3157989783
 30
0.0
 40
19.05791254141297
 50
197.7653628289
 51
205.3073893692
  0
ARC
  5
6C7
  8
VIDITELNE
  6
SLD-PLNÁ
 62
     2
 10
-58.6403476541
 20
-363.0992202629
 30
0.0
 40
68.65094738936554
 50
337.4170821323
 51
339.509394849
  0
LINE
  5
6C8
  8
VIDITELNE
  6
SLD-PLNÁ
 62
     2
 10
4.7467711593
 20
-389.4625612119
 30
0.0
 11
4.1897357826
 21
-390.6706456602
 31
0.0
  0
LINE
  5
6C9
  8
VIDITELNE
  6
SLD-PLNÁ
 62
     2
 10
0.0
 20
-395.65
 30
0.0
 11
-3.9999777355
 21
-395.65
 31
0.0
  0
LINE
  5
6CA
  8
VIDITELNE
  6
SLD-PLNÁ
 62
     2
 10
3.9999880459
 20
-395.65
 30
0.0
 11
0.0
 21
-395.65
 31
0.0
  0
POLYLINE
  5
6CB
  8
VIDITELNE
  6
SLD-PLNÁ
 62
     2
 66
     1
 10
0.0
 20
0.0
 30
0.0
  0
VERTEX
  5
9F7
  8
VIDITELNE
  6
SLD-PLNÁ
 62
     2
 10
4.1832844796
 20
-400.4624559199
 30
0.0
  0
VERTEX
  5
9F8
  8
VIDITELNE
  6
SLD-PLNÁ
 62
     2
 10
4.2254278412
 20
-400.5461436434
 30
0.0
  0
VERTEX
  5
9F9
  8
VIDITELNE
  6
SLD-PLNÁ
 62
     2
 10
4.7467711593
 20
-401.8374387881
 30
0.0
  0
SEQEND
  5
9FA
  8
VIDITELNE
  6
SLD-PLNÁ
 62
     2
  0
ARC
  5
6CC
  8
VIDITELNE
  6
SLD-PLNÁ
 62
     2
 10
-12.505374743
 20
-409.9935283395
 30
0.0
 40
19.08293308179626
 50
17.7707066335
 51
25.3028163852
  0
ARC
  5
6CD
  8
VIDITELNE
  6
SLD-PLNÁ
 62
     2
 10
58.1767469427
 20
-428.0173243899
 30
0.0
 40
68.15245705674396
 50
157.4098128093
 51
159.5174349925
  0
LINE
  5
6CE
  8
VIDITELNE
  6
SLD-PLNÁ
 62
     2
 10
-4.7467823776
 20
-401.8374301818
 30
0.0
 11
-4.1896777165
 21
-400.6290879777
 31
0.0
  0
ARC
  5
6CF
  8
VIDITELNE
  6
SLD-PLNÁ
 62
     2
 10
0.0
 20
-395.65
 30
0.0
 40
7.798476466232906
 50
307.494068554
 51
52.505931446
  0
ARC
  5
6D0
  8
VIDITELNE
  6
SLD-PLNÁ
 62
     2
 10
0.0
 20
-395.65
 30
0.0
 40
7.79847646623288
 50
127.4941724357
 51
232.5058275643
  0
ARC
  5
6D1
  8
VIDITELNE
  6
SLD-PLNÁ
 62
     2
 10
0.0
 20
-395.65
 30
0.0
 40
10.23195519226872
 50
303.6319354642
 51
56.3680645358
  0
ARC
  5
6D2
  8
VIDITELNE
  6
SLD-PLNÁ
 62
     2
 10
0.0
 20
-395.65
 30
0.0
 40
10.23195519226899
 50
123.6319167472
 51
236.3680832528
  0
ARC
  5
6D3
  8
VIDITELNE
  6
SLD-PLNÁ
 62
     2
 10
0.0
 20
-395.65
 30
0.0
 40
11.49999999999993
 50
119.6709540616
 51
240.3267352578
  0
ARC
  5
6D4
  8
VIDITELNE
  6
SLD-PLNÁ
 62
     2
 10
0.0
 20
-395.65
 30
0.0
 40
11.49999999999996
 50
299.6179537146
 51
60.3674797967
  0
LINE
  5
6D5
  8
VIDITELNE
  6
SLD-PLNÁ
 62
     2
 10
44.8524671544
 20
-257.65
 30
0.0
 11
0.8507268235
 21
-257.65
 31
0.0
  0
LINE
  5
6D6
  8
VIDITELNE
  6
SLD-PLNÁ
 62
     2
 10
52.2892562945
 20
-257.65
 30
0.0
 11
45.7031939779
 21
-257.65
 31
0.0
  0
LINE
  5
6D7
  8
VIDITELNE
  6
SLD-PLNÁ
 62
     2
 10
-45.7031939779
 20
-257.65
 30
0.0
 11
-52.2892562945
 21
-257.65
 31
0.0
  0
LINE
  5
6D8
  8
VIDITELNE
  6
SLD-PLNÁ
 62
     2
 10
-0.8507268235
 20
-257.65
 30
0.0
 11
-44.8524671544
 21
-257.65
 31
0.0
  0
LINE
  5
6D9
  8
VIDITELNE
  6
SLD-PLNÁ
 62
     2
 10
0.0
 20
-252.35
 30
0.0
 11
0.0
 21
-257.65
 31
0.0
  0
LINE
  5
6DA
  8
VIDITELNE
  6
SLD-PLNÁ
 62
     2
 10
0.0
 20
-252.35
 30
0.0
 11
5.0
 21
-252.35
 31
0.0
  0
LINE
  5
6DB
  8
VIDITELNE
  6
SLD-PLNÁ
 62
     2
 10
5.0
 20
-252.35
 30
0.0
 11
5.0
 21
-257.65
 31
0.0
  0
LINE
  5
6DC
  8
VIDITELNE
  6
SLD-PLNÁ
 62
     2
 10
0.0
 20
-257.65
 30
0.0
 11
0.8507268235
 21
-257.65
 31
0.0
  0
LINE
  5
6DD
  8
VIDITELNE
  6
SLD-PLNÁ
 62
     2
 10
-5.0
 20
-252.35
 30
0.0
 11
-5.0
 21
-257.65
 31
0.0
  0
LINE
  5
6DE
  8
VIDITELNE
  6
SLD-PLNÁ
 62
     2
 10
-5.0
 20
-252.35
 30
0.0
 11
0.0
 21
-252.35
 31
0.0
  0
LINE
  5
6DF
  8
VIDITELNE
  6
SLD-PLNÁ
 62
     2
 10
-0.8507268235
 20
-257.65
 30
0.0
 11
0.0
 21
-257.65
 31
0.0
  0
LINE
  5
6E0
  8
VIDITELNE
  6
SLD-PLNÁ
 62
     2
 10
40.7031939779
 20
-252.35
 30
0.0
 11
40.7031939779
 21
-257.65
 31
0.0
  0
LINE
  5
6E1
  8
VIDITELNE
  6
SLD-PLNÁ
 62
     2
 10
40.7031939779
 20
-252.35
 30
0.0
 11
45.7031939779
 21
-252.35
 31
0.0
  0
LINE
  5
6E2
  8
VIDITELNE
  6
SLD-PLNÁ
 62
     2
 10
45.7031939779
 20
-252.35
 30
0.0
 11
45.7031939779
 21
-257.65
 31
0.0
  0
LINE
  5
6E3
  8
VIDITELNE
  6
SLD-PLNÁ
 62
     2
 10
44.8524671544
 20
-257.65
 30
0.0
 11
45.7031939779
 21
-257.65
 31
0.0
  0
LINE
  5
6E4
  8
VIDITELNE
  6
SLD-PLNÁ
 62
     2
 10
35.7031939779
 20
-252.35
 30
0.0
 11
35.7031939779
 21
-257.65
 31
0.0
  0
LINE
  5
6E5
  8
VIDITELNE
  6
SLD-PLNÁ
 62
     2
 10
35.7031939779
 20
-252.35
 30
0.0
 11
40.7031939779
 21
-252.35
 31
0.0
  0
LINE
  5
6E6
  8
VIDITELNE
  6
SLD-PLNÁ
 62
     2
 10
-40.7031939779
 20
-252.35
 30
0.0
 11
-40.7031939779
 21
-257.65
 31
0.0
  0
LINE
  5
6E7
  8
VIDITELNE
  6
SLD-PLNÁ
 62
     2
 10
-40.7031939779
 20
-252.35
 30
0.0
 11
-35.7031939779
 21
-252.35
 31
0.0
  0
LINE
  5
6E8
  8
VIDITELNE
  6
SLD-PLNÁ
 62
     2
 10
-35.7031939779
 20
-252.35
 30
0.0
 11
-35.7031939779
 21
-257.65
 31
0.0
  0
LINE
  5
6E9
  8
VIDITELNE
  6
SLD-PLNÁ
 62
     2
 10
-45.7031939779
 20
-252.35
 30
0.0
 11
-45.7031939779
 21
-257.65
 31
0.0
  0
LINE
  5
6EA
  8
VIDITELNE
  6
SLD-PLNÁ
 62
     2
 10
-45.7031939779
 20
-252.35
 30
0.0
 11
-40.7031939779
 21
-252.35
 31
0.0
  0
LINE
  5
6EB
  8
VIDITELNE
  6
SLD-PLNÁ
 62
     2
 10
-45.7031939779
 20
-257.65
 30
0.0
 11
-44.8524671544
 21
-257.65
 31
0.0
  0
ARC
  5
6EC
  8
VIDITELNE
  6
SLD-PLNÁ
 62
     2
 10
-53.5249692744
 20
-274.3506492686
 30
0.0
 40
3.483059565160343
 50
115.0549380399
 51
183.8910519421
  0
ARC
  5
6ED
  8
VIDITELNE
  6
SLD-PLNÁ
 62
     2
 10
-53.507792309
 20
-516.9448599116
 30
0.0
 40
3.499896745190001
 50
176.2013785398
 51
244.7633725658
  0
ARC
  5
6EE
  8
VIDITELNE
  6
SLD-PLNÁ
 62
     2
 10
53.5249692744
 20
-516.9493507314
 30
0.0
 40
3.483059565160855
 50
295.0549380399
 51
3.8910519421
  0
ARC
  5
6EF
  8
VIDITELNE
  6
SLD-PLNÁ
 62
     2
 10
53.507792309
 20
-274.3551400884
 30
0.0
 40
3.499896745190367
 50
356.2013785398
 51
64.7633725658
  0
LINE
  5
6F0
  8
VIDITELNE
  6
SLD-PLNÁ
 62
     2
 10
-78.0
 20
-387.65
 30
0.0
 11
-78.0
 21
-403.65
 31
0.0
  0
LINE
  5
6F1
  8
VIDITELNE
  6
SLD-PLNÁ
 62
     2
 10
-78.0
 20
-306.3327201635
 30
0.0
 11
-78.0
 21
-322.3327201635
 31
0.0
  0
LINE
  5
6F2
  8
VIDITELNE
  6
SLD-PLNÁ
 62
     2
 10
-78.0
 20
-468.9672798365
 30
0.0
 11
-78.0
 21
-484.9672798365
 31
0.0
  0
LINE
  5
6F3
  8
VIDITELNE
  6
SLD-PLNÁ
 62
     2
 10
-78.0
 20
-272.65
 30
0.0
 11
-78.0
 21
-288.65
 31
0.0
  0
LINE
  5
6F4
  8
VIDITELNE
  6
SLD-PLNÁ
 62
     2
 10
-78.0
 20
-502.65
 30
0.0
 11
-78.0
 21
-518.65
 31
0.0
  0
LINE
  5
6F5
  8
VIDITELNE
  6
SLD-PLNÁ
 62
     2
 10
78.0
 20
-403.65
 30
0.0
 11
78.0
 21
-387.65
 31
0.0
  0
LINE
  5
6F6
  8
VIDITELNE
  6
SLD-PLNÁ
 62
     2
 10
78.0
 20
-484.9672798365
 30
0.0
 11
78.0
 21
-468.9672798365
 31
0.0
  0
LINE
  5
6F7
  8
VIDITELNE
  6
SLD-PLNÁ
 62
     2
 10
78.0
 20
-322.3327201635
 30
0.0
 11
78.0
 21
-306.3327201635
 31
0.0
  0
LINE
  5
6F8
  8
VIDITELNE
  6
SLD-PLNÁ
 62
     2
 10
78.0
 20
-518.65
 30
0.0
 11
78.0
 21
-502.65
 31
0.0
  0
LINE
  5
6F9
  8
VIDITELNE
  6
SLD-PLNÁ
 62
     2
 10
78.0
 20
-288.65
 30
0.0
 11
78.0
 21
-272.65
 31
0.0
  0
LINE
  5
6FA
  8
VIDITELNE
  6
SLD-PLNÁ
 62
     2
 10
99.6483548705
 20
-537.5802010066
 30
0.0
 11
-99.6483548705
 21
-537.5802010066
 31
0.0
  0
LINE
  5
6FB
  8
VIDITELNE
  6
SLD-PLNÁ
 62
     2
 10
55.2481015383
 20
-532.7546984901
 30
0.0
 11
-55.2481015383
 21
-532.7546984901
 31
0.0
  0
LINE
  5
6FC
  8
VIDITELNE
  6
SLD-PLNÁ
 62
     2
 10
54.2880379485
 20
-259.5802010066
 30
0.0
 11
-54.2880379485
 21
-259.5802010066
 31
0.0
  0
ENDSEC
  0
EOF
