  0
SECTION
  2
HEADER
  9
$ACADVER
  1
AC1009
  9
$DWGCODEPAGE
  3
ansi_1250
  9
$INSBASE
 10
0.0
 20
0.0
 30
0.0
  9
$EXTMIN
 10
0.0
 20
0.0
 30
0.0
  9
$EXTMAX
 10
279.4
 20
215.9
 30
0.0
  9
$LIMMIN
 10
0.0
 20
0.0
  9
$LIMMAX
 10
279.4
 20
215.9
  9
$ORTHOMODE
 70
     0
  9
$REGENMODE
 70
     1
  9
$FILLMODE
 70
     1
  9
$QTEXTMODE
 70
     0
  9
$MIRRTEXT
 70
     1
  9
$DRAGMODE
 70
     2
  9
$LTSCALE
 40
1.0
  9
$OSMODE
 70
    37
  9
$ATTMODE
 70
     1
  9
$TEXTSIZE
 40
3.5
  9
$TRACEWID
 40
1.0
  9
$TEXTSTYLE
  7
STANDARD
  9
$CLAYER
  8
0
  9
$CELTYPE
  6
BYLAYER
  9
$CECOLOR
 62
   256
  9
$DIMSCALE
 40
1.0
  9
$DIMASZ
 40
6.0
  9
$DIMEXO
 40
1.0
  9
$DIMDLI
 40
3.75
  9
$DIMRND
 40
0.0
  9
$DIMDLE
 40
0.0
  9
$DIMEXE
 40
1.0
  9
$DIMTP
 40
0.0
  9
$DIMTM
 40
0.0
  9
$DIMTXT
 40
3.5
  9
$DIMCEN
 40
2.5
  9
$DIMTSZ
 40
0.0
  9
$DIMTOL
 70
     0
  9
$DIMLIM
 70
     0
  9
$DIMTIH
 70
     1
  9
$DIMTOH
 70
     1
  9
$DIMSE1
 70
     0
  9
$DIMSE2
 70
     0
  9
$DIMTAD
 70
     1
  9
$DIMZIN
 70
     0
  9
$DIMBLK
  1

  9
$DIMASO
 70
     1
  9
$DIMSHO
 70
     1
  9
$DIMPOST
  1

  9
$DIMAPOST
  1

  9
$DIMALT
 70
     0
  9
$DIMALTD
 70
     3
  9
$DIMALTF
 40
0.0393700787
  9
$DIMLFAC
 40
1.0
  9
$DIMTOFL
 70
     1
  9
$DIMTVP
 40
0.0
  9
$DIMTIX
 70
     0
  9
$DIMSOXD
 70
     0
  9
$DIMSAH
 70
     0
  9
$DIMBLK1
  1

  9
$DIMBLK2
  1

  9
$DIMSTYLE
  2
ISO-25
  9
$DIMCLRD
 70
     0
  9
$DIMCLRE
 70
     0
  9
$DIMCLRT
 70
     0
  9
$DIMTFAC
 40
1.0
  9
$DIMGAP
 40
1.524
  9
$LUNITS
 70
     2
  9
$LUPREC
 70
     2
  9
$SKETCHINC
 40
1.0
  9
$FILLETRAD
 40
10.0
  9
$AUNITS
 70
     0
  9
$AUPREC
 70
     2
  9
$MENU
  1
.
  9
$ELEVATION
 40
0.0
  9
$PELEVATION
 40
0.0
  9
$THICKNESS
 40
0.0
  9
$LIMCHECK
 70
     0
  9
$CHAMFERA
 40
10.0
  9
$CHAMFERB
 40
10.0
  9
$SKPOLY
 70
     0
  9
$TDCREATE
 40
2455964.308471308
  9
$TDUPDATE
 40
2455964.308471319
  9
$TDINDWG
 40
0.0000000116
  9
$TDUSRTIMER
 40
0.0000000116
  9
$USRTIMER
 70
     1
  9
$ANGBASE
 50
0.0
  9
$ANGDIR
 70
     0
  9
$PDMODE
 70
     0
  9
$PDSIZE
 40
-1.0
  9
$PLINEWID
 40
0.0
  9
$COORDS
 70
     1
  9
$SPLFRAME
 70
     0
  9
$SPLINETYPE
 70
     6
  9
$SPLINESEGS
 70
     8
  9
$ATTDIA
 70
     0
  9
$ATTREQ
 70
     1
  9
$HANDLING
 70
     1
  9
$HANDSEED
  5
A3B
  9
$SURFTAB1
 70
     6
  9
$SURFTAB2
 70
     6
  9
$SURFTYPE
 70
     6
  9
$SURFU
 70
     6
  9
$SURFV
 70
     6
  9
$UCSNAME
  2

  9
$UCSORG
 10
0.0
 20
0.0
 30
0.0
  9
$UCSXDIR
 10
1.0
 20
0.0
 30
0.0
  9
$UCSYDIR
 10
0.0
 20
1.0
 30
0.0
  9
$PUCSNAME
  2

  9
$PUCSORG
 10
0.0
 20
0.0
 30
0.0
  9
$PUCSXDIR
 10
1.0
 20
0.0
 30
0.0
  9
$PUCSYDIR
 10
0.0
 20
1.0
 30
0.0
  9
$USERI1
 70
     0
  9
$USERI2
 70
     0
  9
$USERI3
 70
     0
  9
$USERI4
 70
     0
  9
$USERI5
 70
     0
  9
$USERR1
 40
0.0
  9
$USERR2
 40
0.0
  9
$USERR3
 40
0.0
  9
$USERR4
 40
0.0
  9
$USERR5
 40
0.0
  9
$WORLDVIEW
 70
     1
  9
$SHADEDGE
 70
     3
  9
$SHADEDIF
 70
    70
  9
$TILEMODE
 70
     1
  9
$MAXACTVP
 70
    64
  9
$PLIMCHECK
 70
     0
  9
$PEXTMIN
 10
1.0000000000E+20
 20
1.0000000000E+20
 30
1.0000000000E+20
  9
$PEXTMAX
 10
-1.0000000000E+20
 20
-1.0000000000E+20
 30
-1.0000000000E+20
  9
$PLIMMIN
 10
0.0
 20
0.0
  9
$PLIMMAX
 10
420.0
 20
297.0
  9
$UNITMODE
 70
     0
  9
$VISRETAIN
 70
     1
  9
$PLINEGEN
 70
     0
  9
$PSLTSCALE
 70
     1
  0
ENDSEC
  0
SECTION
  2
TABLES
  0
TABLE
  2
VPORT
 70
     1
  0
VPORT
  2
*ACTIVE
 70
     0
 10
0.0
 20
0.0
 11
1.0
 21
1.0
 12
139.7
 22
107.95
 13
0.0
 23
0.0
 14
10.0
 24
10.0
 15
10.0
 25
10.0
 16
0.0
 26
0.0
 36
1.0
 17
0.0
 27
0.0
 37
0.0
 40
215.9
 41
1.2941176471
 42
50.0
 43
0.0
 44
0.0
 50
0.0
 51
0.0
 71
     0
 72
  2000
 73
     1
 74
     3
 75
     0
 76
     0
 77
     0
 78
     0
  0
ENDTAB
  0
TABLE
  2
LTYPE
 70
    10
  0
LTYPE
  2
CONTINUOUS
 70
     0
  3
Solid line
 72
    65
 73
     0
 40
0.0
  0
LTYPE
  2
SLD-PLNÁ
 70
     0
  3
SolidWorks Line Style
 72
    65
 73
     0
 40
0.0
  0
LTYPE
  2
SLD-ČÁRKOVANÁ
 70
     0
  3
SolidWorks Line Style
 72
    65
 73
     2
 40
1.905
 49
1.27
 49
-0.635
  0
LTYPE
  2
SLD-DVOJITĚ-ČERCHOVANÁ
 70
     0
  3
SolidWorks Line Style
 72
    65
 73
     6
 40
12.7
 49
6.35
 49
-1.27
 49
1.27
 49
-1.27
 49
1.27
 49
-1.27
  0
LTYPE
  2
SLD-ČERCHOVANÁ
 70
     0
  3
SolidWorks Line Style
 72
    65
 73
     4
 40
10.16
 49
6.35
 49
-1.27
 49
1.27
 49
-1.27
  0
LTYPE
  2
SLD-OSA
 70
     0
  3
SolidWorks Line Style
 72
    65
 73
     4
 40
19.05
 49
15.24
 49
-1.27
 49
1.27
 49
-1.27
  0
LTYPE
  2
SLD-TEČKOVANÁ
 70
     0
  3
SolidWorks Line Style
 72
    65
 73
     2
 40
0.635
 49
0.0
 49
-0.635
  0
LTYPE
  2
SLD-HRUBÁ-TENKÁ-ČERCHOVANÁ
 70
     0
  3
SolidWorks Line Style
 72
    65
 73
     4
 40
10.16
 49
6.35
 49
-1.27
 49
1.27
 49
-1.27
  0
LTYPE
  2
SLD-ŘEZ-1
 70
     0
  3
SolidWorks Line Style
 72
    65
 73
     4
 40
8.128
 49
5.08
 49
-1.016
 49
1.016
 49
-1.016
  0
LTYPE
  2
SLD-ŘEZ-2
 70
     0
  3
SolidWorks Line Style
 72
    65
 73
     2
 40
5080.0
 49
0.0
 49
-5080.0
  0
ENDTAB
  0
TABLE
  2
LAYER
 70
    15
  0
LAYER
  2
0
 70
     0
 62
     7
  6
CONTINUOUS
  0
LAYER
  2
DEFPOINTS
 70
     0
 62
     7
  6
CONTINUOUS
  0
LAYER
  2
VIDITELNE
 70
     0
 62
     2
  6
SLD-PLNÁ
  0
LAYER
  2
SKRYTE
 70
     0
 62
     4
  6
SLD-ČÁRKOVANÁ
  0
LAYER
  2
SKICA
 70
     0
 62
     6
  6
SLD-PLNÁ
  0
LAYER
  2
DETAIL
 70
     0
 62
     7
  6
SLD-PLNÁ
  0
LAYER
  2
REZY
 70
     0
 62
     1
  6
SLD-HRUBÁ-TENKÁ-ČERCHOVANÁ
  0
LAYER
  2
KOTY
 70
     0
 62
     3
  6
SLD-PLNÁ
  0
LAYER
  2
OSY
 70
     0
 62
     7
  6
SLD-OSA
  0
LAYER
  2
SRAF
 70
     0
 62
     7
  6
SLD-PLNÁ
  0
LAYER
  2
TECNE
 70
     0
 62
     7
  6
SLD-DVOJITĚ-ČERCHOVANÁ
  0
LAYER
  2
HRANICE
 70
     0
 62
     4
  6
SLD-PLNÁ
  0
LAYER
  2
UZ-1
 70
     0
 62
    11
  6
SLD-DVOJITĚ-ČERCHOVANÁ
  0
LAYER
  2
UZ-2
 70
     0
 62
    11
  6
SLD-DVOJITĚ-ČERCHOVANÁ
  0
LAYER
  2
UZ-3
 70
     0
 62
    11
  6
SLD-ČÁRKOVANÁ
  0
ENDTAB
  0
TABLE
  2
STYLE
 70
     1
  0
STYLE
  2
STANDARD
 70
     0
 40
0.0
 41
1.0
 50
0.0
 71
     0
 42
2.5
  3
txt
  4

  0
ENDTAB
  0
TABLE
  2
VIEW
 70
     0
  0
ENDTAB
  0
TABLE
  2
UCS
 70
     0
  0
ENDTAB
  0
TABLE
  2
APPID
 70
     1
  0
APPID
  2
ACAD
 70
     0
  0
ENDTAB
  0
TABLE
  2
DIMSTYLE
 70
     1
  0
DIMSTYLE
  2
ISO-25
 70
     0
  3

  4

  5

  6

  7

 40
1.0
 41
2.5
 42
0.625
 43
3.75
 44
1.25
 45
0.0
 46
0.0
 47
0.0
 48
0.0
140
2.5
141
2.5
142
0.0
143
0.0393700787
144
1.0
145
0.0
146
1.0
147
0.625
 71
     0
 72
     0
 73
     0
 74
     0
 75
     0
 76
     0
 77
     1
 78
     8
170
     0
171
     3
172
     1
173
     0
174
     0
175
     0
176
     0
177
     0
178
     0
  0
ENDTAB
  0
ENDSEC
  0
SECTION
  2
BLOCKS
  0
BLOCK
  8
0
  2
$MODEL_SPACE
 70
     0
 10
0.0
 20
0.0
 30
0.0
  3
$MODEL_SPACE
  1

  0
ENDBLK
  5
21
  8
0
  0
BLOCK
 67
     1
  8
0
  2
$PAPER_SPACE
 70
     0
 10
0.0
 20
0.0
 30
0.0
  3
$PAPER_SPACE
  1

  0
ENDBLK
  5
1D
 67
     1
  8
0
  0
ENDSEC
  0
SECTION
  2
ENTITIES
  0
LINE
  5
56
  8
VIDITELNE
  6
SLD-PLNÁ
 62
     2
 10
39.4511534421
 20
-169.0
 30
0.0
 11
80.5
 21
-169.0
 31
0.0
  0
LINE
  5
57
  8
VIDITELNE
  6
SLD-PLNÁ
 62
     2
 10
-35.5
 20
-169.0
 30
0.0
 11
5.5005621562
 21
-169.0
 31
0.0
  0
ARC
  5
58
  8
VIDITELNE
  6
SLD-PLNÁ
 62
     2
 10
106.5
 20
-13.5
 30
0.0
 40
2.000000000000002
 50
0.0
 51
90.0
  0
ARC
  5
59
  8
VIDITELNE
  6
SLD-PLNÁ
 62
     2
 10
106.5
 20
-74.5
 30
0.0
 40
2.0
 50
270.0
 51
0.0
  0
ARC
  5
5A
  8
VIDITELNE
  6
SLD-PLNÁ
 62
     2
 10
5.5
 20
-171.0
 30
0.0
 40
1.999999999988341
 50
359.9999999996
 51
89.9999999997
  0
ARC
  5
5B
  8
VIDITELNE
  6
SLD-PLNÁ
 62
     2
 10
39.5
 20
-171.0
 30
0.0
 40
2.000000000006168
 50
90.0000000014
 51
180.0
  0
LINE
  5
5C
  8
VIDITELNE
  6
SLD-PLNÁ
 62
     2
 10
7.5
 20
-170.9999236757
 30
0.0
 11
7.5
 21
-172.0
 31
0.0
  0
LINE
  5
5D
  8
VIDITELNE
  6
SLD-PLNÁ
 62
     2
 10
37.5
 20
-172.0
 30
0.0
 11
37.5
 21
-170.9928486643
 31
0.0
  0
LINE
  5
5E
  8
VIDITELNE
  6
SLD-PLNÁ
 62
     2
 10
12.0
 20
-172.0
 30
0.0
 11
12.0
 21
-175.0
 31
0.0
  0
LINE
  5
5F
  8
VIDITELNE
  6
SLD-PLNÁ
 62
     2
 10
33.0
 20
-175.0
 30
0.0
 11
33.0
 21
-172.0
 31
0.0
  0
ARC
  5
60
  8
VIDITELNE
  6
SLD-PLNÁ
 62
     2
 10
32.0
 20
-175.0
 30
0.0
 40
1.0
 50
270.0
 51
0.0
  0
ARC
  5
61
  8
VIDITELNE
  6
SLD-PLNÁ
 62
     2
 10
13.0
 20
-175.0
 30
0.0
 40
1.000000000000002
 50
180.0
 51
270.0
  0
ARC
  5
62
  8
VIDITELNE
  6
SLD-PLNÁ
 62
     2
 10
-109.5
 20
79.0
 30
0.0
 40
2.0
 50
0.0
 51
90.0
  0
ARC
  5
63
  8
VIDITELNE
  6
SLD-PLNÁ
 62
     2
 10
-109.5
 20
-167.0
 30
0.0
 40
2.0
 50
270.0
 51
0.0
  0
LINE
  5
64
  8
VIDITELNE
  6
SLD-PLNÁ
 62
     2
 10
-109.5
 20
81.0
 30
0.0
 11
-122.5
 21
81.0
 31
0.0
  0
LINE
  5
65
  8
VIDITELNE
  6
SLD-PLNÁ
 62
     2
 10
-122.5
 20
-169.0
 30
0.0
 11
-109.5
 21
-169.0
 31
0.0
  0
LINE
  5
66
  8
VIDITELNE
  6
SLD-PLNÁ
 62
     2
 10
-44.5844928937
 20
-168.6827625177
 30
0.0
 11
-35.5
 21
-169.0
 31
0.0
  0
LINE
  5
67
  8
VIDITELNE
  6
SLD-PLNÁ
 62
     2
 10
-46.5
 20
-36.0
 30
0.0
 11
-55.5
 21
-36.0
 31
0.0
  0
LINE
  5
68
  8
VIDITELNE
  6
SLD-PLNÁ
 62
     2
 10
-55.5
 20
-52.0
 30
0.0
 11
-46.5
 21
-52.0
 31
0.0
  0
ARC
  5
69
  8
VIDITELNE
  6
SLD-PLNÁ
 62
     2
 10
-55.5
 20
-37.0
 30
0.0
 40
1.0
 50
90.0
 51
180.0
  0
ARC
  5
6A
  8
VIDITELNE
  6
SLD-PLNÁ
 62
     2
 10
-55.5
 20
-51.0
 30
0.0
 40
1.0
 50
180.0
 51
270.0
  0
ARC
  5
6B
  8
VIDITELNE
  6
SLD-PLNÁ
 62
     2
 10
-105.5
 20
46.5483979384
 30
0.0
 40
2.000000000000002
 50
180.0
 51
235.0
  0
ARC
  5
6C
  8
VIDITELNE
  6
SLD-PLNÁ
 62
     2
 10
-105.5
 20
-134.5483979384
 30
0.0
 40
2.00000000000002
 50
125.0
 51
180.0
  0
LINE
  5
6D
  8
VIDITELNE
  6
SLD-PLNÁ
 62
     2
 10
-46.5
 20
-117.3172798365
 30
0.0
 11
-55.5
 21
-117.3172798365
 31
0.0
  0
LINE
  5
6E
  8
VIDITELNE
  6
SLD-PLNÁ
 62
     2
 10
-55.5
 20
-133.3172798365
 30
0.0
 11
-46.5
 21
-133.3172798365
 31
0.0
  0
ARC
  5
6F
  8
VIDITELNE
  6
SLD-PLNÁ
 62
     2
 10
-55.5
 20
-118.3172798365
 30
0.0
 40
1.0
 50
90.0
 51
180.0
  0
ARC
  5
70
  8
VIDITELNE
  6
SLD-PLNÁ
 62
     2
 10
-55.5
 20
-132.3172798365
 30
0.0
 40
1.0
 50
180.0
 51
270.0
  0
LINE
  5
71
  8
VIDITELNE
  6
SLD-PLNÁ
 62
     2
 10
-106.6471528727
 20
-132.9100938499
 30
0.0
 11
-73.7913882374
 21
-109.9042397786
 31
0.0
  0
LINE
  5
72
  8
VIDITELNE
  6
SLD-PLNÁ
 62
     2
 10
-73.7913882374
 20
21.9042397786
 30
0.0
 11
-106.6471528727
 21
44.9100938499
 31
0.0
  0
ARC
  5
73
  8
VIDITELNE
  6
SLD-PLNÁ
 62
     2
 10
-48.5
 20
-111.0
 30
0.0
 40
2.0
 50
0.0
 51
90.0
  0
ARC
  5
74
  8
VIDITELNE
  6
SLD-PLNÁ
 62
     2
 10
-70.9235060556
 20
26.0
 30
0.0
 40
5.000000000000007
 50
235.0
 51
270.0
  0
ARC
  5
75
  8
VIDITELNE
  6
SLD-PLNÁ
 62
     2
 10
-70.9235060556
 20
-114.0
 30
0.0
 40
5.0
 50
90.0
 51
125.0
  0
LINE
  5
76
  8
VIDITELNE
  6
SLD-PLNÁ
 62
     2
 10
-61.0164654425
 20
21.0
 30
0.0
 11
-70.9235060556
 21
21.0
 31
0.0
  0
LINE
  5
77
  8
VIDITELNE
  6
SLD-PLNÁ
 62
     2
 10
-70.9235060556
 20
-109.0
 30
0.0
 11
-48.5
 21
-109.0
 31
0.0
  0
LINE
  5
78
  8
VIDITELNE
  6
SLD-PLNÁ
 62
     2
 10
-46.5
 20
-151.0
 30
0.0
 11
-55.5
 21
-151.0
 31
0.0
  0
LINE
  5
79
  8
VIDITELNE
  6
SLD-PLNÁ
 62
     2
 10
-55.5
 20
-167.0
 30
0.0
 11
-46.5
 21
-167.0
 31
0.0
  0
ARC
  5
7A
  8
VIDITELNE
  6
SLD-PLNÁ
 62
     2
 10
-55.5
 20
-152.0
 30
0.0
 40
1.000000000000028
 50
90.0
 51
180.0
  0
ARC
  5
7B
  8
VIDITELNE
  6
SLD-PLNÁ
 62
     2
 10
-55.5
 20
-166.0
 30
0.0
 40
1.0
 50
180.0
 51
270.0
  0
ARC
  5
7C
  8
VIDITELNE
  6
SLD-PLNÁ
 62
     2
 10
-44.6186147002
 20
-166.8122048546
 30
0.0
 40
1.862866479594565
 50
182.3951698239
 51
271.0599704613
  0
LINE
  5
7D
  8
VIDITELNE
  6
SLD-PLNÁ
 62
     2
 10
80.5
 20
-169.0
 30
0.0
 11
91.5
 21
-168.6158715356
 31
0.0
  0
ARC
  5
7E
  8
VIDITELNE
  6
SLD-PLNÁ
 62
     2
 10
100.5
 20
-37.0
 30
0.0
 40
1.000000000000014
 50
360.0
 51
90.0
  0
ARC
  5
7F
  8
VIDITELNE
  6
SLD-PLNÁ
 62
     2
 10
100.5
 20
-51.0
 30
0.0
 40
1.000000000000014
 50
270.0
 51
360.0
  0
LINE
  5
80
  8
VIDITELNE
  6
SLD-PLNÁ
 62
     2
 10
91.5
 20
-52.0
 30
0.0
 11
100.5
 21
-52.0
 31
0.0
  0
LINE
  5
81
  8
VIDITELNE
  6
SLD-PLNÁ
 62
     2
 10
100.5
 20
-36.0
 30
0.0
 11
91.5
 21
-36.0
 31
0.0
  0
LINE
  5
82
  8
VIDITELNE
  6
SLD-PLNÁ
 62
     2
 10
91.5
 20
-133.3172798365
 30
0.0
 11
100.5
 21
-133.3172798365
 31
0.0
  0
LINE
  5
83
  8
VIDITELNE
  6
SLD-PLNÁ
 62
     2
 10
100.5
 20
-117.3172798365
 30
0.0
 11
91.5
 21
-117.3172798365
 31
0.0
  0
ARC
  5
84
  8
VIDITELNE
  6
SLD-PLNÁ
 62
     2
 10
100.5
 20
-118.3172798365
 30
0.0
 40
1.000000000000014
 50
0.0
 51
90.0
  0
ARC
  5
85
  8
VIDITELNE
  6
SLD-PLNÁ
 62
     2
 10
100.5
 20
-132.3172798365
 30
0.0
 40
1.000000000000014
 50
270.0
 51
0.0
  0
LINE
  5
86
  8
VIDITELNE
  6
SLD-PLNÁ
 62
     2
 10
106.5
 20
21.0
 30
0.0
 11
106.0164654425
 21
21.0
 31
0.0
  0
LINE
  5
87
  8
VIDITELNE
  6
SLD-PLNÁ
 62
     2
 10
103.0
 20
-109.0
 30
0.0
 11
106.5
 21
-109.0
 31
0.0
  0
LINE
  5
88
  8
VIDITELNE
  6
SLD-PLNÁ
 62
     2
 10
99.3731240234
 20
-141.0939778214
 30
0.0
 11
103.0
 21
-139.0
 31
0.0
  0
ARC
  5
89
  8
VIDITELNE
  6
SLD-PLNÁ
 62
     2
 10
100.5
 20
-152.0
 30
0.0
 40
1.0
 50
0.0
 51
90.0
  0
ARC
  5
8A
  8
VIDITELNE
  6
SLD-PLNÁ
 62
     2
 10
100.5
 20
-166.0
 30
0.0
 40
1.000000000000028
 50
270.0
 51
0.0
  0
LINE
  5
8B
  8
VIDITELNE
  6
SLD-PLNÁ
 62
     2
 10
91.5
 20
-167.0
 30
0.0
 11
100.5
 21
-167.0
 31
0.0
  0
LINE
  5
8C
  8
VIDITELNE
  6
SLD-PLNÁ
 62
     2
 10
100.5
 20
-151.0
 30
0.0
 11
94.8094140097
 21
-151.0
 31
0.0
  0
ARC
  5
8D
  8
VIDITELNE
  6
SLD-PLNÁ
 62
     2
 10
22.5
 20
76.0
 30
0.0
 40
13.99999999999999
 50
106.601549599
 51
73.398450401
  0
LINE
  5
8E
  8
VIDITELNE
  6
SLD-PLNÁ
 62
     2
 10
26.5
 20
89.416407865
 30
0.0
 11
26.5
 21
90.6172825247
 31
0.0
  0
ARC
  5
8F
  8
VIDITELNE
  6
SLD-PLNÁ
 62
     2
 10
22.5
 20
76.0
 30
0.0
 40
15.15470053837924
 50
105.3042448177
 51
74.6957551823
  0
LINE
  5
90
  8
VIDITELNE
  6
SLD-PLNÁ
 62
     2
 10
18.5
 20
90.6172825247
 30
0.0
 11
18.5
 21
89.416407865
 31
0.0
  0
CIRCLE
  5
91
  8
VIDITELNE
  6
SLD-PLNÁ
 62
     2
 10
22.5
 20
76.0
 30
0.0
 40
18.0
  0
LINE
  5
92
  8
VIDITELNE
  6
SLD-PLNÁ
 62
     2
 10
26.5
 20
93.3
 30
0.0
 11
18.5
 21
93.3
 31
0.0
  0
LINE
  5
93
  8
VIDITELNE
  6
SLD-PLNÁ
 62
     2
 10
26.5
 20
90.6172825247
 30
0.0
 11
26.5
 21
93.3
 31
0.0
  0
LINE
  5
94
  8
VIDITELNE
  6
SLD-PLNÁ
 62
     2
 10
18.5
 20
93.3
 30
0.0
 11
18.5
 21
90.6172825247
 31
0.0
  0
CIRCLE
  5
95
  8
VIDITELNE
  6
SLD-PLNÁ
 62
     2
 10
22.5
 20
76.0
 30
0.0
 40
20.0
  0
CIRCLE
  5
96
  8
VIDITELNE
  6
SLD-PLNÁ
 62
     2
 10
22.5
 20
76.0
 30
0.0
 40
31.0
  0
ARC
  5
97
  8
VIDITELNE
  6
SLD-PLNÁ
 62
     2
 10
429.0163259313
 20
0.9369980935
 30
0.0
 40
461.708336068424
 50
181.6524598005
 51
185.5853066594
  0
LINE
  5
98
  8
VIDITELNE
  6
SLD-PLNÁ
 62
     2
 10
-32.5
 20
-12.3772233983
 30
0.0
 11
-32.5
 21
-7.5164654425
 31
0.0
  0
LINE
  5
99
  8
VIDITELNE
  6
SLD-PLNÁ
 62
     2
 10
-32.5
 20
13.2911581888
 30
0.0
 11
-32.5
 21
22.0362229154
 31
0.0
  0
ARC
  5
9A
  8
VIDITELNE
  6
SLD-PLNÁ
 62
     2
 10
-34.031000062
 20
-10.4936762046
 30
0.0
 40
2.427284742432328
 50
258.8592408081
 51
309.1051800945
  0
POLYLINE
  5
9B
  8
VIDITELNE
  6
SLD-PLNÁ
 62
     2
 66
     1
 10
0.0
 20
0.0
 30
0.0
  0
VERTEX
  5
715
  8
VIDITELNE
  6
SLD-PLNÁ
 62
     2
 10
-30.5
 20
-44.0
 30
0.0
  0
VERTEX
  5
716
  8
VIDITELNE
  6
SLD-PLNÁ
 62
     2
 10
-30.5125475578
 20
-43.9304114354
 30
0.0
  0
VERTEX
  5
717
  8
VIDITELNE
  6
SLD-PLNÁ
 62
     2
 10
-32.5388819987
 20
-32.2885420161
 30
0.0
  0
VERTEX
  5
718
  8
VIDITELNE
  6
SLD-PLNÁ
 62
     2
 10
-33.4152225157
 20
-26.4280447676
 30
0.0
  0
VERTEX
  5
719
  8
VIDITELNE
  6
SLD-PLNÁ
 62
     2
 10
-34.097986477
 20
-20.5630481992
 30
0.0
  0
VERTEX
  5
71A
  8
VIDITELNE
  6
SLD-PLNÁ
 62
     2
 10
-34.5
 20
-12.8752198802
 30
0.0
  0
SEQEND
  5
71B
  8
VIDITELNE
  6
SLD-PLNÁ
 62
     2
  0
LINE
  5
9C
  8
VIDITELNE
  6
SLD-PLNÁ
 62
     2
 10
75.5
 20
-44.0
 30
0.0
 11
-30.5
 21
-44.0
 31
0.0
  0
LINE
  5
9D
  8
VIDITELNE
  6
SLD-PLNÁ
 62
     2
 10
77.5
 20
22.0362229154
 30
0.0
 11
77.5
 21
13.2911581888
 31
0.0
  0
LINE
  5
9E
  8
VIDITELNE
  6
SLD-PLNÁ
 62
     2
 10
77.5
 20
-7.5164654425
 30
0.0
 11
77.5
 21
-12.3772233983
 31
0.0
  0
ARC
  5
9F
  8
VIDITELNE
  6
SLD-PLNÁ
 62
     2
 10
-383.8888040549
 20
0.9289329019
 30
0.0
 40
461.5806346703258
 50
354.4141490939
 51
358.3480844461
  0
POLYLINE
  5
A0
  8
VIDITELNE
  6
SLD-PLNÁ
 62
     2
 66
     1
 10
0.0
 20
0.0
 30
0.0
  0
VERTEX
  5
71C
  8
VIDITELNE
  6
SLD-PLNÁ
 62
     2
 10
79.5
 20
-12.8752198802
 30
0.0
  0
VERTEX
  5
71D
  8
VIDITELNE
  6
SLD-PLNÁ
 62
     2
 10
79.097986477
 20
-20.5630481992
 30
0.0
  0
VERTEX
  5
71E
  8
VIDITELNE
  6
SLD-PLNÁ
 62
     2
 10
78.4260824104
 20
-26.347783779
 30
0.0
  0
VERTEX
  5
71F
  8
VIDITELNE
  6
SLD-PLNÁ
 62
     2
 10
77.5586030129
 20
-32.1661827184
 30
0.0
  0
VERTEX
  5
720
  8
VIDITELNE
  6
SLD-PLNÁ
 62
     2
 10
75.5125475578
 20
-43.9304114354
 30
0.0
  0
VERTEX
  5
721
  8
VIDITELNE
  6
SLD-PLNÁ
 62
     2
 10
75.5
 20
-44.0
 30
0.0
  0
SEQEND
  5
722
  8
VIDITELNE
  6
SLD-PLNÁ
 62
     2
  0
LINE
  5
A1
  8
VIDITELNE
  6
SLD-PLNÁ
 62
     2
 10
-35.5
 20
23.153398737
 30
0.0
 11
-35.5
 21
12.1739823672
 31
0.0
  0
LINE
  5
A2
  8
VIDITELNE
  6
SLD-PLNÁ
 62
     2
 10
-35.5
 20
-5.4616474177
 30
0.0
 11
-35.5
 21
-169.0
 31
0.0
  0
LINE
  5
A3
  8
VIDITELNE
  6
SLD-PLNÁ
 62
     2
 10
80.5
 20
23.153398737
 30
0.0
 11
80.5
 21
12.1739823672
 31
0.0
  0
LINE
  5
A4
  8
VIDITELNE
  6
SLD-PLNÁ
 62
     2
 10
80.5
 20
-5.4616474177
 30
0.0
 11
80.5
 21
-169.0
 31
0.0
  0
ARC
  5
A5
  8
VIDITELNE
  6
SLD-PLNÁ
 62
     2
 10
79.031000062
 20
-10.4936762046
 30
0.0
 40
2.427284742432144
 50
230.8948199055
 51
281.1407591919
  0
LINE
  5
A6
  8
VIDITELNE
  6
SLD-PLNÁ
 62
     2
 10
108.5
 20
-13.5
 30
0.0
 11
108.5
 21
-74.5
 31
0.0
  0
LINE
  5
A7
  8
VIDITELNE
  6
SLD-PLNÁ
 62
     2
 10
22.5
 20
-172.0
 30
0.0
 11
37.5
 21
-172.0
 31
0.0
  0
LINE
  5
A8
  8
VIDITELNE
  6
SLD-PLNÁ
 62
     2
 10
7.5
 20
-172.0
 30
0.0
 11
22.5
 21
-172.0
 31
0.0
  0
LINE
  5
A9
  8
VIDITELNE
  6
SLD-PLNÁ
 62
     2
 10
32.0
 20
-176.0
 30
0.0
 11
13.0
 21
-176.0
 31
0.0
  0
LINE
  5
AA
  8
VIDITELNE
  6
SLD-PLNÁ
 62
     2
 10
-107.5
 20
79.0
 30
0.0
 11
-107.5
 21
-166.9999999995
 31
0.0
  0
LINE
  5
AB
  8
VIDITELNE
  6
SLD-PLNÁ
 62
     2
 10
-122.5
 20
81.0
 30
0.0
 11
-122.5
 21
-169.0
 31
0.0
  0
LINE
  5
AC
  8
VIDITELNE
  6
SLD-PLNÁ
 62
     2
 10
-44.5697989934
 20
-133.8000133199
 30
0.0
 11
-44.5697989934
 21
-168.6614096651
 31
0.0
  0
POLYLINE
  5
AD
  8
VIDITELNE
  6
SLD-PLNÁ
 62
     2
 66
     1
 10
0.0
 20
0.0
 30
0.0
  0
VERTEX
  5
723
  8
VIDITELNE
  6
SLD-PLNÁ
 62
     2
 10
-44.5697989934
 20
-130.497842933
 30
0.0
  0
VERTEX
  5
724
  8
VIDITELNE
  6
SLD-PLNÁ
 62
     2
 10
-44.5892079691
 20
-131.5924544046
 30
0.0
  0
VERTEX
  5
725
  8
VIDITELNE
  6
SLD-PLNÁ
 62
     2
 10
-44.5697989934
 20
-133.8000133199
 30
0.0
  0
SEQEND
  5
726
  8
VIDITELNE
  6
SLD-PLNÁ
 62
     2
  0
LINE
  5
AE
  8
VIDITELNE
  6
SLD-PLNÁ
 62
     2
 10
-44.5697989934
 20
-46.3349870732
 30
0.0
 11
-44.5697989934
 21
-130.497842933
 31
0.0
  0
POLYLINE
  5
AF
  8
VIDITELNE
  6
SLD-PLNÁ
 62
     2
 66
     1
 10
0.0
 20
0.0
 30
0.0
  0
VERTEX
  5
727
  8
VIDITELNE
  6
SLD-PLNÁ
 62
     2
 10
-44.5697989934
 20
-41.6650129268
 30
0.0
  0
VERTEX
  5
728
  8
VIDITELNE
  6
SLD-PLNÁ
 62
     2
 10
-44.5892079691
 20
-43.1944414501
 30
0.0
  0
VERTEX
  5
729
  8
VIDITELNE
  6
SLD-PLNÁ
 62
     2
 10
-44.5697989934
 20
-46.3349870732
 30
0.0
  0
SEQEND
  5
72A
  8
VIDITELNE
  6
SLD-PLNÁ
 62
     2
  0
LINE
  5
B0
  8
VIDITELNE
  6
SLD-PLNÁ
 62
     2
 10
-46.5
 20
-46.2975551939
 30
0.0
 11
-46.5
 21
-41.7024448061
 31
0.0
  0
ARC
  5
B1
  8
VIDITELNE
  6
SLD-PLNÁ
 62
     2
 10
-45.0411458116
 20
-67.1444825835
 30
0.0
 40
25.48382902575526
 50
88.9402015146
 51
93.2817638657
  0
ARC
  5
B2
  8
VIDITELNE
  6
SLD-PLNÁ
 62
     2
 10
-45.0411458116
 20
-20.8555174165
 30
0.0
 40
25.48382902570729
 50
266.7182361343
 51
271.0597984854
  0
LINE
  5
B3
  8
VIDITELNE
  6
SLD-PLNÁ
 62
     2
 10
-46.5
 20
-129.1112070696
 30
0.0
 11
-46.5
 21
-46.2975551939
 31
0.0
  0
ARC
  5
B4
  8
VIDITELNE
  6
SLD-PLNÁ
 62
     2
 10
-44.7808038361
 20
-128.7548217291
 30
0.0
 40
1.755746553723675
 50
191.7114058078
 51
276.9024654221
  0
LINE
  5
B5
  8
VIDITELNE
  6
SLD-PLNÁ
 62
     2
 10
-46.5
 20
-41.7024448061
 30
0.0
 11
-46.5
 21
3.6190632832
 31
0.0
  0
LINE
  5
B6
  8
VIDITELNE
  6
SLD-PLNÁ
 62
     2
 10
-56.5
 20
-50.9999991568
 30
0.0
 11
-56.5
 21
-37.0
 31
0.0
  0
LINE
  5
B7
  8
VIDITELNE
  6
SLD-PLNÁ
 62
     2
 10
-46.5
 20
-132.3604407852
 30
0.0
 11
-46.5
 21
-129.1112070696
 31
0.0
  0
ARC
  5
B8
  8
VIDITELNE
  6
SLD-PLNÁ
 62
     2
 10
-44.7605318293
 20
-132.0419429682
 30
0.0
 40
1.76838637646811
 50
190.3759610839
 51
276.1917952532
  0
LINE
  5
B9
  8
VIDITELNE
  6
SLD-PLNÁ
 62
     2
 10
-56.5
 20
-132.3172789933
 30
0.0
 11
-56.5
 21
-118.3172798365
 31
0.0
  0
ARC
  5
BA
  8
VIDITELNE
  6
SLD-PLNÁ
 62
     2
 10
-44.5001898538
 20
-166.6628113521
 30
0.0
 40
1.999810153231877
 50
180.0047900837
 51
268.0052527911
  0
LINE
  5
BB
  8
VIDITELNE
  6
SLD-PLNÁ
 62
     2
 10
-46.5
 20
-166.6629785417
 30
0.0
 11
-46.5
 21
-132.3604407852
 31
0.0
  0
LINE
  5
BC
  8
VIDITELNE
  6
SLD-PLNÁ
 62
     2
 10
-46.5
 20
-166.9972117819
 30
0.0
 11
-46.5
 21
-166.6629785417
 31
0.0
  0
LINE
  5
BD
  8
VIDITELNE
  6
SLD-PLNÁ
 62
     2
 10
-56.5
 20
-165.9999991568
 30
0.0
 11
-56.5
 21
-152.0
 31
0.0
  0
ARC
  5
BE
  8
VIDITELNE
  6
SLD-PLNÁ
 62
     2
 10
22.5
 20
123.0
 30
0.0
 40
3.464101615137579
 50
120.0
 51
180.0
  0
LINE
  5
BF
  8
VIDITELNE
  6
SLD-PLNÁ
 62
     2
 10
19.0358983849
 20
123.0
 30
0.0
 11
20.7679491924
 21
126.0
 31
0.0
  0
ARC
  5
C0
  8
VIDITELNE
  6
SLD-PLNÁ
 62
     2
 10
22.5
 20
123.0
 30
0.0
 40
3.464101615141381
 50
300.0
 51
360.0
  0
LINE
  5
C1
  8
VIDITELNE
  6
SLD-PLNÁ
 62
     2
 10
25.9641016151
 20
123.0
 30
0.0
 11
24.2320508076
 21
120.0
 31
0.0
  0
ARC
  5
C2
  8
VIDITELNE
  6
SLD-PLNÁ
 62
     2
 10
22.5
 20
123.0
 30
0.0
 40
3.464101615141381
 50
360.0
 51
60.0
  0
LINE
  5
C3
  8
VIDITELNE
  6
SLD-PLNÁ
 62
     2
 10
24.2320508076
 20
126.0
 30
0.0
 11
25.9641016151
 21
123.0
 31
0.0
  0
ARC
  5
C4
  8
VIDITELNE
  6
SLD-PLNÁ
 62
     2
 10
22.5
 20
123.0
 30
0.0
 40
3.464101615136786
 50
180.0
 51
240.0
  0
LINE
  5
C5
  8
VIDITELNE
  6
SLD-PLNÁ
 62
     2
 10
20.7679491924
 20
120.0
 30
0.0
 11
19.0358983849
 21
123.0
 31
0.0
  0
ARC
  5
C6
  8
VIDITELNE
  6
SLD-PLNÁ
 62
     2
 10
22.5
 20
123.0
 30
0.0
 40
3.464101615138613
 50
60.0
 51
120.0
  0
LINE
  5
C7
  8
VIDITELNE
  6
SLD-PLNÁ
 62
     2
 10
20.7679491924
 20
126.0
 30
0.0
 11
24.2320508076
 21
126.0
 31
0.0
  0
ARC
  5
C8
  8
VIDITELNE
  6
SLD-PLNÁ
 62
     2
 10
22.5
 20
123.0
 30
0.0
 40
3.464101615139479
 50
240.0
 51
300.0
  0
LINE
  5
C9
  8
VIDITELNE
  6
SLD-PLNÁ
 62
     2
 10
24.2320508076
 20
120.0
 30
0.0
 11
20.7679491924
 21
120.0
 31
0.0
  0
CIRCLE
  5
CA
  8
VIDITELNE
  6
SLD-PLNÁ
 62
     2
 10
22.5
 20
123.0
 30
0.0
 40
5.700000000000426
  0
CIRCLE
  5
CB
  8
VIDITELNE
  6
SLD-PLNÁ
 62
     2
 10
22.5
 20
123.0
 30
0.0
 40
6.500000000000483
  0
ARC
  5
CC
  8
VIDITELNE
  6
SLD-PLNÁ
 62
     2
 10
63.2031939779
 20
99.5
 30
0.0
 40
3.464101615137571
 50
60.0
 51
120.0
  0
LINE
  5
CD
  8
VIDITELNE
  6
SLD-PLNÁ
 62
     2
 10
61.4711431703
 20
102.5
 30
0.0
 11
64.9352447854
 21
102.5
 31
0.0
  0
ARC
  5
CE
  8
VIDITELNE
  6
SLD-PLNÁ
 62
     2
 10
63.2031939779
 20
99.5
 30
0.0
 40
3.464101615141366
 50
300.0
 51
360.0
  0
LINE
  5
CF
  8
VIDITELNE
  6
SLD-PLNÁ
 62
     2
 10
66.667295593
 20
99.5
 30
0.0
 11
64.9352447854
 21
96.5
 31
0.0
  0
ARC
  5
D0
  8
VIDITELNE
  6
SLD-PLNÁ
 62
     2
 10
63.2031939779
 20
99.5
 30
0.0
 40
3.464101615141366
 50
240.0
 51
300.0
  0
LINE
  5
D1
  8
VIDITELNE
  6
SLD-PLNÁ
 62
     2
 10
64.9352447854
 20
96.5
 30
0.0
 11
61.4711431703
 21
96.5
 31
0.0
  0
ARC
  5
D2
  8
VIDITELNE
  6
SLD-PLNÁ
 62
     2
 10
63.2031939779
 20
99.5
 30
0.0
 40
3.464101615136798
 50
120.0
 51
180.0
  0
LINE
  5
D3
  8
VIDITELNE
  6
SLD-PLNÁ
 62
     2
 10
59.7390923627
 20
99.5
 30
0.0
 11
61.4711431703
 21
102.5
 31
0.0
  0
ARC
  5
D4
  8
VIDITELNE
  6
SLD-PLNÁ
 62
     2
 10
63.2031939779
 20
99.5
 30
0.0
 40
3.464101615138603
 50
360.0
 51
60.0
  0
LINE
  5
D5
  8
VIDITELNE
  6
SLD-PLNÁ
 62
     2
 10
64.9352447854
 20
102.5
 30
0.0
 11
66.667295593
 21
99.5
 31
0.0
  0
ARC
  5
D6
  8
VIDITELNE
  6
SLD-PLNÁ
 62
     2
 10
63.2031939779
 20
99.5
 30
0.0
 40
3.464101615139487
 50
180.0
 51
240.0
  0
LINE
  5
D7
  8
VIDITELNE
  6
SLD-PLNÁ
 62
     2
 10
61.4711431703
 20
96.5
 30
0.0
 11
59.7390923627
 21
99.5
 31
0.0
  0
CIRCLE
  5
D8
  8
VIDITELNE
  6
SLD-PLNÁ
 62
     2
 10
63.2031939779
 20
99.5
 30
0.0
 40
5.700000000000443
  0
CIRCLE
  5
D9
  8
VIDITELNE
  6
SLD-PLNÁ
 62
     2
 10
63.2031939779
 20
99.5
 30
0.0
 40
6.500000000000474
  0
ARC
  5
DA
  8
VIDITELNE
  6
SLD-PLNÁ
 62
     2
 10
-18.2031939779
 20
99.5
 30
0.0
 40
3.464101615137576
 50
180.0
 51
240.0
  0
LINE
  5
DB
  8
VIDITELNE
  6
SLD-PLNÁ
 62
     2
 10
-19.9352447854
 20
96.5
 30
0.0
 11
-21.667295593
 21
99.5
 31
0.0
  0
ARC
  5
DC
  8
VIDITELNE
  6
SLD-PLNÁ
 62
     2
 10
-18.2031939779
 20
99.5
 30
0.0
 40
3.464101615141367
 50
0.0
 51
60.0
  0
LINE
  5
DD
  8
VIDITELNE
  6
SLD-PLNÁ
 62
     2
 10
-16.4711431703
 20
102.5
 30
0.0
 11
-14.7390923627
 21
99.5
 31
0.0
  0
ARC
  5
DE
  8
VIDITELNE
  6
SLD-PLNÁ
 62
     2
 10
-18.2031939779
 20
99.5
 30
0.0
 40
3.464101615141367
 50
60.0
 51
120.0
  0
LINE
  5
DF
  8
VIDITELNE
  6
SLD-PLNÁ
 62
     2
 10
-19.9352447854
 20
102.5
 30
0.0
 11
-16.4711431703
 21
102.5
 31
0.0
  0
ARC
  5
E0
  8
VIDITELNE
  6
SLD-PLNÁ
 62
     2
 10
-18.2031939779
 20
99.5
 30
0.0
 40
3.464101615136785
 50
240.0
 51
300.0
  0
LINE
  5
E1
  8
VIDITELNE
  6
SLD-PLNÁ
 62
     2
 10
-16.4711431703
 20
96.5
 30
0.0
 11
-19.9352447854
 21
96.5
 31
0.0
  0
ARC
  5
E2
  8
VIDITELNE
  6
SLD-PLNÁ
 62
     2
 10
-18.2031939779
 20
99.5
 30
0.0
 40
3.464101615138599
 50
120.0
 51
180.0
  0
LINE
  5
E3
  8
VIDITELNE
  6
SLD-PLNÁ
 62
     2
 10
-21.667295593
 20
99.5
 30
0.0
 11
-19.9352447854
 21
102.5
 31
0.0
  0
ARC
  5
E4
  8
VIDITELNE
  6
SLD-PLNÁ
 62
     2
 10
-18.2031939779
 20
99.5
 30
0.0
 40
3.464101615139478
 50
300.0
 51
0.0
  0
LINE
  5
E5
  8
VIDITELNE
  6
SLD-PLNÁ
 62
     2
 10
-14.7390923627
 20
99.5
 30
0.0
 11
-16.4711431703
 21
96.5
 31
0.0
  0
CIRCLE
  5
E6
  8
VIDITELNE
  6
SLD-PLNÁ
 62
     2
 10
-18.2031939779
 20
99.5
 30
0.0
 40
5.700000000000413
  0
CIRCLE
  5
E7
  8
VIDITELNE
  6
SLD-PLNÁ
 62
     2
 10
-18.2031939779
 20
99.5
 30
0.0
 40
6.50000000000049
  0
ARC
  5
E8
  8
VIDITELNE
  6
SLD-PLNÁ
 62
     2
 10
-18.2031939779
 20
52.5
 30
0.0
 40
3.464101615137579
 50
240.0
 51
300.0
  0
LINE
  5
E9
  8
VIDITELNE
  6
SLD-PLNÁ
 62
     2
 10
-16.4711431703
 20
49.5
 30
0.0
 11
-19.9352447854
 21
49.5
 31
0.0
  0
ARC
  5
EA
  8
VIDITELNE
  6
SLD-PLNÁ
 62
     2
 10
-18.2031939779
 20
52.5
 30
0.0
 40
3.464101615141383
 50
120.0
 51
180.0
  0
LINE
  5
EB
  8
VIDITELNE
  6
SLD-PLNÁ
 62
     2
 10
-21.667295593
 20
52.5
 30
0.0
 11
-19.9352447854
 21
55.5
 31
0.0
  0
ARC
  5
EC
  8
VIDITELNE
  6
SLD-PLNÁ
 62
     2
 10
-18.2031939779
 20
52.5
 30
0.0
 40
3.464101615141383
 50
60.0
 51
120.0
  0
LINE
  5
ED
  8
VIDITELNE
  6
SLD-PLNÁ
 62
     2
 10
-19.9352447854
 20
55.5
 30
0.0
 11
-16.4711431703
 21
55.5
 31
0.0
  0
ARC
  5
EE
  8
VIDITELNE
  6
SLD-PLNÁ
 62
     2
 10
-18.2031939779
 20
52.5
 30
0.0
 40
3.464101615136784
 50
300.0
 51
0.0
  0
LINE
  5
EF
  8
VIDITELNE
  6
SLD-PLNÁ
 62
     2
 10
-14.7390923627
 20
52.5
 30
0.0
 11
-16.4711431703
 21
49.5
 31
0.0
  0
ARC
  5
F0
  8
VIDITELNE
  6
SLD-PLNÁ
 62
     2
 10
-18.2031939779
 20
52.5
 30
0.0
 40
3.464101615138606
 50
180.0
 51
240.0
  0
LINE
  5
F1
  8
VIDITELNE
  6
SLD-PLNÁ
 62
     2
 10
-19.9352447854
 20
49.5
 30
0.0
 11
-21.667295593
 21
52.5
 31
0.0
  0
ARC
  5
F2
  8
VIDITELNE
  6
SLD-PLNÁ
 62
     2
 10
-18.2031939779
 20
52.5
 30
0.0
 40
3.464101615139482
 50
0.0
 51
60.0
  0
LINE
  5
F3
  8
VIDITELNE
  6
SLD-PLNÁ
 62
     2
 10
-16.4711431703
 20
55.5
 30
0.0
 11
-14.7390923627
 21
52.5
 31
0.0
  0
CIRCLE
  5
F4
  8
VIDITELNE
  6
SLD-PLNÁ
 62
     2
 10
-18.2031939779
 20
52.5
 30
0.0
 40
5.700000000000432
  0
CIRCLE
  5
F5
  8
VIDITELNE
  6
SLD-PLNÁ
 62
     2
 10
-18.2031939779
 20
52.5
 30
0.0
 40
6.500000000000485
  0
ARC
  5
F6
  8
VIDITELNE
  6
SLD-PLNÁ
 62
     2
 10
22.5
 20
29.0
 30
0.0
 40
3.464101615137569
 50
300.0
 51
0.0
  0
LINE
  5
F7
  8
VIDITELNE
  6
SLD-PLNÁ
 62
     2
 10
25.9641016151
 20
29.0
 30
0.0
 11
24.2320508076
 21
26.0
 31
0.0
  0
ARC
  5
F8
  8
VIDITELNE
  6
SLD-PLNÁ
 62
     2
 10
22.5
 20
29.0
 30
0.0
 40
3.464101615141381
 50
120.0
 51
180.0
  0
LINE
  5
F9
  8
VIDITELNE
  6
SLD-PLNÁ
 62
     2
 10
19.0358983849
 20
29.0
 30
0.0
 11
20.7679491924
 21
32.0
 31
0.0
  0
ARC
  5
FA
  8
VIDITELNE
  6
SLD-PLNÁ
 62
     2
 10
22.5
 20
29.0
 30
0.0
 40
3.464101615141381
 50
180.0
 51
240.0
  0
LINE
  5
FB
  8
VIDITELNE
  6
SLD-PLNÁ
 62
     2
 10
20.7679491924
 20
26.0
 30
0.0
 11
19.0358983849
 21
29.0
 31
0.0
  0
ARC
  5
FC
  8
VIDITELNE
  6
SLD-PLNÁ
 62
     2
 10
22.5
 20
29.0
 30
0.0
 40
3.464101615136791
 50
0.0
 51
60.0
  0
LINE
  5
FD
  8
VIDITELNE
  6
SLD-PLNÁ
 62
     2
 10
24.2320508076
 20
32.0
 30
0.0
 11
25.9641016151
 21
29.0
 31
0.0
  0
ARC
  5
FE
  8
VIDITELNE
  6
SLD-PLNÁ
 62
     2
 10
22.5
 20
29.0
 30
0.0
 40
3.464101615138611
 50
240.0
 51
300.0
  0
LINE
  5
FF
  8
VIDITELNE
  6
SLD-PLNÁ
 62
     2
 10
24.2320508076
 20
26.0
 30
0.0
 11
20.7679491924
 21
26.0
 31
0.0
  0
ARC
  5
100
  8
VIDITELNE
  6
SLD-PLNÁ
 62
     2
 10
22.5
 20
29.0
 30
0.0
 40
3.464101615139485
 50
60.0
 51
120.0
  0
LINE
  5
101
  8
VIDITELNE
  6
SLD-PLNÁ
 62
     2
 10
20.7679491924
 20
32.0
 30
0.0
 11
24.2320508076
 21
32.0
 31
0.0
  0
CIRCLE
  5
102
  8
VIDITELNE
  6
SLD-PLNÁ
 62
     2
 10
22.5
 20
29.0
 30
0.0
 40
5.700000000000426
  0
CIRCLE
  5
103
  8
VIDITELNE
  6
SLD-PLNÁ
 62
     2
 10
22.5
 20
29.0
 30
0.0
 40
6.500000000000485
  0
ARC
  5
104
  8
VIDITELNE
  6
SLD-PLNÁ
 62
     2
 10
63.2031939779
 20
52.5
 30
0.0
 40
3.464101615137558
 50
360.0
 51
60.0
  0
LINE
  5
105
  8
VIDITELNE
  6
SLD-PLNÁ
 62
     2
 10
64.9352447854
 20
55.5
 30
0.0
 11
66.667295593
 21
52.5
 31
0.0
  0
ARC
  5
106
  8
VIDITELNE
  6
SLD-PLNÁ
 62
     2
 10
63.2031939779
 20
52.5
 30
0.0
 40
3.464101615141378
 50
180.0
 51
240.0
  0
LINE
  5
107
  8
VIDITELNE
  6
SLD-PLNÁ
 62
     2
 10
61.4711431703
 20
49.5
 30
0.0
 11
59.7390923627
 21
52.5
 31
0.0
  0
ARC
  5
108
  8
VIDITELNE
  6
SLD-PLNÁ
 62
     2
 10
63.2031939779
 20
52.5
 30
0.0
 40
3.464101615141378
 50
240.0
 51
300.0
  0
LINE
  5
109
  8
VIDITELNE
  6
SLD-PLNÁ
 62
     2
 10
64.9352447854
 20
49.5
 30
0.0
 11
61.4711431703
 21
49.5
 31
0.0
  0
ARC
  5
10A
  8
VIDITELNE
  6
SLD-PLNÁ
 62
     2
 10
63.2031939779
 20
52.5
 30
0.0
 40
3.464101615136799
 50
60.0
 51
120.0
  0
LINE
  5
10B
  8
VIDITELNE
  6
SLD-PLNÁ
 62
     2
 10
61.4711431703
 20
55.5
 30
0.0
 11
64.9352447854
 21
55.5
 31
0.0
  0
ARC
  5
10C
  8
VIDITELNE
  6
SLD-PLNÁ
 62
     2
 10
63.2031939779
 20
52.5
 30
0.0
 40
3.464101615138599
 50
300.0
 51
360.0
  0
LINE
  5
10D
  8
VIDITELNE
  6
SLD-PLNÁ
 62
     2
 10
66.667295593
 20
52.5
 30
0.0
 11
64.9352447854
 21
49.5
 31
0.0
  0
ARC
  5
10E
  8
VIDITELNE
  6
SLD-PLNÁ
 62
     2
 10
63.2031939779
 20
52.5
 30
0.0
 40
3.464101615139491
 50
120.0
 51
180.0
  0
LINE
  5
10F
  8
VIDITELNE
  6
SLD-PLNÁ
 62
     2
 10
59.7390923627
 20
52.5
 30
0.0
 11
61.4711431703
 21
55.5
 31
0.0
  0
CIRCLE
  5
110
  8
VIDITELNE
  6
SLD-PLNÁ
 62
     2
 10
63.2031939779
 20
52.5
 30
0.0
 40
5.700000000000425
  0
CIRCLE
  5
111
  8
VIDITELNE
  6
SLD-PLNÁ
 62
     2
 10
63.2031939779
 20
52.5
 30
0.0
 40
6.500000000000481
  0
LINE
  5
112
  8
VIDITELNE
  6
SLD-PLNÁ
 62
     2
 10
91.5
 20
3.6190632832
 30
0.0
 11
91.5
 21
-168.6158715356
 31
0.0
  0
LINE
  5
113
  8
VIDITELNE
  6
SLD-PLNÁ
 62
     2
 10
101.5
 20
-37.0
 30
0.0
 11
101.5
 21
-51.0
 31
0.0
  0
LINE
  5
114
  8
VIDITELNE
  6
SLD-PLNÁ
 62
     2
 10
103.0
 20
-3.9817960642
 30
0.0
 11
92.8353362538
 21
5.1572020213
 31
0.0
  0
LINE
  5
115
  8
VIDITELNE
  6
SLD-PLNÁ
 62
     2
 10
103.0
 20
-3.9817960642
 30
0.0
 11
103.0
 21
-11.3728323243
 31
0.0
  0
LINE
  5
116
  8
VIDITELNE
  6
SLD-PLNÁ
 62
     2
 10
91.5
 20
-1.0332401246
 30
0.0
 11
103.0
 21
-11.3728323243
 31
0.0
  0
LINE
  5
117
  8
VIDITELNE
  6
SLD-PLNÁ
 62
     2
 10
103.0
 20
-11.3728323243
 30
0.0
 11
91.5
 21
-8.8298871613
 31
0.0
  0
LINE
  5
118
  8
VIDITELNE
  6
SLD-PLNÁ
 62
     2
 10
103.0
 20
-76.6271676757
 30
0.0
 11
91.5
 21
-86.9667598754
 31
0.0
  0
LINE
  5
119
  8
VIDITELNE
  6
SLD-PLNÁ
 62
     2
 10
91.5
 20
-79.1701128387
 30
0.0
 11
103.0
 21
-76.6271676757
 31
0.0
  0
LINE
  5
11A
  8
VIDITELNE
  6
SLD-PLNÁ
 62
     2
 10
103.0
 20
-76.6271676757
 30
0.0
 11
103.0
 21
-84.0182039358
 31
0.0
  0
LINE
  5
11B
  8
VIDITELNE
  6
SLD-PLNÁ
 62
     2
 10
91.5
 20
-94.3577961355
 30
0.0
 11
103.0
 21
-84.0182039358
 31
0.0
  0
LINE
  5
11C
  8
VIDITELNE
  6
SLD-PLNÁ
 62
     2
 10
103.0
 20
-11.3728323243
 30
0.0
 11
103.0
 21
-76.6271676757
 31
0.0
  0
LINE
  5
11D
  8
VIDITELNE
  6
SLD-PLNÁ
 62
     2
 10
103.0
 20
16.6725190152
 30
0.0
 11
103.0
 21
-3.9817960642
 31
0.0
  0
LINE
  5
11E
  8
VIDITELNE
  6
SLD-PLNÁ
 62
     2
 10
91.5
 20
-136.2991996655
 30
0.0
 11
97.0857452259
 21
-133.3172798365
 31
0.0
  0
LINE
  5
11F
  8
VIDITELNE
  6
SLD-PLNÁ
 62
     2
 10
101.5
 20
-130.9607538387
 30
0.0
 11
103.0
 21
-130.1599869647
 31
0.0
  0
LINE
  5
120
  8
VIDITELNE
  6
SLD-PLNÁ
 62
     2
 10
103.0
 20
-84.0182039358
 30
0.0
 11
103.0
 21
-130.1599869647
 31
0.0
  0
LINE
  5
121
  8
VIDITELNE
  6
SLD-PLNÁ
 62
     2
 10
101.5
 20
-118.3172798365
 30
0.0
 11
101.5
 21
-132.3172798365
 31
0.0
  0
LINE
  5
122
  8
VIDITELNE
  6
SLD-PLNÁ
 62
     2
 10
106.5
 20
21.0
 30
0.0
 11
106.5
 21
-109.0
 31
0.0
  0
LINE
  5
123
  8
VIDITELNE
  6
SLD-PLNÁ
 62
     2
 10
103.0
 20
-130.1599869647
 30
0.0
 11
91.5
 21
-155.1219706826
 31
0.0
  0
LINE
  5
124
  8
VIDITELNE
  6
SLD-PLNÁ
 62
     2
 10
91.5
 20
-158.1834381415
 30
0.0
 11
103.0
 21
-133.2214544236
 31
0.0
  0
LINE
  5
125
  8
VIDITELNE
  6
SLD-PLNÁ
 62
     2
 10
103.0
 20
-130.1599869647
 30
0.0
 11
103.0
 21
-133.2214544236
 31
0.0
  0
LINE
  5
126
  8
VIDITELNE
  6
SLD-PLNÁ
 62
     2
 10
103.0
 20
-133.2214544236
 30
0.0
 11
103.0
 21
-139.0
 31
0.0
  0
LINE
  5
127
  8
VIDITELNE
  6
SLD-PLNÁ
 62
     2
 10
101.5
 20
-152.0
 30
0.0
 11
101.5
 21
-166.0
 31
0.0
  0
ARC
  5
128
  8
VIDITELNE
  6
SLD-PLNÁ
 62
     2
 10
98.9913311897
 20
127.1182575292
 30
0.0
 40
2.000000000000019
 50
33.7543414484
 51
125.0
  0
LINE
  5
129
  8
VIDITELNE
  6
SLD-PLNÁ
 62
     2
 10
100.5220129046
 20
128.1411941271
 30
0.0
 11
100.6541862156
 21
128.2295239972
 31
0.0
  0
ARC
  5
12A
  8
VIDITELNE
  6
SLD-PLNÁ
 62
     2
 10
98.9913311897
 20
127.1182575292
 30
0.0
 40
1.841028461367559
 50
33.7543414484
 51
125.0
  0
LINE
  5
12B
  8
VIDITELNE
  6
SLD-PLNÁ
 62
     2
 10
97.9353606456
 20
128.6263397569
 30
0.0
 11
97.844178317
 21
128.7565616178
 31
0.0
  0
ARC
  5
12C
  8
VIDITELNE
  6
SLD-PLNÁ
 62
     2
 10
22.5
 20
76.0
 30
0.0
 40
94.00000000000003
 50
326.2456585516
 51
33.7543414484
  0
LINE
  5
12D
  8
VIDITELNE
  6
SLD-PLNÁ
 62
     2
 10
100.5220129046
 20
23.8588058729
 30
0.0
 11
100.6541862156
 21
23.7704760028
 31
0.0
  0
ARC
  5
12E
  8
VIDITELNE
  6
SLD-PLNÁ
 62
     2
 10
22.5
 20
76.0
 30
0.0
 40
93.84102846136757
 50
326.2456585516
 51
33.7543414484
  0
CIRCLE
  5
12F
  8
VIDITELNE
  6
SLD-PLNÁ
 62
     2
 10
22.5
 20
76.0
 30
0.0
 40
65.0
  0
CIRCLE
  5
130
  8
VIDITELNE
  6
SLD-PLNÁ
 62
     2
 10
22.5
 20
76.0
 30
0.0
 40
100.0
  0
ARC
  5
131
  8
VIDITELNE
  6
SLD-PLNÁ
 62
     2
 10
22.5
 20
76.0
 30
0.0
 40
94.00000000000004
 50
146.2456585516
 51
213.7543414484
  0
ARC
  5
132
  8
VIDITELNE
  6
SLD-PLNÁ
 62
     2
 10
-53.9913311897
 20
24.8817424708
 30
0.0
 40
2.000000000000022
 50
213.7543414484
 51
305.0
  0
LINE
  5
133
  8
VIDITELNE
  6
SLD-PLNÁ
 62
     2
 10
-52.844178317
 20
23.2434383822
 30
0.0
 11
-37.2756524984
 21
34.1446375192
 31
0.0
  0
ARC
  5
134
  8
VIDITELNE
  6
SLD-PLNÁ
 62
     2
 10
-38.4228053711
 20
35.7829416078
 30
0.0
 40
2.000000000000061
 50
305.0
 51
33.4300561717
  0
ARC
  5
135
  8
VIDITELNE
  6
SLD-PLNÁ
 62
     2
 10
22.5
 20
76.0
 30
0.0
 40
71.00000000000007
 50
146.5699438283
 51
213.4300561717
  0
ARC
  5
136
  8
VIDITELNE
  6
SLD-PLNÁ
 62
     2
 10
-38.4228053711
 20
116.2170583922
 30
0.0
 40
1.999999999999984
 50
326.5699438283
 51
55.0
  0
LINE
  5
137
  8
VIDITELNE
  6
SLD-PLNÁ
 62
     2
 10
-37.2756524984
 20
117.8553624808
 30
0.0
 11
-52.844178317
 21
128.7565616178
 31
0.0
  0
ARC
  5
138
  8
VIDITELNE
  6
SLD-PLNÁ
 62
     2
 10
-53.9913311897
 20
127.1182575292
 30
0.0
 40
2.000000000000008
 50
55.0
 51
146.2456585516
  0
LINE
  5
139
  8
VIDITELNE
  6
SLD-PLNÁ
 62
     2
 10
-30.2565616178
 20
151.344178317
 30
0.0
 11
-19.3553624808
 21
135.7756524984
 31
0.0
  0
ARC
  5
13A
  8
VIDITELNE
  6
SLD-PLNÁ
 62
     2
 10
-17.7170583922
 20
136.9228053711
 30
0.0
 40
2.000000000000029
 50
215.0
 51
303.4300561717
  0
ARC
  5
13B
  8
VIDITELNE
  6
SLD-PLNÁ
 62
     2
 10
22.5
 20
76.0
 30
0.0
 40
70.99999999999999
 50
97.8734937983
 51
123.4300561717
  0
ARC
  5
13C
  8
VIDITELNE
  6
SLD-PLNÁ
 62
     2
 10
12.5
 20
148.3118247592
 30
0.0
 40
1.999999999999973
 50
277.8734937982
 51
0.0
  0
LINE
  5
13D
  8
VIDITELNE
  6
SLD-PLNÁ
 62
     2
 10
14.5
 20
148.3118247592
 30
0.0
 11
14.5
 21
167.4549069214
 31
0.0
  0
ARC
  5
13E
  8
VIDITELNE
  6
SLD-PLNÁ
 62
     2
 10
12.5
 20
167.4549069214
 30
0.0
 40
1.999999999999995
 50
0.0
 51
96.2401310983
  0
ARC
  5
13F
  8
VIDITELNE
  6
SLD-PLNÁ
 62
     2
 10
22.5
 20
76.0
 30
0.0
 40
93.99999999999999
 50
96.2401310983
 51
123.7543414484
  0
ARC
  5
140
  8
VIDITELNE
  6
SLD-PLNÁ
 62
     2
 10
-28.6182575292
 20
152.4913311897
 30
0.0
 40
2.000000000000026
 50
123.7543414484
 51
215.0
  0
LINE
  5
141
  8
VIDITELNE
  6
SLD-PLNÁ
 62
     2
 10
30.5
 20
167.4549069214
 30
0.0
 11
30.5
 21
148.3118247592
 31
0.0
  0
ARC
  5
142
  8
VIDITELNE
  6
SLD-PLNÁ
 62
     2
 10
32.5
 20
148.3118247592
 30
0.0
 40
2.000000000000026
 50
180.0
 51
262.1265062017
  0
ARC
  5
143
  8
VIDITELNE
  6
SLD-PLNÁ
 62
     2
 10
22.5
 20
76.0
 30
0.0
 40
71.00000000000006
 50
56.5699438283
 51
82.1265062017
  0
ARC
  5
144
  8
VIDITELNE
  6
SLD-PLNÁ
 62
     2
 10
62.7170583922
 20
136.9228053711
 30
0.0
 40
1.999999999999998
 50
236.5699438283
 51
325.0
  0
LINE
  5
145
  8
VIDITELNE
  6
SLD-PLNÁ
 62
     2
 10
64.3553624808
 20
135.7756524984
 30
0.0
 11
75.2565616178
 21
151.344178317
 31
0.0
  0
ARC
  5
146
  8
VIDITELNE
  6
SLD-PLNÁ
 62
     2
 10
73.6182575292
 20
152.4913311897
 30
0.0
 40
1.999999999999999
 50
325.0
 51
56.2456585516
  0
ARC
  5
147
  8
VIDITELNE
  6
SLD-PLNÁ
 62
     2
 10
22.5
 20
76.0
 30
0.0
 40
94.00000000000004
 50
56.2456585516
 51
83.7598689017
  0
ARC
  5
148
  8
VIDITELNE
  6
SLD-PLNÁ
 62
     2
 10
32.5
 20
167.4549069214
 30
0.0
 40
2.000000000000004
 50
83.7598689017
 51
180.0
  0
LINE
  5
149
  8
VIDITELNE
  6
SLD-PLNÁ
 62
     2
 10
97.844178317
 20
128.7565616178
 30
0.0
 11
82.2756524984
 21
117.8553624808
 31
0.0
  0
ARC
  5
14A
  8
VIDITELNE
  6
SLD-PLNÁ
 62
     2
 10
83.4228053711
 20
116.2170583922
 30
0.0
 40
2.000000000000269
 50
125.0
 51
213.4300561717
  0
ARC
  5
14B
  8
VIDITELNE
  6
SLD-PLNÁ
 62
     2
 10
22.5
 20
76.0
 30
0.0
 40
71.0000000000004
 50
326.5699438283
 51
33.4300561717
  0
ARC
  5
14C
  8
VIDITELNE
  6
SLD-PLNÁ
 62
     2
 10
83.4228053711
 20
35.7829416078
 30
0.0
 40
2.000000000000007
 50
146.5699438283
 51
235.0
  0
LINE
  5
14D
  8
VIDITELNE
  6
SLD-PLNÁ
 62
     2
 10
82.2756524984
 20
34.1446375192
 30
0.0
 11
97.844178317
 21
23.2434383822
 31
0.0
  0
ARC
  5
14E
  8
VIDITELNE
  6
SLD-PLNÁ
 62
     2
 10
98.9913311897
 20
24.8817424708
 30
0.0
 40
2.000000000000034
 50
235.0
 51
326.2456585516
  0
LINE
  5
14F
  8
VIDITELNE
  6
SLD-PLNÁ
 62
     2
 10
75.2565616178
 20
0.655821683
 30
0.0
 11
64.3553624808
 21
16.2243475016
 31
0.0
  0
ARC
  5
150
  8
VIDITELNE
  6
SLD-PLNÁ
 62
     2
 10
62.7170583922
 20
15.0771946289
 30
0.0
 40
2.000000000000026
 50
35.0
 51
123.4300561717
  0
ARC
  5
151
  8
VIDITELNE
  6
SLD-PLNÁ
 62
     2
 10
22.5
 20
76.0
 30
0.0
 40
71.00000000000152
 50
236.5699438283
 51
303.4300561717
  0
ARC
  5
152
  8
VIDITELNE
  6
SLD-PLNÁ
 62
     2
 10
-17.7170583922
 20
15.0771946289
 30
0.0
 40
2.000000000000008
 50
56.5699438283
 51
145.0
  0
LINE
  5
153
  8
VIDITELNE
  6
SLD-PLNÁ
 62
     2
 10
-19.3553624808
 20
16.2243475016
 30
0.0
 11
-30.2565616178
 21
0.655821683
 31
0.0
  0
ARC
  5
154
  8
VIDITELNE
  6
SLD-PLNÁ
 62
     2
 10
-28.6182575292
 20
-0.4913311897
 30
0.0
 40
2.0
 50
145.0
 51
236.2456585516
  0
ARC
  5
155
  8
VIDITELNE
  6
SLD-PLNÁ
 62
     2
 10
22.5
 20
76.0
 30
0.0
 40
94.00000000000075
 50
236.2456585516
 51
303.7543414484
  0
ARC
  5
156
  8
VIDITELNE
  6
SLD-PLNÁ
 62
     2
 10
73.6182575292
 20
-0.4913311897
 30
0.0
 40
1.999999999999989
 50
303.7543414484
 51
35.0
  0
CIRCLE
  5
157
  8
VIDITELNE
  6
SLD-PLNÁ
 62
     2
 10
-35.8363094479
 20
134.3363094479
 30
0.0
 40
5.500000000000007
  0
CIRCLE
  5
158
  8
VIDITELNE
  6
SLD-PLNÁ
 62
     2
 10
80.8363094479
 20
134.3363094479
 30
0.0
 40
5.5
  0
CIRCLE
  5
159
  8
VIDITELNE
  6
SLD-PLNÁ
 62
     2
 10
-35.8363094479
 20
17.6636905521
 30
0.0
 40
5.500000000000007
  0
CIRCLE
  5
15A
  8
VIDITELNE
  6
SLD-PLNÁ
 62
     2
 10
80.8363094479
 20
17.6636905521
 30
0.0
 40
5.5
  0
LINE
  5
15B
  8
VIDITELNE
  6
SLD-PLNÁ
 62
     2
 10
82.366834827
 20
34.2748593801
 30
0.0
 11
82.2756524984
 21
34.1446375192
 31
0.0
  0
LINE
  5
15C
  8
VIDITELNE
  6
SLD-PLNÁ
 62
     2
 10
97.9353606456
 20
23.3736602431
 30
0.0
 11
82.366834827
 21
34.2748593801
 31
0.0
  0
LINE
  5
15D
  8
VIDITELNE
  6
SLD-PLNÁ
 62
     2
 10
97.9353606456
 20
23.3736602431
 30
0.0
 11
97.844178317
 21
23.2434383822
 31
0.0
  0
LINE
  5
15E
  8
VIDITELNE
  6
SLD-PLNÁ
 62
     2
 10
64.2251406199
 20
16.133165173
 30
0.0
 11
64.3553624808
 21
16.2243475016
 31
0.0
  0
ARC
  5
15F
  8
VIDITELNE
  6
SLD-PLNÁ
 62
     2
 10
62.7170583922
 20
15.0771946289
 30
0.0
 40
1.841028461367579
 50
35.0
 51
123.4300561717
  0
LINE
  5
160
  8
VIDITELNE
  6
SLD-PLNÁ
 62
     2
 10
61.7028015547
 20
16.6136414595
 30
0.0
 11
61.615221176
 21
16.7463125843
 31
0.0
  0
ARC
  5
161
  8
VIDITELNE
  6
SLD-PLNÁ
 62
     2
 10
22.5
 20
76.0
 30
0.0
 40
71.15897153863399
 50
236.5699438283
 51
303.4300561717
  0
LINE
  5
162
  8
VIDITELNE
  6
SLD-PLNÁ
 62
     2
 10
-16.7028015547
 20
16.6136414595
 30
0.0
 11
-16.615221176
 21
16.7463125843
 31
0.0
  0
LINE
  5
163
  8
VIDITELNE
  6
SLD-PLNÁ
 62
     2
 10
82.366834827
 20
117.7251406199
 30
0.0
 11
97.9353606456
 21
128.6263397569
 31
0.0
  0
LINE
  5
164
  8
VIDITELNE
  6
SLD-PLNÁ
 62
     2
 10
82.366834827
 20
117.7251406199
 30
0.0
 11
82.2756524984
 21
117.8553624808
 31
0.0
  0
LINE
  5
165
  8
VIDITELNE
  6
SLD-PLNÁ
 62
     2
 10
-29.6411941271
 20
-2.0220129046
 30
0.0
 11
-29.7295239972
 21
-2.1541862156
 31
0.0
  0
ARC
  5
166
  8
VIDITELNE
  6
SLD-PLNÁ
 62
     2
 10
22.5
 20
76.0
 30
0.0
 40
93.8410284613683
 50
236.2456585516
 51
303.7543414484
  0
LINE
  5
167
  8
VIDITELNE
  6
SLD-PLNÁ
 62
     2
 10
74.6411941271
 20
-2.0220129046
 30
0.0
 11
74.7295239972
 21
-2.1541862156
 31
0.0
  0
ARC
  5
168
  8
VIDITELNE
  6
SLD-PLNÁ
 62
     2
 10
73.6182575292
 20
-0.4913311897
 30
0.0
 40
1.841028461367515
 50
303.7543414484
 51
35.0
  0
LINE
  5
169
  8
VIDITELNE
  6
SLD-PLNÁ
 62
     2
 10
75.1263397569
 20
0.5646393544
 30
0.0
 11
75.2565616178
 21
0.655821683
 31
0.0
  0
ARC
  5
16A
  8
VIDITELNE
  6
SLD-PLNÁ
 62
     2
 10
98.9913311897
 20
24.8817424708
 30
0.0
 40
1.841028461367581
 50
235.0
 51
326.2456585516
  0
LINE
  5
16B
  8
VIDITELNE
  6
SLD-PLNÁ
 62
     2
 10
81.8863585405
 20
115.2028015547
 30
0.0
 11
81.7536874157
 21
115.115221176
 31
0.0
  0
ARC
  5
16C
  8
VIDITELNE
  6
SLD-PLNÁ
 62
     2
 10
22.5
 20
76.0
 30
0.0
 40
71.15897153863285
 50
326.5699438283
 51
33.4300561717
  0
LINE
  5
16D
  8
VIDITELNE
  6
SLD-PLNÁ
 62
     2
 10
81.8863585405
 20
36.7971984453
 30
0.0
 11
81.7536874157
 21
36.884778824
 31
0.0
  0
ARC
  5
16E
  8
VIDITELNE
  6
SLD-PLNÁ
 62
     2
 10
83.4228053711
 20
35.7829416078
 30
0.0
 40
1.84102846136757
 50
146.5699438283
 51
235.0
  0
LINE
  5
16F
  8
VIDITELNE
  6
SLD-PLNÁ
 62
     2
 10
64.2251406199
 20
16.133165173
 30
0.0
 11
75.1263397569
 21
0.5646393544
 31
0.0
  0
LINE
  5
170
  8
VIDITELNE
  6
SLD-PLNÁ
 62
     2
 10
-52.9353606456
 20
23.3736602431
 30
0.0
 11
-52.844178317
 21
23.2434383822
 31
0.0
  0
LINE
  5
171
  8
VIDITELNE
  6
SLD-PLNÁ
 62
     2
 10
-37.366834827
 20
34.2748593801
 30
0.0
 11
-52.9353606456
 21
23.3736602431
 31
0.0
  0
LINE
  5
172
  8
VIDITELNE
  6
SLD-PLNÁ
 62
     2
 10
-37.366834827
 20
34.2748593801
 30
0.0
 11
-37.2756524984
 21
34.1446375192
 31
0.0
  0
LINE
  5
173
  8
VIDITELNE
  6
SLD-PLNÁ
 62
     2
 10
30.6589715386
 20
167.4549069214
 30
0.0
 11
30.5
 21
167.4549069214
 31
0.0
  0
LINE
  5
174
  8
VIDITELNE
  6
SLD-PLNÁ
 62
     2
 10
30.6589715386
 20
148.3118247592
 30
0.0
 11
30.6589715386
 21
167.4549069214
 31
0.0
  0
LINE
  5
175
  8
VIDITELNE
  6
SLD-PLNÁ
 62
     2
 10
30.6589715386
 20
148.3118247592
 30
0.0
 11
30.5
 21
148.3118247592
 31
0.0
  0
LINE
  5
176
  8
VIDITELNE
  6
SLD-PLNÁ
 62
     2
 10
-19.2251406199
 20
16.133165173
 30
0.0
 11
-19.3553624808
 21
16.2243475016
 31
0.0
  0
LINE
  5
177
  8
VIDITELNE
  6
SLD-PLNÁ
 62
     2
 10
-30.1263397569
 20
0.5646393544
 30
0.0
 11
-19.2251406199
 21
16.133165173
 31
0.0
  0
LINE
  5
178
  8
VIDITELNE
  6
SLD-PLNÁ
 62
     2
 10
-30.1263397569
 20
0.5646393544
 30
0.0
 11
-30.2565616178
 21
0.655821683
 31
0.0
  0
LINE
  5
179
  8
VIDITELNE
  6
SLD-PLNÁ
 62
     2
 10
64.2251406199
 20
135.866834827
 30
0.0
 11
64.3553624808
 21
135.7756524984
 31
0.0
  0
LINE
  5
17A
  8
VIDITELNE
  6
SLD-PLNÁ
 62
     2
 10
75.1263397569
 20
151.4353606456
 30
0.0
 11
64.2251406199
 21
135.866834827
 31
0.0
  0
LINE
  5
17B
  8
VIDITELNE
  6
SLD-PLNÁ
 62
     2
 10
75.1263397569
 20
151.4353606456
 30
0.0
 11
75.2565616178
 21
151.344178317
 31
0.0
  0
LINE
  5
17C
  8
VIDITELNE
  6
SLD-PLNÁ
 62
     2
 10
61.7028015547
 20
135.3863585405
 30
0.0
 11
61.615221176
 21
135.2536874157
 31
0.0
  0
ARC
  5
17D
  8
VIDITELNE
  6
SLD-PLNÁ
 62
     2
 10
62.7170583922
 20
136.9228053711
 30
0.0
 40
1.841028461367551
 50
236.5699438283
 51
325.0
  0
LINE
  5
17E
  8
VIDITELNE
  6
SLD-PLNÁ
 62
     2
 10
32.2478043204
 20
146.4881517801
 30
0.0
 11
32.2260273973
 21
146.3306788754
 31
0.0
  0
ARC
  5
17F
  8
VIDITELNE
  6
SLD-PLNÁ
 62
     2
 10
22.5
 20
76.0
 30
0.0
 40
71.15897153863251
 50
56.5699438283
 51
82.1265062017
  0
ARC
  5
180
  8
VIDITELNE
  6
SLD-PLNÁ
 62
     2
 10
83.4228053711
 20
116.2170583922
 30
0.0
 40
1.841028461367552
 50
125.0
 51
213.4300561717
  0
ARC
  5
181
  8
VIDITELNE
  6
SLD-PLNÁ
 62
     2
 10
32.5
 20
148.3118247592
 30
0.0
 40
1.841028461367571
 50
180.0
 51
262.1265062017
  0
LINE
  5
182
  8
VIDITELNE
  6
SLD-PLNÁ
 62
     2
 10
12.2998882107
 20
169.2850274276
 30
0.0
 11
12.2826086957
 21
169.4430570719
 31
0.0
  0
ARC
  5
183
  8
VIDITELNE
  6
SLD-PLNÁ
 62
     2
 10
22.5
 20
76.0
 30
0.0
 40
93.84102846136756
 50
96.2401310983
 51
123.7543414484
  0
LINE
  5
184
  8
VIDITELNE
  6
SLD-PLNÁ
 62
     2
 10
-29.6411941271
 20
154.0220129046
 30
0.0
 11
-29.7295239972
 21
154.1541862156
 31
0.0
  0
LINE
  5
185
  8
VIDITELNE
  6
SLD-PLNÁ
 62
     2
 10
14.3410284614
 20
167.4549069214
 30
0.0
 11
14.5
 21
167.4549069214
 31
0.0
  0
ARC
  5
186
  8
VIDITELNE
  6
SLD-PLNÁ
 62
     2
 10
12.5
 20
167.4549069214
 30
0.0
 40
1.841028461367541
 50
0.0
 51
96.2401310983
  0
LINE
  5
187
  8
VIDITELNE
  6
SLD-PLNÁ
 62
     2
 10
14.3410284614
 20
148.3118247592
 30
0.0
 11
14.5
 21
148.3118247592
 31
0.0
  0
LINE
  5
188
  8
VIDITELNE
  6
SLD-PLNÁ
 62
     2
 10
14.3410284614
 20
167.4549069214
 30
0.0
 11
14.3410284614
 21
148.3118247592
 31
0.0
  0
LINE
  5
189
  8
VIDITELNE
  6
SLD-PLNÁ
 62
     2
 10
12.7521956796
 20
146.4881517801
 30
0.0
 11
12.7739726027
 21
146.3306788754
 31
0.0
  0
ARC
  5
18A
  8
VIDITELNE
  6
SLD-PLNÁ
 62
     2
 10
12.5
 20
148.3118247592
 30
0.0
 40
1.841028461367572
 50
277.8734937983
 51
0.0
  0
LINE
  5
18B
  8
VIDITELNE
  6
SLD-PLNÁ
 62
     2
 10
-16.7028015547
 20
135.3863585405
 30
0.0
 11
-16.615221176
 21
135.2536874157
 31
0.0
  0
ARC
  5
18C
  8
VIDITELNE
  6
SLD-PLNÁ
 62
     2
 10
22.5
 20
76.0
 30
0.0
 40
71.15897153863244
 50
97.8734937983
 51
123.4300561717
  0
LINE
  5
18D
  8
VIDITELNE
  6
SLD-PLNÁ
 62
     2
 10
-55.5220129046
 20
23.8588058729
 30
0.0
 11
-55.6541862156
 21
23.7704760028
 31
0.0
  0
ARC
  5
18E
  8
VIDITELNE
  6
SLD-PLNÁ
 62
     2
 10
-53.9913311897
 20
24.8817424708
 30
0.0
 40
1.841028461367541
 50
213.7543414484
 51
305.0
  0
ARC
  5
18F
  8
VIDITELNE
  6
SLD-PLNÁ
 62
     2
 10
-28.6182575292
 20
-0.4913311897
 30
0.0
 40
1.841028461367559
 50
145.0
 51
236.2456585516
  0
ARC
  5
190
  8
VIDITELNE
  6
SLD-PLNÁ
 62
     2
 10
73.6182575292
 20
152.4913311897
 30
0.0
 40
1.841028461367563
 50
325.0
 51
56.2456585516
  0
LINE
  5
191
  8
VIDITELNE
  6
SLD-PLNÁ
 62
     2
 10
74.6411941271
 20
154.0220129046
 30
0.0
 11
74.7295239972
 21
154.1541862156
 31
0.0
  0
ARC
  5
192
  8
VIDITELNE
  6
SLD-PLNÁ
 62
     2
 10
-38.4228053711
 20
35.7829416078
 30
0.0
 40
1.841028461367547
 50
305.0
 51
33.4300561717
  0
LINE
  5
193
  8
VIDITELNE
  6
SLD-PLNÁ
 62
     2
 10
-36.8863585405
 20
36.7971984453
 30
0.0
 11
-36.7536874157
 21
36.884778824
 31
0.0
  0
LINE
  5
194
  8
VIDITELNE
  6
SLD-PLNÁ
 62
     2
 10
32.7001117893
 20
169.2850274276
 30
0.0
 11
32.7173913043
 21
169.4430570719
 31
0.0
  0
ARC
  5
195
  8
VIDITELNE
  6
SLD-PLNÁ
 62
     2
 10
32.5
 20
167.4549069214
 30
0.0
 40
1.84102846136755
 50
83.7598689017
 51
180.0
  0
ARC
  5
196
  8
VIDITELNE
  6
SLD-PLNÁ
 62
     2
 10
22.5
 20
76.0
 30
0.0
 40
93.84102846136759
 50
56.2456585516
 51
83.7598689017
  0
ARC
  5
197
  8
VIDITELNE
  6
SLD-PLNÁ
 62
     2
 10
22.5
 20
76.0
 30
0.0
 40
71.15897153863243
 50
146.5699438283
 51
213.4300561717
  0
LINE
  5
198
  8
VIDITELNE
  6
SLD-PLNÁ
 62
     2
 10
-36.8863585405
 20
115.2028015547
 30
0.0
 11
-36.7536874157
 21
115.115221176
 31
0.0
  0
LINE
  5
199
  8
VIDITELNE
  6
SLD-PLNÁ
 62
     2
 10
-52.9353606456
 20
128.6263397569
 30
0.0
 11
-52.844178317
 21
128.7565616178
 31
0.0
  0
ARC
  5
19A
  8
VIDITELNE
  6
SLD-PLNÁ
 62
     2
 10
-53.9913311897
 20
127.1182575292
 30
0.0
 40
1.841028461367543
 50
55.0
 51
146.2456585516
  0
LINE
  5
19B
  8
VIDITELNE
  6
SLD-PLNÁ
 62
     2
 10
-55.5220129046
 20
128.1411941271
 30
0.0
 11
-55.6541862156
 21
128.2295239972
 31
0.0
  0
LINE
  5
19C
  8
VIDITELNE
  6
SLD-PLNÁ
 62
     2
 10
-30.1263397569
 20
151.4353606456
 30
0.0
 11
-30.2565616178
 21
151.344178317
 31
0.0
  0
LINE
  5
19D
  8
VIDITELNE
  6
SLD-PLNÁ
 62
     2
 10
-19.2251406199
 20
135.866834827
 30
0.0
 11
-30.1263397569
 21
151.4353606456
 31
0.0
  0
LINE
  5
19E
  8
VIDITELNE
  6
SLD-PLNÁ
 62
     2
 10
-19.2251406199
 20
135.866834827
 30
0.0
 11
-19.3553624808
 21
135.7756524984
 31
0.0
  0
ARC
  5
19F
  8
VIDITELNE
  6
SLD-PLNÁ
 62
     2
 10
-38.4228053711
 20
116.2170583922
 30
0.0
 40
1.841028461367544
 50
326.5699438283
 51
55.0
  0
LINE
  5
1A0
  8
VIDITELNE
  6
SLD-PLNÁ
 62
     2
 10
-37.366834827
 20
117.7251406199
 30
0.0
 11
-37.2756524984
 21
117.8553624808
 31
0.0
  0
ARC
  5
1A1
  8
VIDITELNE
  6
SLD-PLNÁ
 62
     2
 10
22.5
 20
76.0
 30
0.0
 40
93.84102846136759
 50
146.2456585516
 51
213.7543414484
  0
LINE
  5
1A2
  8
VIDITELNE
  6
SLD-PLNÁ
 62
     2
 10
-52.9353606456
 20
128.6263397569
 30
0.0
 11
-37.366834827
 21
117.7251406199
 31
0.0
  0
ARC
  5
1A3
  8
VIDITELNE
  6
SLD-PLNÁ
 62
     2
 10
-28.6182575292
 20
152.4913311897
 30
0.0
 40
1.84102846136759
 50
123.7543414484
 51
215.0
  0
ARC
  5
1A4
  8
VIDITELNE
  6
SLD-PLNÁ
 62
     2
 10
-17.7170583922
 20
15.0771946289
 30
0.0
 40
1.841028461367544
 50
56.5699438283
 51
145.0
  0
ARC
  5
1A5
  8
VIDITELNE
  6
SLD-PLNÁ
 62
     2
 10
-17.7170583922
 20
136.9228053711
 30
0.0
 40
1.841028461367574
 50
215.0
 51
303.4300561717
  0
CIRCLE
  5
1A6
  8
VIDITELNE
  6
SLD-PLNÁ
 62
     2
 10
22.5
 20
76.0
 30
0.0
 40
32.49999999999999
  0
CIRCLE
  5
1A7
  8
VIDITELNE
  6
SLD-PLNÁ
 62
     2
 10
-18.2031939779
 20
99.5
 30
0.0
 40
9.000000000000007
  0
CIRCLE
  5
1A8
  8
VIDITELNE
  6
SLD-PLNÁ
 62
     2
 10
22.5
 20
123.0
 30
0.0
 40
8.999999999999993
  0
CIRCLE
  5
1A9
  8
VIDITELNE
  6
SLD-PLNÁ
 62
     2
 10
63.2031939779
 20
99.5
 30
0.0
 40
9.000000000000007
  0
CIRCLE
  5
1AA
  8
VIDITELNE
  6
SLD-PLNÁ
 62
     2
 10
-18.2031939779
 20
52.5
 30
0.0
 40
8.999999999999993
  0
CIRCLE
  5
1AB
  8
VIDITELNE
  6
SLD-PLNÁ
 62
     2
 10
22.5
 20
29.0
 30
0.0
 40
9.0
  0
CIRCLE
  5
1AC
  8
VIDITELNE
  6
SLD-PLNÁ
 62
     2
 10
63.2031939779
 20
52.5
 30
0.0
 40
9.0
  0
LINE
  5
1AD
  8
VIDITELNE
  6
SLD-PLNÁ
 62
     2
 10
97.9353606456
 20
128.6263397569
 30
0.0
 11
98.7952011893
 21
127.3983601984
 31
0.0
  0
LINE
  5
1AE
  8
VIDITELNE
  6
SLD-PLNÁ
 62
     2
 10
98.7952011893
 20
127.3983601984
 30
0.0
 11
83.2266753706
 21
116.4971610614
 31
0.0
  0
LINE
  5
1AF
  8
VIDITELNE
  6
SLD-PLNÁ
 62
     2
 10
82.366834827
 20
117.7251406199
 30
0.0
 11
83.2266753706
 21
116.4971610614
 31
0.0
  0
LINE
  5
1B0
  8
VIDITELNE
  6
SLD-PLNÁ
 62
     2
 10
100.5220129046
 20
23.8588058729
 30
0.0
 11
99.27563136
 21
24.6917480088
 31
0.0
  0
ARC
  5
1B1
  8
VIDITELNE
  6
SLD-PLNÁ
 62
     2
 10
22.5
 20
76.0
 30
0.0
 40
92.34194222083893
 50
326.2456585516
 51
33.7543414484
  0
LINE
  5
1B2
  8
VIDITELNE
  6
SLD-PLNÁ
 62
     2
 10
100.5220129046
 20
128.1411941271
 30
0.0
 11
99.27563136
 21
127.3082519912
 31
0.0
  0
ARC
  5
1B3
  8
VIDITELNE
  6
SLD-PLNÁ
 62
     2
 10
98.9913311897
 20
127.1182575292
 30
0.0
 40
0.3419422208389111
 50
33.7543414484
 51
125.0
  0
ARC
  5
1B4
  8
VIDITELNE
  6
SLD-PLNÁ
 62
     2
 10
22.5
 20
76.0
 30
0.0
 40
72.65805777916148
 50
326.5699438283
 51
33.4300561717
  0
LINE
  5
1B5
  8
VIDITELNE
  6
SLD-PLNÁ
 62
     2
 10
83.1374344208
 20
35.9713239402
 30
0.0
 11
81.8863585405
 21
36.7971984453
 31
0.0
  0
LINE
  5
1B6
  8
VIDITELNE
  6
SLD-PLNÁ
 62
     2
 10
83.1374344208
 20
116.0286760598
 30
0.0
 11
81.8863585405
 21
115.2028015547
 31
0.0
  0
LINE
  5
1B7
  8
VIDITELNE
  6
SLD-PLNÁ
 62
     2
 10
74.6411941271
 20
-2.0220129046
 30
0.0
 11
73.8082519912
 21
-0.77563136
 31
0.0
  0
ARC
  5
1B8
  8
VIDITELNE
  6
SLD-PLNÁ
 62
     2
 10
73.6182575292
 20
-0.4913311897
 30
0.0
 40
0.3419422208388873
 50
303.7543414484
 51
35.0
  0
LINE
  5
1B9
  8
VIDITELNE
  6
SLD-PLNÁ
 62
     2
 10
75.1263397569
 20
0.5646393544
 30
0.0
 11
73.8983601984
 21
-0.2952011893
 31
0.0
  0
ARC
  5
1BA
  8
VIDITELNE
  6
SLD-PLNÁ
 62
     2
 10
83.4228053711
 20
116.2170583922
 30
0.0
 40
0.3419422208389051
 50
125.0
 51
213.4300561717
  0
ARC
  5
1BB
  8
VIDITELNE
  6
SLD-PLNÁ
 62
     2
 10
22.5
 20
76.0
 30
0.0
 40
72.65805777916107
 50
146.5699438283
 51
213.4300561717
  0
LINE
  5
1BC
  8
VIDITELNE
  6
SLD-PLNÁ
 62
     2
 10
-38.1374344208
 20
116.0286760598
 30
0.0
 11
-36.8863585405
 21
115.2028015547
 31
0.0
  0
LINE
  5
1BD
  8
VIDITELNE
  6
SLD-PLNÁ
 62
     2
 10
-38.1374344208
 20
35.9713239402
 30
0.0
 11
-36.8863585405
 21
36.7971984453
 31
0.0
  0
ARC
  5
1BE
  8
VIDITELNE
  6
SLD-PLNÁ
 62
     2
 10
62.7170583922
 20
136.9228053711
 30
0.0
 40
0.3419422208389019
 50
236.5699438283
 51
325.0
  0
LINE
  5
1BF
  8
VIDITELNE
  6
SLD-PLNÁ
 62
     2
 10
62.9971610614
 20
136.7266753706
 30
0.0
 11
64.2251406199
 21
135.866834827
 31
0.0
  0
LINE
  5
1C0
  8
VIDITELNE
  6
SLD-PLNÁ
 62
     2
 10
62.5286760598
 20
136.6374344208
 30
0.0
 11
61.7028015547
 21
135.3863585405
 31
0.0
  0
LINE
  5
1C1
  8
VIDITELNE
  6
SLD-PLNÁ
 62
     2
 10
-55.5220129046
 20
128.1411941271
 30
0.0
 11
-54.27563136
 21
127.3082519912
 31
0.0
  0
ARC
  5
1C2
  8
VIDITELNE
  6
SLD-PLNÁ
 62
     2
 10
22.5
 20
76.0
 30
0.0
 40
92.34194222083893
 50
146.2456585516
 51
213.7543414484
  0
LINE
  5
1C3
  8
VIDITELNE
  6
SLD-PLNÁ
 62
     2
 10
-55.5220129046
 20
23.8588058729
 30
0.0
 11
-54.27563136
 21
24.6917480088
 31
0.0
  0
LINE
  5
1C4
  8
VIDITELNE
  6
SLD-PLNÁ
 62
     2
 10
73.8983601984
 20
-0.2952011893
 30
0.0
 11
62.9971610614
 21
15.2733246294
 31
0.0
  0
LINE
  5
1C5
  8
VIDITELNE
  6
SLD-PLNÁ
 62
     2
 10
64.2251406199
 20
16.133165173
 30
0.0
 11
62.9971610614
 21
15.2733246294
 31
0.0
  0
ARC
  5
1C6
  8
VIDITELNE
  6
SLD-PLNÁ
 62
     2
 10
22.5
 20
76.0
 30
0.0
 40
72.65805777916118
 50
56.5699438283
 51
82.1265062017
  0
LINE
  5
1C7
  8
VIDITELNE
  6
SLD-PLNÁ
 62
     2
 10
32.2478043204
 20
146.4881517801
 30
0.0
 11
32.4531585999
 21
147.9731060475
 31
0.0
  0
ARC
  5
1C8
  8
VIDITELNE
  6
SLD-PLNÁ
 62
     2
 10
62.7170583922
 20
15.0771946289
 30
0.0
 40
0.3419422208389262
 50
35.0
 51
123.4300561717
  0
LINE
  5
1C9
  8
VIDITELNE
  6
SLD-PLNÁ
 62
     2
 10
61.7028015547
 20
16.6136414595
 30
0.0
 11
62.5286760598
 21
15.3625655792
 31
0.0
  0
ARC
  5
1CA
  8
VIDITELNE
  6
SLD-PLNÁ
 62
     2
 10
22.5
 20
76.0
 30
0.0
 40
72.65805777916266
 50
236.5699438283
 51
303.4300561717
  0
LINE
  5
1CB
  8
VIDITELNE
  6
SLD-PLNÁ
 62
     2
 10
-17.5286760598
 20
15.3625655792
 30
0.0
 11
-16.7028015547
 21
16.6136414595
 31
0.0
  0
ARC
  5
1CC
  8
VIDITELNE
  6
SLD-PLNÁ
 62
     2
 10
83.4228053711
 20
35.7829416078
 30
0.0
 40
0.3419422208389333
 50
146.5699438283
 51
235.0
  0
LINE
  5
1CD
  8
VIDITELNE
  6
SLD-PLNÁ
 62
     2
 10
83.2266753706
 20
35.5028389386
 30
0.0
 11
82.366834827
 21
34.2748593801
 31
0.0
  0
LINE
  5
1CE
  8
VIDITELNE
  6
SLD-PLNÁ
 62
     2
 10
62.9971610614
 20
136.7266753706
 30
0.0
 11
73.8983601984
 21
152.2952011893
 31
0.0
  0
LINE
  5
1CF
  8
VIDITELNE
  6
SLD-PLNÁ
 62
     2
 10
73.8983601984
 20
152.2952011893
 30
0.0
 11
75.1263397569
 21
151.4353606456
 31
0.0
  0
ARC
  5
1D0
  8
VIDITELNE
  6
SLD-PLNÁ
 62
     2
 10
22.5
 20
76.0
 30
0.0
 40
92.34194222083889
 50
96.2401310983
 51
123.7543414484
  0
LINE
  5
1D1
  8
VIDITELNE
  6
SLD-PLNÁ
 62
     2
 10
-29.6411941271
 20
154.0220129046
 30
0.0
 11
-28.8082519912
 21
152.77563136
 31
0.0
  0
LINE
  5
1D2
  8
VIDITELNE
  6
SLD-PLNÁ
 62
     2
 10
12.4628323673
 20
167.7948231603
 30
0.0
 11
12.2998882107
 21
169.2850274276
 31
0.0
  0
ARC
  5
1D3
  8
VIDITELNE
  6
SLD-PLNÁ
 62
     2
 10
22.5
 20
76.0
 30
0.0
 40
92.34194222083894
 50
56.2456585516
 51
83.7598689017
  0
LINE
  5
1D4
  8
VIDITELNE
  6
SLD-PLNÁ
 62
     2
 10
32.7001117893
 20
169.2850274276
 30
0.0
 11
32.5371676327
 21
167.7948231603
 31
0.0
  0
LINE
  5
1D5
  8
VIDITELNE
  6
SLD-PLNÁ
 62
     2
 10
73.8082519912
 20
152.77563136
 30
0.0
 11
74.6411941271
 21
154.0220129046
 31
0.0
  0
ARC
  5
1D6
  8
VIDITELNE
  6
SLD-PLNÁ
 62
     2
 10
73.6182575292
 20
152.4913311897
 30
0.0
 40
0.3419422208389032
 50
325.0
 51
56.2456585516
  0
ARC
  5
1D7
  8
VIDITELNE
  6
SLD-PLNÁ
 62
     2
 10
22.5
 20
76.0
 30
0.0
 40
92.34194222083968
 50
236.2456585516
 51
303.7543414484
  0
LINE
  5
1D8
  8
VIDITELNE
  6
SLD-PLNÁ
 62
     2
 10
-28.8082519912
 20
-0.77563136
 30
0.0
 11
-29.6411941271
 21
-2.0220129046
 31
0.0
  0
ARC
  5
1D9
  8
VIDITELNE
  6
SLD-PLNÁ
 62
     2
 10
98.9913311897
 20
24.8817424708
 30
0.0
 40
0.3419422208389281
 50
235.0
 51
326.2456585516
  0
LINE
  5
1DA
  8
VIDITELNE
  6
SLD-PLNÁ
 62
     2
 10
98.7952011893
 20
24.6016398016
 30
0.0
 11
97.9353606456
 21
23.3736602431
 31
0.0
  0
LINE
  5
1DB
  8
VIDITELNE
  6
SLD-PLNÁ
 62
     2
 10
83.2266753706
 20
35.5028389386
 30
0.0
 11
98.7952011893
 21
24.6016398016
 31
0.0
  0
LINE
  5
1DC
  8
VIDITELNE
  6
SLD-PLNÁ
 62
     2
 10
12.8419422208
 20
148.3118247592
 30
0.0
 11
12.8419422208
 21
167.4549069214
 31
0.0
  0
LINE
  5
1DD
  8
VIDITELNE
  6
SLD-PLNÁ
 62
     2
 10
12.8419422208
 20
167.4549069214
 30
0.0
 11
14.3410284614
 21
167.4549069214
 31
0.0
  0
LINE
  5
1DE
  8
VIDITELNE
  6
SLD-PLNÁ
 62
     2
 10
12.8419422208
 20
148.3118247592
 30
0.0
 11
14.3410284614
 21
148.3118247592
 31
0.0
  0
LINE
  5
1DF
  8
VIDITELNE
  6
SLD-PLNÁ
 62
     2
 10
-38.2266753706
 20
116.4971610614
 30
0.0
 11
-53.7952011893
 21
127.3983601984
 31
0.0
  0
LINE
  5
1E0
  8
VIDITELNE
  6
SLD-PLNÁ
 62
     2
 10
-52.9353606456
 20
128.6263397569
 30
0.0
 11
-53.7952011893
 21
127.3983601984
 31
0.0
  0
LINE
  5
1E1
  8
VIDITELNE
  6
SLD-PLNÁ
 62
     2
 10
-38.2266753706
 20
116.4971610614
 30
0.0
 11
-37.366834827
 21
117.7251406199
 31
0.0
  0
LINE
  5
1E2
  8
VIDITELNE
  6
SLD-PLNÁ
 62
     2
 10
-30.1263397569
 20
151.4353606456
 30
0.0
 11
-28.8983601984
 21
152.2952011893
 31
0.0
  0
LINE
  5
1E3
  8
VIDITELNE
  6
SLD-PLNÁ
 62
     2
 10
-28.8983601984
 20
152.2952011893
 30
0.0
 11
-17.9971610614
 21
136.7266753706
 31
0.0
  0
LINE
  5
1E4
  8
VIDITELNE
  6
SLD-PLNÁ
 62
     2
 10
-19.2251406199
 20
135.866834827
 30
0.0
 11
-17.9971610614
 21
136.7266753706
 31
0.0
  0
ARC
  5
1E5
  8
VIDITELNE
  6
SLD-PLNÁ
 62
     2
 10
-53.9913311897
 20
127.1182575292
 30
0.0
 40
0.3419422208388953
 50
55.0
 51
146.2456585516
  0
ARC
  5
1E6
  8
VIDITELNE
  6
SLD-PLNÁ
 62
     2
 10
22.5
 20
76.0
 30
0.0
 40
72.65805777916113
 50
97.8734937983
 51
123.4300561717
  0
LINE
  5
1E7
  8
VIDITELNE
  6
SLD-PLNÁ
 62
     2
 10
12.5468414001
 20
147.9731060475
 30
0.0
 11
12.7521956796
 21
146.4881517801
 31
0.0
  0
LINE
  5
1E8
  8
VIDITELNE
  6
SLD-PLNÁ
 62
     2
 10
-16.7028015547
 20
135.3863585405
 30
0.0
 11
-17.5286760598
 21
136.6374344208
 31
0.0
  0
ARC
  5
1E9
  8
VIDITELNE
  6
SLD-PLNÁ
 62
     2
 10
-28.6182575292
 20
152.4913311897
 30
0.0
 40
0.3419422208389171
 50
123.7543414484
 51
215.0
  0
ARC
  5
1EA
  8
VIDITELNE
  6
SLD-PLNÁ
 62
     2
 10
12.5
 20
148.3118247592
 30
0.0
 40
0.3419422208388919
 50
277.8734937983
 51
0.0
  0
LINE
  5
1EB
  8
VIDITELNE
  6
SLD-PLNÁ
 62
     2
 10
30.6589715386
 20
148.3118247592
 30
0.0
 11
32.1580577792
 21
148.3118247592
 31
0.0
  0
ARC
  5
1EC
  8
VIDITELNE
  6
SLD-PLNÁ
 62
     2
 10
32.5
 20
148.3118247592
 30
0.0
 40
0.3419422208389022
 50
180.0
 51
262.1265062017
  0
ARC
  5
1ED
  8
VIDITELNE
  6
SLD-PLNÁ
 62
     2
 10
-38.4228053711
 20
35.7829416078
 30
0.0
 40
0.3419422208389089
 50
305.0
 51
33.4300561717
  0
LINE
  5
1EE
  8
VIDITELNE
  6
SLD-PLNÁ
 62
     2
 10
-38.2266753706
 20
35.5028389386
 30
0.0
 11
-37.366834827
 21
34.2748593801
 31
0.0
  0
LINE
  5
1EF
  8
VIDITELNE
  6
SLD-PLNÁ
 62
     2
 10
-17.9971610614
 20
15.2733246294
 30
0.0
 11
-28.8983601984
 21
-0.2952011893
 31
0.0
  0
LINE
  5
1F0
  8
VIDITELNE
  6
SLD-PLNÁ
 62
     2
 10
-28.8983601984
 20
-0.2952011893
 30
0.0
 11
-30.1263397569
 21
0.5646393544
 31
0.0
  0
LINE
  5
1F1
  8
VIDITELNE
  6
SLD-PLNÁ
 62
     2
 10
-17.9971610614
 20
15.2733246294
 30
0.0
 11
-19.2251406199
 21
16.133165173
 31
0.0
  0
LINE
  5
1F2
  8
VIDITELNE
  6
SLD-PLNÁ
 62
     2
 10
30.6589715386
 20
167.4549069214
 30
0.0
 11
32.1580577792
 21
167.4549069214
 31
0.0
  0
LINE
  5
1F3
  8
VIDITELNE
  6
SLD-PLNÁ
 62
     2
 10
32.1580577792
 20
167.4549069214
 30
0.0
 11
32.1580577792
 21
148.3118247592
 31
0.0
  0
ARC
  5
1F4
  8
VIDITELNE
  6
SLD-PLNÁ
 62
     2
 10
-28.6182575292
 20
-0.4913311897
 30
0.0
 40
0.3419422208388901
 50
145.0
 51
236.2456585516
  0
ARC
  5
1F5
  8
VIDITELNE
  6
SLD-PLNÁ
 62
     2
 10
-38.4228053711
 20
116.2170583922
 30
0.0
 40
0.3419422208389089
 50
326.5699438283
 51
55.0
  0
ARC
  5
1F6
  8
VIDITELNE
  6
SLD-PLNÁ
 62
     2
 10
12.5
 20
167.4549069214
 30
0.0
 40
0.3419422208389065
 50
0.0
 51
96.2401310983
  0
ARC
  5
1F7
  8
VIDITELNE
  6
SLD-PLNÁ
 62
     2
 10
32.5
 20
167.4549069214
 30
0.0
 40
0.3419422208389065
 50
83.7598689017
 51
180.0
  0
LINE
  5
1F8
  8
VIDITELNE
  6
SLD-PLNÁ
 62
     2
 10
-53.7952011893
 20
24.6016398016
 30
0.0
 11
-38.2266753706
 21
35.5028389386
 31
0.0
  0
LINE
  5
1F9
  8
VIDITELNE
  6
SLD-PLNÁ
 62
     2
 10
-52.9353606456
 20
23.3736602431
 30
0.0
 11
-53.7952011893
 21
24.6016398016
 31
0.0
  0
ARC
  5
1FA
  8
VIDITELNE
  6
SLD-PLNÁ
 62
     2
 10
-53.9913311897
 20
24.8817424708
 30
0.0
 40
0.3419422208388885
 50
213.7543414484
 51
305.0
  0
ARC
  5
1FB
  8
VIDITELNE
  6
SLD-PLNÁ
 62
     2
 10
-17.7170583922
 20
136.9228053711
 30
0.0
 40
0.3419422208389288
 50
215.0
 51
303.4300561717
  0
ARC
  5
1FC
  8
VIDITELNE
  6
SLD-PLNÁ
 62
     2
 10
-17.7170583922
 20
15.0771946289
 30
0.0
 40
0.3419422208388905
 50
56.5699438283
 51
145.0
  0
LINE
  5
1FD
  8
VIDITELNE
  6
SLD-PLNÁ
 62
     2
 10
-30.5
 20
18.9955319377
 30
0.0
 11
-30.5
 21
16.3318491665
 31
0.0
  0
LINE
  5
1FE
  8
VIDITELNE
  6
SLD-PLNÁ
 62
     2
 10
-30.5
 20
-8.7997641506
 30
0.0
 11
-30.5
 21
-44.0
 31
0.0
  0
LINE
  5
1FF
  8
VIDITELNE
  6
SLD-PLNÁ
 62
     2
 10
75.5
 20
-44.0
 30
0.0
 11
75.5
 21
-8.7997641506
 31
0.0
  0
LINE
  5
200
  8
VIDITELNE
  6
SLD-PLNÁ
 62
     2
 10
75.5
 20
16.3318491665
 30
0.0
 11
75.5
 21
18.9955319377
 31
0.0
  0
LINE
  5
201
  8
VIDITELNE
  6
SLD-PLNÁ
 62
     2
 10
-34.5
 20
-12.8752198802
 30
0.0
 11
-34.5
 21
-6.1644692066
 31
0.0
  0
LINE
  5
202
  8
VIDITELNE
  6
SLD-PLNÁ
 62
     2
 10
-34.5
 20
12.3284982351
 30
0.0
 11
-34.5
 21
22.9988828691
 31
0.0
  0
LINE
  5
203
  8
VIDITELNE
  6
SLD-PLNÁ
 62
     2
 10
79.5
 20
22.9988828691
 30
0.0
 11
79.5
 21
12.3284982351
 31
0.0
  0
LINE
  5
204
  8
VIDITELNE
  6
SLD-PLNÁ
 62
     2
 10
79.5
 20
-6.1644692066
 30
0.0
 11
79.5
 21
-12.8752198802
 31
0.0
  0
ARC
  5
205
  8
VIDITELNE
  6
SLD-PLNÁ
 62
     2
 10
22.4142184456
 20
-298.1816168021
 30
0.0
 40
130.3065842298876
 50
82.4873545902
 51
89.9622818646
  0
ARC
  5
206
  8
VIDITELNE
  6
SLD-PLNÁ
 62
     2
 10
22.588584611
 20
-298.2275143815
 30
0.0
 40
130.3524836740965
 50
90.0389369238
 51
97.5326349277
  0
ARC
  5
207
  8
VIDITELNE
  6
SLD-PLNÁ
 62
     2
 10
22.5952242976
 20
-270.1087497586
 30
0.0
 40
100.2517332026712
 50
90.0544225123
 51
98.6598773543
  0
ARC
  5
208
  8
VIDITELNE
  6
SLD-PLNÁ
 62
     2
 10
22.4086575504
 20
-270.0677022788
 30
0.0
 40
100.2106821278898
 50
81.3652800788
 51
89.9477746537
  0
LINE
  5
209
  8
VIDITELNE
  6
SLD-PLNÁ
 62
     2
 10
12.0
 20
-175.0
 30
0.0
 11
33.0
 21
-175.0
 31
0.0
  0
LINE
  5
20A
  8
VIDITELNE
  6
SLD-PLNÁ
 62
     2
 10
-109.5
 20
-169.0
 30
0.0
 11
-109.5
 21
81.0
 31
0.0
  0
LINE
  5
20B
  8
VIDITELNE
  6
SLD-PLNÁ
 62
     2
 10
-44.5697989934
 20
-168.6614096651
 30
0.0
 11
-44.5892079691
 21
-168.6799955304
 31
0.0
  0
LINE
  5
20C
  8
VIDITELNE
  6
SLD-PLNÁ
 62
     2
 10
-44.5697989934
 20
1.8269451689
 30
0.0
 11
-44.5697989934
 21
-41.6650129268
 31
0.0
  0
LINE
  5
20D
  8
VIDITELNE
  6
SLD-PLNÁ
 62
     2
 10
-55.5
 20
-36.0
 30
0.0
 11
-55.5
 21
-52.0
 31
0.0
  0
LINE
  5
20E
  8
VIDITELNE
  6
SLD-PLNÁ
 62
     2
 10
-106.6471528727
 20
44.9100938499
 30
0.0
 11
-106.6471528727
 21
-132.9100938499
 31
0.0
  0
LINE
  5
20F
  8
VIDITELNE
  6
SLD-PLNÁ
 62
     2
 10
-55.5
 20
-117.3172798365
 30
0.0
 11
-55.5
 21
-133.3172798365
 31
0.0
  0
LINE
  5
210
  8
VIDITELNE
  6
SLD-PLNÁ
 62
     2
 10
-73.7913882374
 20
21.9042397786
 30
0.0
 11
-73.7913882374
 21
-109.9042397786
 31
0.0
  0
LINE
  5
211
  8
VIDITELNE
  6
SLD-PLNÁ
 62
     2
 10
-48.5
 20
-109.0
 30
0.0
 11
-48.5
 21
-52.0
 31
0.0
  0
LINE
  5
212
  8
VIDITELNE
  6
SLD-PLNÁ
 62
     2
 10
-48.5
 20
-36.0
 30
0.0
 11
-48.5
 21
5.5798324342
 31
0.0
  0
LINE
  5
213
  8
VIDITELNE
  6
SLD-PLNÁ
 62
     2
 10
-70.9235060556
 20
21.0
 30
0.0
 11
-70.9235060556
 21
-109.0
 31
0.0
  0
LINE
  5
214
  8
VIDITELNE
  6
SLD-PLNÁ
 62
     2
 10
-55.5
 20
-151.0
 30
0.0
 11
-55.5
 21
-167.0
 31
0.0
  0
LINE
  5
215
  8
VIDITELNE
  6
SLD-PLNÁ
 62
     2
 10
100.5
 20
-52.0
 30
0.0
 11
100.5
 21
-36.0
 31
0.0
  0
LINE
  5
216
  8
VIDITELNE
  6
SLD-PLNÁ
 62
     2
 10
100.5
 20
-133.3172798365
 30
0.0
 11
100.5
 21
-117.3172798365
 31
0.0
  0
LINE
  5
217
  8
VIDITELNE
  6
SLD-PLNÁ
 62
     2
 10
100.5
 20
-167.0
 30
0.0
 11
100.5
 21
-151.0
 31
0.0
  0
LINE
  5
218
  8
VIDITELNE
  6
SLD-PLNÁ
 62
     2
 10
720.9296628631
 20
81.0
 30
0.0
 11
719.5
 21
81.0
 31
0.0
  0
LINE
  5
219
  8
VIDITELNE
  6
SLD-PLNÁ
 62
     2
 10
835.5
 20
81.0
 30
0.0
 11
834.0703371369
 21
81.0
 31
0.0
  0
LINE
  5
21A
  8
VIDITELNE
  6
SLD-PLNÁ
 62
     2
 10
794.4994378438
 20
-169.0
 30
0.0
 11
835.5
 21
-169.0
 31
0.0
  0
LINE
  5
21B
  8
VIDITELNE
  6
SLD-PLNÁ
 62
     2
 10
719.5
 20
-169.0
 30
0.0
 11
760.5488465579
 21
-169.0
 31
0.0
  0
ARC
  5
21C
  8
VIDITELNE
  6
SLD-PLNÁ
 62
     2
 10
834.0333863183
 20
82.9471235538
 30
0.0
 40
1.940226775946051
 50
196.5289869542
 51
271.175069601
  0
ARC
  5
21D
  8
VIDITELNE
  6
SLD-PLNÁ
 62
     2
 10
721.0407801663
 20
82.8336526223
 30
0.0
 40
1.840896264730479
 50
266.5947431914
 51
346.2118605738
  0
ARC
  5
21E
  8
VIDITELNE
  6
SLD-PLNÁ
 62
     2
 10
693.5
 20
-74.5
 30
0.0
 40
2.0
 50
180.0
 51
270.0
  0
ARC
  5
21F
  8
VIDITELNE
  6
SLD-PLNÁ
 62
     2
 10
693.5
 20
-13.5
 30
0.0
 40
2.000000000000002
 50
90.0
 51
180.0
  0
ARC
  5
220
  8
VIDITELNE
  6
SLD-PLNÁ
 62
     2
 10
760.5
 20
-171.0
 30
0.0
 40
2.000000000006253
 50
0.0
 51
89.9999999986
  0
ARC
  5
221
  8
VIDITELNE
  6
SLD-PLNÁ
 62
     2
 10
794.5
 20
-171.0
 30
0.0
 40
1.99999999998829
 50
90.0000000003
 51
180.0000000004
  0
LINE
  5
222
  8
VIDITELNE
  6
SLD-PLNÁ
 62
     2
 10
762.5
 20
-170.9928486643
 30
0.0
 11
762.5
 21
-172.0
 31
0.0
  0
LINE
  5
223
  8
VIDITELNE
  6
SLD-PLNÁ
 62
     2
 10
792.5
 20
-172.0
 30
0.0
 11
792.5
 21
-170.9999236757
 31
0.0
  0
LINE
  5
224
  8
VIDITELNE
  6
SLD-PLNÁ
 62
     2
 10
767.0
 20
-172.0
 30
0.0
 11
767.0
 21
-175.0
 31
0.0
  0
LINE
  5
225
  8
VIDITELNE
  6
SLD-PLNÁ
 62
     2
 10
788.0
 20
-175.0
 30
0.0
 11
788.0
 21
-172.0
 31
0.0
  0
ARC
  5
226
  8
VIDITELNE
  6
SLD-PLNÁ
 62
     2
 10
787.0
 20
-175.0
 30
0.0
 40
1.0
 50
270.0
 51
0.0
  0
ARC
  5
227
  8
VIDITELNE
  6
SLD-PLNÁ
 62
     2
 10
768.0
 20
-175.0
 30
0.0
 40
1.0
 50
180.0
 51
270.0
  0
ARC
  5
228
  8
VIDITELNE
  6
SLD-PLNÁ
 62
     2
 10
909.5
 20
-167.0
 30
0.0
 40
2.0
 50
180.0
 51
270.0
  0
ARC
  5
229
  8
VIDITELNE
  6
SLD-PLNÁ
 62
     2
 10
909.5
 20
79.0
 30
0.0
 40
2.0
 50
90.0
 51
180.0
  0
LINE
  5
22A
  8
VIDITELNE
  6
SLD-PLNÁ
 62
     2
 10
835.5
 20
-169.0
 30
0.0
 11
844.5844928937
 21
-168.6827625177
 31
0.0
  0
LINE
  5
22B
  8
VIDITELNE
  6
SLD-PLNÁ
 62
     2
 10
844.5844928937
 20
80.6827625177
 30
0.0
 11
835.5
 21
81.0
 31
0.0
  0
LINE
  5
22C
  8
VIDITELNE
  6
SLD-PLNÁ
 62
     2
 10
909.5
 20
-169.0
 30
0.0
 11
922.5
 21
-169.0
 31
0.0
  0
LINE
  5
22D
  8
VIDITELNE
  6
SLD-PLNÁ
 62
     2
 10
922.5
 20
81.0
 30
0.0
 11
909.5
 21
81.0
 31
0.0
  0
LINE
  5
22E
  8
VIDITELNE
  6
SLD-PLNÁ
 62
     2
 10
846.5
 20
-52.0
 30
0.0
 11
855.5
 21
-52.0
 31
0.0
  0
LINE
  5
22F
  8
VIDITELNE
  6
SLD-PLNÁ
 62
     2
 10
855.5
 20
-36.0
 30
0.0
 11
846.5
 21
-36.0
 31
0.0
  0
ARC
  5
230
  8
VIDITELNE
  6
SLD-PLNÁ
 62
     2
 10
855.5
 20
-51.0
 30
0.0
 40
1.0
 50
270.0
 51
0.0
  0
ARC
  5
231
  8
VIDITELNE
  6
SLD-PLNÁ
 62
     2
 10
855.5
 20
-37.0
 30
0.0
 40
1.0
 50
0.0
 51
90.0
  0
ARC
  5
232
  8
VIDITELNE
  6
SLD-PLNÁ
 62
     2
 10
905.5
 20
-134.5483979384
 30
0.0
 40
2.000000000000028
 50
0.0
 51
55.0
  0
ARC
  5
233
  8
VIDITELNE
  6
SLD-PLNÁ
 62
     2
 10
905.5
 20
46.5483979384
 30
0.0
 40
2.00000000000001
 50
305.0
 51
0.0
  0
ARC
  5
234
  8
VIDITELNE
  6
SLD-PLNÁ
 62
     2
 10
855.5
 20
-132.3172798365
 30
0.0
 40
1.0
 50
270.0
 51
0.0
  0
ARC
  5
235
  8
VIDITELNE
  6
SLD-PLNÁ
 62
     2
 10
855.5
 20
-118.3172798365
 30
0.0
 40
1.000000000000014
 50
0.0
 51
90.0
  0
LINE
  5
236
  8
VIDITELNE
  6
SLD-PLNÁ
 62
     2
 10
846.5
 20
-133.3172798365
 30
0.0
 11
855.5
 21
-133.3172798365
 31
0.0
  0
LINE
  5
237
  8
VIDITELNE
  6
SLD-PLNÁ
 62
     2
 10
855.5
 20
-117.3172798365
 30
0.0
 11
846.5
 21
-117.3172798365
 31
0.0
  0
LINE
  5
238
  8
VIDITELNE
  6
SLD-PLNÁ
 62
     2
 10
846.5
 20
29.3172798365
 30
0.0
 11
855.5
 21
29.3172798365
 31
0.0
  0
LINE
  5
239
  8
VIDITELNE
  6
SLD-PLNÁ
 62
     2
 10
855.5
 20
45.3172798365
 30
0.0
 11
846.5
 21
45.3172798365
 31
0.0
  0
ARC
  5
23A
  8
VIDITELNE
  6
SLD-PLNÁ
 62
     2
 10
855.5
 20
30.3172798365
 30
0.0
 40
1.000000000000004
 50
270.0
 51
0.0
  0
ARC
  5
23B
  8
VIDITELNE
  6
SLD-PLNÁ
 62
     2
 10
855.5
 20
44.3172798365
 30
0.0
 40
1.0
 50
0.0
 51
90.0
  0
LINE
  5
23C
  8
VIDITELNE
  6
SLD-PLNÁ
 62
     2
 10
906.6471528727
 20
44.9100938499
 30
0.0
 11
873.7913882374
 21
21.9042397786
 31
0.0
  0
LINE
  5
23D
  8
VIDITELNE
  6
SLD-PLNÁ
 62
     2
 10
873.7913882374
 20
-109.9042397786
 30
0.0
 11
906.6471528727
 21
-132.9100938499
 31
0.0
  0
ARC
  5
23E
  8
VIDITELNE
  6
SLD-PLNÁ
 62
     2
 10
848.5
 20
23.0
 30
0.0
 40
2.000000000000004
 50
180.0
 51
270.0
  0
ARC
  5
23F
  8
VIDITELNE
  6
SLD-PLNÁ
 62
     2
 10
848.5
 20
-111.0
 30
0.0
 40
2.0
 50
90.0
 51
180.0
  0
ARC
  5
240
  8
VIDITELNE
  6
SLD-PLNÁ
 62
     2
 10
870.9235060556
 20
-114.0
 30
0.0
 40
5.000000000000002
 50
55.0
 51
90.0
  0
ARC
  5
241
  8
VIDITELNE
  6
SLD-PLNÁ
 62
     2
 10
870.9235060556
 20
26.0
 30
0.0
 40
5.000000000000007
 50
270.0
 51
305.0
  0
LINE
  5
242
  8
VIDITELNE
  6
SLD-PLNÁ
 62
     2
 10
848.5
 20
-109.0
 30
0.0
 11
870.9235060556
 21
-109.0
 31
0.0
  0
LINE
  5
243
  8
VIDITELNE
  6
SLD-PLNÁ
 62
     2
 10
870.9235060556
 20
21.0
 30
0.0
 11
848.5
 21
21.0
 31
0.0
  0
LINE
  5
244
  8
VIDITELNE
  6
SLD-PLNÁ
 62
     2
 10
846.5
 20
-167.0
 30
0.0
 11
855.5
 21
-167.0
 31
0.0
  0
LINE
  5
245
  8
VIDITELNE
  6
SLD-PLNÁ
 62
     2
 10
855.5
 20
-151.0
 30
0.0
 11
846.5
 21
-151.0
 31
0.0
  0
ARC
  5
246
  8
VIDITELNE
  6
SLD-PLNÁ
 62
     2
 10
855.5
 20
-166.0
 30
0.0
 40
1.0
 50
270.0
 51
0.0
  0
ARC
  5
247
  8
VIDITELNE
  6
SLD-PLNÁ
 62
     2
 10
855.5
 20
-152.0
 30
0.0
 40
1.000000000000028
 50
0.0
 51
90.0
  0
ARC
  5
248
  8
VIDITELNE
  6
SLD-PLNÁ
 62
     2
 10
855.5
 20
64.0
 30
0.0
 40
1.0
 50
270.0
 51
0.0
  0
ARC
  5
249
  8
VIDITELNE
  6
SLD-PLNÁ
 62
     2
 10
855.5
 20
78.0
 30
0.0
 40
1.0
 50
0.0
 51
90.0
  0
LINE
  5
24A
  8
VIDITELNE
  6
SLD-PLNÁ
 62
     2
 10
846.5
 20
63.0
 30
0.0
 11
855.5
 21
63.0
 31
0.0
  0
LINE
  5
24B
  8
VIDITELNE
  6
SLD-PLNÁ
 62
     2
 10
855.5
 20
79.0
 30
0.0
 11
846.5
 21
79.0
 31
0.0
  0
ARC
  5
24C
  8
VIDITELNE
  6
SLD-PLNÁ
 62
     2
 10
844.5976064934
 20
-166.7917605277
 30
0.0
 40
1.883884728207171
 50
269.5929807367
 51
357.0364006393
  0
ARC
  5
24D
  8
VIDITELNE
  6
SLD-PLNÁ
 62
     2
 10
844.618614701
 20
78.8122048555
 30
0.0
 40
1.862866478701863
 50
2.3951698011
 51
91.0599704872
  0
LINE
  5
24E
  8
VIDITELNE
  6
SLD-PLNÁ
 62
     2
 10
719.5
 20
81.0
 30
0.0
 11
708.5
 21
80.6158715356
 31
0.0
  0
LINE
  5
24F
  8
VIDITELNE
  6
SLD-PLNÁ
 62
     2
 10
708.5
 20
-168.6158715356
 30
0.0
 11
719.5
 21
-169.0
 31
0.0
  0
ARC
  5
250
  8
VIDITELNE
  6
SLD-PLNÁ
 62
     2
 10
699.5
 20
-51.0
 30
0.0
 40
1.0
 50
180.0
 51
270.0
  0
ARC
  5
251
  8
VIDITELNE
  6
SLD-PLNÁ
 62
     2
 10
699.5
 20
-37.0
 30
0.0
 40
1.0
 50
90.0
 51
180.0
  0
LINE
  5
252
  8
VIDITELNE
  6
SLD-PLNÁ
 62
     2
 10
708.5
 20
-36.0
 30
0.0
 11
699.5
 21
-36.0
 31
0.0
  0
LINE
  5
253
  8
VIDITELNE
  6
SLD-PLNÁ
 62
     2
 10
699.5
 20
-52.0
 30
0.0
 11
708.5
 21
-52.0
 31
0.0
  0
LINE
  5
254
  8
VIDITELNE
  6
SLD-PLNÁ
 62
     2
 10
708.5
 20
45.3172798365
 30
0.0
 11
699.5
 21
45.3172798365
 31
0.0
  0
LINE
  5
255
  8
VIDITELNE
  6
SLD-PLNÁ
 62
     2
 10
699.5
 20
29.3172798365
 30
0.0
 11
708.5
 21
29.3172798365
 31
0.0
  0
ARC
  5
256
  8
VIDITELNE
  6
SLD-PLNÁ
 62
     2
 10
699.5
 20
30.3172798365
 30
0.0
 40
1.0
 50
180.0
 51
270.0
  0
ARC
  5
257
  8
VIDITELNE
  6
SLD-PLNÁ
 62
     2
 10
699.5
 20
44.3172798365
 30
0.0
 40
1.0
 50
90.0
 51
180.0
  0
ARC
  5
258
  8
VIDITELNE
  6
SLD-PLNÁ
 62
     2
 10
699.5
 20
-132.3172798365
 30
0.0
 40
1.0
 50
180.0
 51
270.0
  0
ARC
  5
259
  8
VIDITELNE
  6
SLD-PLNÁ
 62
     2
 10
699.5
 20
-118.3172798365
 30
0.0
 40
1.0
 50
90.0
 51
180.0
  0
LINE
  5
25A
  8
VIDITELNE
  6
SLD-PLNÁ
 62
     2
 10
708.5
 20
-117.3172798365
 30
0.0
 11
699.5
 21
-117.3172798365
 31
0.0
  0
LINE
  5
25B
  8
VIDITELNE
  6
SLD-PLNÁ
 62
     2
 10
699.5
 20
-133.3172798365
 30
0.0
 11
708.5
 21
-133.3172798365
 31
0.0
  0
LINE
  5
25C
  8
VIDITELNE
  6
SLD-PLNÁ
 62
     2
 10
693.5
 20
-109.0
 30
0.0
 11
697.0
 21
-109.0
 31
0.0
  0
LINE
  5
25D
  8
VIDITELNE
  6
SLD-PLNÁ
 62
     2
 10
697.0
 20
21.0
 30
0.0
 11
693.5
 21
21.0
 31
0.0
  0
LINE
  5
25E
  8
VIDITELNE
  6
SLD-PLNÁ
 62
     2
 10
700.6268759766
 20
53.0939778214
 30
0.0
 11
697.0
 21
51.0
 31
0.0
  0
LINE
  5
25F
  8
VIDITELNE
  6
SLD-PLNÁ
 62
     2
 10
697.0
 20
-139.0
 30
0.0
 11
700.6268759766
 21
-141.0939778214
 31
0.0
  0
LINE
  5
260
  8
VIDITELNE
  6
SLD-PLNÁ
 62
     2
 10
705.1905859903
 20
-151.0
 30
0.0
 11
699.5
 21
-151.0
 31
0.0
  0
LINE
  5
261
  8
VIDITELNE
  6
SLD-PLNÁ
 62
     2
 10
699.5
 20
-167.0
 30
0.0
 11
708.5
 21
-167.0
 31
0.0
  0
ARC
  5
262
  8
VIDITELNE
  6
SLD-PLNÁ
 62
     2
 10
699.5
 20
-166.0
 30
0.0
 40
1.000000000000028
 50
180.0
 51
270.0
  0
ARC
  5
263
  8
VIDITELNE
  6
SLD-PLNÁ
 62
     2
 10
699.5
 20
-152.0
 30
0.0
 40
1.0
 50
90.0
 51
180.0
  0
ARC
  5
264
  8
VIDITELNE
  6
SLD-PLNÁ
 62
     2
 10
699.5
 20
64.0
 30
0.0
 40
1.0
 50
180.0
 51
270.0
  0
ARC
  5
265
  8
VIDITELNE
  6
SLD-PLNÁ
 62
     2
 10
699.5
 20
78.0
 30
0.0
 40
1.0
 50
90.0
 51
180.0
  0
LINE
  5
266
  8
VIDITELNE
  6
SLD-PLNÁ
 62
     2
 10
708.5
 20
79.0
 30
0.0
 11
699.5
 21
79.0
 31
0.0
  0
LINE
  5
267
  8
VIDITELNE
  6
SLD-PLNÁ
 62
     2
 10
699.5
 20
63.0
 30
0.0
 11
705.1905859903
 21
63.0
 31
0.0
  0
POLYLINE
  5
268
  8
VIDITELNE
  6
SLD-PLNÁ
 62
     2
 66
     1
 10
0.0
 20
0.0
 30
0.0
  0
VERTEX
  5
72B
  8
VIDITELNE
  6
SLD-PLNÁ
 62
     2
 10
782.9965663235
 20
137.5127558956
 30
0.0
  0
VERTEX
  5
72C
  8
VIDITELNE
  6
SLD-PLNÁ
 62
     2
 10
782.9989132655
 20
138.3189299994
 30
0.0
  0
VERTEX
  5
72D
  8
VIDITELNE
  6
SLD-PLNÁ
 62
     2
 10
782.9629457425
 20
139.4872205429
 30
0.0
  0
VERTEX
  5
72E
  8
VIDITELNE
  6
SLD-PLNÁ
 62
     2
 10
782.9074947443
 20
140.8264789914
 30
0.0
  0
VERTEX
  5
72F
  8
VIDITELNE
  6
SLD-PLNÁ
 62
     2
 10
782.8456105008
 20
142.2416521024
 30
0.0
  0
VERTEX
  5
730
  8
VIDITELNE
  6
SLD-PLNÁ
 62
     2
 10
782.7853262406
 20
143.6529731589
 30
0.0
  0
VERTEX
  5
731
  8
VIDITELNE
  6
SLD-PLNÁ
 62
     2
 10
782.6679915233
 20
146.5727797203
 30
0.0
  0
VERTEX
  5
732
  8
VIDITELNE
  6
SLD-PLNÁ
 62
     2
 10
782.5513084054
 20
149.6305586972
 30
0.0
  0
VERTEX
  5
733
  8
VIDITELNE
  6
SLD-PLNÁ
 62
     2
 10
782.4415346167
 20
152.556509244
 30
0.0
  0
VERTEX
  5
734
  8
VIDITELNE
  6
SLD-PLNÁ
 62
     2
 10
782.3373493163
 20
155.3003687326
 30
0.0
  0
VERTEX
  5
735
  8
VIDITELNE
  6
SLD-PLNÁ
 62
     2
 10
782.2212060487
 20
158.2254611869
 30
0.0
  0
VERTEX
  5
736
  8
VIDITELNE
  6
SLD-PLNÁ
 62
     2
 10
782.0982264029
 20
161.0661396346
 30
0.0
  0
VERTEX
  5
737
  8
VIDITELNE
  6
SLD-PLNÁ
 62
     2
 10
782.0205136478
 20
162.678476277
 30
0.0
  0
VERTEX
  5
738
  8
VIDITELNE
  6
SLD-PLNÁ
 62
     2
 10
781.9462149658
 20
164.0617933701
 30
0.0
  0
VERTEX
  5
739
  8
VIDITELNE
  6
SLD-PLNÁ
 62
     2
 10
781.8438292241
 20
165.5844981544
 30
0.0
  0
VERTEX
  5
73A
  8
VIDITELNE
  6
SLD-PLNÁ
 62
     2
 10
781.6844227782
 20
167.041502078
 30
0.0
  0
VERTEX
  5
73B
  8
VIDITELNE
  6
SLD-PLNÁ
 62
     2
 10
781.3741748529
 20
168.6282883263
 30
0.0
  0
VERTEX
  5
73C
  8
VIDITELNE
  6
SLD-PLNÁ
 62
     2
 10
780.8320236952
 20
170.1149776903
 30
0.0
  0
VERTEX
  5
73D
  8
VIDITELNE
  6
SLD-PLNÁ
 62
     2
 10
780.0151621247
 20
171.1102989385
 30
0.0
  0
SEQEND
  5
73E
  8
VIDITELNE
  6
SLD-PLNÁ
 62
     2
  0
POLYLINE
  5
269
  8
VIDITELNE
  6
SLD-PLNÁ
 62
     2
 66
     1
 10
0.0
 20
0.0
 30
0.0
  0
VERTEX
  5
73F
  8
VIDITELNE
  6
SLD-PLNÁ
 62
     2
 10
774.986156296
 20
171.1113646253
 30
0.0
  0
VERTEX
  5
740
  8
VIDITELNE
  6
SLD-PLNÁ
 62
     2
 10
773.9191530504
 20
169.7119413804
 30
0.0
  0
VERTEX
  5
741
  8
VIDITELNE
  6
SLD-PLNÁ
 62
     2
 10
773.3922896275
 20
167.841812038
 30
0.0
  0
VERTEX
  5
742
  8
VIDITELNE
  6
SLD-PLNÁ
 62
     2
 10
773.1761986548
 20
165.9421086991
 30
0.0
  0
VERTEX
  5
743
  8
VIDITELNE
  6
SLD-PLNÁ
 62
     2
 10
773.0213062541
 20
163.4754605799
 30
0.0
  0
VERTEX
  5
744
  8
VIDITELNE
  6
SLD-PLNÁ
 62
     2
 10
772.8638230753
 20
160.2238174556
 30
0.0
  0
VERTEX
  5
745
  8
VIDITELNE
  6
SLD-PLNÁ
 62
     2
 10
772.7156820524
 20
156.6598100934
 30
0.0
  0
VERTEX
  5
746
  8
VIDITELNE
  6
SLD-PLNÁ
 62
     2
 10
772.5867118758
 20
153.3082814101
 30
0.0
  0
VERTEX
  5
747
  8
VIDITELNE
  6
SLD-PLNÁ
 62
     2
 10
772.4948828587
 20
150.8616824328
 30
0.0
  0
VERTEX
  5
748
  8
VIDITELNE
  6
SLD-PLNÁ
 62
     2
 10
772.4328172793
 20
149.2096024678
 30
0.0
  0
VERTEX
  5
749
  8
VIDITELNE
  6
SLD-PLNÁ
 62
     2
 10
772.3514470318
 20
147.0742974074
 30
0.0
  0
VERTEX
  5
74A
  8
VIDITELNE
  6
SLD-PLNÁ
 62
     2
 10
772.2541378341
 20
144.6117153019
 30
0.0
  0
VERTEX
  5
74B
  8
VIDITELNE
  6
SLD-PLNÁ
 62
     2
 10
772.0996839162
 20
141.0383411127
 30
0.0
  0
VERTEX
  5
74C
  8
VIDITELNE
  6
SLD-PLNÁ
 62
     2
 10
772.0214373987
 20
139.4351355417
 30
0.0
  0
VERTEX
  5
74D
  8
VIDITELNE
  6
SLD-PLNÁ
 62
     2
 10
771.9540352491
 20
138.1485871687
 30
0.0
  0
VERTEX
  5
74E
  8
VIDITELNE
  6
SLD-PLNÁ
 62
     2
 10
771.9084589003
 20
137.2287202082
 30
0.0
  0
VERTEX
  5
74F
  8
VIDITELNE
  6
SLD-PLNÁ
 62
     2
 10
771.9055629571
 20
137.1033359695
 30
0.0
  0
SEQEND
  5
750
  8
VIDITELNE
  6
SLD-PLNÁ
 62
     2
  0
LINE
  5
26A
  8
VIDITELNE
  6
SLD-PLNÁ
 62
     2
 10
788.8563269083
 20
129.8148105929
 30
0.0
 11
787.7319551923
 21
136.1914394645
 31
0.0
  0
LINE
  5
26B
  8
VIDITELNE
  6
SLD-PLNÁ
 62
     2
 10
767.2680448077
 20
136.1914394645
 30
0.0
 11
766.1436730917
 21
129.8148105929
 31
0.0
  0
ARC
  5
26C
  8
VIDITELNE
  6
SLD-PLNÁ
 62
     2
 10
784.7775319332
 20
135.6704949315
 30
0.0
 40
3.000000000000007
 50
10.0
 51
80.0
  0
ARC
  5
26D
  8
VIDITELNE
  6
SLD-PLNÁ
 62
     2
 10
770.2224680668
 20
135.6704949315
 30
0.0
 40
3.000000000000007
 50
100.0
 51
170.0
  0
LINE
  5
26E
  8
VIDITELNE
  6
SLD-PLNÁ
 62
     2
 10
772.0002250262
 20
139.0302412843
 30
0.0
 11
769.7015235338
 21
138.6249181906
 31
0.0
  0
LINE
  5
26F
  8
VIDITELNE
  6
SLD-PLNÁ
 62
     2
 10
785.2984764662
 20
138.6249181906
 30
0.0
 11
782.9768902843
 21
139.0342764725
 31
0.0
  0
CIRCLE
  5
270
  8
VIDITELNE
  6
SLD-PLNÁ
 62
     2
 10
777.5
 20
-4.0
 30
0.0
 40
9.500000000000002
  0
CIRCLE
  5
271
  8
VIDITELNE
  6
SLD-PLNÁ
 62
     2
 10
777.5
 20
-4.0
 30
0.0
 40
10.5
  0
ARC
  5
272
  8
VIDITELNE
  6
SLD-PLNÁ
 62
     2
 10
791.6699173599
 20
23.2628514478
 30
0.0
 40
1.304294292684086
 50
249.7324263928
 51
321.8836335387
  0
ARC
  5
273
  8
VIDITELNE
  6
SLD-PLNÁ
 62
     2
 10
795.9644068125
 20
16.5270812494
 30
0.0
 40
7.274069457344798
 50
106.4585243504
 51
130.7300761165
  0
ARC
  5
274
  8
VIDITELNE
  6
SLD-PLNÁ
 62
     2
 10
794.5
 20
21.5941179651
 30
0.0
 40
1.99999999994485
 50
107.3522610675
 51
154.4167568453
  0
ARC
  5
275
  8
VIDITELNE
  6
SLD-PLNÁ
 62
     2
 10
759.0355931875
 20
16.5270812494
 30
0.0
 40
7.274069457345751
 50
49.2699238835
 51
73.5414756496
  0
ARC
  5
276
  8
VIDITELNE
  6
SLD-PLNÁ
 62
     2
 10
763.3300826401
 20
23.2628514478
 30
0.0
 40
1.304294292683652
 50
218.1163664613
 51
290.2675736072
  0
ARC
  5
277
  8
VIDITELNE
  6
SLD-PLNÁ
 62
     2
 10
760.5
 20
21.5941179651
 30
0.0
 40
1.999999999944792
 50
25.5832431547
 51
72.6477389325
  0
ARC
  5
278
  8
VIDITELNE
  6
SLD-PLNÁ
 62
     2
 10
777.5
 20
76.0
 30
0.0
 40
55.00000000000001
 50
287.3522610682
 51
252.6477389318
  0
ARC
  5
279
  8
VIDITELNE
  6
SLD-PLNÁ
 62
     2
 10
777.5
 20
76.0
 30
0.0
 40
55.00000000000001
 50
252.6477389318
 51
287.3522610682
  0
LINE
  5
27A
  8
VIDITELNE
  6
SLD-PLNÁ
 62
     2
 10
790.6270166538
 20
20.5321585622
 30
0.0
 11
790.7157910714
 21
21.0882603209
 31
0.0
  0
ARC
  5
27B
  8
VIDITELNE
  6
SLD-PLNÁ
 62
     2
 10
777.5
 20
76.0
 30
0.0
 40
57.00000000000001
 50
256.6853514544
 51
283.3146485456
  0
POLYLINE
  5
27C
  8
VIDITELNE
  6
SLD-PLNÁ
 62
     2
 66
     1
 10
0.0
 20
0.0
 30
0.0
  0
VERTEX
  5
751
  8
VIDITELNE
  6
SLD-PLNÁ
 62
     2
 10
764.2842089286
 20
21.0882603209
 30
0.0
  0
VERTEX
  5
752
  8
VIDITELNE
  6
SLD-PLNÁ
 62
     2
 10
764.3323906995
 20
20.7436926326
 30
0.0
  0
VERTEX
  5
753
  8
VIDITELNE
  6
SLD-PLNÁ
 62
     2
 10
764.3729833462
 20
20.5321585622
 30
0.0
  0
SEQEND
  5
754
  8
VIDITELNE
  6
SLD-PLNÁ
 62
     2
  0
POLYLINE
  5
27D
  8
VIDITELNE
  6
SLD-PLNÁ
 62
     2
 66
     1
 10
0.0
 20
0.0
 30
0.0
  0
VERTEX
  5
755
  8
VIDITELNE
  6
SLD-PLNÁ
 62
     2
 10
763.7818964441
 20
22.0393123645
 30
0.0
  0
VERTEX
  5
756
  8
VIDITELNE
  6
SLD-PLNÁ
 62
     2
 10
764.174989371
 20
21.4872917322
 30
0.0
  0
VERTEX
  5
757
  8
VIDITELNE
  6
SLD-PLNÁ
 62
     2
 10
764.2842089286
 20
21.0882603209
 30
0.0
  0
SEQEND
  5
758
  8
VIDITELNE
  6
SLD-PLNÁ
 62
     2
  0
ARC
  5
27E
  8
VIDITELNE
  6
SLD-PLNÁ
 62
     2
 10
792.3045301242
 20
20.8573218024
 30
0.0
 40
1.605435883813374
 50
132.5876668876
 51
171.7294329098
  0
POLYLINE
  5
27F
  8
VIDITELNE
  6
SLD-PLNÁ
 62
     2
 66
     1
 10
0.0
 20
0.0
 30
0.0
  0
VERTEX
  5
759
  8
VIDITELNE
  6
SLD-PLNÁ
 62
     2
 10
762.4529776853
 20
21.5941179651
 30
0.0
  0
VERTEX
  5
75A
  8
VIDITELNE
  6
SLD-PLNÁ
 62
     2
 10
762.4422500274
 20
21.9692596582
 30
0.0
  0
VERTEX
  5
75B
  8
VIDITELNE
  6
SLD-PLNÁ
 62
     2
 10
762.3039177131
 20
22.457761922
 30
0.0
  0
SEQEND
  5
75C
  8
VIDITELNE
  6
SLD-PLNÁ
 62
     2
  0
ARC
  5
280
  8
VIDITELNE
  6
SLD-PLNÁ
 62
     2
 10
764.1911314685
 20
24.3188204939
 30
0.0
 40
3.231900747998801
 50
237.4652096372
 51
271.650323919
  0
POLYLINE
  5
281
  8
VIDITELNE
  6
SLD-PLNÁ
 62
     2
 66
     1
 10
0.0
 20
0.0
 30
0.0
  0
VERTEX
  5
75D
  8
VIDITELNE
  6
SLD-PLNÁ
 62
     2
 10
792.6960822869
 20
22.457761922
 30
0.0
  0
VERTEX
  5
75E
  8
VIDITELNE
  6
SLD-PLNÁ
 62
     2
 10
792.5861610124
 20
22.1354535111
 30
0.0
  0
VERTEX
  5
75F
  8
VIDITELNE
  6
SLD-PLNÁ
 62
     2
 10
792.5470223147
 20
21.5941179651
 30
0.0
  0
SEQEND
  5
760
  8
VIDITELNE
  6
SLD-PLNÁ
 62
     2
  0
ARC
  5
282
  8
VIDITELNE
  6
SLD-PLNÁ
 62
     2
 10
790.8088685315
 20
24.3188204939
 30
0.0
 40
3.23190074799787
 50
268.349676081
 51
302.5347903628
  0
LINE
  5
283
  8
VIDITELNE
  6
SLD-PLNÁ
 62
     2
 10
792.5470223147
 20
21.5941179651
 30
0.0
 11
792.5635083269
 21
20.5321585622
 31
0.0
  0
LINE
  5
284
  8
VIDITELNE
  6
SLD-PLNÁ
 62
     2
 10
792.5635083269
 20
20.5321585622
 30
0.0
 11
790.6270166538
 21
20.5321585622
 31
0.0
  0
POLYLINE
  5
285
  8
VIDITELNE
  6
SLD-PLNÁ
 62
     2
 66
     1
 10
0.0
 20
0.0
 30
0.0
  0
VERTEX
  5
761
  8
VIDITELNE
  6
SLD-PLNÁ
 62
     2
 10
762.4364916731
 20
20.5321585622
 30
0.0
  0
VERTEX
  5
762
  8
VIDITELNE
  6
SLD-PLNÁ
 62
     2
 10
762.4389626527
 20
20.9347731939
 30
0.0
  0
VERTEX
  5
763
  8
VIDITELNE
  6
SLD-PLNÁ
 62
     2
 10
762.4529776853
 20
21.5941179651
 30
0.0
  0
SEQEND
  5
764
  8
VIDITELNE
  6
SLD-PLNÁ
 62
     2
  0
LINE
  5
286
  8
VIDITELNE
  6
SLD-PLNÁ
 62
     2
 10
762.4364916731
 20
20.5321585622
 30
0.0
 11
764.3729833462
 21
20.5321585622
 31
0.0
  0
LINE
  5
287
  8
VIDITELNE
  6
SLD-PLNÁ
 62
     2
 10
792.5635083269
 20
20.5321585622
 30
0.0
 11
792.5635083269
 21
-4.0
 31
0.0
  0
LINE
  5
288
  8
VIDITELNE
  6
SLD-PLNÁ
 62
     2
 10
792.5635083269
 20
-4.0
 30
0.0
 11
790.6270166538
 21
-4.0
 31
0.0
  0
LINE
  5
289
  8
VIDITELNE
  6
SLD-PLNÁ
 62
     2
 10
790.6270166538
 20
-4.0
 30
0.0
 11
790.6270166538
 21
20.5321585622
 31
0.0
  0
LINE
  5
28A
  8
VIDITELNE
  6
SLD-PLNÁ
 62
     2
 10
764.3729833462
 20
20.5321585622
 30
0.0
 11
764.3729833462
 21
-4.0
 31
0.0
  0
ARC
  5
28B
  8
VIDITELNE
  6
SLD-PLNÁ
 62
     2
 10
777.5
 20
-4.0
 30
0.0
 40
13.12701665379257
 50
180.0
 51
0.0
  0
LINE
  5
28C
  8
VIDITELNE
  6
SLD-PLNÁ
 62
     2
 10
762.4364916731
 20
-4.0
 30
0.0
 11
762.4364916731
 21
20.5321585622
 31
0.0
  0
LINE
  5
28D
  8
VIDITELNE
  6
SLD-PLNÁ
 62
     2
 10
762.4364916731
 20
-4.0
 30
0.0
 11
764.3729833462
 21
-4.0
 31
0.0
  0
ARC
  5
28E
  8
VIDITELNE
  6
SLD-PLNÁ
 62
     2
 10
777.5
 20
-4.0
 30
0.0
 40
15.06350832689634
 50
180.0
 51
0.0
  0
LINE
  5
28F
  8
VIDITELNE
  6
SLD-PLNÁ
 62
     2
 10
726.3596491228
 20
55.7598292458
 30
0.0
 11
724.5
 21
55.0238230366
 31
0.0
  0
ARC
  5
290
  8
VIDITELNE
  6
SLD-PLNÁ
 62
     2
 10
832.2841805849
 20
75.8840761672
 30
0.0
 40
109.7842417883053
 50
179.9394999912
 51
190.9534471783
  0
LINE
  5
291
  8
VIDITELNE
  6
SLD-PLNÁ
 62
     2
 10
830.5
 20
55.0238230366
 30
0.0
 11
828.6403508772
 21
55.7598292458
 31
0.0
  0
ARC
  5
292
  8
VIDITELNE
  6
SLD-PLNÁ
 62
     2
 10
722.7158194151
 20
75.8840761672
 30
0.0
 40
109.7842417882794
 50
349.0465528217
 51
0.0605000088
  0
LINE
  5
293
  8
VIDITELNE
  6
SLD-PLNÁ
 62
     2
 10
794.5
 20
21.5941179651
 30
0.0
 11
793.9035087719
 21
23.5030962821
 31
0.0
  0
LINE
  5
294
  8
VIDITELNE
  6
SLD-PLNÁ
 62
     2
 10
794.5
 20
21.5941179651
 30
0.0
 11
792.5470223147
 21
21.5941179651
 31
0.0
  0
LINE
  5
295
  8
VIDITELNE
  6
SLD-PLNÁ
 62
     2
 10
761.0964912281
 20
23.5030962821
 30
0.0
 11
760.5
 21
21.5941179651
 31
0.0
  0
LINE
  5
296
  8
VIDITELNE
  6
SLD-PLNÁ
 62
     2
 10
762.4529776853
 20
21.5941179651
 30
0.0
 11
760.5
 21
21.5941179651
 31
0.0
  0
ARC
  5
297
  8
VIDITELNE
  6
SLD-PLNÁ
 62
     2
 10
777.5
 20
76.0
 30
0.0
 40
57.00000000000001
 50
287.3522610682
 51
338.4074838218
  0
ARC
  5
298
  8
VIDITELNE
  6
SLD-PLNÁ
 62
     2
 10
777.5
 20
76.0
 30
0.0
 40
57.00000000000011
 50
201.5925161782
 51
252.6477389318
  0
LINE
  5
299
  8
VIDITELNE
  6
SLD-PLNÁ
 62
     2
 10
794.5
 20
21.5941179651
 30
0.0
 11
794.5
 21
-4.0
 31
0.0
  0
LINE
  5
29A
  8
VIDITELNE
  6
SLD-PLNÁ
 62
     2
 10
794.5
 20
-4.0
 30
0.0
 11
792.5635083269
 21
-4.0
 31
0.0
  0
LINE
  5
29B
  8
VIDITELNE
  6
SLD-PLNÁ
 62
     2
 10
760.5
 20
-4.0
 30
0.0
 11
760.5
 21
21.5941179651
 31
0.0
  0
LINE
  5
29C
  8
VIDITELNE
  6
SLD-PLNÁ
 62
     2
 10
760.5
 20
-4.0
 30
0.0
 11
762.4364916731
 21
-4.0
 31
0.0
  0
ARC
  5
29D
  8
VIDITELNE
  6
SLD-PLNÁ
 62
     2
 10
777.5
 20
-4.0
 30
0.0
 40
17.0
 50
180.0
 51
0.0
  0
LINE
  5
29E
  8
VIDITELNE
  6
SLD-PLNÁ
 62
     2
 10
830.5
 20
-44.0
 30
0.0
 11
830.5
 21
55.0238230366
 31
0.0
  0
LINE
  5
29F
  8
VIDITELNE
  6
SLD-PLNÁ
 62
     2
 10
832.5
 20
76.0
 30
0.0
 11
832.5
 21
-12.3772233983
 31
0.0
  0
ARC
  5
2A0
  8
VIDITELNE
  6
SLD-PLNÁ
 62
     2
 10
370.9836740581
 20
0.9369980942
 30
0.0
 40
461.7083360789857
 50
354.4146933406
 51
358.3475401994
  0
ARC
  5
2A1
  8
VIDITELNE
  6
SLD-PLNÁ
 62
     2
 10
834.031000062
 20
-10.4936762046
 30
0.0
 40
2.427284742432803
 50
230.8948199055
 51
281.1407591919
  0
POLYLINE
  5
2A2
  8
VIDITELNE
  6
SLD-PLNÁ
 62
     2
 66
     1
 10
0.0
 20
0.0
 30
0.0
  0
VERTEX
  5
765
  8
VIDITELNE
  6
SLD-PLNÁ
 62
     2
 10
834.5
 20
-12.8752198802
 30
0.0
  0
VERTEX
  5
766
  8
VIDITELNE
  6
SLD-PLNÁ
 62
     2
 10
834.097986477
 20
-20.5630481992
 30
0.0
  0
VERTEX
  5
767
  8
VIDITELNE
  6
SLD-PLNÁ
 62
     2
 10
833.4260824104
 20
-26.347783779
 30
0.0
  0
VERTEX
  5
768
  8
VIDITELNE
  6
SLD-PLNÁ
 62
     2
 10
832.5586030129
 20
-32.1661827184
 30
0.0
  0
VERTEX
  5
769
  8
VIDITELNE
  6
SLD-PLNÁ
 62
     2
 10
830.5125475578
 20
-43.9304114354
 30
0.0
  0
VERTEX
  5
76A
  8
VIDITELNE
  6
SLD-PLNÁ
 62
     2
 10
830.5
 20
-44.0
 30
0.0
  0
SEQEND
  5
76B
  8
VIDITELNE
  6
SLD-PLNÁ
 62
     2
  0
LINE
  5
2A3
  8
VIDITELNE
  6
SLD-PLNÁ
 62
     2
 10
834.5
 20
74.1102362205
 30
0.0
 11
834.5
 21
-12.8752198802
 31
0.0
  0
LINE
  5
2A4
  8
VIDITELNE
  6
SLD-PLNÁ
 62
     2
 10
720.5
 20
-12.8752198802
 30
0.0
 11
720.5
 21
74.1102362205
 31
0.0
  0
POLYLINE
  5
2A5
  8
VIDITELNE
  6
SLD-PLNÁ
 62
     2
 66
     1
 10
0.0
 20
0.0
 30
0.0
  0
VERTEX
  5
76C
  8
VIDITELNE
  6
SLD-PLNÁ
 62
     2
 10
724.5
 20
-44.0
 30
0.0
  0
VERTEX
  5
76D
  8
VIDITELNE
  6
SLD-PLNÁ
 62
     2
 10
724.4874524422
 20
-43.9304114354
 30
0.0
  0
VERTEX
  5
76E
  8
VIDITELNE
  6
SLD-PLNÁ
 62
     2
 10
722.4611180013
 20
-32.2885420161
 30
0.0
  0
VERTEX
  5
76F
  8
VIDITELNE
  6
SLD-PLNÁ
 62
     2
 10
721.5847774843
 20
-26.4280447676
 30
0.0
  0
VERTEX
  5
770
  8
VIDITELNE
  6
SLD-PLNÁ
 62
     2
 10
720.902013523
 20
-20.5630481992
 30
0.0
  0
VERTEX
  5
771
  8
VIDITELNE
  6
SLD-PLNÁ
 62
     2
 10
720.5
 20
-12.8752198802
 30
0.0
  0
SEQEND
  5
772
  8
VIDITELNE
  6
SLD-PLNÁ
 62
     2
  0
LINE
  5
2A6
  8
VIDITELNE
  6
SLD-PLNÁ
 62
     2
 10
724.5
 20
-44.0
 30
0.0
 11
830.5
 21
-44.0
 31
0.0
  0
LINE
  5
2A7
  8
VIDITELNE
  6
SLD-PLNÁ
 62
     2
 10
719.5
 20
-44.0
 30
0.0
 11
719.5
 21
81.0
 31
0.0
  0
LINE
  5
2A8
  8
VIDITELNE
  6
SLD-PLNÁ
 62
     2
 10
719.5
 20
-169.0
 30
0.0
 11
719.5
 21
-44.0
 31
0.0
  0
LINE
  5
2A9
  8
VIDITELNE
  6
SLD-PLNÁ
 62
     2
 10
835.5
 20
-44.0
 30
0.0
 11
835.5
 21
81.0
 31
0.0
  0
LINE
  5
2AA
  8
VIDITELNE
  6
SLD-PLNÁ
 62
     2
 10
835.5
 20
-169.0
 30
0.0
 11
835.5
 21
-44.0
 31
0.0
  0
LINE
  5
2AB
  8
VIDITELNE
  6
SLD-PLNÁ
 62
     2
 10
724.5
 20
55.0238230366
 30
0.0
 11
724.5
 21
-44.0
 31
0.0
  0
LINE
  5
2AC
  8
VIDITELNE
  6
SLD-PLNÁ
 62
     2
 10
722.5
 20
-12.3772233983
 30
0.0
 11
722.5
 21
76.0
 31
0.0
  0
ARC
  5
2AD
  8
VIDITELNE
  6
SLD-PLNÁ
 62
     2
 10
1183.8888040701
 20
0.9289329029
 30
0.0
 40
461.5806346856006
 50
181.651915554
 51
185.585850906
  0
ARC
  5
2AE
  8
VIDITELNE
  6
SLD-PLNÁ
 62
     2
 10
720.968999938
 20
-10.4936762046
 30
0.0
 40
2.427284742431955
 50
258.8592408081
 51
309.1051800945
  0
ARC
  5
2AF
  8
VIDITELNE
  6
SLD-PLNÁ
 62
     2
 10
720.5535991072
 20
76.0567257218
 30
0.0
 40
1.947227321863214
 50
268.4226851541
 51
358.3306497957
  0
ARC
  5
2B0
  8
VIDITELNE
  6
SLD-PLNÁ
 62
     2
 10
834.4464008928
 20
76.0567257218
 30
0.0
 40
1.947227321863604
 50
181.6693502043
 51
271.5773148459
  0
LINE
  5
2B1
  8
VIDITELNE
  6
SLD-PLNÁ
 62
     2
 10
691.5
 20
-44.0
 30
0.0
 11
691.5
 21
-13.5
 31
0.0
  0
LINE
  5
2B2
  8
VIDITELNE
  6
SLD-PLNÁ
 62
     2
 10
691.5
 20
-74.5
 30
0.0
 11
691.5
 21
-44.0
 31
0.0
  0
LINE
  5
2B3
  8
VIDITELNE
  6
SLD-PLNÁ
 62
     2
 10
762.5
 20
-172.0
 30
0.0
 11
792.5
 21
-172.0
 31
0.0
  0
LINE
  5
2B4
  8
VIDITELNE
  6
SLD-PLNÁ
 62
     2
 10
777.5
 20
-176.0
 30
0.0
 11
768.0
 21
-176.0
 31
0.0
  0
LINE
  5
2B5
  8
VIDITELNE
  6
SLD-PLNÁ
 62
     2
 10
787.0
 20
-176.0
 30
0.0
 11
777.5
 21
-176.0
 31
0.0
  0
LINE
  5
2B6
  8
VIDITELNE
  6
SLD-PLNÁ
 62
     2
 10
907.5
 20
-166.9999999995
 30
0.0
 11
907.5
 21
79.0
 31
0.0
  0
POLYLINE
  5
2B7
  8
VIDITELNE
  6
SLD-PLNÁ
 62
     2
 66
     1
 10
0.0
 20
0.0
 30
0.0
  0
VERTEX
  5
773
  8
VIDITELNE
  6
SLD-PLNÁ
 62
     2
 10
844.5697989934
 20
42.497842933
 30
0.0
  0
VERTEX
  5
774
  8
VIDITELNE
  6
SLD-PLNÁ
 62
     2
 10
844.5892079691
 20
43.5924544046
 30
0.0
  0
VERTEX
  5
775
  8
VIDITELNE
  6
SLD-PLNÁ
 62
     2
 10
844.5697989934
 20
45.8000133199
 30
0.0
  0
SEQEND
  5
776
  8
VIDITELNE
  6
SLD-PLNÁ
 62
     2
  0
LINE
  5
2B8
  8
VIDITELNE
  6
SLD-PLNÁ
 62
     2
 10
844.5697989934
 20
-41.6650129268
 30
0.0
 11
844.5697989934
 21
42.497842933
 31
0.0
  0
POLYLINE
  5
2B9
  8
VIDITELNE
  6
SLD-PLNÁ
 62
     2
 66
     1
 10
0.0
 20
0.0
 30
0.0
  0
VERTEX
  5
777
  8
VIDITELNE
  6
SLD-PLNÁ
 62
     2
 10
844.5697989934
 20
-46.3349870732
 30
0.0
  0
VERTEX
  5
778
  8
VIDITELNE
  6
SLD-PLNÁ
 62
     2
 10
844.5892079691
 20
-44.8055585499
 30
0.0
  0
VERTEX
  5
779
  8
VIDITELNE
  6
SLD-PLNÁ
 62
     2
 10
844.5697989934
 20
-41.6650129268
 30
0.0
  0
SEQEND
  5
77A
  8
VIDITELNE
  6
SLD-PLNÁ
 62
     2
  0
LINE
  5
2BA
  8
VIDITELNE
  6
SLD-PLNÁ
 62
     2
 10
844.5697989934
 20
-130.497842933
 30
0.0
 11
844.5697989934
 21
-46.3349870732
 31
0.0
  0
POLYLINE
  5
2BB
  8
VIDITELNE
  6
SLD-PLNÁ
 62
     2
 66
     1
 10
0.0
 20
0.0
 30
0.0
  0
VERTEX
  5
77B
  8
VIDITELNE
  6
SLD-PLNÁ
 62
     2
 10
844.5697989934
 20
-133.8000133199
 30
0.0
  0
VERTEX
  5
77C
  8
VIDITELNE
  6
SLD-PLNÁ
 62
     2
 10
844.5892079691
 20
-132.7316862311
 30
0.0
  0
VERTEX
  5
77D
  8
VIDITELNE
  6
SLD-PLNÁ
 62
     2
 10
844.5697989934
 20
-130.497842933
 30
0.0
  0
SEQEND
  5
77E
  8
VIDITELNE
  6
SLD-PLNÁ
 62
     2
  0
LINE
  5
2BC
  8
VIDITELNE
  6
SLD-PLNÁ
 62
     2
 10
844.5697989934
 20
-168.6614096651
 30
0.0
 11
844.5697989934
 21
-133.8000133199
 31
0.0
  0
LINE
  5
2BD
  8
VIDITELNE
  6
SLD-PLNÁ
 62
     2
 10
844.5697989934
 20
45.8000133199
 30
0.0
 11
844.5697989934
 21
80.6614096651
 31
0.0
  0
LINE
  5
2BE
  8
VIDITELNE
  6
SLD-PLNÁ
 62
     2
 10
835.5
 20
-169.0
 30
0.0
 11
835.5
 21
81.0
 31
0.0
  0
LINE
  5
2BF
  8
VIDITELNE
  6
SLD-PLNÁ
 62
     2
 10
922.5
 20
-169.0
 30
0.0
 11
922.5
 21
81.0
 31
0.0
  0
ARC
  5
2C0
  8
VIDITELNE
  6
SLD-PLNÁ
 62
     2
 10
845.0411458116
 20
-67.1444825835
 30
0.0
 40
25.48382902570032
 50
86.7182361343
 51
91.0597984854
  0
LINE
  5
2C1
  8
VIDITELNE
  6
SLD-PLNÁ
 62
     2
 10
846.5
 20
-41.7024448061
 30
0.0
 11
846.5
 21
-46.2975551939
 31
0.0
  0
ARC
  5
2C2
  8
VIDITELNE
  6
SLD-PLNÁ
 62
     2
 10
845.0411458116
 20
-20.8555174165
 30
0.0
 40
25.48382902572177
 50
268.9402015146
 51
273.2817638657
  0
ARC
  5
2C3
  8
VIDITELNE
  6
SLD-PLNÁ
 62
     2
 10
844.7808038361
 20
40.7548217291
 30
0.0
 40
1.755746553724377
 50
11.7114058078
 51
96.9024654221
  0
LINE
  5
2C4
  8
VIDITELNE
  6
SLD-PLNÁ
 62
     2
 10
846.5
 20
41.1112070696
 30
0.0
 11
846.5
 21
-41.7024448061
 31
0.0
  0
LINE
  5
2C5
  8
VIDITELNE
  6
SLD-PLNÁ
 62
     2
 10
846.5
 20
-46.2975551939
 30
0.0
 11
846.5
 21
-129.1112070696
 31
0.0
  0
ARC
  5
2C6
  8
VIDITELNE
  6
SLD-PLNÁ
 62
     2
 10
844.7808038361
 20
-128.7548217291
 30
0.0
 40
1.755746553723761
 50
263.0975345779
 51
348.2885941922
  0
LINE
  5
2C7
  8
VIDITELNE
  6
SLD-PLNÁ
 62
     2
 10
856.5
 20
-37.0
 30
0.0
 11
856.5
 21
-51.0
 31
0.0
  0
LINE
  5
2C8
  8
VIDITELNE
  6
SLD-PLNÁ
 62
     2
 10
846.5
 20
-129.1112070696
 30
0.0
 11
846.5
 21
-132.3604407852
 31
0.0
  0
ARC
  5
2C9
  8
VIDITELNE
  6
SLD-PLNÁ
 62
     2
 10
844.7605318293
 20
-132.0419429682
 30
0.0
 40
1.768386376468834
 50
263.8082047469
 51
349.6240389161
  0
ARC
  5
2CA
  8
VIDITELNE
  6
SLD-PLNÁ
 62
     2
 10
844.7605318293
 20
44.0419429682
 30
0.0
 40
1.768386376467867
 50
10.3759610839
 51
96.1917952532
  0
LINE
  5
2CB
  8
VIDITELNE
  6
SLD-PLNÁ
 62
     2
 10
846.5
 20
44.3604407852
 30
0.0
 11
846.5
 21
41.1112070696
 31
0.0
  0
LINE
  5
2CC
  8
VIDITELNE
  6
SLD-PLNÁ
 62
     2
 10
856.5
 20
-118.3172798365
 30
0.0
 11
856.5
 21
-132.3172798365
 31
0.0
  0
LINE
  5
2CD
  8
VIDITELNE
  6
SLD-PLNÁ
 62
     2
 10
856.5
 20
44.3172798365
 30
0.0
 11
856.5
 21
30.3172798365
 31
0.0
  0
ARC
  5
2CE
  8
VIDITELNE
  6
SLD-PLNÁ
 62
     2
 10
844.5001898538
 20
-166.6628113521
 30
0.0
 40
1.999810153231822
 50
271.9947472089
 51
359.9952099163
  0
LINE
  5
2CF
  8
VIDITELNE
  6
SLD-PLNÁ
 62
     2
 10
846.5
 20
-132.3604407852
 30
0.0
 11
846.5
 21
-166.6629785417
 31
0.0
  0
ARC
  5
2D0
  8
VIDITELNE
  6
SLD-PLNÁ
 62
     2
 10
844.5001898538
 20
78.6628113521
 30
0.0
 40
1.999810153232798
 50
0.0047900837
 51
88.005252791
  0
LINE
  5
2D1
  8
VIDITELNE
  6
SLD-PLNÁ
 62
     2
 10
846.5
 20
78.6629785417
 30
0.0
 11
846.5
 21
44.3604407852
 31
0.0
  0
LINE
  5
2D2
  8
VIDITELNE
  6
SLD-PLNÁ
 62
     2
 10
846.5
 20
-166.6629785417
 30
0.0
 11
846.5
 21
-167.0
 31
0.0
  0
LINE
  5
2D3
  8
VIDITELNE
  6
SLD-PLNÁ
 62
     2
 10
856.5
 20
-152.0
 30
0.0
 11
856.5
 21
-166.0
 31
0.0
  0
LINE
  5
2D4
  8
VIDITELNE
  6
SLD-PLNÁ
 62
     2
 10
856.5
 20
78.0
 30
0.0
 11
856.5
 21
64.0
 31
0.0
  0
LINE
  5
2D5
  8
VIDITELNE
  6
SLD-PLNÁ
 62
     2
 10
846.5
 20
78.9972117819
 30
0.0
 11
846.5
 21
78.6629785417
 31
0.0
  0
LINE
  5
2D6
  8
VIDITELNE
  6
SLD-PLNÁ
 62
     2
 10
708.5
 20
-44.0
 30
0.0
 11
708.5
 21
80.6158715356
 31
0.0
  0
LINE
  5
2D7
  8
VIDITELNE
  6
SLD-PLNÁ
 62
     2
 10
708.5
 20
-168.6158715356
 30
0.0
 11
708.5
 21
-44.0
 31
0.0
  0
LINE
  5
2D8
  8
VIDITELNE
  6
SLD-PLNÁ
 62
     2
 10
698.5
 20
-44.0
 30
0.0
 11
698.5
 21
-37.0
 31
0.0
  0
LINE
  5
2D9
  8
VIDITELNE
  6
SLD-PLNÁ
 62
     2
 10
698.5
 20
-51.0
 30
0.0
 11
698.5
 21
-44.0
 31
0.0
  0
LINE
  5
2DA
  8
VIDITELNE
  6
SLD-PLNÁ
 62
     2
 10
697.0
 20
-84.0182039358
 30
0.0
 11
708.5
 21
-94.3577961355
 31
0.0
  0
LINE
  5
2DB
  8
VIDITELNE
  6
SLD-PLNÁ
 62
     2
 10
697.0
 20
-84.0182039358
 30
0.0
 11
697.0
 21
-76.6271676757
 31
0.0
  0
LINE
  5
2DC
  8
VIDITELNE
  6
SLD-PLNÁ
 62
     2
 10
708.5
 20
-86.9667598754
 30
0.0
 11
697.0
 21
-76.6271676757
 31
0.0
  0
LINE
  5
2DD
  8
VIDITELNE
  6
SLD-PLNÁ
 62
     2
 10
697.0
 20
-76.6271676757
 30
0.0
 11
708.5
 21
-79.1701128387
 31
0.0
  0
LINE
  5
2DE
  8
VIDITELNE
  6
SLD-PLNÁ
 62
     2
 10
697.0
 20
-11.3728323243
 30
0.0
 11
708.5
 21
-1.0332401246
 31
0.0
  0
LINE
  5
2DF
  8
VIDITELNE
  6
SLD-PLNÁ
 62
     2
 10
708.5
 20
-8.8298871613
 30
0.0
 11
697.0
 21
-11.3728323243
 31
0.0
  0
LINE
  5
2E0
  8
VIDITELNE
  6
SLD-PLNÁ
 62
     2
 10
708.5
 20
6.3577961355
 30
0.0
 11
697.0
 21
-3.9817960642
 31
0.0
  0
LINE
  5
2E1
  8
VIDITELNE
  6
SLD-PLNÁ
 62
     2
 10
697.0
 20
-11.3728323243
 30
0.0
 11
697.0
 21
-3.9817960642
 31
0.0
  0
LINE
  5
2E2
  8
VIDITELNE
  6
SLD-PLNÁ
 62
     2
 10
697.0
 20
-76.6271676757
 30
0.0
 11
697.0
 21
-11.3728323243
 31
0.0
  0
LINE
  5
2E3
  8
VIDITELNE
  6
SLD-PLNÁ
 62
     2
 10
697.0
 20
-130.1599869647
 30
0.0
 11
698.5
 21
-130.9607538387
 31
0.0
  0
LINE
  5
2E4
  8
VIDITELNE
  6
SLD-PLNÁ
 62
     2
 10
702.9142547741
 20
-133.3172798365
 30
0.0
 11
708.5
 21
-136.2991996655
 31
0.0
  0
LINE
  5
2E5
  8
VIDITELNE
  6
SLD-PLNÁ
 62
     2
 10
697.0
 20
-130.1599869647
 30
0.0
 11
697.0
 21
-84.0182039358
 31
0.0
  0
LINE
  5
2E6
  8
VIDITELNE
  6
SLD-PLNÁ
 62
     2
 10
708.5
 20
48.2991996655
 30
0.0
 11
702.9142547741
 21
45.3172798365
 31
0.0
  0
LINE
  5
2E7
  8
VIDITELNE
  6
SLD-PLNÁ
 62
     2
 10
698.5
 20
42.9607538387
 30
0.0
 11
697.0
 21
42.1599869647
 31
0.0
  0
LINE
  5
2E8
  8
VIDITELNE
  6
SLD-PLNÁ
 62
     2
 10
697.0
 20
-3.9817960642
 30
0.0
 11
697.0
 21
42.1599869647
 31
0.0
  0
LINE
  5
2E9
  8
VIDITELNE
  6
SLD-PLNÁ
 62
     2
 10
698.5
 20
37.3172798365
 30
0.0
 11
698.5
 21
44.3172798365
 31
0.0
  0
LINE
  5
2EA
  8
VIDITELNE
  6
SLD-PLNÁ
 62
     2
 10
698.5
 20
30.3172798365
 30
0.0
 11
698.5
 21
37.3172798365
 31
0.0
  0
LINE
  5
2EB
  8
VIDITELNE
  6
SLD-PLNÁ
 62
     2
 10
698.5
 20
-125.3172798365
 30
0.0
 11
698.5
 21
-118.3172798365
 31
0.0
  0
LINE
  5
2EC
  8
VIDITELNE
  6
SLD-PLNÁ
 62
     2
 10
698.5
 20
-132.3172798365
 30
0.0
 11
698.5
 21
-125.3172798365
 31
0.0
  0
LINE
  5
2ED
  8
VIDITELNE
  6
SLD-PLNÁ
 62
     2
 10
693.5
 20
-44.0
 30
0.0
 11
693.5
 21
21.0
 31
0.0
  0
LINE
  5
2EE
  8
VIDITELNE
  6
SLD-PLNÁ
 62
     2
 10
693.5
 20
-109.0
 30
0.0
 11
693.5
 21
-44.0
 31
0.0
  0
LINE
  5
2EF
  8
VIDITELNE
  6
SLD-PLNÁ
 62
     2
 10
697.0
 20
42.1599869647
 30
0.0
 11
708.5
 21
67.1219706826
 31
0.0
  0
LINE
  5
2F0
  8
VIDITELNE
  6
SLD-PLNÁ
 62
     2
 10
708.5
 20
70.1834381415
 30
0.0
 11
697.0
 21
45.2214544236
 31
0.0
  0
LINE
  5
2F1
  8
VIDITELNE
  6
SLD-PLNÁ
 62
     2
 10
697.0
 20
42.1599869647
 30
0.0
 11
697.0
 21
45.2214544236
 31
0.0
  0
LINE
  5
2F2
  8
VIDITELNE
  6
SLD-PLNÁ
 62
     2
 10
697.0
 20
-133.2214544236
 30
0.0
 11
708.5
 21
-158.1834381415
 31
0.0
  0
LINE
  5
2F3
  8
VIDITELNE
  6
SLD-PLNÁ
 62
     2
 10
708.5
 20
-155.1219706826
 30
0.0
 11
697.0
 21
-130.1599869647
 31
0.0
  0
LINE
  5
2F4
  8
VIDITELNE
  6
SLD-PLNÁ
 62
     2
 10
697.0
 20
-133.2214544236
 30
0.0
 11
697.0
 21
-130.1599869647
 31
0.0
  0
LINE
  5
2F5
  8
VIDITELNE
  6
SLD-PLNÁ
 62
     2
 10
697.0
 20
45.2214544236
 30
0.0
 11
697.0
 21
51.0
 31
0.0
  0
LINE
  5
2F6
  8
VIDITELNE
  6
SLD-PLNÁ
 62
     2
 10
697.0
 20
-139.0
 30
0.0
 11
697.0
 21
-133.2214544236
 31
0.0
  0
LINE
  5
2F7
  8
VIDITELNE
  6
SLD-PLNÁ
 62
     2
 10
698.5
 20
-159.0
 30
0.0
 11
698.5
 21
-152.0
 31
0.0
  0
LINE
  5
2F8
  8
VIDITELNE
  6
SLD-PLNÁ
 62
     2
 10
698.5
 20
-166.0
 30
0.0
 11
698.5
 21
-159.0
 31
0.0
  0
LINE
  5
2F9
  8
VIDITELNE
  6
SLD-PLNÁ
 62
     2
 10
698.5
 20
71.0
 30
0.0
 11
698.5
 21
78.0
 31
0.0
  0
LINE
  5
2FA
  8
VIDITELNE
  6
SLD-PLNÁ
 62
     2
 10
698.5
 20
64.0
 30
0.0
 11
698.5
 21
71.0
 31
0.0
  0
CIRCLE
  5
2FB
  8
VIDITELNE
  6
SLD-PLNÁ
 62
     2
 10
835.8363094479
 20
134.3363094479
 30
0.0
 40
5.499999999999886
  0
CIRCLE
  5
2FC
  8
VIDITELNE
  6
SLD-PLNÁ
 62
     2
 10
719.1636905521
 20
134.3363094479
 30
0.0
 40
5.5
  0
ARC
  5
2FD
  8
VIDITELNE
  6
SLD-PLNÁ
 62
     2
 10
777.5
 20
76.0
 30
0.0
 40
100.0
 50
326.6329870308
 51
180.0
  0
ARC
  5
2FE
  8
VIDITELNE
  6
SLD-PLNÁ
 62
     2
 10
777.5
 20
76.0
 30
0.0
 40
100.0000000000001
 50
180.0
 51
213.3670129692
  0
POLYLINE
  5
2FF
  8
VIDITELNE
  6
SLD-PLNÁ
 62
     2
 66
     1
 10
0.0
 20
0.0
 30
0.0
  0
VERTEX
  5
77F
  8
VIDITELNE
  6
SLD-PLNÁ
 62
     2
 10
782.9808531507
 20
137.5099943304
 30
0.0
  0
VERTEX
  5
780
  8
VIDITELNE
  6
SLD-PLNÁ
 62
     2
 10
783.1358776883
 20
136.8074052487
 30
0.0
  0
VERTEX
  5
781
  8
VIDITELNE
  6
SLD-PLNÁ
 62
     2
 10
783.1670240867
 20
136.1914394645
 30
0.0
  0
SEQEND
  5
782
  8
VIDITELNE
  6
SLD-PLNÁ
 62
     2
  0
POLYLINE
  5
300
  8
VIDITELNE
  6
SLD-PLNÁ
 62
     2
 66
     1
 10
0.0
 20
0.0
 30
0.0
  0
VERTEX
  5
783
  8
VIDITELNE
  6
SLD-PLNÁ
 62
     2
 10
783.1670240867
 20
136.1914394645
 30
0.0
  0
VERTEX
  5
784
  8
VIDITELNE
  6
SLD-PLNÁ
 62
     2
 10
782.9253147328
 20
134.6277612272
 30
0.0
  0
VERTEX
  5
785
  8
VIDITELNE
  6
SLD-PLNÁ
 62
     2
 10
782.214613632
 20
133.2880016763
 30
0.0
  0
VERTEX
  5
786
  8
VIDITELNE
  6
SLD-PLNÁ
 62
     2
 10
781.0498608198
 20
132.2245790761
 30
0.0
  0
VERTEX
  5
787
  8
VIDITELNE
  6
SLD-PLNÁ
 62
     2
 10
779.4218947729
 20
131.4940584457
 30
0.0
  0
VERTEX
  5
788
  8
VIDITELNE
  6
SLD-PLNÁ
 62
     2
 10
777.5374859569
 20
131.2318826434
 30
0.0
  0
VERTEX
  5
789
  8
VIDITELNE
  6
SLD-PLNÁ
 62
     2
 10
775.6711223755
 20
131.4684125071
 30
0.0
  0
VERTEX
  5
78A
  8
VIDITELNE
  6
SLD-PLNÁ
 62
     2
 10
774.0106253617
 20
132.1855581707
 30
0.0
  0
VERTEX
  5
78B
  8
VIDITELNE
  6
SLD-PLNÁ
 62
     2
 10
772.7192258409
 20
133.3752672657
 30
0.0
  0
VERTEX
  5
78C
  8
VIDITELNE
  6
SLD-PLNÁ
 62
     2
 10
771.9849058526
 20
134.9383145514
 30
0.0
  0
VERTEX
  5
78D
  8
VIDITELNE
  6
SLD-PLNÁ
 62
     2
 10
771.8329731302
 20
136.1914394645
 30
0.0
  0
SEQEND
  5
78E
  8
VIDITELNE
  6
SLD-PLNÁ
 62
     2
  0
LINE
  5
301
  8
VIDITELNE
  6
SLD-PLNÁ
 62
     2
 10
771.8329731302
 20
136.1914394645
 30
0.0
 11
771.9104208147
 21
137.1029551978
 31
0.0
  0
ARC
  5
302
  8
VIDITELNE
  6
SLD-PLNÁ
 62
     2
 10
777.5
 20
168.0
 30
0.0
 40
3.999999999999886
 50
47.6728187411
 51
90.0
  0
ARC
  5
303
  8
VIDITELNE
  6
SLD-PLNÁ
 62
     2
 10
777.5
 20
168.0
 30
0.0
 40
3.999999999999921
 50
90.0
 51
130.3773706636
  0
LINE
  5
304
  8
VIDITELNE
  6
SLD-PLNÁ
 62
     2
 10
731.7968060221
 20
96.6132486541
 30
0.0
 11
736.7968060221
 21
93.7264973081
 31
0.0
  0
LINE
  5
305
  8
VIDITELNE
  6
SLD-PLNÁ
 62
     2
 10
731.7968060221
 20
102.3867513459
 30
0.0
 11
731.7968060221
 21
96.6132486541
 31
0.0
  0
LINE
  5
306
  8
VIDITELNE
  6
SLD-PLNÁ
 62
     2
 10
736.7968060221
 20
105.2735026919
 30
0.0
 11
731.7968060221
 21
102.3867513459
 31
0.0
  0
LINE
  5
307
  8
VIDITELNE
  6
SLD-PLNÁ
 62
     2
 10
741.7968060221
 20
102.3867513459
 30
0.0
 11
736.7968060221
 21
105.2735026919
 31
0.0
  0
LINE
  5
308
  8
VIDITELNE
  6
SLD-PLNÁ
 62
     2
 10
741.7968060221
 20
96.6132486541
 30
0.0
 11
741.7968060221
 21
102.3867513459
 31
0.0
  0
LINE
  5
309
  8
VIDITELNE
  6
SLD-PLNÁ
 62
     2
 10
736.7968060221
 20
93.7264973081
 30
0.0
 11
741.7968060221
 21
96.6132486541
 31
0.0
  0
LINE
  5
30A
  8
VIDITELNE
  6
SLD-PLNÁ
 62
     2
 10
823.2031939779
 20
102.3867513459
 30
0.0
 11
818.2031939779
 21
105.2735026919
 31
0.0
  0
LINE
  5
30B
  8
VIDITELNE
  6
SLD-PLNÁ
 62
     2
 10
823.2031939779
 20
96.6132486541
 30
0.0
 11
823.2031939779
 21
102.3867513459
 31
0.0
  0
LINE
  5
30C
  8
VIDITELNE
  6
SLD-PLNÁ
 62
     2
 10
818.2031939779
 20
93.7264973081
 30
0.0
 11
823.2031939779
 21
96.6132486541
 31
0.0
  0
LINE
  5
30D
  8
VIDITELNE
  6
SLD-PLNÁ
 62
     2
 10
813.2031939779
 20
96.6132486541
 30
0.0
 11
818.2031939779
 21
93.7264973081
 31
0.0
  0
LINE
  5
30E
  8
VIDITELNE
  6
SLD-PLNÁ
 62
     2
 10
813.2031939779
 20
102.3867513459
 30
0.0
 11
813.2031939779
 21
96.6132486541
 31
0.0
  0
LINE
  5
30F
  8
VIDITELNE
  6
SLD-PLNÁ
 62
     2
 10
818.2031939779
 20
105.2735026919
 30
0.0
 11
813.2031939779
 21
102.3867513459
 31
0.0
  0
LINE
  5
310
  8
VIDITELNE
  6
SLD-PLNÁ
 62
     2
 10
823.2031939779
 20
55.3867513459
 30
0.0
 11
818.2031939779
 21
58.2735026919
 31
0.0
  0
LINE
  5
311
  8
VIDITELNE
  6
SLD-PLNÁ
 62
     2
 10
823.2031939779
 20
49.6132486541
 30
0.0
 11
823.2031939779
 21
55.3867513459
 31
0.0
  0
LINE
  5
312
  8
VIDITELNE
  6
SLD-PLNÁ
 62
     2
 10
818.2031939779
 20
46.7264973081
 30
0.0
 11
823.2031939779
 21
49.6132486541
 31
0.0
  0
LINE
  5
313
  8
VIDITELNE
  6
SLD-PLNÁ
 62
     2
 10
813.2031939779
 20
49.6132486541
 30
0.0
 11
818.2031939779
 21
46.7264973081
 31
0.0
  0
LINE
  5
314
  8
VIDITELNE
  6
SLD-PLNÁ
 62
     2
 10
813.2031939779
 20
55.3867513459
 30
0.0
 11
813.2031939779
 21
49.6132486541
 31
0.0
  0
LINE
  5
315
  8
VIDITELNE
  6
SLD-PLNÁ
 62
     2
 10
818.2031939779
 20
58.2735026919
 30
0.0
 11
813.2031939779
 21
55.3867513459
 31
0.0
  0
LINE
  5
316
  8
VIDITELNE
  6
SLD-PLNÁ
 62
     2
 10
736.7968060221
 20
46.7264973081
 30
0.0
 11
741.7968060221
 21
49.6132486541
 31
0.0
  0
LINE
  5
317
  8
VIDITELNE
  6
SLD-PLNÁ
 62
     2
 10
731.7968060221
 20
49.6132486541
 30
0.0
 11
736.7968060221
 21
46.7264973081
 31
0.0
  0
LINE
  5
318
  8
VIDITELNE
  6
SLD-PLNÁ
 62
     2
 10
731.7968060221
 20
55.3867513459
 30
0.0
 11
731.7968060221
 21
49.6132486541
 31
0.0
  0
LINE
  5
319
  8
VIDITELNE
  6
SLD-PLNÁ
 62
     2
 10
736.7968060221
 20
58.2735026919
 30
0.0
 11
731.7968060221
 21
55.3867513459
 31
0.0
  0
LINE
  5
31A
  8
VIDITELNE
  6
SLD-PLNÁ
 62
     2
 10
741.7968060221
 20
55.3867513459
 30
0.0
 11
736.7968060221
 21
58.2735026919
 31
0.0
  0
LINE
  5
31B
  8
VIDITELNE
  6
SLD-PLNÁ
 62
     2
 10
741.7968060221
 20
49.6132486541
 30
0.0
 11
741.7968060221
 21
55.3867513459
 31
0.0
  0
LINE
  5
31C
  8
VIDITELNE
  6
SLD-PLNÁ
 62
     2
 10
782.5
 20
26.1132486541
 30
0.0
 11
782.5
 21
31.8867513459
 31
0.0
  0
LINE
  5
31D
  8
VIDITELNE
  6
SLD-PLNÁ
 62
     2
 10
777.5
 20
23.2264973081
 30
0.0
 11
782.5
 21
26.1132486541
 31
0.0
  0
LINE
  5
31E
  8
VIDITELNE
  6
SLD-PLNÁ
 62
     2
 10
772.5
 20
26.1132486541
 30
0.0
 11
777.5
 21
23.2264973081
 31
0.0
  0
LINE
  5
31F
  8
VIDITELNE
  6
SLD-PLNÁ
 62
     2
 10
772.5
 20
31.8867513459
 30
0.0
 11
772.5
 21
26.1132486541
 31
0.0
  0
LINE
  5
320
  8
VIDITELNE
  6
SLD-PLNÁ
 62
     2
 10
777.5
 20
34.7735026919
 30
0.0
 11
772.5
 21
31.8867513459
 31
0.0
  0
LINE
  5
321
  8
VIDITELNE
  6
SLD-PLNÁ
 62
     2
 10
782.5
 20
31.8867513459
 30
0.0
 11
777.5
 21
34.7735026919
 31
0.0
  0
LINE
  5
322
  8
VIDITELNE
  6
SLD-PLNÁ
 62
     2
 10
777.5
 20
128.7735026919
 30
0.0
 11
772.5
 21
125.8867513459
 31
0.0
  0
LINE
  5
323
  8
VIDITELNE
  6
SLD-PLNÁ
 62
     2
 10
782.5
 20
125.8867513459
 30
0.0
 11
777.5
 21
128.7735026919
 31
0.0
  0
LINE
  5
324
  8
VIDITELNE
  6
SLD-PLNÁ
 62
     2
 10
782.5
 20
120.1132486541
 30
0.0
 11
782.5
 21
125.8867513459
 31
0.0
  0
LINE
  5
325
  8
VIDITELNE
  6
SLD-PLNÁ
 62
     2
 10
772.5
 20
120.1132486541
 30
0.0
 11
777.5
 21
117.2264973081
 31
0.0
  0
LINE
  5
326
  8
VIDITELNE
  6
SLD-PLNÁ
 62
     2
 10
777.5
 20
117.2264973081
 30
0.0
 11
782.5
 21
120.1132486541
 31
0.0
  0
LINE
  5
327
  8
VIDITELNE
  6
SLD-PLNÁ
 62
     2
 10
772.5
 20
125.8867513459
 30
0.0
 11
772.5
 21
120.1132486541
 31
0.0
  0
ARC
  5
328
  8
VIDITELNE
  6
SLD-PLNÁ
 62
     2
 10
777.5
 20
76.0
 30
0.0
 40
52.28925629445187
 50
90.9322222308
 51
149.0677777692
  0
ARC
  5
329
  8
VIDITELNE
  6
SLD-PLNÁ
 62
     2
 10
777.5
 20
76.0
 30
0.0
 40
52.28925629445191
 50
150.9322222308
 51
209.0677777692
  0
ARC
  5
32A
  8
VIDITELNE
  6
SLD-PLNÁ
 62
     2
 10
777.5
 20
76.0
 30
0.0
 40
52.28925629445197
 50
210.9322222308
 51
269.0677777692
  0
ARC
  5
32B
  8
VIDITELNE
  6
SLD-PLNÁ
 62
     2
 10
777.5
 20
76.0
 30
0.0
 40
52.28925629445183
 50
270.9322222308
 51
329.0677777692
  0
ARC
  5
32C
  8
VIDITELNE
  6
SLD-PLNÁ
 62
     2
 10
777.5
 20
76.0
 30
0.0
 40
52.2892562944518
 50
330.9322222308
 51
29.0677777692
  0
ARC
  5
32D
  8
VIDITELNE
  6
SLD-PLNÁ
 62
     2
 10
777.5
 20
76.0
 30
0.0
 40
52.28925629445186
 50
30.9322222308
 51
89.0677777692
  0
CIRCLE
  5
32E
  8
VIDITELNE
  6
SLD-PLNÁ
 62
     2
 10
777.5
 20
76.0
 30
0.0
 40
54.28803794849
  0
CIRCLE
  5
32F
  8
VIDITELNE
  6
SLD-PLNÁ
 62
     2
 10
777.5
 20
76.0
 30
0.0
 40
54.5
  0
POLYLINE
  5
330
  8
VIDITELNE
  6
SLD-PLNÁ
 62
     2
 66
     1
 10
0.0
 20
0.0
 30
0.0
  0
VERTEX
  5
78F
  8
VIDITELNE
  6
SLD-PLNÁ
 62
     2
 10
834.0703371369
 20
80.9852771489
 30
0.0
  0
VERTEX
  5
790
  8
VIDITELNE
  6
SLD-PLNÁ
 62
     2
 10
834.0686062799
 20
80.999492638
 30
0.0
  0
VERTEX
  5
791
  8
VIDITELNE
  6
SLD-PLNÁ
 62
     2
 10
834.1223021314
 20
80.5580183057
 30
0.0
  0
VERTEX
  5
792
  8
VIDITELNE
  6
SLD-PLNÁ
 62
     2
 10
834.2571835531
 20
79.2831442559
 30
0.0
  0
VERTEX
  5
793
  8
VIDITELNE
  6
SLD-PLNÁ
 62
     2
 10
834.4173060719
 20
77.131147399
 30
0.0
  0
VERTEX
  5
794
  8
VIDITELNE
  6
SLD-PLNÁ
 62
     2
 10
834.5
 20
74.1102362205
 30
0.0
  0
SEQEND
  5
795
  8
VIDITELNE
  6
SLD-PLNÁ
 62
     2
  0
ARC
  5
331
  8
VIDITELNE
  6
SLD-PLNÁ
 62
     2
 10
775.6826552803
 20
74.1124851248
 30
0.0
 40
55.18265532616913
 50
172.8454477425
 51
180.0023350222
  0
POLYLINE
  5
332
  8
VIDITELNE
  6
SLD-PLNÁ
 62
     2
 66
     1
 10
0.0
 20
0.0
 30
0.0
  0
VERTEX
  5
796
  8
VIDITELNE
  6
SLD-PLNÁ
 62
     2
 10
760.5488465579
 20
-168.9935804382
 30
0.0
  0
VERTEX
  5
797
  8
VIDITELNE
  6
SLD-PLNÁ
 62
     2
 10
760.5209368963
 20
-168.9972432266
 30
0.0
  0
VERTEX
  5
798
  8
VIDITELNE
  6
SLD-PLNÁ
 62
     2
 10
760.9097231563
 20
-168.9466579941
 30
0.0
  0
VERTEX
  5
799
  8
VIDITELNE
  6
SLD-PLNÁ
 62
     2
 10
761.7435669611
 20
-168.8420524753
 30
0.0
  0
VERTEX
  5
79A
  8
VIDITELNE
  6
SLD-PLNÁ
 62
     2
 10
763.0441147751
 20
-168.6895076511
 30
0.0
  0
VERTEX
  5
79B
  8
VIDITELNE
  6
SLD-PLNÁ
 62
     2
 10
764.7180442976
 20
-168.5122637472
 30
0.0
  0
VERTEX
  5
79C
  8
VIDITELNE
  6
SLD-PLNÁ
 62
     2
 10
766.7990370426
 20
-168.3220135923
 30
0.0
  0
VERTEX
  5
79D
  8
VIDITELNE
  6
SLD-PLNÁ
 62
     2
 10
769.1410426985
 20
-168.1479741574
 30
0.0
  0
VERTEX
  5
79E
  8
VIDITELNE
  6
SLD-PLNÁ
 62
     2
 10
771.7875722026
 20
-168.0025920693
 30
0.0
  0
VERTEX
  5
79F
  8
VIDITELNE
  6
SLD-PLNÁ
 62
     2
 10
775.6195923474
 20
-167.8888862326
 30
0.0
  0
VERTEX
  5
7A0
  8
VIDITELNE
  6
SLD-PLNÁ
 62
     2
 10
778.4231638833
 20
-167.8783931565
 30
0.0
  0
VERTEX
  5
7A1
  8
VIDITELNE
  6
SLD-PLNÁ
 62
     2
 10
781.2793688117
 20
-167.9309000329
 30
0.0
  0
VERTEX
  5
7A2
  8
VIDITELNE
  6
SLD-PLNÁ
 62
     2
 10
783.9487797876
 20
-168.0375666688
 30
0.0
  0
VERTEX
  5
7A3
  8
VIDITELNE
  6
SLD-PLNÁ
 62
     2
 10
786.5129370241
 20
-168.1922918258
 30
0.0
  0
VERTEX
  5
7A4
  8
VIDITELNE
  6
SLD-PLNÁ
 62
     2
 10
788.7624373119
 20
-168.3700510657
 30
0.0
  0
VERTEX
  5
7A5
  8
VIDITELNE
  6
SLD-PLNÁ
 62
     2
 10
790.7595113112
 20
-168.5606336826
 30
0.0
  0
VERTEX
  5
7A6
  8
VIDITELNE
  6
SLD-PLNÁ
 62
     2
 10
792.3383776052
 20
-168.7330269868
 30
0.0
  0
VERTEX
  5
7A7
  8
VIDITELNE
  6
SLD-PLNÁ
 62
     2
 10
793.5383098509
 20
-168.8768201693
 30
0.0
  0
VERTEX
  5
7A8
  8
VIDITELNE
  6
SLD-PLNÁ
 62
     2
 10
794.2496606398
 20
-168.9672562807
 30
0.0
  0
VERTEX
  5
7A9
  8
VIDITELNE
  6
SLD-PLNÁ
 62
     2
 10
794.4999986352
 20
-168.9999998202
 30
0.0
  0
VERTEX
  5
7AA
  8
VIDITELNE
  6
SLD-PLNÁ
 62
     2
 10
794.4994378438
 20
-168.9999264268
 30
0.0
  0
SEQEND
  5
7AB
  8
VIDITELNE
  6
SLD-PLNÁ
 62
     2
  0
POLYLINE
  5
333
  8
VIDITELNE
  6
SLD-PLNÁ
 62
     2
 66
     1
 10
0.0
 20
0.0
 30
0.0
  0
VERTEX
  5
7AC
  8
VIDITELNE
  6
SLD-PLNÁ
 62
     2
 10
792.4995356459
 20
-170.9999296042
 30
0.0
  0
VERTEX
  5
7AD
  8
VIDITELNE
  6
SLD-PLNÁ
 62
     2
 10
792.4999987957
 20
-170.9999998173
 30
0.0
  0
VERTEX
  5
7AE
  8
VIDITELNE
  6
SLD-PLNÁ
 62
     2
 10
792.2841711765
 20
-170.967285603
 30
0.0
  0
VERTEX
  5
7AF
  8
VIDITELNE
  6
SLD-PLNÁ
 62
     2
 10
791.6514498684
 20
-170.874849292
 30
0.0
  0
VERTEX
  5
7B0
  8
VIDITELNE
  6
SLD-PLNÁ
 62
     2
 10
790.6107359875
 20
-170.7310850644
 30
0.0
  0
VERTEX
  5
7B1
  8
VIDITELNE
  6
SLD-PLNÁ
 62
     2
 10
789.199568804
 20
-170.5536038215
 30
0.0
  0
VERTEX
  5
7B2
  8
VIDITELNE
  6
SLD-PLNÁ
 62
     2
 10
787.4654718481
 20
-170.3629487798
 30
0.0
  0
VERTEX
  5
7B3
  8
VIDITELNE
  6
SLD-PLNÁ
 62
     2
 10
785.4525914918
 20
-170.179368495
 30
0.0
  0
VERTEX
  5
7B4
  8
VIDITELNE
  6
SLD-PLNÁ
 62
     2
 10
783.224048176
 20
-170.0244871361
 30
0.0
  0
VERTEX
  5
7B5
  8
VIDITELNE
  6
SLD-PLNÁ
 62
     2
 10
780.8347371868
 20
-169.9137944334
 30
0.0
  0
VERTEX
  5
7B6
  8
VIDITELNE
  6
SLD-PLNÁ
 62
     2
 10
778.3498346579
 20
-169.8612050745
 30
0.0
  0
VERTEX
  5
7B7
  8
VIDITELNE
  6
SLD-PLNÁ
 62
     2
 10
775.8408167771
 20
-169.8711084123
 30
0.0
  0
VERTEX
  5
7B8
  8
VIDITELNE
  6
SLD-PLNÁ
 62
     2
 10
772.4596225317
 20
-169.9866335424
 30
0.0
  0
VERTEX
  5
7B9
  8
VIDITELNE
  6
SLD-PLNÁ
 62
     2
 10
770.1539020887
 20
-170.1324222538
 30
0.0
  0
VERTEX
  5
7BA
  8
VIDITELNE
  6
SLD-PLNÁ
 62
     2
 10
768.0579738611
 20
-170.3111658097
 30
0.0
  0
VERTEX
  5
7BB
  8
VIDITELNE
  6
SLD-PLNÁ
 62
     2
 10
766.2443868503
 20
-170.5019390623
 30
0.0
  0
VERTEX
  5
7BC
  8
VIDITELNE
  6
SLD-PLNÁ
 62
     2
 10
764.7448071545
 20
-170.6845397735
 30
0.0
  0
VERTEX
  5
7BD
  8
VIDITELNE
  6
SLD-PLNÁ
 62
     2
 10
763.6115079931
 20
-170.8373986009
 30
0.0
  0
VERTEX
  5
7BE
  8
VIDITELNE
  6
SLD-PLNÁ
 62
     2
 10
762.861520432
 20
-170.9458045221
 30
0.0
  0
VERTEX
  5
7BF
  8
VIDITELNE
  6
SLD-PLNÁ
 62
     2
 10
762.5219109877
 20
-170.9964623519
 30
0.0
  0
VERTEX
  5
7C0
  8
VIDITELNE
  6
SLD-PLNÁ
 62
     2
 10
762.5462638461
 20
-170.9928496554
 30
0.0
  0
SEQEND
  5
7C1
  8
VIDITELNE
  6
SLD-PLNÁ
 62
     2
  0
LINE
  5
334
  8
VIDITELNE
  6
SLD-PLNÁ
 62
     2
 10
777.5
 20
-175.0
 30
0.0
 11
788.0
 21
-175.0
 31
0.0
  0
LINE
  5
335
  8
VIDITELNE
  6
SLD-PLNÁ
 62
     2
 10
767.0
 20
-175.0
 30
0.0
 11
777.5
 21
-175.0
 31
0.0
  0
LINE
  5
336
  8
VIDITELNE
  6
SLD-PLNÁ
 62
     2
 10
909.5
 20
81.0
 30
0.0
 11
909.5
 21
-169.0
 31
0.0
  0
LINE
  5
337
  8
VIDITELNE
  6
SLD-PLNÁ
 62
     2
 10
844.5842297993
 20
-168.6752284785
 30
0.0
 11
844.5697989934
 21
-168.6614096651
 31
0.0
  0
LINE
  5
338
  8
VIDITELNE
  6
SLD-PLNÁ
 62
     2
 10
844.5697989934
 20
80.6614096651
 30
0.0
 11
844.5892079691
 21
80.6799955304
 31
0.0
  0
LINE
  5
339
  8
VIDITELNE
  6
SLD-PLNÁ
 62
     2
 10
855.5
 20
-52.0
 30
0.0
 11
855.5
 21
-36.0
 31
0.0
  0
LINE
  5
33A
  8
VIDITELNE
  6
SLD-PLNÁ
 62
     2
 10
906.6471528727
 20
-132.9100938499
 30
0.0
 11
906.6471528727
 21
44.9100938499
 31
0.0
  0
LINE
  5
33B
  8
VIDITELNE
  6
SLD-PLNÁ
 62
     2
 10
855.5
 20
-133.3172798365
 30
0.0
 11
855.5
 21
-117.3172798365
 31
0.0
  0
LINE
  5
33C
  8
VIDITELNE
  6
SLD-PLNÁ
 62
     2
 10
855.5
 20
29.3172798365
 30
0.0
 11
855.5
 21
45.3172798365
 31
0.0
  0
LINE
  5
33D
  8
VIDITELNE
  6
SLD-PLNÁ
 62
     2
 10
873.7913882374
 20
-109.9042397786
 30
0.0
 11
873.7913882374
 21
21.9042397786
 31
0.0
  0
LINE
  5
33E
  8
VIDITELNE
  6
SLD-PLNÁ
 62
     2
 10
848.5
 20
21.0
 30
0.0
 11
848.5
 21
-36.0
 31
0.0
  0
LINE
  5
33F
  8
VIDITELNE
  6
SLD-PLNÁ
 62
     2
 10
848.5
 20
-52.0
 30
0.0
 11
848.5
 21
-109.0
 31
0.0
  0
LINE
  5
340
  8
VIDITELNE
  6
SLD-PLNÁ
 62
     2
 10
870.9235060556
 20
-109.0
 30
0.0
 11
870.9235060556
 21
21.0
 31
0.0
  0
LINE
  5
341
  8
VIDITELNE
  6
SLD-PLNÁ
 62
     2
 10
855.5
 20
-167.0
 30
0.0
 11
855.5
 21
-151.0
 31
0.0
  0
LINE
  5
342
  8
VIDITELNE
  6
SLD-PLNÁ
 62
     2
 10
855.5
 20
63.0
 30
0.0
 11
855.5
 21
79.0
 31
0.0
  0
LINE
  5
343
  8
VIDITELNE
  6
SLD-PLNÁ
 62
     2
 10
699.5
 20
-44.0
 30
0.0
 11
699.5
 21
-52.0
 31
0.0
  0
LINE
  5
344
  8
VIDITELNE
  6
SLD-PLNÁ
 62
     2
 10
699.5
 20
-36.0
 30
0.0
 11
699.5
 21
-44.0
 31
0.0
  0
LINE
  5
345
  8
VIDITELNE
  6
SLD-PLNÁ
 62
     2
 10
699.5
 20
37.3172798365
 30
0.0
 11
699.5
 21
29.3172798365
 31
0.0
  0
LINE
  5
346
  8
VIDITELNE
  6
SLD-PLNÁ
 62
     2
 10
699.5
 20
45.3172798365
 30
0.0
 11
699.5
 21
37.3172798365
 31
0.0
  0
LINE
  5
347
  8
VIDITELNE
  6
SLD-PLNÁ
 62
     2
 10
699.5
 20
-125.3172798365
 30
0.0
 11
699.5
 21
-133.3172798365
 31
0.0
  0
LINE
  5
348
  8
VIDITELNE
  6
SLD-PLNÁ
 62
     2
 10
699.5
 20
-117.3172798365
 30
0.0
 11
699.5
 21
-125.3172798365
 31
0.0
  0
LINE
  5
349
  8
VIDITELNE
  6
SLD-PLNÁ
 62
     2
 10
699.5
 20
-159.0
 30
0.0
 11
699.5
 21
-167.0
 31
0.0
  0
LINE
  5
34A
  8
VIDITELNE
  6
SLD-PLNÁ
 62
     2
 10
699.5
 20
-151.0
 30
0.0
 11
699.5
 21
-159.0
 31
0.0
  0
LINE
  5
34B
  8
VIDITELNE
  6
SLD-PLNÁ
 62
     2
 10
699.5
 20
71.0
 30
0.0
 11
699.5
 21
63.0
 31
0.0
  0
LINE
  5
34C
  8
VIDITELNE
  6
SLD-PLNÁ
 62
     2
 10
699.5
 20
79.0
 30
0.0
 11
699.5
 21
71.0
 31
0.0
  0
ARC
  5
34D
  8
VIDITELNE
  6
SLD-PLNÁ
 62
     2
 10
777.5
 20
76.0
 30
0.0
 40
55.24810153828143
 50
101.8125937097
 51
173.3370644293
  0
ARC
  5
34E
  8
VIDITELNE
  6
SLD-PLNÁ
 62
     2
 10
777.5
 20
76.0
 30
0.0
 40
55.24810153828135
 50
6.1630794429
 51
78.1874062903
  0
ARC
  5
34F
  8
VIDITELNE
  6
SLD-PLNÁ
 62
     2
 10
777.5
 20
76.0
 30
0.0
 40
58.24627401933868
 50
100.6369716495
 51
175.0766134817
  0
ARC
  5
350
  8
VIDITELNE
  6
SLD-PLNÁ
 62
     2
 10
777.5
 20
76.0
 30
0.0
 40
58.24627401933866
 50
4.9233865183
 51
79.3630283505
  0
ARC
  5
351
  8
VIDITELNE
  6
SLD-PLNÁ
 62
     2
 10
777.5
 20
76.0
 30
0.0
 40
97.6495732164849
 50
325.719940585
 51
180.0
  0
ARC
  5
352
  8
VIDITELNE
  6
SLD-PLNÁ
 62
     2
 10
777.5
 20
76.0
 30
0.0
 40
97.6495732164849
 50
180.0
 51
214.280059415
  0
ARC
  5
353
  8
VIDITELNE
  6
SLD-PLNÁ
 62
     2
 10
777.5
 20
76.0
 30
0.0
 40
99.64835487052312
 50
326.4997328653
 51
180.0
  0
ARC
  5
354
  8
VIDITELNE
  6
SLD-PLNÁ
 62
     2
 10
777.5
 20
76.0
 30
0.0
 40
99.64835487052312
 50
180.0
 51
213.5002671347
  0
LINE
  5
355
  8
VIDITELNE
  6
SLD-PLNÁ
 62
     2
 10
771.8329731302
 20
136.1914394645
 30
0.0
 11
767.2680448077
 21
136.1914394645
 31
0.0
  0
LINE
  5
356
  8
VIDITELNE
  6
SLD-PLNÁ
 62
     2
 10
787.7319551923
 20
136.1914394645
 30
0.0
 11
783.1670240867
 21
136.1914394645
 31
0.0
  0
LINE
  5
357
  8
VIDITELNE
  6
SLD-PLNÁ
 62
     2
 10
785.2984764662
 20
138.6249181906
 30
0.0
 11
783.0247218535
 21
138.6249181906
 31
0.0
  0
LINE
  5
358
  8
VIDITELNE
  6
SLD-PLNÁ
 62
     2
 10
771.8696725292
 20
138.6249181906
 30
0.0
 11
769.7015235338
 21
138.6249181906
 31
0.0
  0
LINE
  5
359
  8
VIDITELNE
  6
SLD-PLNÁ
 62
     2
 10
-500.65
 20
131.0
 30
0.0
 11
-525.65
 21
131.0
 31
0.0
  0
LINE
  5
35A
  8
VIDITELNE
  6
SLD-PLNÁ
 62
     2
 10
-410.65
 20
131.0
 30
0.0
 11
-470.6725757509
 21
131.0
 31
0.0
  0
LINE
  5
35B
  8
VIDITELNE
  6
SLD-PLNÁ
 62
     2
 10
-265.65
 20
131.0
 30
0.0
 11
-380.6725757509
 21
131.0
 31
0.0
  0
LINE
  5
35C
  8
VIDITELNE
  6
SLD-PLNÁ
 62
     2
 10
-525.65
 20
21.0
 30
0.0
 11
-522.65
 21
21.0
 31
0.0
  0
ARC
  5
35D
  8
VIDITELNE
  6
SLD-PLNÁ
 62
     2
 10
-522.65
 20
19.0
 30
0.0
 40
2.0
 50
0.0
 51
90.0
  0
ARC
  5
35E
  8
VIDITELNE
  6
SLD-PLNÁ
 62
     2
 10
-378.7272726163
 20
-169.7816897637
 30
0.0
 40
1.903464853510751
 50
107.7445842121
 51
182.2778371364
  0
POLYLINE
  5
35F
  8
VIDITELNE
  6
SLD-PLNÁ
 62
     2
 66
     1
 10
0.0
 20
0.0
 30
0.0
  0
VERTEX
  5
7C2
  8
VIDITELNE
  6
SLD-PLNÁ
 62
     2
 10
-412.3642425581
 20
-167.8777477786
 30
0.0
  0
VERTEX
  5
7C3
  8
VIDITELNE
  6
SLD-PLNÁ
 62
     2
 10
-412.3642691892
 20
-167.8777496439
 30
0.0
  0
VERTEX
  5
7C4
  8
VIDITELNE
  6
SLD-PLNÁ
 62
     2
 10
-412.3539248777
 20
-167.8792601377
 30
0.0
  0
VERTEX
  5
7C5
  8
VIDITELNE
  6
SLD-PLNÁ
 62
     2
 10
-412.3386981413
 20
-167.8815868326
 30
0.0
  0
VERTEX
  5
7C6
  8
VIDITELNE
  6
SLD-PLNÁ
 62
     2
 10
-412.3165299643
 20
-167.885190786
 30
0.0
  0
VERTEX
  5
7C7
  8
VIDITELNE
  6
SLD-PLNÁ
 62
     2
 10
-412.2720672647
 20
-167.8931945803
 30
0.0
  0
VERTEX
  5
7C8
  8
VIDITELNE
  6
SLD-PLNÁ
 62
     2
 10
-412.0409051404
 20
-167.951993877
 30
0.0
  0
VERTEX
  5
7C9
  8
VIDITELNE
  6
SLD-PLNÁ
 62
     2
 10
-411.6227790569
 20
-168.1405632052
 30
0.0
  0
VERTEX
  5
7CA
  8
VIDITELNE
  6
SLD-PLNÁ
 62
     2
 10
-411.0559665208
 20
-168.6477195748
 30
0.0
  0
VERTEX
  5
7CB
  8
VIDITELNE
  6
SLD-PLNÁ
 62
     2
 10
-410.7434584132
 20
-169.2489258257
 30
0.0
  0
VERTEX
  5
7CC
  8
VIDITELNE
  6
SLD-PLNÁ
 62
     2
 10
-410.6638422881
 20
-169.8590552637
 30
0.0
  0
SEQEND
  5
7CD
  8
VIDITELNE
  6
SLD-PLNÁ
 62
     2
  0
ARC
  5
360
  8
VIDITELNE
  6
SLD-PLNÁ
 62
     2
 10
-268.65
 20
-21.0
 30
0.0
 40
2.0
 50
104.4775121859
 51
180.0
  0
ARC
  5
361
  8
VIDITELNE
  6
SLD-PLNÁ
 62
     2
 10
-265.65
 20
19.0
 30
0.0
 40
2.0
 50
90.0
 51
180.0
  0
ARC
  5
362
  8
VIDITELNE
  6
SLD-PLNÁ
 62
     2
 10
-269.65
 20
-17.1270166538
 30
0.0
 40
2.000000000000016
 50
284.4775121859
 51
0.0
  0
LINE
  5
363
  8
VIDITELNE
  6
SLD-PLNÁ
 62
     2
 10
-410.65
 20
-169.8570617804
 30
0.0
 11
-410.65
 21
-172.0
 31
0.0
  0
LINE
  5
364
  8
VIDITELNE
  6
SLD-PLNÁ
 62
     2
 10
-380.65
 20
-172.0
 30
0.0
 11
-380.65
 21
-169.8645544299
 31
0.0
  0
ARC
  5
365
  8
VIDITELNE
  6
SLD-PLNÁ
 62
     2
 10
-264.65
 20
5.5
 30
0.0
 40
1.0
 50
0.0
 51
90.0
  0
ARC
  5
366
  8
VIDITELNE
  6
SLD-PLNÁ
 62
     2
 10
-264.65
 20
-13.5
 30
0.0
 40
1.0
 50
270.0
 51
0.0
  0
ARC
  5
367
  8
VIDITELNE
  6
SLD-PLNÁ
 62
     2
 10
-386.15
 20
-175.0
 30
0.0
 40
1.0
 50
270.0
 51
0.0
  0
ARC
  5
368
  8
VIDITELNE
  6
SLD-PLNÁ
 62
     2
 10
-405.15
 20
-175.0
 30
0.0
 40
1.0
 50
180.0
 51
270.0
  0
LINE
  5
369
  8
VIDITELNE
  6
SLD-PLNÁ
 62
     2
 10
-267.65
 20
-14.5
 30
0.0
 11
-264.65
 21
-14.5
 31
0.0
  0
LINE
  5
36A
  8
VIDITELNE
  6
SLD-PLNÁ
 62
     2
 10
-264.65
 20
6.5
 30
0.0
 11
-267.65
 21
6.5
 31
0.0
  0
LINE
  5
36B
  8
VIDITELNE
  6
SLD-PLNÁ
 62
     2
 10
-406.15
 20
-172.0
 30
0.0
 11
-406.15
 21
-175.0
 31
0.0
  0
LINE
  5
36C
  8
VIDITELNE
  6
SLD-PLNÁ
 62
     2
 10
-385.15
 20
-175.0
 30
0.0
 11
-385.15
 21
-172.0
 31
0.0
  0
LINE
  5
36D
  8
VIDITELNE
  6
SLD-PLNÁ
 62
     2
 10
-475.15
 20
129.9468526219
 30
0.0
 11
-475.15
 21
132.0
 31
0.0
  0
LINE
  5
36E
  8
VIDITELNE
  6
SLD-PLNÁ
 62
     2
 10
-496.15
 20
132.0
 30
0.0
 11
-496.15
 21
129.9538204682
 31
0.0
  0
ARC
  5
36F
  8
VIDITELNE
  6
SLD-PLNÁ
 62
     2
 10
-495.15
 20
132.0
 30
0.0
 40
1.0
 50
90.0
 51
180.0
  0
ARC
  5
370
  8
VIDITELNE
  6
SLD-PLNÁ
 62
     2
 10
-476.15
 20
132.0
 30
0.0
 40
1.0
 50
0.0
 51
90.0
  0
LINE
  5
371
  8
VIDITELNE
  6
SLD-PLNÁ
 62
     2
 10
-547.65
 20
-24.0
 30
0.0
 11
-537.5802010066
 21
-23.6483548705
 31
0.0
  0
LINE
  5
372
  8
VIDITELNE
  6
SLD-PLNÁ
 62
     2
 10
-537.5802010066
 20
175.6483548705
 30
0.0
 11
-547.65
 21
176.0
 31
0.0
  0
ARC
  5
373
  8
VIDITELNE
  6
SLD-PLNÁ
 62
     2
 10
-537.65
 20
-21.6495732165
 30
0.0
 40
2.0
 50
272.0
 51
0.0
  0
ARC
  5
374
  8
VIDITELNE
  6
SLD-PLNÁ
 62
     2
 10
-537.65
 20
173.6495732165
 30
0.0
 40
2.0
 50
0.0
 51
88.0
  0
ARC
  5
375
  8
VIDITELNE
  6
SLD-PLNÁ
 62
     2
 10
-532.65
 20
17.7537259807
 30
0.0
 40
3.000000000000114
 50
92.0
 51
180.0
  0
ARC
  5
376
  8
VIDITELNE
  6
SLD-PLNÁ
 62
     2
 10
-532.65
 20
134.2462740193
 30
0.0
 40
3.000000000000114
 50
180.0
 51
268.0
  0
LINE
  5
377
  8
VIDITELNE
  6
SLD-PLNÁ
 62
     2
 10
-532.7546984901
 20
20.7518984617
 30
0.0
 11
-525.65
 21
21.0
 31
0.0
  0
LINE
  5
378
  8
VIDITELNE
  6
SLD-PLNÁ
 62
     2
 10
-525.65
 20
131.0
 30
0.0
 11
-532.7546984901
 21
131.2481015383
 31
0.0
  0
LINE
  5
379
  8
VIDITELNE
  6
SLD-PLNÁ
 62
     2
 10
-384.3465354484
 20
130.1146079153
 30
0.0
 11
-384.5444667725
 21
131.237132235
 31
0.0
  0
LINE
  5
37A
  8
VIDITELNE
  6
SLD-PLNÁ
 62
     2
 10
-406.7555279998
 20
131.237161883
 30
0.0
 11
-406.9540484586
 21
130.1112964142
 31
0.0
  0
POLYLINE
  5
37B
  8
VIDITELNE
  6
SLD-PLNÁ
 62
     2
 66
     1
 10
0.0
 20
0.0
 30
0.0
  0
VERTEX
  5
7CE
  8
VIDITELNE
  6
SLD-PLNÁ
 62
     2
 10
-395.65
 20
139.9999970044
 30
0.0
  0
VERTEX
  5
7CF
  8
VIDITELNE
  6
SLD-PLNÁ
 62
     2
 10
-397.7428191919
 20
140.0751167251
 30
0.0
  0
VERTEX
  5
7D0
  8
VIDITELNE
  6
SLD-PLNÁ
 62
     2
 10
-399.562057361
 20
140.4779205152
 30
0.0
  0
VERTEX
  5
7D1
  8
VIDITELNE
  6
SLD-PLNÁ
 62
     2
 10
-401.0733746959
 20
141.0655231463
 30
0.0
  0
VERTEX
  5
7D2
  8
VIDITELNE
  6
SLD-PLNÁ
 62
     2
 10
-402.2777837383
 20
141.7304029164
 30
0.0
  0
VERTEX
  5
7D3
  8
VIDITELNE
  6
SLD-PLNÁ
 62
     2
 10
-403.9617245108
 20
143.0326723646
 30
0.0
  0
VERTEX
  5
7D4
  8
VIDITELNE
  6
SLD-PLNÁ
 62
     2
 10
-405.2652682567
 20
144.4742959825
 30
0.0
  0
VERTEX
  5
7D5
  8
VIDITELNE
  6
SLD-PLNÁ
 62
     2
 10
-407.0148040045
 20
147.7424726559
 30
0.0
  0
VERTEX
  5
7D6
  8
VIDITELNE
  6
SLD-PLNÁ
 62
     2
 10
-407.4945944462
 20
149.6109429624
 30
0.0
  0
VERTEX
  5
7D7
  8
VIDITELNE
  6
SLD-PLNÁ
 62
     2
 10
-407.666337906
 20
151.7547776654
 30
0.0
  0
VERTEX
  5
7D8
  8
VIDITELNE
  6
SLD-PLNÁ
 62
     2
 10
-407.4379029216
 20
153.9747213596
 30
0.0
  0
VERTEX
  5
7D9
  8
VIDITELNE
  6
SLD-PLNÁ
 62
     2
 10
-406.8872628654
 20
155.9079192091
 30
0.0
  0
VERTEX
  5
7DA
  8
VIDITELNE
  6
SLD-PLNÁ
 62
     2
 10
-406.092747048
 20
157.6111396459
 30
0.0
  0
VERTEX
  5
7DB
  8
VIDITELNE
  6
SLD-PLNÁ
 62
     2
 10
-404.9684249683
 20
159.2752100041
 30
0.0
  0
VERTEX
  5
7DC
  8
VIDITELNE
  6
SLD-PLNÁ
 62
     2
 10
-403.4742363332
 20
160.8410480743
 30
0.0
  0
VERTEX
  5
7DD
  8
VIDITELNE
  6
SLD-PLNÁ
 62
     2
 10
-401.5782991668
 20
162.2211952197
 30
0.0
  0
VERTEX
  5
7DE
  8
VIDITELNE
  6
SLD-PLNÁ
 62
     2
 10
-399.0266018055
 20
163.3791155065
 30
0.0
  0
VERTEX
  5
7DF
  8
VIDITELNE
  6
SLD-PLNÁ
 62
     2
 10
-395.65
 20
164.0
 30
0.0
  0
SEQEND
  5
7E0
  8
VIDITELNE
  6
SLD-PLNÁ
 62
     2
  0
POLYLINE
  5
37C
  8
VIDITELNE
  6
SLD-PLNÁ
 62
     2
 66
     1
 10
0.0
 20
0.0
 30
0.0
  0
VERTEX
  5
7E1
  8
VIDITELNE
  6
SLD-PLNÁ
 62
     2
 10
-395.65
 20
172.0
 30
0.0
  0
VERTEX
  5
7E2
  8
VIDITELNE
  6
SLD-PLNÁ
 62
     2
 10
-398.8008773865
 20
171.8620149352
 30
0.0
  0
VERTEX
  5
7E3
  8
VIDITELNE
  6
SLD-PLNÁ
 62
     2
 10
-401.6233232532
 20
171.3220404497
 30
0.0
  0
VERTEX
  5
7E4
  8
VIDITELNE
  6
SLD-PLNÁ
 62
     2
 10
-404.0825647726
 20
170.5145390478
 30
0.0
  0
VERTEX
  5
7E5
  8
VIDITELNE
  6
SLD-PLNÁ
 62
     2
 10
-406.1717852124
 20
169.5527563489
 30
0.0
  0
VERTEX
  5
7E6
  8
VIDITELNE
  6
SLD-PLNÁ
 62
     2
 10
-409.6410770239
 20
167.261748044
 30
0.0
  0
VERTEX
  5
7E7
  8
VIDITELNE
  6
SLD-PLNÁ
 62
     2
 10
-412.3895604535
 20
164.5962115669
 30
0.0
  0
VERTEX
  5
7E8
  8
VIDITELNE
  6
SLD-PLNÁ
 62
     2
 10
-414.4784629788
 20
161.7274507595
 30
0.0
  0
VERTEX
  5
7E9
  8
VIDITELNE
  6
SLD-PLNÁ
 62
     2
 10
-416.0136670817
 20
158.6970496282
 30
0.0
  0
VERTEX
  5
7EA
  8
VIDITELNE
  6
SLD-PLNÁ
 62
     2
 10
-417.1420354921
 20
155.101303318
 30
0.0
  0
VERTEX
  5
7EB
  8
VIDITELNE
  6
SLD-PLNÁ
 62
     2
 10
-417.6486769324
 20
151.0408047509
 30
0.0
  0
VERTEX
  5
7EC
  8
VIDITELNE
  6
SLD-PLNÁ
 62
     2
 10
-417.4382052283
 20
147.2514560758
 30
0.0
  0
VERTEX
  5
7ED
  8
VIDITELNE
  6
SLD-PLNÁ
 62
     2
 10
-416.6851671011
 20
143.8800738344
 30
0.0
  0
VERTEX
  5
7EE
  8
VIDITELNE
  6
SLD-PLNÁ
 62
     2
 10
-415.4165264182
 20
140.6626169513
 30
0.0
  0
VERTEX
  5
7EF
  8
VIDITELNE
  6
SLD-PLNÁ
 62
     2
 10
-413.6498579938
 20
137.6572683933
 30
0.0
  0
VERTEX
  5
7F0
  8
VIDITELNE
  6
SLD-PLNÁ
 62
     2
 10
-412.2562551695
 20
135.862200101
 30
0.0
  0
VERTEX
  5
7F1
  8
VIDITELNE
  6
SLD-PLNÁ
 62
     2
 10
-410.7196865358
 20
134.2470544351
 30
0.0
  0
VERTEX
  5
7F2
  8
VIDITELNE
  6
SLD-PLNÁ
 62
     2
 10
-408.6107965573
 20
132.4718058019
 30
0.0
  0
VERTEX
  5
7F3
  8
VIDITELNE
  6
SLD-PLNÁ
 62
     2
 10
-406.7431294952
 20
131.2497418244
 30
0.0
  0
SEQEND
  5
7F4
  8
VIDITELNE
  6
SLD-PLNÁ
 62
     2
  0
POLYLINE
  5
37D
  8
VIDITELNE
  6
SLD-PLNÁ
 62
     2
 66
     1
 10
0.0
 20
0.0
 30
0.0
  0
VERTEX
  5
7F5
  8
VIDITELNE
  6
SLD-PLNÁ
 62
     2
 10
-384.5550468142
 20
131.2497901901
 30
0.0
  0
VERTEX
  5
7F6
  8
VIDITELNE
  6
SLD-PLNÁ
 62
     2
 10
-383.6892787387
 20
131.770169282
 30
0.0
  0
VERTEX
  5
7F7
  8
VIDITELNE
  6
SLD-PLNÁ
 62
     2
 10
-382.0662918088
 20
132.9512914282
 30
0.0
  0
VERTEX
  5
7F8
  8
VIDITELNE
  6
SLD-PLNÁ
 62
     2
 10
-380.2545759659
 20
134.5634644032
 30
0.0
  0
VERTEX
  5
7F9
  8
VIDITELNE
  6
SLD-PLNÁ
 62
     2
 10
-378.3508251183
 20
136.7079931773
 30
0.0
  0
VERTEX
  5
7FA
  8
VIDITELNE
  6
SLD-PLNÁ
 62
     2
 10
-376.7272943134
 20
139.0928616493
 30
0.0
  0
VERTEX
  5
7FB
  8
VIDITELNE
  6
SLD-PLNÁ
 62
     2
 10
-375.6485508925
 20
141.1602436682
 30
0.0
  0
VERTEX
  5
7FC
  8
VIDITELNE
  6
SLD-PLNÁ
 62
     2
 10
-374.9684498319
 20
142.8226393457
 30
0.0
  0
VERTEX
  5
7FD
  8
VIDITELNE
  6
SLD-PLNÁ
 62
     2
 10
-374.3963064846
 20
144.6402575884
 30
0.0
  0
VERTEX
  5
7FE
  8
VIDITELNE
  6
SLD-PLNÁ
 62
     2
 10
-373.9088595821
 20
146.9376896123
 30
0.0
  0
VERTEX
  5
7FF
  8
VIDITELNE
  6
SLD-PLNÁ
 62
     2
 10
-373.6520918914
 20
149.6653772388
 30
0.0
  0
VERTEX
  5
800
  8
VIDITELNE
  6
SLD-PLNÁ
 62
     2
 10
-373.9204978573
 20
153.8572323665
 30
0.0
  0
VERTEX
  5
801
  8
VIDITELNE
  6
SLD-PLNÁ
 62
     2
 10
-374.9844274657
 20
157.9218194602
 30
0.0
  0
VERTEX
  5
802
  8
VIDITELNE
  6
SLD-PLNÁ
 62
     2
 10
-376.016984872
 20
160.2864620283
 30
0.0
  0
VERTEX
  5
803
  8
VIDITELNE
  6
SLD-PLNÁ
 62
     2
 10
-377.0756529622
 20
162.1345023211
 30
0.0
  0
VERTEX
  5
804
  8
VIDITELNE
  6
SLD-PLNÁ
 62
     2
 10
-378.0729381441
 20
163.5624242986
 30
0.0
  0
VERTEX
  5
805
  8
VIDITELNE
  6
SLD-PLNÁ
 62
     2
 10
-379.3356808769
 20
165.0748457337
 30
0.0
  0
VERTEX
  5
806
  8
VIDITELNE
  6
SLD-PLNÁ
 62
     2
 10
-381.0226245138
 20
166.725527103
 30
0.0
  0
VERTEX
  5
807
  8
VIDITELNE
  6
SLD-PLNÁ
 62
     2
 10
-383.296128323
 20
168.4641198102
 30
0.0
  0
VERTEX
  5
808
  8
VIDITELNE
  6
SLD-PLNÁ
 62
     2
 10
-385.5789613388
 20
169.7840694381
 30
0.0
  0
VERTEX
  5
809
  8
VIDITELNE
  6
SLD-PLNÁ
 62
     2
 10
-388.4049051363
 20
170.9447237231
 30
0.0
  0
VERTEX
  5
80A
  8
VIDITELNE
  6
SLD-PLNÁ
 62
     2
 10
-391.7791592712
 20
171.7655592397
 30
0.0
  0
VERTEX
  5
80B
  8
VIDITELNE
  6
SLD-PLNÁ
 62
     2
 10
-395.65
 20
172.0
 30
0.0
  0
SEQEND
  5
80C
  8
VIDITELNE
  6
SLD-PLNÁ
 62
     2
  0
POLYLINE
  5
37E
  8
VIDITELNE
  6
SLD-PLNÁ
 62
     2
 66
     1
 10
0.0
 20
0.0
 30
0.0
  0
VERTEX
  5
80D
  8
VIDITELNE
  6
SLD-PLNÁ
 62
     2
 10
-395.65
 20
164.0
 30
0.0
  0
VERTEX
  5
80E
  8
VIDITELNE
  6
SLD-PLNÁ
 62
     2
 10
-393.8612761694
 20
163.7878220539
 30
0.0
  0
VERTEX
  5
80F
  8
VIDITELNE
  6
SLD-PLNÁ
 62
     2
 10
-392.2733981945
 20
163.3791155065
 30
0.0
  0
VERTEX
  5
810
  8
VIDITELNE
  6
SLD-PLNÁ
 62
     2
 10
-389.7217008332
 20
162.2211952197
 30
0.0
  0
VERTEX
  5
811
  8
VIDITELNE
  6
SLD-PLNÁ
 62
     2
 10
-387.8257636668
 20
160.8410480743
 30
0.0
  0
VERTEX
  5
812
  8
VIDITELNE
  6
SLD-PLNÁ
 62
     2
 10
-386.3315750317
 20
159.2752100041
 30
0.0
  0
VERTEX
  5
813
  8
VIDITELNE
  6
SLD-PLNÁ
 62
     2
 10
-385.207252952
 20
157.6111396459
 30
0.0
  0
VERTEX
  5
814
  8
VIDITELNE
  6
SLD-PLNÁ
 62
     2
 10
-384.4127371346
 20
155.9079192091
 30
0.0
  0
VERTEX
  5
815
  8
VIDITELNE
  6
SLD-PLNÁ
 62
     2
 10
-383.8620970784
 20
153.9747213596
 30
0.0
  0
VERTEX
  5
816
  8
VIDITELNE
  6
SLD-PLNÁ
 62
     2
 10
-383.633662094
 20
151.7547776654
 30
0.0
  0
VERTEX
  5
817
  8
VIDITELNE
  6
SLD-PLNÁ
 62
     2
 10
-383.8054055538
 20
149.6109429624
 30
0.0
  0
VERTEX
  5
818
  8
VIDITELNE
  6
SLD-PLNÁ
 62
     2
 10
-384.2851959955
 20
147.7424726559
 30
0.0
  0
VERTEX
  5
819
  8
VIDITELNE
  6
SLD-PLNÁ
 62
     2
 10
-386.0347317433
 20
144.4742959825
 30
0.0
  0
VERTEX
  5
81A
  8
VIDITELNE
  6
SLD-PLNÁ
 62
     2
 10
-387.3382754892
 20
143.0326723646
 30
0.0
  0
VERTEX
  5
81B
  8
VIDITELNE
  6
SLD-PLNÁ
 62
     2
 10
-389.0222162617
 20
141.7304029164
 30
0.0
  0
VERTEX
  5
81C
  8
VIDITELNE
  6
SLD-PLNÁ
 62
     2
 10
-390.2266253041
 20
141.0655231463
 30
0.0
  0
VERTEX
  5
81D
  8
VIDITELNE
  6
SLD-PLNÁ
 62
     2
 10
-391.737942639
 20
140.4779205152
 30
0.0
  0
VERTEX
  5
81E
  8
VIDITELNE
  6
SLD-PLNÁ
 62
     2
 10
-393.5571808081
 20
140.0751167251
 30
0.0
  0
VERTEX
  5
81F
  8
VIDITELNE
  6
SLD-PLNÁ
 62
     2
 10
-395.65
 20
139.9999970044
 30
0.0
  0
SEQEND
  5
820
  8
VIDITELNE
  6
SLD-PLNÁ
 62
     2
  0
LINE
  5
37F
  8
VIDITELNE
  6
SLD-PLNÁ
 62
     2
 10
-265.65
 20
21.5
 30
0.0
 11
-259.5802010066
 21
21.7119620515
 31
0.0
  0
LINE
  5
380
  8
VIDITELNE
  6
SLD-PLNÁ
 62
     2
 10
-259.5802010066
 20
130.2880379485
 30
0.0
 11
-265.65
 21
130.5
 31
0.0
  0
ARC
  5
381
  8
VIDITELNE
  6
SLD-PLNÁ
 62
     2
 10
-259.65
 20
23.7107437055
 30
0.0
 40
2.000000000000011
 50
272.0
 51
0.0
  0
ARC
  5
382
  8
VIDITELNE
  6
SLD-PLNÁ
 62
     2
 10
-259.65
 20
128.2892562945
 30
0.0
 40
2.000000000000004
 50
0.0
 51
88.0
  0
CIRCLE
  5
383
  8
VIDITELNE
  6
SLD-PLNÁ
 62
     2
 10
-395.65
 20
-44.0
 30
0.0
 40
30.5
  0
LINE
  5
384
  8
VIDITELNE
  6
SLD-PLNÁ
 62
     2
 10
-402.65
 20
-21.4047602898
 30
0.0
 11
-402.65
 21
-17.7
 31
0.0
  0
ARC
  5
385
  8
VIDITELNE
  6
SLD-PLNÁ
 62
     2
 10
-395.65
 20
-44.0
 30
0.0
 40
23.65470053837927
 50
107.2129689444
 51
72.7870310556
  0
LINE
  5
386
  8
VIDITELNE
  6
SLD-PLNÁ
 62
     2
 10
-388.65
 20
-17.7
 30
0.0
 11
-388.65
 21
-21.4047602898
 31
0.0
  0
LINE
  5
387
  8
VIDITELNE
  6
SLD-PLNÁ
 62
     2
 10
-402.65
 20
-17.7
 30
0.0
 11
-388.65
 21
-17.7
 31
0.0
  0
CIRCLE
  5
388
  8
VIDITELNE
  6
SLD-PLNÁ
 62
     2
 10
-395.65
 20
-44.0
 30
0.0
 40
32.5
  0
ARC
  5
389
  8
VIDITELNE
  6
SLD-PLNÁ
 62
     2
 10
-395.65
 20
-44.0
 30
0.0
 40
22.50000000000001
 50
108.1262039606
 51
71.8737960394
  0
LINE
  5
38A
  8
VIDITELNE
  6
SLD-PLNÁ
 62
     2
 10
-402.65
 20
-21.4047602898
 30
0.0
 11
-402.65
 21
-22.6165952197
 31
0.0
  0
LINE
  5
38B
  8
VIDITELNE
  6
SLD-PLNÁ
 62
     2
 10
-388.65
 20
-22.6165952197
 30
0.0
 11
-388.65
 21
-21.4047602898
 31
0.0
  0
ARC
  5
38C
  8
VIDITELNE
  6
SLD-PLNÁ
 62
     2
 10
-395.65
 20
-48.5718241501
 30
0.0
 40
131.3283646897417
 50
71.54133344
 51
108.45866656
  0
LINE
  5
38D
  8
VIDITELNE
  6
SLD-PLNÁ
 62
     2
 10
-354.0687542274
 20
76.0
 30
0.0
 11
-354.7235769955
 21
74.1102362205
 31
0.0
  0
LINE
  5
38E
  8
VIDITELNE
  6
SLD-PLNÁ
 62
     2
 10
-437.2312457726
 20
76.0
 30
0.0
 11
-436.5764230045
 21
74.1102362205
 31
0.0
  0
ARC
  5
38F
  8
VIDITELNE
  6
SLD-PLNÁ
 62
     2
 10
-519.8411611348
 20
-43.8855989853
 30
0.0
 40
249.1911873949196
 50
359.9736961182
 51
7.2640703418
  0
LINE
  5
390
  8
VIDITELNE
  6
SLD-PLNÁ
 62
     2
 10
-272.65
 20
-12.3772233983
 30
0.0
 11
-274.587007874
 21
-12.8752198802
 31
0.0
  0
LINE
  5
391
  8
VIDITELNE
  6
SLD-PLNÁ
 62
     2
 10
-518.65
 20
-12.3772233983
 30
0.0
 11
-516.712992126
 21
-12.8752198802
 31
0.0
  0
ARC
  5
392
  8
VIDITELNE
  6
SLD-PLNÁ
 62
     2
 10
-271.4588388631
 20
-43.8855989854
 30
0.0
 40
249.1911873970324
 50
172.7359296582
 51
180.0263038818
  0
CIRCLE
  5
393
  8
VIDITELNE
  6
SLD-PLNÁ
 62
     2
 10
-395.65
 20
-44.0
 30
0.0
 40
125.0
  0
ARC
  5
394
  8
VIDITELNE
  6
SLD-PLNÁ
 62
     2
 10
-395.65
 20
-44.0
 30
0.0
 40
127.0
 50
14.4182411734
 51
70.8882678628
  0
ARC
  5
395
  8
VIDITELNE
  6
SLD-PLNÁ
 62
     2
 10
-395.65
 20
-44.0
 30
0.0
 40
127.0000000000001
 50
109.1117321372
 51
165.5817588266
  0
LINE
  5
396
  8
VIDITELNE
  6
SLD-PLNÁ
 62
     2
 10
-518.65
 20
76.0
 30
0.0
 11
-518.65
 21
-12.3772233983
 31
0.0
  0
LINE
  5
397
  8
VIDITELNE
  6
SLD-PLNÁ
 62
     2
 10
-520.65
 20
-44.0
 30
0.0
 11
-520.65
 21
55.0238230366
 31
0.0
  0
ARC
  5
398
  8
VIDITELNE
  6
SLD-PLNÁ
 62
     2
 10
-291.9456673764
 20
43.8011552617
 30
0.0
 40
228.979518806394
 50
171.9163399437
 51
177.1907128868
  0
POLYLINE
  5
399
  8
VIDITELNE
  6
SLD-PLNÁ
 62
     2
 66
     1
 10
0.0
 20
0.0
 30
0.0
  0
VERTEX
  5
821
  8
VIDITELNE
  6
SLD-PLNÁ
 62
     2
 10
-522.65
 20
55.7598292458
 30
0.0
  0
VERTEX
  5
822
  8
VIDITELNE
  6
SLD-PLNÁ
 62
     2
 10
-522.259819356
 20
55.7456870929
 30
0.0
  0
VERTEX
  5
823
  8
VIDITELNE
  6
SLD-PLNÁ
 62
     2
 10
-521.8846331353
 20
55.7038041091
 30
0.0
  0
VERTEX
  5
824
  8
VIDITELNE
  6
SLD-PLNÁ
 62
     2
 10
-521.538859534
 20
55.635789834
 30
0.0
  0
VERTEX
  5
825
  8
VIDITELNE
  6
SLD-PLNÁ
 62
     2
 10
-521.2357864376
 20
55.5442580181
 30
0.0
  0
VERTEX
  5
826
  8
VIDITELNE
  6
SLD-PLNÁ
 62
     2
 10
-520.9870607754
 20
55.4327261778
 30
0.0
  0
VERTEX
  5
827
  8
VIDITELNE
  6
SLD-PLNÁ
 62
     2
 10
-520.802240935
 20
55.305480419
 30
0.0
  0
VERTEX
  5
828
  8
VIDITELNE
  6
SLD-PLNÁ
 62
     2
 10
-520.6884294392
 20
55.167410725
 30
0.0
  0
VERTEX
  5
829
  8
VIDITELNE
  6
SLD-PLNÁ
 62
     2
 10
-520.65
 20
55.0238230366
 30
0.0
  0
SEQEND
  5
82A
  8
VIDITELNE
  6
SLD-PLNÁ
 62
     2
  0
POLYLINE
  5
39A
  8
VIDITELNE
  6
SLD-PLNÁ
 62
     2
 66
     1
 10
0.0
 20
0.0
 30
0.0
  0
VERTEX
  5
82B
  8
VIDITELNE
  6
SLD-PLNÁ
 62
     2
 10
-522.65
 20
55.7598292458
 30
0.0
  0
VERTEX
  5
82C
  8
VIDITELNE
  6
SLD-PLNÁ
 62
     2
 10
-522.418392374
 20
59.3985246006
 30
0.0
  0
VERTEX
  5
82D
  8
VIDITELNE
  6
SLD-PLNÁ
 62
     2
 10
-521.8353411665
 20
63.1377630279
 30
0.0
  0
VERTEX
  5
82E
  8
VIDITELNE
  6
SLD-PLNÁ
 62
     2
 10
-520.8636334368
 20
67.6021414993
 30
0.0
  0
VERTEX
  5
82F
  8
VIDITELNE
  6
SLD-PLNÁ
 62
     2
 10
-519.7061374786
 20
72.1208847243
 30
0.0
  0
VERTEX
  5
830
  8
VIDITELNE
  6
SLD-PLNÁ
 62
     2
 10
-518.6624176874
 20
75.9547689701
 30
0.0
  0
VERTEX
  5
831
  8
VIDITELNE
  6
SLD-PLNÁ
 62
     2
 10
-518.65
 20
76.0
 30
0.0
  0
SEQEND
  5
832
  8
VIDITELNE
  6
SLD-PLNÁ
 62
     2
  0
LINE
  5
39B
  8
VIDITELNE
  6
SLD-PLNÁ
 62
     2
 10
-272.65
 20
76.0
 30
0.0
 11
-354.0687542274
 21
76.0
 31
0.0
  0
LINE
  5
39C
  8
VIDITELNE
  6
SLD-PLNÁ
 62
     2
 10
-272.65
 20
-12.3772233983
 30
0.0
 11
-272.65
 21
76.0
 31
0.0
  0
LINE
  5
39D
  8
VIDITELNE
  6
SLD-PLNÁ
 62
     2
 10
-268.65
 20
23.5030962821
 30
0.0
 11
-265.65
 21
23.5030962821
 31
0.0
  0
LINE
  5
39E
  8
VIDITELNE
  6
SLD-PLNÁ
 62
     2
 10
-268.65
 20
55.7598292458
 30
0.0
 11
-268.65
 21
23.5030962821
 31
0.0
  0
POLYLINE
  5
39F
  8
VIDITELNE
  6
SLD-PLNÁ
 62
     2
 66
     1
 10
0.0
 20
0.0
 30
0.0
  0
VERTEX
  5
833
  8
VIDITELNE
  6
SLD-PLNÁ
 62
     2
 10
-272.65
 20
76.0
 30
0.0
  0
VERTEX
  5
834
  8
VIDITELNE
  6
SLD-PLNÁ
 62
     2
 10
-272.6375823126
 20
75.9547689701
 30
0.0
  0
VERTEX
  5
835
  8
VIDITELNE
  6
SLD-PLNÁ
 62
     2
 10
-271.5938625214
 20
72.1208847243
 30
0.0
  0
VERTEX
  5
836
  8
VIDITELNE
  6
SLD-PLNÁ
 62
     2
 10
-270.4450859643
 20
67.6383007558
 30
0.0
  0
VERTEX
  5
837
  8
VIDITELNE
  6
SLD-PLNÁ
 62
     2
 10
-269.4646588335
 20
63.1377630279
 30
0.0
  0
VERTEX
  5
838
  8
VIDITELNE
  6
SLD-PLNÁ
 62
     2
 10
-268.8872713326
 20
59.4467739134
 30
0.0
  0
VERTEX
  5
839
  8
VIDITELNE
  6
SLD-PLNÁ
 62
     2
 10
-268.65
 20
55.7598292458
 30
0.0
  0
SEQEND
  5
83A
  8
VIDITELNE
  6
SLD-PLNÁ
 62
     2
  0
LINE
  5
3A0
  8
VIDITELNE
  6
SLD-PLNÁ
 62
     2
 10
-518.65
 20
76.0
 30
0.0
 11
-437.2312457726
 21
76.0
 31
0.0
  0
ARC
  5
3A1
  8
VIDITELNE
  6
SLD-PLNÁ
 62
     2
 10
-486.2046945436
 20
187.3254351159
 30
0.0
 40
58.43365669505985
 50
273.4876274061
 51
285.414954933
  0
ARC
  5
3A2
  8
VIDITELNE
  6
SLD-PLNÁ
 62
     2
 10
-485.0566240479
 20
187.5602557126
 30
0.0
 40
58.67040054288589
 50
254.5867379966
 51
266.4886175874
  0
LINE
  5
3A3
  8
VIDITELNE
  6
SLD-PLNÁ
 62
     2
 10
-488.65
 20
129.0
 30
0.0
 11
-482.65
 21
129.0
 31
0.0
  0
ARC
  5
3A4
  8
VIDITELNE
  6
SLD-PLNÁ
 62
     2
 10
-396.2046945436
 20
187.3254351159
 30
0.0
 40
58.43365669505224
 50
273.4876274061
 51
285.414954933
  0
ARC
  5
3A5
  8
VIDITELNE
  6
SLD-PLNÁ
 62
     2
 10
-395.0566240479
 20
187.5602557126
 30
0.0
 40
58.67040054289769
 50
254.5867379966
 51
266.4886175874
  0
LINE
  5
3A6
  8
VIDITELNE
  6
SLD-PLNÁ
 62
     2
 10
-398.65
 20
129.0
 30
0.0
 11
-392.65
 21
129.0
 31
0.0
  0
LINE
  5
3A7
  8
VIDITELNE
  6
SLD-PLNÁ
 62
     2
 10
-265.65
 20
23.5030962821
 30
0.0
 11
-265.65
 21
131.0
 31
0.0
  0
LINE
  5
3A8
  8
VIDITELNE
  6
SLD-PLNÁ
 62
     2
 10
-525.65
 20
76.0
 30
0.0
 11
-525.65
 21
131.0
 31
0.0
  0
LINE
  5
3A9
  8
VIDITELNE
  6
SLD-PLNÁ
 62
     2
 10
-525.65
 20
21.0
 30
0.0
 11
-525.65
 21
76.0
 31
0.0
  0
POLYLINE
  5
3AA
  8
VIDITELNE
  6
SLD-PLNÁ
 62
     2
 66
     1
 10
0.0
 20
0.0
 30
0.0
  0
VERTEX
  5
83B
  8
VIDITELNE
  6
SLD-PLNÁ
 62
     2
 10
-268.65
 20
55.7598292458
 30
0.0
  0
VERTEX
  5
83C
  8
VIDITELNE
  6
SLD-PLNÁ
 62
     2
 10
-269.040180644
 20
55.7456870929
 30
0.0
  0
VERTEX
  5
83D
  8
VIDITELNE
  6
SLD-PLNÁ
 62
     2
 10
-269.4153668647
 20
55.7038041091
 30
0.0
  0
VERTEX
  5
83E
  8
VIDITELNE
  6
SLD-PLNÁ
 62
     2
 10
-269.761140466
 20
55.635789834
 30
0.0
  0
VERTEX
  5
83F
  8
VIDITELNE
  6
SLD-PLNÁ
 62
     2
 10
-270.0642135624
 20
55.5442580181
 30
0.0
  0
VERTEX
  5
840
  8
VIDITELNE
  6
SLD-PLNÁ
 62
     2
 10
-270.3129392246
 20
55.4327261778
 30
0.0
  0
VERTEX
  5
841
  8
VIDITELNE
  6
SLD-PLNÁ
 62
     2
 10
-270.497759065
 20
55.305480419
 30
0.0
  0
VERTEX
  5
842
  8
VIDITELNE
  6
SLD-PLNÁ
 62
     2
 10
-270.6115705608
 20
55.167410725
 30
0.0
  0
VERTEX
  5
843
  8
VIDITELNE
  6
SLD-PLNÁ
 62
     2
 10
-270.65
 20
55.0238230366
 30
0.0
  0
SEQEND
  5
844
  8
VIDITELNE
  6
SLD-PLNÁ
 62
     2
  0
ARC
  5
3AB
  8
VIDITELNE
  6
SLD-PLNÁ
 62
     2
 10
-499.3543326237
 20
43.8011552617
 30
0.0
 40
228.9795188064259
 50
2.8092871132
 51
8.0836600563
  0
LINE
  5
3AC
  8
VIDITELNE
  6
SLD-PLNÁ
 62
     2
 10
-270.65
 20
55.0238230366
 30
0.0
 11
-270.65
 21
-44.0
 31
0.0
  0
ARC
  5
3AD
  8
VIDITELNE
  6
SLD-PLNÁ
 62
     2
 10
-268.6944752231
 20
21.5475221261
 30
0.0
 40
1.956079836075846
 50
88.6971583966
 51
178.635026332
  0
LINE
  5
3AE
  8
VIDITELNE
  6
SLD-PLNÁ
 62
     2
 10
-268.65
 20
22.457761922
 30
0.0
 11
-268.65
 21
23.5030962821
 31
0.0
  0
POLYLINE
  5
3AF
  8
VIDITELNE
  6
SLD-PLNÁ
 62
     2
 66
     1
 10
0.0
 20
0.0
 30
0.0
  0
VERTEX
  5
845
  8
VIDITELNE
  6
SLD-PLNÁ
 62
     2
 10
-269.0811358957
 20
21.5941179651
 30
0.0
  0
VERTEX
  5
846
  8
VIDITELNE
  6
SLD-PLNÁ
 62
     2
 10
-268.9448449443
 20
21.9692596582
 30
0.0
  0
VERTEX
  5
847
  8
VIDITELNE
  6
SLD-PLNÁ
 62
     2
 10
-268.65
 20
22.457761922
 30
0.0
  0
SEQEND
  5
848
  8
VIDITELNE
  6
SLD-PLNÁ
 62
     2
  0
LINE
  5
3B0
  8
VIDITELNE
  6
SLD-PLNÁ
 62
     2
 10
-269.0811358957
 20
21.5941179651
 30
0.0
 11
-270.65
 21
21.5941179651
 31
0.0
  0
LINE
  5
3B1
  8
VIDITELNE
  6
SLD-PLNÁ
 62
     2
 10
-270.65
 20
-4.0
 30
0.0
 11
-269.15
 21
-4.0
 31
0.0
  0
POLYLINE
  5
3B2
  8
VIDITELNE
  6
SLD-PLNÁ
 62
     2
 66
     1
 10
0.0
 20
0.0
 30
0.0
  0
VERTEX
  5
849
  8
VIDITELNE
  6
SLD-PLNÁ
 62
     2
 10
-269.15
 20
20.5321585622
 30
0.0
  0
VERTEX
  5
84A
  8
VIDITELNE
  6
SLD-PLNÁ
 62
     2
 10
-269.1403303291
 20
20.9347731939
 30
0.0
  0
VERTEX
  5
84B
  8
VIDITELNE
  6
SLD-PLNÁ
 62
     2
 10
-269.0811358957
 20
21.5941179651
 30
0.0
  0
SEQEND
  5
84C
  8
VIDITELNE
  6
SLD-PLNÁ
 62
     2
  0
LINE
  5
3B3
  8
VIDITELNE
  6
SLD-PLNÁ
 62
     2
 10
-269.15
 20
-4.0
 30
0.0
 11
-269.15
 21
20.5321585622
 31
0.0
  0
ARC
  5
3B4
  8
VIDITELNE
  6
SLD-PLNÁ
 62
     2
 10
-264.6181425786
 20
15.7142637923
 30
0.0
 40
7.856884961125185
 50
97.5465482487
 51
120.8747017253
  0
ARC
  5
3B5
  8
VIDITELNE
  6
SLD-PLNÁ
 62
     2
 10
-263.2818373619
 20
19.5758939357
 30
0.0
 40
4.585969096042207
 50
121.0906149335
 51
147.5091983728
  0
ARC
  5
3B6
  8
VIDITELNE
  6
SLD-PLNÁ
 62
     2
 10
-267.4214275267
 20
23.9640574421
 30
0.0
 40
1.943789215959008
 50
230.798450723
 51
278.0269198997
  0
POLYLINE
  5
3B7
  8
VIDITELNE
  6
SLD-PLNÁ
 62
     2
 66
     1
 10
0.0
 20
0.0
 30
0.0
  0
VERTEX
  5
84D
  8
VIDITELNE
  6
SLD-PLNÁ
 62
     2
 10
-267.5811358957
 20
21.0882603209
 30
0.0
  0
VERTEX
  5
84E
  8
VIDITELNE
  6
SLD-PLNÁ
 62
     2
 10
-267.6403303291
 20
20.7436926326
 30
0.0
  0
VERTEX
  5
84F
  8
VIDITELNE
  6
SLD-PLNÁ
 62
     2
 10
-267.65
 20
20.5321585622
 30
0.0
  0
SEQEND
  5
850
  8
VIDITELNE
  6
SLD-PLNÁ
 62
     2
  0
POLYLINE
  5
3B8
  8
VIDITELNE
  6
SLD-PLNÁ
 62
     2
 66
     1
 10
0.0
 20
0.0
 30
0.0
  0
VERTEX
  5
851
  8
VIDITELNE
  6
SLD-PLNÁ
 62
     2
 10
-267.15
 20
22.0393123645
 30
0.0
  0
VERTEX
  5
852
  8
VIDITELNE
  6
SLD-PLNÁ
 62
     2
 10
-267.4448449443
 20
21.4872917322
 30
0.0
  0
VERTEX
  5
853
  8
VIDITELNE
  6
SLD-PLNÁ
 62
     2
 10
-267.5811358957
 20
21.0882603209
 30
0.0
  0
SEQEND
  5
854
  8
VIDITELNE
  6
SLD-PLNÁ
 62
     2
  0
LINE
  5
3B9
  8
VIDITELNE
  6
SLD-PLNÁ
 62
     2
 10
-265.65
 20
21.0
 30
0.0
 11
-265.65
 21
23.5030962821
 31
0.0
  0
ARC
  5
3BA
  8
VIDITELNE
  6
SLD-PLNÁ
 62
     2
 10
-270.7537036547
 20
14.1576431775
 30
0.0
 40
7.622246399502132
 50
65.4035301721
 51
77.3243031631
  0
LINE
  5
3BB
  8
VIDITELNE
  6
SLD-PLNÁ
 62
     2
 10
-269.15
 20
20.5321585622
 30
0.0
 11
-267.65
 21
20.5321585622
 31
0.0
  0
LINE
  5
3BC
  8
VIDITELNE
  6
SLD-PLNÁ
 62
     2
 10
-267.65
 20
20.5321585622
 30
0.0
 11
-267.65
 21
-4.0
 31
0.0
  0
LINE
  5
3BD
  8
VIDITELNE
  6
SLD-PLNÁ
 62
     2
 10
-269.15
 20
-4.0
 30
0.0
 11
-267.65
 21
-4.0
 31
0.0
  0
LINE
  5
3BE
  8
VIDITELNE
  6
SLD-PLNÁ
 62
     2
 10
-267.65
 20
-4.0
 30
0.0
 11
-267.65
 21
-17.1270166538
 31
0.0
  0
LINE
  5
3BF
  8
VIDITELNE
  6
SLD-PLNÁ
 62
     2
 10
-410.65
 20
-172.0
 30
0.0
 11
-380.65
 21
-172.0
 31
0.0
  0
LINE
  5
3C0
  8
VIDITELNE
  6
SLD-PLNÁ
 62
     2
 10
-263.65
 20
5.5
 30
0.0
 11
-263.65
 21
-13.4999990662
 31
0.0
  0
LINE
  5
3C1
  8
VIDITELNE
  6
SLD-PLNÁ
 62
     2
 10
-386.15
 20
-176.0
 30
0.0
 11
-405.1499990662
 21
-176.0
 31
0.0
  0
LINE
  5
3C2
  8
VIDITELNE
  6
SLD-PLNÁ
 62
     2
 10
-495.15
 20
133.0
 30
0.0
 11
-476.1500009338
 21
133.0
 31
0.0
  0
CIRCLE
  5
3C3
  8
VIDITELNE
  6
SLD-PLNÁ
 62
     2
 10
-395.65
 20
-44.0
 30
0.0
 40
42.49999999999994
  0
CIRCLE
  5
3C4
  8
VIDITELNE
  6
SLD-PLNÁ
 62
     2
 10
-395.65
 20
-44.0
 30
0.0
 40
65.0
  0
ARC
  5
3C5
  8
VIDITELNE
  6
SLD-PLNÁ
 62
     2
 10
-395.65
 20
-44.0
 30
0.0
 40
95.00000000000001
 50
69.9131672646
 51
110.0868327354
  0
ARC
  5
3C6
  8
VIDITELNE
  6
SLD-PLNÁ
 62
     2
 10
-395.65
 20
-44.0
 30
0.0
 40
95.00000000000004
 50
65.0868327354
 51
69.9131672646
  0
ARC
  5
3C7
  8
VIDITELNE
  6
SLD-PLNÁ
 62
     2
 10
-395.65
 20
-44.0
 30
0.0
 40
95.00000000000004
 50
24.9131672646
 51
65.0868327354
  0
ARC
  5
3C8
  8
VIDITELNE
  6
SLD-PLNÁ
 62
     2
 10
-395.65
 20
-44.0
 30
0.0
 40
94.99999999999982
 50
20.0868327354
 51
24.9131672646
  0
ARC
  5
3C9
  8
VIDITELNE
  6
SLD-PLNÁ
 62
     2
 10
-395.65
 20
-44.0
 30
0.0
 40
95.00000000000016
 50
339.9131672646
 51
20.0868327354
  0
ARC
  5
3CA
  8
VIDITELNE
  6
SLD-PLNÁ
 62
     2
 10
-395.65
 20
-44.0
 30
0.0
 40
95.0000000000002
 50
335.0868327354
 51
339.9131672646
  0
ARC
  5
3CB
  8
VIDITELNE
  6
SLD-PLNÁ
 62
     2
 10
-395.65
 20
-44.0
 30
0.0
 40
95.0000000000002
 50
294.9131672646
 51
335.0868327354
  0
ARC
  5
3CC
  8
VIDITELNE
  6
SLD-PLNÁ
 62
     2
 10
-395.65
 20
-44.0
 30
0.0
 40
94.99999999999999
 50
290.0868327354
 51
294.9131672646
  0
ARC
  5
3CD
  8
VIDITELNE
  6
SLD-PLNÁ
 62
     2
 10
-395.65
 20
-44.0
 30
0.0
 40
95.00000000000014
 50
249.9131672646
 51
290.0868327354
  0
ARC
  5
3CE
  8
VIDITELNE
  6
SLD-PLNÁ
 62
     2
 10
-395.65
 20
-44.0
 30
0.0
 40
95.00000000000014
 50
245.0868327354
 51
249.9131672646
  0
ARC
  5
3CF
  8
VIDITELNE
  6
SLD-PLNÁ
 62
     2
 10
-395.65
 20
-44.0
 30
0.0
 40
95.00000000000004
 50
204.9131672646
 51
245.0868327354
  0
ARC
  5
3D0
  8
VIDITELNE
  6
SLD-PLNÁ
 62
     2
 10
-395.65
 20
-44.0
 30
0.0
 40
95.00000000000006
 50
200.0868327354
 51
204.9131672646
  0
ARC
  5
3D1
  8
VIDITELNE
  6
SLD-PLNÁ
 62
     2
 10
-395.65
 20
-44.0
 30
0.0
 40
95.00000000000006
 50
159.9131672646
 51
200.0868327354
  0
ARC
  5
3D2
  8
VIDITELNE
  6
SLD-PLNÁ
 62
     2
 10
-395.65
 20
-44.0
 30
0.0
 40
94.9999999999999
 50
155.0868327354
 51
159.9131672646
  0
ARC
  5
3D3
  8
VIDITELNE
  6
SLD-PLNÁ
 62
     2
 10
-395.65
 20
-44.0
 30
0.0
 40
95.00000000000004
 50
114.9131672646
 51
155.0868327354
  0
ARC
  5
3D4
  8
VIDITELNE
  6
SLD-PLNÁ
 62
     2
 10
-395.65
 20
-44.0
 30
0.0
 40
95.00000000000004
 50
110.0868327354
 51
114.9131672646
  0
CIRCLE
  5
3D5
  8
VIDITELNE
  6
SLD-PLNÁ
 62
     2
 10
-337.3136905521
 20
14.3363094479
 30
0.0
 40
6.0
  0
CIRCLE
  5
3D6
  8
VIDITELNE
  6
SLD-PLNÁ
 62
     2
 10
-337.3136905521
 20
-102.3363094479
 30
0.0
 40
6.0
  0
CIRCLE
  5
3D7
  8
VIDITELNE
  6
SLD-PLNÁ
 62
     2
 10
-453.9863094479
 20
-102.3363094479
 30
0.0
 40
6.0
  0
CIRCLE
  5
3D8
  8
VIDITELNE
  6
SLD-PLNÁ
 62
     2
 10
-453.9863094479
 20
14.3363094479
 30
0.0
 40
6.0
  0
CIRCLE
  5
3D9
  8
VIDITELNE
  6
SLD-PLNÁ
 62
     2
 10
-337.3136905521
 20
14.3363094479
 30
0.0
 40
5.249999999999943
  0
ARC
  5
3DA
  8
VIDITELNE
  6
SLD-PLNÁ
 62
     2
 10
-395.65
 20
-44.0
 30
0.0
 40
101.639528095681
 50
204.7554445434
 51
245.2445554566
  0
LINE
  5
3DB
  8
VIDITELNE
  6
SLD-PLNÁ
 62
     2
 10
-363.0228323243
 20
-133.2214544236
 30
0.0
 11
-352.6832401246
 21
-158.1834381415
 31
0.0
  0
ARC
  5
3DC
  8
VIDITELNE
  6
SLD-PLNÁ
 62
     2
 10
-395.65
 20
-44.0
 30
0.0
 40
122.0000000000001
 50
290.6211131219
 51
294.3788868781
  0
LINE
  5
3DD
  8
VIDITELNE
  6
SLD-PLNÁ
 62
     2
 10
-345.2922038645
 20
-155.1219706826
 30
0.0
 11
-355.6317960642
 21
-130.1599869647
 31
0.0
  0
ARC
  5
3DE
  8
VIDITELNE
  6
SLD-PLNÁ
 62
     2
 10
-395.65
 20
-44.0
 30
0.0
 40
122.0000000000001
 50
245.6211131219
 51
249.3788868781
  0
LINE
  5
3DF
  8
VIDITELNE
  6
SLD-PLNÁ
 62
     2
 10
-438.6167598754
 20
-158.1834381415
 30
0.0
 11
-428.2771676757
 21
-133.2214544236
 31
0.0
  0
LINE
  5
3E0
  8
VIDITELNE
  6
SLD-PLNÁ
 62
     2
 10
-435.6682039358
 20
-130.1599869647
 30
0.0
 11
-446.0077961355
 21
-155.1219706826
 31
0.0
  0
ARC
  5
3E1
  8
VIDITELNE
  6
SLD-PLNÁ
 62
     2
 10
-395.65
 20
-44.0
 30
0.0
 40
101.6395280956809
 50
249.7554445434
 51
290.2445554566
  0
ARC
  5
3E2
  8
VIDITELNE
  6
SLD-PLNÁ
 62
     2
 10
-395.65
 20
-44.0
 30
0.0
 40
101.6395280956809
 50
294.7554445434
 51
335.2445554566
  0
CIRCLE
  5
3E3
  8
VIDITELNE
  6
SLD-PLNÁ
 62
     2
 10
-337.3136905521
 20
-102.3363094479
 30
0.0
 40
5.25
  0
LINE
  5
3E4
  8
VIDITELNE
  6
SLD-PLNÁ
 62
     2
 10
-309.4900130353
 20
-84.0182039358
 30
0.0
 11
-284.5280293174
 21
-94.3577961355
 31
0.0
  0
ARC
  5
3E5
  8
VIDITELNE
  6
SLD-PLNÁ
 62
     2
 10
-395.65
 20
-44.0
 30
0.0
 40
122.0000000000001
 50
335.6211131219
 51
339.3788868781
  0
LINE
  5
3E6
  8
VIDITELNE
  6
SLD-PLNÁ
 62
     2
 10
-281.4665618585
 20
-86.9667598754
 30
0.0
 11
-306.4285455764
 21
-76.6271676757
 31
0.0
  0
ARC
  5
3E7
  8
VIDITELNE
  6
SLD-PLNÁ
 62
     2
 10
-395.65
 20
-44.0
 30
0.0
 40
101.6395280956808
 50
339.7554445434
 51
20.2445554566
  0
ARC
  5
3E8
  8
VIDITELNE
  6
SLD-PLNÁ
 62
     2
 10
-395.65
 20
-44.0
 30
0.0
 40
101.6395280956807
 50
159.7554445434
 51
200.2445554566
  0
LINE
  5
3E9
  8
VIDITELNE
  6
SLD-PLNÁ
 62
     2
 10
-506.7719706826
 20
-94.3577961355
 30
0.0
 11
-481.8099869647
 21
-84.0182039358
 31
0.0
  0
ARC
  5
3EA
  8
VIDITELNE
  6
SLD-PLNÁ
 62
     2
 10
-395.65
 20
-44.0
 30
0.0
 40
122.0000000000001
 50
200.6211131219
 51
204.3788868781
  0
LINE
  5
3EB
  8
VIDITELNE
  6
SLD-PLNÁ
 62
     2
 10
-484.8714544236
 20
-76.6271676757
 30
0.0
 11
-509.8334381415
 21
-86.9667598754
 31
0.0
  0
CIRCLE
  5
3EC
  8
VIDITELNE
  6
SLD-PLNÁ
 62
     2
 10
-453.9863094479
 20
14.3363094479
 30
0.0
 40
5.25
  0
ARC
  5
3ED
  8
VIDITELNE
  6
SLD-PLNÁ
 62
     2
 10
-395.65
 20
-44.0
 30
0.0
 40
101.6395280956806
 50
24.7554445434
 51
65.2445554566
  0
ARC
  5
3EE
  8
VIDITELNE
  6
SLD-PLNÁ
 62
     2
 10
-395.65
 20
-44.0
 30
0.0
 40
101.6395280956807
 50
114.7554445434
 51
155.2445554566
  0
LINE
  5
3EF
  8
VIDITELNE
  6
SLD-PLNÁ
 62
     2
 10
-284.5280293174
 20
6.3577961355
 30
0.0
 11
-309.4900130353
 21
-3.9817960642
 31
0.0
  0
ARC
  5
3F0
  8
VIDITELNE
  6
SLD-PLNÁ
 62
     2
 10
-395.65
 20
-44.0
 30
0.0
 40
121.9999999999992
 50
20.6211131219
 51
24.3788868781
  0
LINE
  5
3F1
  8
VIDITELNE
  6
SLD-PLNÁ
 62
     2
 10
-306.4285455764
 20
-11.3728323243
 30
0.0
 11
-281.4665618585
 21
-1.0332401246
 31
0.0
  0
ARC
  5
3F2
  8
VIDITELNE
  6
SLD-PLNÁ
 62
     2
 10
-395.65
 20
-44.0
 30
0.0
 40
101.6395280956806
 50
69.7554445434
 51
110.2445554566
  0
LINE
  5
3F3
  8
VIDITELNE
  6
SLD-PLNÁ
 62
     2
 10
-355.6317960642
 20
42.1599869647
 30
0.0
 11
-345.2922038645
 21
67.1219706826
 31
0.0
  0
ARC
  5
3F4
  8
VIDITELNE
  6
SLD-PLNÁ
 62
     2
 10
-395.65
 20
-44.0
 30
0.0
 40
121.9999999999999
 50
65.6211131219
 51
69.3788868781
  0
LINE
  5
3F5
  8
VIDITELNE
  6
SLD-PLNÁ
 62
     2
 10
-352.6832401246
 20
70.1834381415
 30
0.0
 11
-363.0228323243
 21
45.2214544236
 31
0.0
  0
LINE
  5
3F6
  8
VIDITELNE
  6
SLD-PLNÁ
 62
     2
 10
-428.2771676757
 20
45.2214544236
 30
0.0
 11
-438.6167598754
 21
70.1834381415
 31
0.0
  0
ARC
  5
3F7
  8
VIDITELNE
  6
SLD-PLNÁ
 62
     2
 10
-395.65
 20
-44.0
 30
0.0
 40
121.9999999999999
 50
110.6211131219
 51
114.3788868781
  0
LINE
  5
3F8
  8
VIDITELNE
  6
SLD-PLNÁ
 62
     2
 10
-446.0077961355
 20
67.1219706826
 30
0.0
 11
-435.6682039358
 21
42.1599869647
 31
0.0
  0
ARC
  5
3F9
  8
VIDITELNE
  6
SLD-PLNÁ
 62
     2
 10
-395.65
 20
-44.0
 30
0.0
 40
122.0000000000008
 50
155.6211131219
 51
159.3788868781
  0
LINE
  5
3FA
  8
VIDITELNE
  6
SLD-PLNÁ
 62
     2
 10
-509.8334381415
 20
-1.0332401246
 30
0.0
 11
-484.8714544236
 21
-11.3728323243
 31
0.0
  0
LINE
  5
3FB
  8
VIDITELNE
  6
SLD-PLNÁ
 62
     2
 10
-481.8099869647
 20
-3.9817960642
 30
0.0
 11
-506.7719706826
 21
6.3577961355
 31
0.0
  0
CIRCLE
  5
3FC
  8
VIDITELNE
  6
SLD-PLNÁ
 62
     2
 10
-453.9863094479
 20
-102.3363094479
 30
0.0
 40
5.250000000000057
  0
CIRCLE
  5
3FD
  8
VIDITELNE
  6
SLD-PLNÁ
 62
     2
 10
-395.65
 20
-159.0
 30
0.0
 40
7.000000000000455
  0
CIRCLE
  5
3FE
  8
VIDITELNE
  6
SLD-PLNÁ
 62
     2
 10
-395.65
 20
-159.0
 30
0.0
 40
8.000000000000455
  0
CIRCLE
  5
3FF
  8
VIDITELNE
  6
SLD-PLNÁ
 62
     2
 10
-314.3327201635
 20
-125.3172798365
 30
0.0
 40
7.000000000000171
  0
CIRCLE
  5
400
  8
VIDITELNE
  6
SLD-PLNÁ
 62
     2
 10
-314.3327201635
 20
-125.3172798365
 30
0.0
 40
8.00000000000017
  0
CIRCLE
  5
401
  8
VIDITELNE
  6
SLD-PLNÁ
 62
     2
 10
-476.9672798365
 20
-125.3172798365
 30
0.0
 40
7.000000000000853
  0
CIRCLE
  5
402
  8
VIDITELNE
  6
SLD-PLNÁ
 62
     2
 10
-476.9672798365
 20
-125.3172798365
 30
0.0
 40
8.000000000000853
  0
CIRCLE
  5
403
  8
VIDITELNE
  6
SLD-PLNÁ
 62
     2
 10
-510.65
 20
-44.0
 30
0.0
 40
7.000000000003354
  0
CIRCLE
  5
404
  8
VIDITELNE
  6
SLD-PLNÁ
 62
     2
 10
-476.9672798365
 20
37.3172798365
 30
0.0
 40
7.000000000001307
  0
CIRCLE
  5
405
  8
VIDITELNE
  6
SLD-PLNÁ
 62
     2
 10
-476.9672798365
 20
37.3172798365
 30
0.0
 40
8.000000000001307
  0
CIRCLE
  5
406
  8
VIDITELNE
  6
SLD-PLNÁ
 62
     2
 10
-510.65
 20
-44.0
 30
0.0
 40
8.00000000000324
  0
CIRCLE
  5
407
  8
VIDITELNE
  6
SLD-PLNÁ
 62
     2
 10
-280.65
 20
-44.0
 30
0.0
 40
7.000000000000057
  0
CIRCLE
  5
408
  8
VIDITELNE
  6
SLD-PLNÁ
 62
     2
 10
-280.65
 20
-44.0
 30
0.0
 40
8.000000000000057
  0
CIRCLE
  5
409
  8
VIDITELNE
  6
SLD-PLNÁ
 62
     2
 10
-395.65
 20
71.0
 30
0.0
 40
7.0
  0
CIRCLE
  5
40A
  8
VIDITELNE
  6
SLD-PLNÁ
 62
     2
 10
-395.65
 20
71.0
 30
0.0
 40
8.0
  0
CIRCLE
  5
40B
  8
VIDITELNE
  6
SLD-PLNÁ
 62
     2
 10
-314.3327201635
 20
37.3172798365
 30
0.0
 40
7.0
  0
CIRCLE
  5
40C
  8
VIDITELNE
  6
SLD-PLNÁ
 62
     2
 10
-314.3327201635
 20
37.3172798365
 30
0.0
 40
8.0
  0
CIRCLE
  5
40D
  8
VIDITELNE
  6
SLD-PLNÁ
 62
     2
 10
-395.65
 20
-44.0
 30
0.0
 40
124.6158715355908
  0
LINE
  5
40E
  8
VIDITELNE
  6
SLD-PLNÁ
 62
     2
 10
-547.65
 20
76.0
 30
0.0
 11
-547.65
 21
176.0
 31
0.0
  0
LINE
  5
40F
  8
VIDITELNE
  6
SLD-PLNÁ
 62
     2
 10
-547.65
 20
-24.0
 30
0.0
 11
-547.65
 21
76.0
 31
0.0
  0
LINE
  5
410
  8
VIDITELNE
  6
SLD-PLNÁ
 62
     2
 10
-535.65
 20
76.0
 30
0.0
 11
-535.65
 21
173.6495732165
 31
0.0
  0
LINE
  5
411
  8
VIDITELNE
  6
SLD-PLNÁ
 62
     2
 10
-535.65
 20
-21.6495732165
 30
0.0
 11
-535.65
 21
76.0
 31
0.0
  0
POLYLINE
  5
412
  8
VIDITELNE
  6
SLD-PLNÁ
 62
     2
 66
     1
 10
0.0
 20
0.0
 30
0.0
  0
VERTEX
  5
855
  8
VIDITELNE
  6
SLD-PLNÁ
 62
     2
 10
-404.1692554554
 20
136.1914394645
 30
0.0
  0
VERTEX
  5
856
  8
VIDITELNE
  6
SLD-PLNÁ
 62
     2
 10
-404.6487081846
 20
134.6277756026
 30
0.0
  0
VERTEX
  5
857
  8
VIDITELNE
  6
SLD-PLNÁ
 62
     2
 10
-405.3041849041
 20
133.2880196604
 30
0.0
  0
VERTEX
  5
858
  8
VIDITELNE
  6
SLD-PLNÁ
 62
     2
 10
-405.9889337185
 20
132.2245975606
 30
0.0
  0
VERTEX
  5
859
  8
VIDITELNE
  6
SLD-PLNÁ
 62
     2
 10
-406.5419378384
 20
131.4940745027
 30
0.0
  0
VERTEX
  5
85A
  8
VIDITELNE
  6
SLD-PLNÁ
 62
     2
 10
-406.7563948069
 20
131.2318831232
 30
0.0
  0
VERTEX
  5
85B
  8
VIDITELNE
  6
SLD-PLNÁ
 62
     2
 10
-406.752505923
 20
131.2366290093
 30
0.0
  0
SEQEND
  5
85C
  8
VIDITELNE
  6
SLD-PLNÁ
 62
     2
  0
LINE
  5
413
  8
VIDITELNE
  6
SLD-PLNÁ
 62
     2
 10
-387.1307445446
 20
136.1914394645
 30
0.0
 11
-404.1692554554
 21
136.1914394645
 31
0.0
  0
ARC
  5
414
  8
VIDITELNE
  6
SLD-PLNÁ
 62
     2
 10
-375.6802414125
 20
139.0104856597
 30
0.0
 40
11.79241465640289
 50
193.8308250074
 51
221.2409797489
  0
ARC
  5
415
  8
VIDITELNE
  6
SLD-PLNÁ
 62
     2
 10
-401.1692358746
 20
135.6506902044
 30
0.0
 40
3.048364684108892
 50
102.6620759841
 51
169.7822314405
  0
LINE
  5
416
  8
VIDITELNE
  6
SLD-PLNÁ
 62
     2
 10
-389.4625612119
 20
138.6249181906
 30
0.0
 11
-401.8374387881
 21
138.6249181906
 31
0.0
  0
ARC
  5
417
  8
VIDITELNE
  6
SLD-PLNÁ
 62
     2
 10
-390.0964800131
 20
135.6835420488
 30
0.0
 40
3.008911207379326
 50
9.7179245609
 51
77.8377680145
  0
ARC
  5
418
  8
VIDITELNE
  6
SLD-PLNÁ
 62
     2
 10
-386.0577489244
 20
61.6633588613
 30
0.0
 40
78.56258795756418
 50
97.0131380634
 51
101.5869624879
  0
ARC
  5
419
  8
VIDITELNE
  6
SLD-PLNÁ
 62
     2
 10
-399.6265383251
 20
95.9562839898
 30
0.0
 40
43.86249850747929
 50
76.6014300383
 51
84.7984694104
  0
LINE
  5
41A
  8
VIDITELNE
  6
SLD-PLNÁ
 62
     2
 10
-395.65
 20
139.6381557247
 30
0.0
 11
-395.65
 21
140.0
 31
0.0
  0
LINE
  5
41B
  8
VIDITELNE
  6
SLD-PLNÁ
 62
     2
 10
-395.65
 20
164.000004668
 30
0.0
 11
-395.65
 21
172.0
 31
0.0
  0
LINE
  5
41C
  8
VIDITELNE
  6
SLD-PLNÁ
 62
     2
 10
-257.65
 20
102.8779187065
 30
0.0
 11
-257.65
 21
128.2823353313
 31
0.0
  0
LINE
  5
41D
  8
VIDITELNE
  6
SLD-PLNÁ
 62
     2
 10
-257.65
 20
50.5955833752
 30
0.0
 11
-257.65
 21
101.4044166248
 31
0.0
  0
LINE
  5
41E
  8
VIDITELNE
  6
SLD-PLNÁ
 62
     2
 10
-257.65
 20
23.7176646687
 30
0.0
 11
-257.65
 21
49.1220812935
 31
0.0
  0
LINE
  5
41F
  8
VIDITELNE
  6
SLD-PLNÁ
 62
     2
 10
-252.35
 20
55.3867513459
 30
0.0
 11
-257.65
 21
55.3867513459
 31
0.0
  0
LINE
  5
420
  8
VIDITELNE
  6
SLD-PLNÁ
 62
     2
 10
-252.35
 20
55.3867513459
 30
0.0
 11
-252.35
 21
49.6132486541
 31
0.0
  0
LINE
  5
421
  8
VIDITELNE
  6
SLD-PLNÁ
 62
     2
 10
-252.35
 20
49.6132486541
 30
0.0
 11
-257.65
 21
49.6132486541
 31
0.0
  0
LINE
  5
422
  8
VIDITELNE
  6
SLD-PLNÁ
 62
     2
 10
-257.65
 20
50.5955833752
 30
0.0
 11
-257.65
 21
49.6132486541
 31
0.0
  0
LINE
  5
423
  8
VIDITELNE
  6
SLD-PLNÁ
 62
     2
 10
-252.35
 20
46.7264973081
 30
0.0
 11
-257.65
 21
46.7264973081
 31
0.0
  0
LINE
  5
424
  8
VIDITELNE
  6
SLD-PLNÁ
 62
     2
 10
-252.35
 20
49.6132486541
 30
0.0
 11
-252.35
 21
46.7264973081
 31
0.0
  0
LINE
  5
425
  8
VIDITELNE
  6
SLD-PLNÁ
 62
     2
 10
-257.65
 20
49.6132486541
 30
0.0
 11
-257.65
 21
49.1220812935
 31
0.0
  0
LINE
  5
426
  8
VIDITELNE
  6
SLD-PLNÁ
 62
     2
 10
-252.35
 20
58.2735026919
 30
0.0
 11
-257.65
 21
58.2735026919
 31
0.0
  0
LINE
  5
427
  8
VIDITELNE
  6
SLD-PLNÁ
 62
     2
 10
-252.35
 20
58.2735026919
 30
0.0
 11
-252.35
 21
55.3867513459
 31
0.0
  0
LINE
  5
428
  8
VIDITELNE
  6
SLD-PLNÁ
 62
     2
 10
-252.35
 20
96.6132486541
 30
0.0
 11
-257.65
 21
96.6132486541
 31
0.0
  0
LINE
  5
429
  8
VIDITELNE
  6
SLD-PLNÁ
 62
     2
 10
-252.35
 20
93.7264973081
 30
0.0
 11
-257.65
 21
93.7264973081
 31
0.0
  0
LINE
  5
42A
  8
VIDITELNE
  6
SLD-PLNÁ
 62
     2
 10
-252.35
 20
96.6132486541
 30
0.0
 11
-252.35
 21
93.7264973081
 31
0.0
  0
LINE
  5
42B
  8
VIDITELNE
  6
SLD-PLNÁ
 62
     2
 10
-252.35
 20
102.3867513459
 30
0.0
 11
-257.65
 21
102.3867513459
 31
0.0
  0
LINE
  5
42C
  8
VIDITELNE
  6
SLD-PLNÁ
 62
     2
 10
-257.65
 20
102.3867513459
 30
0.0
 11
-257.65
 21
101.4044166248
 31
0.0
  0
LINE
  5
42D
  8
VIDITELNE
  6
SLD-PLNÁ
 62
     2
 10
-252.35
 20
102.3867513459
 30
0.0
 11
-252.35
 21
96.6132486541
 31
0.0
  0
LINE
  5
42E
  8
VIDITELNE
  6
SLD-PLNÁ
 62
     2
 10
-252.35
 20
105.2735026919
 30
0.0
 11
-257.65
 21
105.2735026919
 31
0.0
  0
LINE
  5
42F
  8
VIDITELNE
  6
SLD-PLNÁ
 62
     2
 10
-257.65
 20
102.8779187065
 30
0.0
 11
-257.65
 21
102.3867513459
 31
0.0
  0
LINE
  5
430
  8
VIDITELNE
  6
SLD-PLNÁ
 62
     2
 10
-252.35
 20
105.2735026919
 30
0.0
 11
-252.35
 21
102.3867513459
 31
0.0
  0
LINE
  5
431
  8
VIDITELNE
  6
SLD-PLNÁ
 62
     2
 10
-252.35
 20
26.1132486541
 30
0.0
 11
-257.65
 21
26.1132486541
 31
0.0
  0
LINE
  5
432
  8
VIDITELNE
  6
SLD-PLNÁ
 62
     2
 10
-252.35
 20
26.1132486541
 30
0.0
 11
-252.35
 21
23.2264973081
 31
0.0
  0
LINE
  5
433
  8
VIDITELNE
  6
SLD-PLNÁ
 62
     2
 10
-252.35
 20
23.2264973081
 30
0.0
 11
-257.65
 21
23.2264973081
 31
0.0
  0
LINE
  5
434
  8
VIDITELNE
  6
SLD-PLNÁ
 62
     2
 10
-257.65
 20
23.7176646687
 30
0.0
 11
-257.65
 21
23.2264973081
 31
0.0
  0
LINE
  5
435
  8
VIDITELNE
  6
SLD-PLNÁ
 62
     2
 10
-252.35
 20
31.8867513459
 30
0.0
 11
-257.65
 21
31.8867513459
 31
0.0
  0
LINE
  5
436
  8
VIDITELNE
  6
SLD-PLNÁ
 62
     2
 10
-252.35
 20
31.8867513459
 30
0.0
 11
-252.35
 21
26.1132486541
 31
0.0
  0
LINE
  5
437
  8
VIDITELNE
  6
SLD-PLNÁ
 62
     2
 10
-252.35
 20
34.7735026919
 30
0.0
 11
-257.65
 21
34.7735026919
 31
0.0
  0
LINE
  5
438
  8
VIDITELNE
  6
SLD-PLNÁ
 62
     2
 10
-252.35
 20
34.7735026919
 30
0.0
 11
-252.35
 21
31.8867513459
 31
0.0
  0
LINE
  5
439
  8
VIDITELNE
  6
SLD-PLNÁ
 62
     2
 10
-252.35
 20
120.1132486541
 30
0.0
 11
-257.65
 21
120.1132486541
 31
0.0
  0
LINE
  5
43A
  8
VIDITELNE
  6
SLD-PLNÁ
 62
     2
 10
-252.35
 20
120.1132486541
 30
0.0
 11
-252.35
 21
117.2264973081
 31
0.0
  0
LINE
  5
43B
  8
VIDITELNE
  6
SLD-PLNÁ
 62
     2
 10
-252.35
 20
117.2264973081
 30
0.0
 11
-257.65
 21
117.2264973081
 31
0.0
  0
LINE
  5
43C
  8
VIDITELNE
  6
SLD-PLNÁ
 62
     2
 10
-252.35
 20
125.8867513459
 30
0.0
 11
-257.65
 21
125.8867513459
 31
0.0
  0
LINE
  5
43D
  8
VIDITELNE
  6
SLD-PLNÁ
 62
     2
 10
-252.35
 20
125.8867513459
 30
0.0
 11
-252.35
 21
120.1132486541
 31
0.0
  0
LINE
  5
43E
  8
VIDITELNE
  6
SLD-PLNÁ
 62
     2
 10
-252.35
 20
128.7735026919
 30
0.0
 11
-257.65
 21
128.7735026919
 31
0.0
  0
LINE
  5
43F
  8
VIDITELNE
  6
SLD-PLNÁ
 62
     2
 10
-257.65
 20
128.7735026919
 30
0.0
 11
-257.65
 21
128.2823353313
 31
0.0
  0
LINE
  5
440
  8
VIDITELNE
  6
SLD-PLNÁ
 62
     2
 10
-252.35
 20
128.7735026919
 30
0.0
 11
-252.35
 21
125.8867513459
 31
0.0
  0
LINE
  5
441
  8
VIDITELNE
  6
SLD-PLNÁ
 62
     2
 10
-522.65
 20
21.0
 30
0.0
 11
-522.65
 21
55.7598292458
 31
0.0
  0
ARC
  5
442
  8
VIDITELNE
  6
SLD-PLNÁ
 62
     2
 10
-395.6495525654
 20
-71.9339192738
 30
0.0
 40
99.06540900643166
 50
261.2907949276
 51
278.6803601965
  0
LINE
  5
443
  8
VIDITELNE
  6
SLD-PLNÁ
 62
     2
 10
-269.15
 20
-19.0635083269
 30
0.0
 11
-269.15
 21
-4.0
 31
0.0
  0
LINE
  5
444
  8
VIDITELNE
  6
SLD-PLNÁ
 62
     2
 10
-264.65
 20
-14.5
 30
0.0
 11
-264.65
 21
6.5
 31
0.0
  0
LINE
  5
445
  8
VIDITELNE
  6
SLD-PLNÁ
 62
     2
 10
-406.15
 20
-175.0
 30
0.0
 11
-385.15
 21
-175.0
 31
0.0
  0
LINE
  5
446
  8
VIDITELNE
  6
SLD-PLNÁ
 62
     2
 10
-475.15
 20
132.0
 30
0.0
 11
-496.15
 21
132.0
 31
0.0
  0
LINE
  5
447
  8
VIDITELNE
  6
SLD-PLNÁ
 62
     2
 10
-537.5802010066
 20
76.0
 30
0.0
 11
-537.5802010066
 21
175.6483548705
 31
0.0
  0
LINE
  5
448
  8
VIDITELNE
  6
SLD-PLNÁ
 62
     2
 10
-537.5802010066
 20
-23.6483548705
 30
0.0
 11
-537.5802010066
 21
76.0
 31
0.0
  0
LINE
  5
449
  8
VIDITELNE
  6
SLD-PLNÁ
 62
     2
 10
-532.7546984901
 20
76.0
 30
0.0
 11
-532.7546984901
 21
131.2481015383
 31
0.0
  0
LINE
  5
44A
  8
VIDITELNE
  6
SLD-PLNÁ
 62
     2
 10
-532.7546984901
 20
20.7518984617
 30
0.0
 11
-532.7546984901
 21
76.0
 31
0.0
  0
LINE
  5
44B
  8
VIDITELNE
  6
SLD-PLNÁ
 62
     2
 10
-259.5802010066
 20
76.0
 30
0.0
 11
-259.5802010066
 21
130.2880379485
 31
0.0
  0
LINE
  5
44C
  8
VIDITELNE
  6
SLD-PLNÁ
 62
     2
 10
-259.5802010066
 20
21.7119620515
 30
0.0
 11
-259.5802010066
 21
76.0
 31
0.0
  0
LINE
  5
44D
  8
VIDITELNE
  6
SLD-PLNÁ
 62
     2
 10
522.65
 20
21.0
 30
0.0
 11
525.65
 21
21.0
 31
0.0
  0
LINE
  5
44E
  8
VIDITELNE
  6
SLD-PLNÁ
 62
     2
 10
380.6725757509
 20
131.0
 30
0.0
 11
265.65
 21
131.0
 31
0.0
  0
LINE
  5
44F
  8
VIDITELNE
  6
SLD-PLNÁ
 62
     2
 10
470.6725757509
 20
131.0
 30
0.0
 11
410.65
 21
131.0
 31
0.0
  0
LINE
  5
450
  8
VIDITELNE
  6
SLD-PLNÁ
 62
     2
 10
525.65
 20
131.0
 30
0.0
 11
500.65
 21
131.0
 31
0.0
  0
ARC
  5
451
  8
VIDITELNE
  6
SLD-PLNÁ
 62
     2
 10
522.65
 20
19.0
 30
0.0
 40
2.0
 50
90.0
 51
180.0
  0
POLYLINE
  5
452
  8
VIDITELNE
  6
SLD-PLNÁ
 62
     2
 66
     1
 10
0.0
 20
0.0
 30
0.0
  0
VERTEX
  5
85D
  8
VIDITELNE
  6
SLD-PLNÁ
 62
     2
 10
412.1141288893
 20
-167.9328646635
 30
0.0
  0
VERTEX
  5
85E
  8
VIDITELNE
  6
SLD-PLNÁ
 62
     2
 10
412.1875553177
 20
-167.911297919
 30
0.0
  0
VERTEX
  5
85F
  8
VIDITELNE
  6
SLD-PLNÁ
 62
     2
 10
412.2993830525
 20
-167.8881545261
 30
0.0
  0
VERTEX
  5
860
  8
VIDITELNE
  6
SLD-PLNÁ
 62
     2
 10
412.3273354801
 20
-167.8834020592
 30
0.0
  0
VERTEX
  5
861
  8
VIDITELNE
  6
SLD-PLNÁ
 62
     2
 10
412.3414562487
 20
-167.8811563795
 30
0.0
  0
VERTEX
  5
862
  8
VIDITELNE
  6
SLD-PLNÁ
 62
     2
 10
412.3520257855
 20
-167.8795436769
 30
0.0
  0
VERTEX
  5
863
  8
VIDITELNE
  6
SLD-PLNÁ
 62
     2
 10
412.3615264424
 20
-167.8781444626
 30
0.0
  0
VERTEX
  5
864
  8
VIDITELNE
  6
SLD-PLNÁ
 62
     2
 10
412.3694398601
 20
-167.8770173835
 30
0.0
  0
VERTEX
  5
865
  8
VIDITELNE
  6
SLD-PLNÁ
 62
     2
 10
412.3683546592
 20
-167.877164036
 30
0.0
  0
SEQEND
  5
866
  8
VIDITELNE
  6
SLD-PLNÁ
 62
     2
  0
ARC
  5
453
  8
VIDITELNE
  6
SLD-PLNÁ
 62
     2
 10
412.5987725213
 20
-169.7995736346
 30
0.0
 40
1.928595818956531
 50
104.5540692358
 51
181.3057894832
  0
ARC
  5
454
  8
VIDITELNE
  6
SLD-PLNÁ
 62
     2
 10
378.7939306959
 20
-169.7339876615
 30
0.0
 40
1.835779216542781
 50
356.1152580697
 51
73.7789946987
  0
ARC
  5
455
  8
VIDITELNE
  6
SLD-PLNÁ
 62
     2
 10
268.65
 20
-21.0
 30
0.0
 40
2.0
 50
0.0
 51
75.5224878141
  0
ARC
  5
456
  8
VIDITELNE
  6
SLD-PLNÁ
 62
     2
 10
265.65
 20
19.0
 30
0.0
 40
2.0
 50
0.0
 51
90.0
  0
ARC
  5
457
  8
VIDITELNE
  6
SLD-PLNÁ
 62
     2
 10
269.65
 20
-17.1270166538
 30
0.0
 40
2.000000000000016
 50
180.0
 51
255.5224878141
  0
LINE
  5
458
  8
VIDITELNE
  6
SLD-PLNÁ
 62
     2
 10
380.65
 20
-169.8645544299
 30
0.0
 11
380.65
 21
-172.0
 31
0.0
  0
LINE
  5
459
  8
VIDITELNE
  6
SLD-PLNÁ
 62
     2
 10
410.65
 20
-172.0
 30
0.0
 11
410.65
 21
-169.8570617804
 31
0.0
  0
LINE
  5
45A
  8
VIDITELNE
  6
SLD-PLNÁ
 62
     2
 10
385.15
 20
-172.0
 30
0.0
 11
385.15
 21
-175.0
 31
0.0
  0
LINE
  5
45B
  8
VIDITELNE
  6
SLD-PLNÁ
 62
     2
 10
406.15
 20
-175.0
 30
0.0
 11
406.15
 21
-172.0
 31
0.0
  0
ARC
  5
45C
  8
VIDITELNE
  6
SLD-PLNÁ
 62
     2
 10
405.15
 20
-175.0
 30
0.0
 40
1.0
 50
270.0
 51
0.0
  0
ARC
  5
45D
  8
VIDITELNE
  6
SLD-PLNÁ
 62
     2
 10
386.15
 20
-175.0
 30
0.0
 40
1.0
 50
180.0
 51
270.0
  0
LINE
  5
45E
  8
VIDITELNE
  6
SLD-PLNÁ
 62
     2
 10
267.65
 20
6.5
 30
0.0
 11
264.65
 21
6.5
 31
0.0
  0
LINE
  5
45F
  8
VIDITELNE
  6
SLD-PLNÁ
 62
     2
 10
264.65
 20
-14.5
 30
0.0
 11
267.65
 21
-14.5
 31
0.0
  0
ARC
  5
460
  8
VIDITELNE
  6
SLD-PLNÁ
 62
     2
 10
264.65
 20
-13.5
 30
0.0
 40
1.0
 50
180.0
 51
270.0
  0
ARC
  5
461
  8
VIDITELNE
  6
SLD-PLNÁ
 62
     2
 10
264.65
 20
5.5
 30
0.0
 40
1.0
 50
90.0
 51
180.0
  0
ARC
  5
462
  8
VIDITELNE
  6
SLD-PLNÁ
 62
     2
 10
476.15
 20
132.0
 30
0.0
 40
1.0
 50
90.0
 51
180.0
  0
ARC
  5
463
  8
VIDITELNE
  6
SLD-PLNÁ
 62
     2
 10
495.15
 20
132.0
 30
0.0
 40
1.0
 50
0.0
 51
90.0
  0
LINE
  5
464
  8
VIDITELNE
  6
SLD-PLNÁ
 62
     2
 10
496.15
 20
129.9503855205
 30
0.0
 11
496.15
 21
132.0
 31
0.0
  0
LINE
  5
465
  8
VIDITELNE
  6
SLD-PLNÁ
 62
     2
 10
475.15
 20
132.0
 30
0.0
 11
475.15
 21
129.9538204682
 31
0.0
  0
LINE
  5
466
  8
VIDITELNE
  6
SLD-PLNÁ
 62
     2
 10
547.65
 20
176.0
 30
0.0
 11
537.5802010066
 21
175.6483548705
 31
0.0
  0
LINE
  5
467
  8
VIDITELNE
  6
SLD-PLNÁ
 62
     2
 10
537.5802010066
 20
-23.6483548705
 30
0.0
 11
547.65
 21
-24.0
 31
0.0
  0
ARC
  5
468
  8
VIDITELNE
  6
SLD-PLNÁ
 62
     2
 10
537.65
 20
173.6495732165
 30
0.0
 40
2.0
 50
92.0
 51
180.0
  0
ARC
  5
469
  8
VIDITELNE
  6
SLD-PLNÁ
 62
     2
 10
537.65
 20
-21.6495732165
 30
0.0
 40
2.0
 50
180.0
 51
268.0
  0
ARC
  5
46A
  8
VIDITELNE
  6
SLD-PLNÁ
 62
     2
 10
532.65
 20
134.2462740193
 30
0.0
 40
3.000000000000025
 50
272.0
 51
0.0
  0
ARC
  5
46B
  8
VIDITELNE
  6
SLD-PLNÁ
 62
     2
 10
532.65
 20
17.7537259807
 30
0.0
 40
3.000000000000011
 50
0.0
 51
88.0
  0
LINE
  5
46C
  8
VIDITELNE
  6
SLD-PLNÁ
 62
     2
 10
532.7546984901
 20
131.2481015383
 30
0.0
 11
525.65
 21
131.0
 31
0.0
  0
LINE
  5
46D
  8
VIDITELNE
  6
SLD-PLNÁ
 62
     2
 10
525.65
 20
21.0
 30
0.0
 11
532.7546984901
 21
20.7518984617
 31
0.0
  0
LINE
  5
46E
  8
VIDITELNE
  6
SLD-PLNÁ
 62
     2
 10
406.9535078104
 20
130.1143625827
 30
0.0
 11
406.7555279998
 21
131.237161883
 31
0.0
  0
LINE
  5
46F
  8
VIDITELNE
  6
SLD-PLNÁ
 62
     2
 10
384.5444667725
 20
131.237132235
 30
0.0
 11
384.3459515414
 21
130.1112964142
 31
0.0
  0
POLYLINE
  5
470
  8
VIDITELNE
  6
SLD-PLNÁ
 62
     2
 66
     1
 10
0.0
 20
0.0
 30
0.0
  0
VERTEX
  5
867
  8
VIDITELNE
  6
SLD-PLNÁ
 62
     2
 10
395.65
 20
139.9999970044
 30
0.0
  0
VERTEX
  5
868
  8
VIDITELNE
  6
SLD-PLNÁ
 62
     2
 10
393.5571808081
 20
140.0751167251
 30
0.0
  0
VERTEX
  5
869
  8
VIDITELNE
  6
SLD-PLNÁ
 62
     2
 10
391.737942639
 20
140.4779205152
 30
0.0
  0
VERTEX
  5
86A
  8
VIDITELNE
  6
SLD-PLNÁ
 62
     2
 10
390.2266253041
 20
141.0655231463
 30
0.0
  0
VERTEX
  5
86B
  8
VIDITELNE
  6
SLD-PLNÁ
 62
     2
 10
389.0222162617
 20
141.7304029164
 30
0.0
  0
VERTEX
  5
86C
  8
VIDITELNE
  6
SLD-PLNÁ
 62
     2
 10
387.3382754892
 20
143.0326723646
 30
0.0
  0
VERTEX
  5
86D
  8
VIDITELNE
  6
SLD-PLNÁ
 62
     2
 10
386.0347317433
 20
144.4742959825
 30
0.0
  0
VERTEX
  5
86E
  8
VIDITELNE
  6
SLD-PLNÁ
 62
     2
 10
384.2851959955
 20
147.7424726559
 30
0.0
  0
VERTEX
  5
86F
  8
VIDITELNE
  6
SLD-PLNÁ
 62
     2
 10
383.8054055538
 20
149.6109429624
 30
0.0
  0
VERTEX
  5
870
  8
VIDITELNE
  6
SLD-PLNÁ
 62
     2
 10
383.633662094
 20
151.7547776654
 30
0.0
  0
VERTEX
  5
871
  8
VIDITELNE
  6
SLD-PLNÁ
 62
     2
 10
383.8620970784
 20
153.9747213596
 30
0.0
  0
VERTEX
  5
872
  8
VIDITELNE
  6
SLD-PLNÁ
 62
     2
 10
384.4127371346
 20
155.9079192091
 30
0.0
  0
VERTEX
  5
873
  8
VIDITELNE
  6
SLD-PLNÁ
 62
     2
 10
385.207252952
 20
157.6111396459
 30
0.0
  0
VERTEX
  5
874
  8
VIDITELNE
  6
SLD-PLNÁ
 62
     2
 10
386.3315750317
 20
159.2752100041
 30
0.0
  0
VERTEX
  5
875
  8
VIDITELNE
  6
SLD-PLNÁ
 62
     2
 10
387.8257636668
 20
160.8410480743
 30
0.0
  0
VERTEX
  5
876
  8
VIDITELNE
  6
SLD-PLNÁ
 62
     2
 10
389.7217008332
 20
162.2211952197
 30
0.0
  0
VERTEX
  5
877
  8
VIDITELNE
  6
SLD-PLNÁ
 62
     2
 10
392.2733981945
 20
163.3791155065
 30
0.0
  0
VERTEX
  5
878
  8
VIDITELNE
  6
SLD-PLNÁ
 62
     2
 10
395.65
 20
164.0
 30
0.0
  0
SEQEND
  5
879
  8
VIDITELNE
  6
SLD-PLNÁ
 62
     2
  0
POLYLINE
  5
471
  8
VIDITELNE
  6
SLD-PLNÁ
 62
     2
 66
     1
 10
0.0
 20
0.0
 30
0.0
  0
VERTEX
  5
87A
  8
VIDITELNE
  6
SLD-PLNÁ
 62
     2
 10
395.65
 20
172.0
 30
0.0
  0
VERTEX
  5
87B
  8
VIDITELNE
  6
SLD-PLNÁ
 62
     2
 10
392.4991226135
 20
171.8620149352
 30
0.0
  0
VERTEX
  5
87C
  8
VIDITELNE
  6
SLD-PLNÁ
 62
     2
 10
389.6766767468
 20
171.3220404497
 30
0.0
  0
VERTEX
  5
87D
  8
VIDITELNE
  6
SLD-PLNÁ
 62
     2
 10
387.2174352274
 20
170.5145390478
 30
0.0
  0
VERTEX
  5
87E
  8
VIDITELNE
  6
SLD-PLNÁ
 62
     2
 10
385.1282147876
 20
169.5527563489
 30
0.0
  0
VERTEX
  5
87F
  8
VIDITELNE
  6
SLD-PLNÁ
 62
     2
 10
381.6589229761
 20
167.261748044
 30
0.0
  0
VERTEX
  5
880
  8
VIDITELNE
  6
SLD-PLNÁ
 62
     2
 10
378.9104395465
 20
164.5962115669
 30
0.0
  0
VERTEX
  5
881
  8
VIDITELNE
  6
SLD-PLNÁ
 62
     2
 10
376.8215370211
 20
161.7274507595
 30
0.0
  0
VERTEX
  5
882
  8
VIDITELNE
  6
SLD-PLNÁ
 62
     2
 10
375.2863329183
 20
158.6970496282
 30
0.0
  0
VERTEX
  5
883
  8
VIDITELNE
  6
SLD-PLNÁ
 62
     2
 10
374.1579645079
 20
155.101303318
 30
0.0
  0
VERTEX
  5
884
  8
VIDITELNE
  6
SLD-PLNÁ
 62
     2
 10
373.6513230676
 20
151.0408047509
 30
0.0
  0
VERTEX
  5
885
  8
VIDITELNE
  6
SLD-PLNÁ
 62
     2
 10
373.8617947717
 20
147.2514560758
 30
0.0
  0
VERTEX
  5
886
  8
VIDITELNE
  6
SLD-PLNÁ
 62
     2
 10
374.6148328989
 20
143.8800738344
 30
0.0
  0
VERTEX
  5
887
  8
VIDITELNE
  6
SLD-PLNÁ
 62
     2
 10
375.8834735818
 20
140.6626169513
 30
0.0
  0
VERTEX
  5
888
  8
VIDITELNE
  6
SLD-PLNÁ
 62
     2
 10
377.6501420062
 20
137.6572683933
 30
0.0
  0
VERTEX
  5
889
  8
VIDITELNE
  6
SLD-PLNÁ
 62
     2
 10
379.0437448305
 20
135.862200101
 30
0.0
  0
VERTEX
  5
88A
  8
VIDITELNE
  6
SLD-PLNÁ
 62
     2
 10
380.5803134642
 20
134.2470544351
 30
0.0
  0
VERTEX
  5
88B
  8
VIDITELNE
  6
SLD-PLNÁ
 62
     2
 10
382.6892034427
 20
132.4718058019
 30
0.0
  0
VERTEX
  5
88C
  8
VIDITELNE
  6
SLD-PLNÁ
 62
     2
 10
384.5558318611
 20
131.2504214364
 30
0.0
  0
SEQEND
  5
88D
  8
VIDITELNE
  6
SLD-PLNÁ
 62
     2
  0
POLYLINE
  5
472
  8
VIDITELNE
  6
SLD-PLNÁ
 62
     2
 66
     1
 10
0.0
 20
0.0
 30
0.0
  0
VERTEX
  5
88E
  8
VIDITELNE
  6
SLD-PLNÁ
 62
     2
 10
406.7443251103
 20
131.2494126787
 30
0.0
  0
VERTEX
  5
88F
  8
VIDITELNE
  6
SLD-PLNÁ
 62
     2
 10
407.6107212613
 20
131.770169282
 30
0.0
  0
VERTEX
  5
890
  8
VIDITELNE
  6
SLD-PLNÁ
 62
     2
 10
409.2337081912
 20
132.9512914282
 30
0.0
  0
VERTEX
  5
891
  8
VIDITELNE
  6
SLD-PLNÁ
 62
     2
 10
411.0454240341
 20
134.5634644032
 30
0.0
  0
VERTEX
  5
892
  8
VIDITELNE
  6
SLD-PLNÁ
 62
     2
 10
412.9491748817
 20
136.7079931773
 30
0.0
  0
VERTEX
  5
893
  8
VIDITELNE
  6
SLD-PLNÁ
 62
     2
 10
414.5727056866
 20
139.0928616493
 30
0.0
  0
VERTEX
  5
894
  8
VIDITELNE
  6
SLD-PLNÁ
 62
     2
 10
415.6514491075
 20
141.1602436682
 30
0.0
  0
VERTEX
  5
895
  8
VIDITELNE
  6
SLD-PLNÁ
 62
     2
 10
416.3315501681
 20
142.8226393457
 30
0.0
  0
VERTEX
  5
896
  8
VIDITELNE
  6
SLD-PLNÁ
 62
     2
 10
416.9036935154
 20
144.6402575884
 30
0.0
  0
VERTEX
  5
897
  8
VIDITELNE
  6
SLD-PLNÁ
 62
     2
 10
417.3911404179
 20
146.9376896123
 30
0.0
  0
VERTEX
  5
898
  8
VIDITELNE
  6
SLD-PLNÁ
 62
     2
 10
417.6479081086
 20
149.6653772388
 30
0.0
  0
VERTEX
  5
899
  8
VIDITELNE
  6
SLD-PLNÁ
 62
     2
 10
417.3795021427
 20
153.8572323665
 30
0.0
  0
VERTEX
  5
89A
  8
VIDITELNE
  6
SLD-PLNÁ
 62
     2
 10
416.3155725343
 20
157.9218194602
 30
0.0
  0
VERTEX
  5
89B
  8
VIDITELNE
  6
SLD-PLNÁ
 62
     2
 10
415.283015128
 20
160.2864620283
 30
0.0
  0
VERTEX
  5
89C
  8
VIDITELNE
  6
SLD-PLNÁ
 62
     2
 10
414.2243470378
 20
162.1345023211
 30
0.0
  0
VERTEX
  5
89D
  8
VIDITELNE
  6
SLD-PLNÁ
 62
     2
 10
413.2270618559
 20
163.5624242986
 30
0.0
  0
VERTEX
  5
89E
  8
VIDITELNE
  6
SLD-PLNÁ
 62
     2
 10
411.9643191231
 20
165.0748457337
 30
0.0
  0
VERTEX
  5
89F
  8
VIDITELNE
  6
SLD-PLNÁ
 62
     2
 10
410.2773754862
 20
166.725527103
 30
0.0
  0
VERTEX
  5
8A0
  8
VIDITELNE
  6
SLD-PLNÁ
 62
     2
 10
408.003871677
 20
168.4641198102
 30
0.0
  0
VERTEX
  5
8A1
  8
VIDITELNE
  6
SLD-PLNÁ
 62
     2
 10
405.7210386612
 20
169.7840694381
 30
0.0
  0
VERTEX
  5
8A2
  8
VIDITELNE
  6
SLD-PLNÁ
 62
     2
 10
402.8950948637
 20
170.9447237231
 30
0.0
  0
VERTEX
  5
8A3
  8
VIDITELNE
  6
SLD-PLNÁ
 62
     2
 10
399.5208407288
 20
171.7655592397
 30
0.0
  0
VERTEX
  5
8A4
  8
VIDITELNE
  6
SLD-PLNÁ
 62
     2
 10
395.65
 20
172.0
 30
0.0
  0
SEQEND
  5
8A5
  8
VIDITELNE
  6
SLD-PLNÁ
 62
     2
  0
POLYLINE
  5
473
  8
VIDITELNE
  6
SLD-PLNÁ
 62
     2
 66
     1
 10
0.0
 20
0.0
 30
0.0
  0
VERTEX
  5
8A6
  8
VIDITELNE
  6
SLD-PLNÁ
 62
     2
 10
395.65
 20
164.0
 30
0.0
  0
VERTEX
  5
8A7
  8
VIDITELNE
  6
SLD-PLNÁ
 62
     2
 10
397.4387238306
 20
163.7878220539
 30
0.0
  0
VERTEX
  5
8A8
  8
VIDITELNE
  6
SLD-PLNÁ
 62
     2
 10
399.0266018055
 20
163.3791155065
 30
0.0
  0
VERTEX
  5
8A9
  8
VIDITELNE
  6
SLD-PLNÁ
 62
     2
 10
401.5782991668
 20
162.2211952197
 30
0.0
  0
VERTEX
  5
8AA
  8
VIDITELNE
  6
SLD-PLNÁ
 62
     2
 10
403.4742363332
 20
160.8410480743
 30
0.0
  0
VERTEX
  5
8AB
  8
VIDITELNE
  6
SLD-PLNÁ
 62
     2
 10
404.9684249683
 20
159.2752100041
 30
0.0
  0
VERTEX
  5
8AC
  8
VIDITELNE
  6
SLD-PLNÁ
 62
     2
 10
406.092747048
 20
157.6111396459
 30
0.0
  0
VERTEX
  5
8AD
  8
VIDITELNE
  6
SLD-PLNÁ
 62
     2
 10
406.8872628654
 20
155.9079192091
 30
0.0
  0
VERTEX
  5
8AE
  8
VIDITELNE
  6
SLD-PLNÁ
 62
     2
 10
407.4379029216
 20
153.9747213596
 30
0.0
  0
VERTEX
  5
8AF
  8
VIDITELNE
  6
SLD-PLNÁ
 62
     2
 10
407.666337906
 20
151.7547776654
 30
0.0
  0
VERTEX
  5
8B0
  8
VIDITELNE
  6
SLD-PLNÁ
 62
     2
 10
407.4945944462
 20
149.6109429624
 30
0.0
  0
VERTEX
  5
8B1
  8
VIDITELNE
  6
SLD-PLNÁ
 62
     2
 10
407.0148040045
 20
147.7424726559
 30
0.0
  0
VERTEX
  5
8B2
  8
VIDITELNE
  6
SLD-PLNÁ
 62
     2
 10
405.2652682567
 20
144.4742959825
 30
0.0
  0
VERTEX
  5
8B3
  8
VIDITELNE
  6
SLD-PLNÁ
 62
     2
 10
403.9617245108
 20
143.0326723646
 30
0.0
  0
VERTEX
  5
8B4
  8
VIDITELNE
  6
SLD-PLNÁ
 62
     2
 10
402.2777837383
 20
141.7304029164
 30
0.0
  0
VERTEX
  5
8B5
  8
VIDITELNE
  6
SLD-PLNÁ
 62
     2
 10
401.0733746959
 20
141.0655231463
 30
0.0
  0
VERTEX
  5
8B6
  8
VIDITELNE
  6
SLD-PLNÁ
 62
     2
 10
399.562057361
 20
140.4779205152
 30
0.0
  0
VERTEX
  5
8B7
  8
VIDITELNE
  6
SLD-PLNÁ
 62
     2
 10
397.7428191919
 20
140.0751167251
 30
0.0
  0
VERTEX
  5
8B8
  8
VIDITELNE
  6
SLD-PLNÁ
 62
     2
 10
395.65
 20
139.9999970044
 30
0.0
  0
SEQEND
  5
8B9
  8
VIDITELNE
  6
SLD-PLNÁ
 62
     2
  0
LINE
  5
474
  8
VIDITELNE
  6
SLD-PLNÁ
 62
     2
 10
265.65
 20
130.5
 30
0.0
 11
259.5802010066
 21
130.2880379485
 31
0.0
  0
LINE
  5
475
  8
VIDITELNE
  6
SLD-PLNÁ
 62
     2
 10
259.5802010066
 20
21.7119620515
 30
0.0
 11
265.65
 21
21.5
 31
0.0
  0
ARC
  5
476
  8
VIDITELNE
  6
SLD-PLNÁ
 62
     2
 10
259.65
 20
128.2892562945
 30
0.0
 40
2.000000000000004
 50
92.0
 51
180.0
  0
ARC
  5
477
  8
VIDITELNE
  6
SLD-PLNÁ
 62
     2
 10
259.65
 20
23.7107437055
 30
0.0
 40
2.000000000000011
 50
180.0
 51
268.0
  0
CIRCLE
  5
478
  8
VIDITELNE
  6
SLD-PLNÁ
 62
     2
 10
395.65
 20
-44.0
 30
0.0
 40
30.50000000000006
  0
LINE
  5
479
  8
VIDITELNE
  6
SLD-PLNÁ
 62
     2
 10
402.65
 20
-17.7
 30
0.0
 11
388.65
 21
-17.7
 31
0.0
  0
ARC
  5
47A
  8
VIDITELNE
  6
SLD-PLNÁ
 62
     2
 10
395.65
 20
-44.0
 30
0.0
 40
23.65470053837925
 50
107.2129689444
 51
72.7870310556
  0
LINE
  5
47B
  8
VIDITELNE
  6
SLD-PLNÁ
 62
     2
 10
402.65
 20
-21.4047602898
 30
0.0
 11
402.65
 21
-17.7
 31
0.0
  0
LINE
  5
47C
  8
VIDITELNE
  6
SLD-PLNÁ
 62
     2
 10
388.65
 20
-17.7
 30
0.0
 11
388.65
 21
-21.4047602898
 31
0.0
  0
ARC
  5
47D
  8
VIDITELNE
  6
SLD-PLNÁ
 62
     2
 10
395.65
 20
-44.0
 30
0.0
 40
22.50000000000001
 50
108.1262039606
 51
71.8737960394
  0
LINE
  5
47E
  8
VIDITELNE
  6
SLD-PLNÁ
 62
     2
 10
402.65
 20
-22.6165952197
 30
0.0
 11
402.65
 21
-21.4047602898
 31
0.0
  0
LINE
  5
47F
  8
VIDITELNE
  6
SLD-PLNÁ
 62
     2
 10
388.65
 20
-21.4047602898
 30
0.0
 11
388.65
 21
-22.6165952197
 31
0.0
  0
CIRCLE
  5
480
  8
VIDITELNE
  6
SLD-PLNÁ
 62
     2
 10
395.65
 20
-44.0
 30
0.0
 40
32.50000000000006
  0
LINE
  5
481
  8
VIDITELNE
  6
SLD-PLNÁ
 62
     2
 10
354.7235769955
 20
74.1102362205
 30
0.0
 11
354.0687542274
 21
76.0
 31
0.0
  0
ARC
  5
482
  8
VIDITELNE
  6
SLD-PLNÁ
 62
     2
 10
395.65
 20
-48.5718241501
 30
0.0
 40
131.3283646897413
 50
71.54133344
 51
108.45866656
  0
LINE
  5
483
  8
VIDITELNE
  6
SLD-PLNÁ
 62
     2
 10
436.5764230045
 20
74.1102362205
 30
0.0
 11
437.2312457726
 21
76.0
 31
0.0
  0
ARC
  5
484
  8
VIDITELNE
  6
SLD-PLNÁ
 62
     2
 10
519.8428824543
 20
-43.8857078511
 30
0.0
 40
249.1929086643196
 50
172.7359548709
 51
180.0262786691
  0
LINE
  5
485
  8
VIDITELNE
  6
SLD-PLNÁ
 62
     2
 10
274.587007874
 20
-12.8752198802
 30
0.0
 11
272.65
 21
-12.3772233983
 31
0.0
  0
LINE
  5
486
  8
VIDITELNE
  6
SLD-PLNÁ
 62
     2
 10
516.712992126
 20
-12.8752198802
 30
0.0
 11
518.65
 21
-12.3772233983
 31
0.0
  0
ARC
  5
487
  8
VIDITELNE
  6
SLD-PLNÁ
 62
     2
 10
271.4571175436
 20
-43.8857078513
 30
0.0
 40
249.1929086664472
 50
359.9737213309
 51
7.264045129
  0
ARC
  5
488
  8
VIDITELNE
  6
SLD-PLNÁ
 62
     2
 10
395.65
 20
-44.0
 30
0.0
 40
127.0000000000001
 50
14.4182411734
 51
70.8882678628
  0
ARC
  5
489
  8
VIDITELNE
  6
SLD-PLNÁ
 62
     2
 10
395.65
 20
-44.0
 30
0.0
 40
127.0
 50
109.1117321372
 51
165.5817588266
  0
POLYLINE
  5
48A
  8
VIDITELNE
  6
SLD-PLNÁ
 62
     2
 66
     1
 10
0.0
 20
0.0
 30
0.0
  0
VERTEX
  5
8BA
  8
VIDITELNE
  6
SLD-PLNÁ
 62
     2
 10
518.65
 20
76.0
 30
0.0
  0
VERTEX
  5
8BB
  8
VIDITELNE
  6
SLD-PLNÁ
 62
     2
 10
518.6624176874
 20
75.9547689701
 30
0.0
  0
VERTEX
  5
8BC
  8
VIDITELNE
  6
SLD-PLNÁ
 62
     2
 10
519.7061374786
 20
72.1208847243
 30
0.0
  0
VERTEX
  5
8BD
  8
VIDITELNE
  6
SLD-PLNÁ
 62
     2
 10
520.8549140357
 20
67.6383007558
 30
0.0
  0
VERTEX
  5
8BE
  8
VIDITELNE
  6
SLD-PLNÁ
 62
     2
 10
521.8353411665
 20
63.1377630279
 30
0.0
  0
VERTEX
  5
8BF
  8
VIDITELNE
  6
SLD-PLNÁ
 62
     2
 10
522.4127286674
 20
59.4467739134
 30
0.0
  0
VERTEX
  5
8C0
  8
VIDITELNE
  6
SLD-PLNÁ
 62
     2
 10
522.65
 20
55.7598292458
 30
0.0
  0
SEQEND
  5
8C1
  8
VIDITELNE
  6
SLD-PLNÁ
 62
     2
  0
POLYLINE
  5
48B
  8
VIDITELNE
  6
SLD-PLNÁ
 62
     2
 66
     1
 10
0.0
 20
0.0
 30
0.0
  0
VERTEX
  5
8C2
  8
VIDITELNE
  6
SLD-PLNÁ
 62
     2
 10
522.65
 20
55.7598292458
 30
0.0
  0
VERTEX
  5
8C3
  8
VIDITELNE
  6
SLD-PLNÁ
 62
     2
 10
522.259819356
 20
55.7456870929
 30
0.0
  0
VERTEX
  5
8C4
  8
VIDITELNE
  6
SLD-PLNÁ
 62
     2
 10
521.8846331353
 20
55.7038041091
 30
0.0
  0
VERTEX
  5
8C5
  8
VIDITELNE
  6
SLD-PLNÁ
 62
     2
 10
521.538859534
 20
55.635789834
 30
0.0
  0
VERTEX
  5
8C6
  8
VIDITELNE
  6
SLD-PLNÁ
 62
     2
 10
521.2357864376
 20
55.5442580181
 30
0.0
  0
VERTEX
  5
8C7
  8
VIDITELNE
  6
SLD-PLNÁ
 62
     2
 10
520.9870607754
 20
55.4327261778
 30
0.0
  0
VERTEX
  5
8C8
  8
VIDITELNE
  6
SLD-PLNÁ
 62
     2
 10
520.802240935
 20
55.305480419
 30
0.0
  0
VERTEX
  5
8C9
  8
VIDITELNE
  6
SLD-PLNÁ
 62
     2
 10
520.6884294392
 20
55.167410725
 30
0.0
  0
VERTEX
  5
8CA
  8
VIDITELNE
  6
SLD-PLNÁ
 62
     2
 10
520.65
 20
55.0238230366
 30
0.0
  0
SEQEND
  5
8CB
  8
VIDITELNE
  6
SLD-PLNÁ
 62
     2
  0
ARC
  5
48C
  8
VIDITELNE
  6
SLD-PLNÁ
 62
     2
 10
291.9456673764
 20
43.8011552617
 30
0.0
 40
228.979518806394
 50
2.8092871132
 51
8.0836600563
  0
LINE
  5
48D
  8
VIDITELNE
  6
SLD-PLNÁ
 62
     2
 10
272.65
 20
76.0
 30
0.0
 11
272.65
 21
-12.3772233983
 31
0.0
  0
LINE
  5
48E
  8
VIDITELNE
  6
SLD-PLNÁ
 62
     2
 10
272.65
 20
76.0
 30
0.0
 11
354.0687542274
 21
76.0
 31
0.0
  0
POLYLINE
  5
48F
  8
VIDITELNE
  6
SLD-PLNÁ
 62
     2
 66
     1
 10
0.0
 20
0.0
 30
0.0
  0
VERTEX
  5
8CC
  8
VIDITELNE
  6
SLD-PLNÁ
 62
     2
 10
270.65
 20
55.0238230366
 30
0.0
  0
VERTEX
  5
8CD
  8
VIDITELNE
  6
SLD-PLNÁ
 62
     2
 10
270.6115705608
 20
55.167410725
 30
0.0
  0
VERTEX
  5
8CE
  8
VIDITELNE
  6
SLD-PLNÁ
 62
     2
 10
270.497759065
 20
55.305480419
 30
0.0
  0
VERTEX
  5
8CF
  8
VIDITELNE
  6
SLD-PLNÁ
 62
     2
 10
270.3129392246
 20
55.4327261778
 30
0.0
  0
VERTEX
  5
8D0
  8
VIDITELNE
  6
SLD-PLNÁ
 62
     2
 10
270.0642135624
 20
55.5442580181
 30
0.0
  0
VERTEX
  5
8D1
  8
VIDITELNE
  6
SLD-PLNÁ
 62
     2
 10
269.761140466
 20
55.635789834
 30
0.0
  0
VERTEX
  5
8D2
  8
VIDITELNE
  6
SLD-PLNÁ
 62
     2
 10
269.4153668647
 20
55.7038041091
 30
0.0
  0
VERTEX
  5
8D3
  8
VIDITELNE
  6
SLD-PLNÁ
 62
     2
 10
269.040180644
 20
55.7456870929
 30
0.0
  0
VERTEX
  5
8D4
  8
VIDITELNE
  6
SLD-PLNÁ
 62
     2
 10
268.65
 20
55.7598292458
 30
0.0
  0
SEQEND
  5
8D5
  8
VIDITELNE
  6
SLD-PLNÁ
 62
     2
  0
POLYLINE
  5
490
  8
VIDITELNE
  6
SLD-PLNÁ
 62
     2
 66
     1
 10
0.0
 20
0.0
 30
0.0
  0
VERTEX
  5
8D6
  8
VIDITELNE
  6
SLD-PLNÁ
 62
     2
 10
268.65
 20
55.7598292458
 30
0.0
  0
VERTEX
  5
8D7
  8
VIDITELNE
  6
SLD-PLNÁ
 62
     2
 10
268.881607626
 20
59.3985246006
 30
0.0
  0
VERTEX
  5
8D8
  8
VIDITELNE
  6
SLD-PLNÁ
 62
     2
 10
269.4646588335
 20
63.1377630279
 30
0.0
  0
VERTEX
  5
8D9
  8
VIDITELNE
  6
SLD-PLNÁ
 62
     2
 10
270.4363665632
 20
67.6021414993
 30
0.0
  0
VERTEX
  5
8DA
  8
VIDITELNE
  6
SLD-PLNÁ
 62
     2
 10
271.5938625214
 20
72.1208847243
 30
0.0
  0
VERTEX
  5
8DB
  8
VIDITELNE
  6
SLD-PLNÁ
 62
     2
 10
272.6375823126
 20
75.9547689701
 30
0.0
  0
VERTEX
  5
8DC
  8
VIDITELNE
  6
SLD-PLNÁ
 62
     2
 10
272.65
 20
76.0
 30
0.0
  0
SEQEND
  5
8DD
  8
VIDITELNE
  6
SLD-PLNÁ
 62
     2
  0
ARC
  5
491
  8
VIDITELNE
  6
SLD-PLNÁ
 62
     2
 10
499.3543326237
 20
43.8011552617
 30
0.0
 40
228.9795188064348
 50
171.9163399437
 51
177.1907128868
  0
LINE
  5
492
  8
VIDITELNE
  6
SLD-PLNÁ
 62
     2
 10
518.65
 20
-12.3772233983
 30
0.0
 11
518.65
 21
76.0
 31
0.0
  0
LINE
  5
493
  8
VIDITELNE
  6
SLD-PLNÁ
 62
     2
 10
518.65
 20
76.0
 30
0.0
 11
437.2312457726
 21
76.0
 31
0.0
  0
LINE
  5
494
  8
VIDITELNE
  6
SLD-PLNÁ
 62
     2
 10
268.65
 20
23.5030962821
 30
0.0
 11
268.65
 21
55.7598292458
 31
0.0
  0
LINE
  5
495
  8
VIDITELNE
  6
SLD-PLNÁ
 62
     2
 10
265.65
 20
23.5030962821
 30
0.0
 11
268.65
 21
23.5030962821
 31
0.0
  0
LINE
  5
496
  8
VIDITELNE
  6
SLD-PLNÁ
 62
     2
 10
265.65
 20
131.0
 30
0.0
 11
265.65
 21
23.5030962821
 31
0.0
  0
LINE
  5
497
  8
VIDITELNE
  6
SLD-PLNÁ
 62
     2
 10
525.65
 20
131.0
 30
0.0
 11
525.65
 21
21.0
 31
0.0
  0
POLYLINE
  5
498
  8
VIDITELNE
  6
SLD-PLNÁ
 62
     2
 66
     1
 10
0.0
 20
0.0
 30
0.0
  0
VERTEX
  5
8DE
  8
VIDITELNE
  6
SLD-PLNÁ
 62
     2
 10
482.65
 20
129.0
 30
0.0
  0
VERTEX
  5
8DF
  8
VIDITELNE
  6
SLD-PLNÁ
 62
     2
 10
480.2707620186
 20
129.1877448409
 30
0.0
  0
VERTEX
  5
8E0
  8
VIDITELNE
  6
SLD-PLNÁ
 62
     2
 10
477.9816440011
 20
129.4677817356
 30
0.0
  0
VERTEX
  5
8E1
  8
VIDITELNE
  6
SLD-PLNÁ
 62
     2
 10
475.9747534306
 20
129.7922893748
 30
0.0
  0
VERTEX
  5
8E2
  8
VIDITELNE
  6
SLD-PLNÁ
 62
     2
 10
474.1857750952
 20
130.1426675799
 30
0.0
  0
VERTEX
  5
8E3
  8
VIDITELNE
  6
SLD-PLNÁ
 62
     2
 10
472.7326400132
 20
130.4688735796
 30
0.0
  0
VERTEX
  5
8E4
  8
VIDITELNE
  6
SLD-PLNÁ
 62
     2
 10
471.6126164061
 20
130.7453024301
 30
0.0
  0
VERTEX
  5
8E5
  8
VIDITELNE
  6
SLD-PLNÁ
 62
     2
 10
470.9301726762
 20
130.9242507135
 30
0.0
  0
VERTEX
  5
8E6
  8
VIDITELNE
  6
SLD-PLNÁ
 62
     2
 10
470.6534433167
 20
130.9990610134
 30
0.0
  0
VERTEX
  5
8E7
  8
VIDITELNE
  6
SLD-PLNÁ
 62
     2
 10
470.6725757509
 20
130.9938674068
 30
0.0
  0
SEQEND
  5
8E8
  8
VIDITELNE
  6
SLD-PLNÁ
 62
     2
  0
LINE
  5
499
  8
VIDITELNE
  6
SLD-PLNÁ
 62
     2
 10
482.65
 20
129.0
 30
0.0
 11
488.65
 21
129.0
 31
0.0
  0
ARC
  5
49A
  8
VIDITELNE
  6
SLD-PLNÁ
 62
     2
 10
485.034659165
 20
187.6920450102
 30
0.0
 40
58.80328933688495
 50
273.5248792676
 51
285.3997651485
  0
POLYLINE
  5
49B
  8
VIDITELNE
  6
SLD-PLNÁ
 62
     2
 66
     1
 10
0.0
 20
0.0
 30
0.0
  0
VERTEX
  5
8E9
  8
VIDITELNE
  6
SLD-PLNÁ
 62
     2
 10
392.65
 20
129.0
 30
0.0
  0
VERTEX
  5
8EA
  8
VIDITELNE
  6
SLD-PLNÁ
 62
     2
 10
390.2707620186
 20
129.1877448409
 30
0.0
  0
VERTEX
  5
8EB
  8
VIDITELNE
  6
SLD-PLNÁ
 62
     2
 10
387.9816440011
 20
129.4677817356
 30
0.0
  0
VERTEX
  5
8EC
  8
VIDITELNE
  6
SLD-PLNÁ
 62
     2
 10
385.9747534306
 20
129.7922893748
 30
0.0
  0
VERTEX
  5
8ED
  8
VIDITELNE
  6
SLD-PLNÁ
 62
     2
 10
384.1857750952
 20
130.1426675799
 30
0.0
  0
VERTEX
  5
8EE
  8
VIDITELNE
  6
SLD-PLNÁ
 62
     2
 10
382.7326400132
 20
130.4688735796
 30
0.0
  0
VERTEX
  5
8EF
  8
VIDITELNE
  6
SLD-PLNÁ
 62
     2
 10
381.6126164061
 20
130.7453024301
 30
0.0
  0
VERTEX
  5
8F0
  8
VIDITELNE
  6
SLD-PLNÁ
 62
     2
 10
380.9301726762
 20
130.9242507135
 30
0.0
  0
VERTEX
  5
8F1
  8
VIDITELNE
  6
SLD-PLNÁ
 62
     2
 10
380.6534433167
 20
130.9990610134
 30
0.0
  0
VERTEX
  5
8F2
  8
VIDITELNE
  6
SLD-PLNÁ
 62
     2
 10
380.6725757509
 20
130.9938674068
 30
0.0
  0
SEQEND
  5
8F3
  8
VIDITELNE
  6
SLD-PLNÁ
 62
     2
  0
LINE
  5
49C
  8
VIDITELNE
  6
SLD-PLNÁ
 62
     2
 10
392.65
 20
129.0
 30
0.0
 11
398.65
 21
129.0
 31
0.0
  0
ARC
  5
49D
  8
VIDITELNE
  6
SLD-PLNÁ
 62
     2
 10
395.034659165
 20
187.6920450102
 30
0.0
 40
58.80328933688623
 50
273.5248792676
 51
285.3997651485
  0
LINE
  5
49E
  8
VIDITELNE
  6
SLD-PLNÁ
 62
     2
 10
520.65
 20
55.0238230366
 30
0.0
 11
520.65
 21
-44.0
 31
0.0
  0
LINE
  5
49F
  8
VIDITELNE
  6
SLD-PLNÁ
 62
     2
 10
270.65
 20
-44.0
 30
0.0
 11
270.65
 21
55.0238230366
 31
0.0
  0
ARC
  5
4A0
  8
VIDITELNE
  6
SLD-PLNÁ
 62
     2
 10
268.6944752231
 20
21.5475221261
 30
0.0
 40
1.956079836075846
 50
1.364973668
 51
91.3028416034
  0
LINE
  5
4A1
  8
VIDITELNE
  6
SLD-PLNÁ
 62
     2
 10
270.65
 20
21.5941179651
 30
0.0
 11
269.0811358957
 21
21.5941179651
 31
0.0
  0
POLYLINE
  5
4A2
  8
VIDITELNE
  6
SLD-PLNÁ
 62
     2
 66
     1
 10
0.0
 20
0.0
 30
0.0
  0
VERTEX
  5
8F4
  8
VIDITELNE
  6
SLD-PLNÁ
 62
     2
 10
268.65
 20
22.457761922
 30
0.0
  0
VERTEX
  5
8F5
  8
VIDITELNE
  6
SLD-PLNÁ
 62
     2
 10
268.8601812454
 20
22.1354535111
 30
0.0
  0
VERTEX
  5
8F6
  8
VIDITELNE
  6
SLD-PLNÁ
 62
     2
 10
269.0811358957
 20
21.5941179651
 30
0.0
  0
SEQEND
  5
8F7
  8
VIDITELNE
  6
SLD-PLNÁ
 62
     2
  0
LINE
  5
4A3
  8
VIDITELNE
  6
SLD-PLNÁ
 62
     2
 10
268.65
 20
23.5030962821
 30
0.0
 11
268.65
 21
22.457761922
 31
0.0
  0
LINE
  5
4A4
  8
VIDITELNE
  6
SLD-PLNÁ
 62
     2
 10
270.65
 20
-4.0
 30
0.0
 11
269.15
 21
-4.0
 31
0.0
  0
LINE
  5
4A5
  8
VIDITELNE
  6
SLD-PLNÁ
 62
     2
 10
269.15
 20
20.5321585622
 30
0.0
 11
269.15
 21
-4.0
 31
0.0
  0
LINE
  5
4A6
  8
VIDITELNE
  6
SLD-PLNÁ
 62
     2
 10
269.0811358957
 20
21.5941179651
 30
0.0
 11
269.15
 21
20.5321585622
 31
0.0
  0
ARC
  5
4A7
  8
VIDITELNE
  6
SLD-PLNÁ
 62
     2
 10
264.6181425786
 20
15.7142637923
 30
0.0
 40
7.856884961125185
 50
59.1252982747
 51
82.4534517513
  0
ARC
  5
4A8
  8
VIDITELNE
  6
SLD-PLNÁ
 62
     2
 10
267.4214275267
 20
23.9640574421
 30
0.0
 40
1.943789215959008
 50
261.9730801003
 51
309.201549277
  0
ARC
  5
4A9
  8
VIDITELNE
  6
SLD-PLNÁ
 62
     2
 10
263.2818373619
 20
19.5758939357
 30
0.0
 40
4.585969096042205
 50
32.4908016272
 51
58.9093850665
  0
LINE
  5
4AA
  8
VIDITELNE
  6
SLD-PLNÁ
 62
     2
 10
267.65
 20
20.5321585622
 30
0.0
 11
267.5811358957
 21
21.0882603209
 31
0.0
  0
ARC
  5
4AB
  8
VIDITELNE
  6
SLD-PLNÁ
 62
     2
 10
264.3448018362
 20
20.1943968207
 30
0.0
 40
3.357506530471177
 50
15.4399556874
 51
33.3320171732
  0
LINE
  5
4AC
  8
VIDITELNE
  6
SLD-PLNÁ
 62
     2
 10
265.65
 20
23.5030962821
 30
0.0
 11
265.65
 21
21.0
 31
0.0
  0
ARC
  5
4AD
  8
VIDITELNE
  6
SLD-PLNÁ
 62
     2
 10
270.7537036547
 20
14.1576431775
 30
0.0
 40
7.622246399502132
 50
102.6756968369
 51
114.5964698279
  0
LINE
  5
4AE
  8
VIDITELNE
  6
SLD-PLNÁ
 62
     2
 10
269.15
 20
20.5321585622
 30
0.0
 11
267.65
 21
20.5321585622
 31
0.0
  0
LINE
  5
4AF
  8
VIDITELNE
  6
SLD-PLNÁ
 62
     2
 10
267.65
 20
-17.1270166538
 30
0.0
 11
267.65
 21
-4.0
 31
0.0
  0
LINE
  5
4B0
  8
VIDITELNE
  6
SLD-PLNÁ
 62
     2
 10
269.15
 20
-4.0
 30
0.0
 11
267.65
 21
-4.0
 31
0.0
  0
LINE
  5
4B1
  8
VIDITELNE
  6
SLD-PLNÁ
 62
     2
 10
267.65
 20
-4.0
 30
0.0
 11
267.65
 21
20.5321585622
 31
0.0
  0
LINE
  5
4B2
  8
VIDITELNE
  6
SLD-PLNÁ
 62
     2
 10
380.65
 20
-172.0
 30
0.0
 11
410.65
 21
-172.0
 31
0.0
  0
LINE
  5
4B3
  8
VIDITELNE
  6
SLD-PLNÁ
 62
     2
 10
386.15
 20
-176.0
 30
0.0
 11
405.15
 21
-176.0
 31
0.0
  0
LINE
  5
4B4
  8
VIDITELNE
  6
SLD-PLNÁ
 62
     2
 10
263.65
 20
5.5
 30
0.0
 11
263.65
 21
-13.5
 31
0.0
  0
LINE
  5
4B5
  8
VIDITELNE
  6
SLD-PLNÁ
 62
     2
 10
495.15
 20
133.0
 30
0.0
 11
476.15
 21
133.0
 31
0.0
  0
CIRCLE
  5
4B6
  8
VIDITELNE
  6
SLD-PLNÁ
 62
     2
 10
395.65
 20
-44.0
 30
0.0
 40
125.0
  0
CIRCLE
  5
4B7
  8
VIDITELNE
  6
SLD-PLNÁ
 62
     2
 10
395.65
 20
-44.0
 30
0.0
 40
90.0
  0
CIRCLE
  5
4B8
  8
VIDITELNE
  6
SLD-PLNÁ
 62
     2
 10
319.6360210224
 20
32.0139789776
 30
0.0
 40
6.500000000000004
  0
CIRCLE
  5
4B9
  8
VIDITELNE
  6
SLD-PLNÁ
 62
     2
 10
471.6639789776
 20
32.0139789776
 30
0.0
 40
6.500000000000007
  0
CIRCLE
  5
4BA
  8
VIDITELNE
  6
SLD-PLNÁ
 62
     2
 10
471.6639789776
 20
-120.0139789776
 30
0.0
 40
6.5
  0
CIRCLE
  5
4BB
  8
VIDITELNE
  6
SLD-PLNÁ
 62
     2
 10
319.6360210224
 20
-120.0139789776
 30
0.0
 40
6.5
  0
CIRCLE
  5
4BC
  8
VIDITELNE
  6
SLD-PLNÁ
 62
     2
 10
395.65
 20
-44.0
 30
0.0
 40
84.30159333182249
  0
CIRCLE
  5
4BD
  8
VIDITELNE
  6
SLD-PLNÁ
 62
     2
 10
395.65
 20
-44.0
 30
0.0
 40
45.98572617329036
  0
CIRCLE
  5
4BE
  8
VIDITELNE
  6
SLD-PLNÁ
 62
     2
 10
395.65
 20
-44.0
 30
0.0
 40
43.52827004042337
  0
CIRCLE
  5
4BF
  8
VIDITELNE
  6
SLD-PLNÁ
 62
     2
 10
395.65
 20
-44.0
 30
0.0
 40
42.5
  0
ARC
  5
4C0
  8
VIDITELNE
  6
SLD-PLNÁ
 62
     2
 10
476.9672798365
 20
37.3172798365
 30
0.0
 40
8.000000000000007
 50
175.5416018733
 51
274.4583981268
  0
ARC
  5
4C1
  8
VIDITELNE
  6
SLD-PLNÁ
 62
     2
 10
314.3327201635
 20
37.3172798365
 30
0.0
 40
8.000000000000002
 50
265.5416018737
 51
4.4583981263
  0
ARC
  5
4C2
  8
VIDITELNE
  6
SLD-PLNÁ
 62
     2
 10
314.3327201635
 20
-125.3172798365
 30
0.0
 40
8.000000000000016
 50
355.5416018736
 51
94.4583981264
  0
LINE
  5
4C3
  8
VIDITELNE
  6
SLD-PLNÁ
 62
     2
 10
476.9672798365
 20
-117.3172798365
 30
0.0
 11
477.5891616263
 21
-117.3414875222
 31
0.0
  0
ARC
  5
4C4
  8
VIDITELNE
  6
SLD-PLNÁ
 62
     2
 10
476.9672798365
 20
-125.3172798365
 30
0.0
 40
8.000000000000021
 50
90.0
 51
184.4583981265
  0
LINE
  5
4C5
  8
VIDITELNE
  6
SLD-PLNÁ
 62
     2
 10
547.65
 20
176.0
 30
0.0
 11
547.65
 21
-24.0
 31
0.0
  0
LINE
  5
4C6
  8
VIDITELNE
  6
SLD-PLNÁ
 62
     2
 10
535.65
 20
173.6495732165
 30
0.0
 11
535.65
 21
-21.6495732165
 31
0.0
  0
ARC
  5
4C7
  8
VIDITELNE
  6
SLD-PLNÁ
 62
     2
 10
415.6210376872
 20
139.0111509183
 30
0.0
 40
11.7938139110016
 50
193.8324798594
 51
221.2391457448
  0
POLYLINE
  5
4C8
  8
VIDITELNE
  6
SLD-PLNÁ
 62
     2
 66
     1
 10
0.0
 20
0.0
 30
0.0
  0
VERTEX
  5
8F8
  8
VIDITELNE
  6
SLD-PLNÁ
 62
     2
 10
387.1307426933
 20
136.1914394645
 30
0.0
  0
VERTEX
  5
8F9
  8
VIDITELNE
  6
SLD-PLNÁ
 62
     2
 10
386.651268429
 20
134.6277612272
 30
0.0
  0
VERTEX
  5
8FA
  8
VIDITELNE
  6
SLD-PLNÁ
 62
     2
 10
385.9957775024
 20
133.2880016763
 30
0.0
  0
VERTEX
  5
8FB
  8
VIDITELNE
  6
SLD-PLNÁ
 62
     2
 10
385.3110239878
 20
132.2245790761
 30
0.0
  0
VERTEX
  5
8FC
  8
VIDITELNE
  6
SLD-PLNÁ
 62
     2
 10
384.7580299
 20
131.4940584457
 30
0.0
  0
VERTEX
  5
8FD
  8
VIDITELNE
  6
SLD-PLNÁ
 62
     2
 10
384.5436043883
 20
131.2318826434
 30
0.0
  0
VERTEX
  5
8FE
  8
VIDITELNE
  6
SLD-PLNÁ
 62
     2
 10
384.5474721538
 20
131.2366023052
 30
0.0
  0
SEQEND
  5
8FF
  8
VIDITELNE
  6
SLD-PLNÁ
 62
     2
  0
LINE
  5
4C9
  8
VIDITELNE
  6
SLD-PLNÁ
 62
     2
 10
404.1692573067
 20
136.1914394645
 30
0.0
 11
387.1307426933
 21
136.1914394645
 31
0.0
  0
ARC
  5
4CA
  8
VIDITELNE
  6
SLD-PLNÁ
 62
     2
 10
401.2034729824
 20
135.6834925097
 30
0.0
 40
3.008967724451009
 50
9.7186973008
 51
77.8372519959
  0
ARC
  5
4CB
  8
VIDITELNE
  6
SLD-PLNÁ
 62
     2
 10
390.1308160818
 20
135.6506357729
 30
0.0
 40
3.048427294392102
 50
102.6626466901
 51
169.7814040133
  0
LINE
  5
4CC
  8
VIDITELNE
  6
SLD-PLNÁ
 62
     2
 10
401.8374301818
 20
138.6249181906
 30
0.0
 11
389.4625698182
 21
138.6249181906
 31
0.0
  0
ARC
  5
4CD
  8
VIDITELNE
  6
SLD-PLNÁ
 62
     2
 10
405.1657628038
 20
62.1305757083
 30
0.0
 40
78.08953003922089
 50
96.999292596
 51
101.6008333747
  0
ARC
  5
4CE
  8
VIDITELNE
  6
SLD-PLNÁ
 62
     2
 10
391.6757789155
 20
95.9705207681
 30
0.0
 40
43.8481102892244
 50
76.6000757132
 51
84.7997983161
  0
LINE
  5
4CF
  8
VIDITELNE
  6
SLD-PLNÁ
 62
     2
 10
395.65
 20
139.9999952936
 30
0.0
 11
395.65
 21
139.6381557247
 31
0.0
  0
LINE
  5
4D0
  8
VIDITELNE
  6
SLD-PLNÁ
 62
     2
 10
395.65
 20
172.0
 30
0.0
 11
395.65
 21
164.000004668
 31
0.0
  0
LINE
  5
4D1
  8
VIDITELNE
  6
SLD-PLNÁ
 62
     2
 10
257.65
 20
49.1220812935
 30
0.0
 11
257.65
 21
23.7176646687
 31
0.0
  0
LINE
  5
4D2
  8
VIDITELNE
  6
SLD-PLNÁ
 62
     2
 10
257.65
 20
101.4044166248
 30
0.0
 11
257.65
 21
50.5955833752
 31
0.0
  0
LINE
  5
4D3
  8
VIDITELNE
  6
SLD-PLNÁ
 62
     2
 10
257.65
 20
128.2823353313
 30
0.0
 11
257.65
 21
102.8779187065
 31
0.0
  0
LINE
  5
4D4
  8
VIDITELNE
  6
SLD-PLNÁ
 62
     2
 10
252.35
 20
93.7264973081
 30
0.0
 11
257.65
 21
93.7264973081
 31
0.0
  0
LINE
  5
4D5
  8
VIDITELNE
  6
SLD-PLNÁ
 62
     2
 10
252.35
 20
93.7264973081
 30
0.0
 11
252.35
 21
96.6132486541
 31
0.0
  0
LINE
  5
4D6
  8
VIDITELNE
  6
SLD-PLNÁ
 62
     2
 10
252.35
 20
96.6132486541
 30
0.0
 11
257.65
 21
96.6132486541
 31
0.0
  0
LINE
  5
4D7
  8
VIDITELNE
  6
SLD-PLNÁ
 62
     2
 10
252.35
 20
102.3867513459
 30
0.0
 11
257.65
 21
102.3867513459
 31
0.0
  0
LINE
  5
4D8
  8
VIDITELNE
  6
SLD-PLNÁ
 62
     2
 10
252.35
 20
102.3867513459
 30
0.0
 11
252.35
 21
105.2735026919
 31
0.0
  0
LINE
  5
4D9
  8
VIDITELNE
  6
SLD-PLNÁ
 62
     2
 10
252.35
 20
105.2735026919
 30
0.0
 11
257.65
 21
105.2735026919
 31
0.0
  0
LINE
  5
4DA
  8
VIDITELNE
  6
SLD-PLNÁ
 62
     2
 10
257.65
 20
102.3867513459
 30
0.0
 11
257.65
 21
102.8779187065
 31
0.0
  0
LINE
  5
4DB
  8
VIDITELNE
  6
SLD-PLNÁ
 62
     2
 10
252.35
 20
96.6132486541
 30
0.0
 11
252.35
 21
102.3867513459
 31
0.0
  0
LINE
  5
4DC
  8
VIDITELNE
  6
SLD-PLNÁ
 62
     2
 10
257.65
 20
101.4044166248
 30
0.0
 11
257.65
 21
102.3867513459
 31
0.0
  0
LINE
  5
4DD
  8
VIDITELNE
  6
SLD-PLNÁ
 62
     2
 10
252.35
 20
55.3867513459
 30
0.0
 11
257.65
 21
55.3867513459
 31
0.0
  0
LINE
  5
4DE
  8
VIDITELNE
  6
SLD-PLNÁ
 62
     2
 10
252.35
 20
55.3867513459
 30
0.0
 11
252.35
 21
58.2735026919
 31
0.0
  0
LINE
  5
4DF
  8
VIDITELNE
  6
SLD-PLNÁ
 62
     2
 10
252.35
 20
58.2735026919
 30
0.0
 11
257.65
 21
58.2735026919
 31
0.0
  0
LINE
  5
4E0
  8
VIDITELNE
  6
SLD-PLNÁ
 62
     2
 10
252.35
 20
49.6132486541
 30
0.0
 11
257.65
 21
49.6132486541
 31
0.0
  0
LINE
  5
4E1
  8
VIDITELNE
  6
SLD-PLNÁ
 62
     2
 10
252.35
 20
49.6132486541
 30
0.0
 11
252.35
 21
55.3867513459
 31
0.0
  0
LINE
  5
4E2
  8
VIDITELNE
  6
SLD-PLNÁ
 62
     2
 10
257.65
 20
49.6132486541
 30
0.0
 11
257.65
 21
50.5955833752
 31
0.0
  0
LINE
  5
4E3
  8
VIDITELNE
  6
SLD-PLNÁ
 62
     2
 10
252.35
 20
46.7264973081
 30
0.0
 11
257.65
 21
46.7264973081
 31
0.0
  0
LINE
  5
4E4
  8
VIDITELNE
  6
SLD-PLNÁ
 62
     2
 10
252.35
 20
46.7264973081
 30
0.0
 11
252.35
 21
49.6132486541
 31
0.0
  0
LINE
  5
4E5
  8
VIDITELNE
  6
SLD-PLNÁ
 62
     2
 10
257.65
 20
49.1220812935
 30
0.0
 11
257.65
 21
49.6132486541
 31
0.0
  0
LINE
  5
4E6
  8
VIDITELNE
  6
SLD-PLNÁ
 62
     2
 10
252.35
 20
117.2264973081
 30
0.0
 11
257.65
 21
117.2264973081
 31
0.0
  0
LINE
  5
4E7
  8
VIDITELNE
  6
SLD-PLNÁ
 62
     2
 10
252.35
 20
120.1132486541
 30
0.0
 11
257.65
 21
120.1132486541
 31
0.0
  0
LINE
  5
4E8
  8
VIDITELNE
  6
SLD-PLNÁ
 62
     2
 10
252.35
 20
117.2264973081
 30
0.0
 11
252.35
 21
120.1132486541
 31
0.0
  0
LINE
  5
4E9
  8
VIDITELNE
  6
SLD-PLNÁ
 62
     2
 10
252.35
 20
125.8867513459
 30
0.0
 11
257.65
 21
125.8867513459
 31
0.0
  0
LINE
  5
4EA
  8
VIDITELNE
  6
SLD-PLNÁ
 62
     2
 10
252.35
 20
120.1132486541
 30
0.0
 11
252.35
 21
125.8867513459
 31
0.0
  0
LINE
  5
4EB
  8
VIDITELNE
  6
SLD-PLNÁ
 62
     2
 10
252.35
 20
128.7735026919
 30
0.0
 11
257.65
 21
128.7735026919
 31
0.0
  0
LINE
  5
4EC
  8
VIDITELNE
  6
SLD-PLNÁ
 62
     2
 10
257.65
 20
128.2823353313
 30
0.0
 11
257.65
 21
128.7735026919
 31
0.0
  0
LINE
  5
4ED
  8
VIDITELNE
  6
SLD-PLNÁ
 62
     2
 10
252.35
 20
125.8867513459
 30
0.0
 11
252.35
 21
128.7735026919
 31
0.0
  0
LINE
  5
4EE
  8
VIDITELNE
  6
SLD-PLNÁ
 62
     2
 10
252.35
 20
26.1132486541
 30
0.0
 11
257.65
 21
26.1132486541
 31
0.0
  0
LINE
  5
4EF
  8
VIDITELNE
  6
SLD-PLNÁ
 62
     2
 10
252.35
 20
31.8867513459
 30
0.0
 11
257.65
 21
31.8867513459
 31
0.0
  0
LINE
  5
4F0
  8
VIDITELNE
  6
SLD-PLNÁ
 62
     2
 10
252.35
 20
26.1132486541
 30
0.0
 11
252.35
 21
31.8867513459
 31
0.0
  0
LINE
  5
4F1
  8
VIDITELNE
  6
SLD-PLNÁ
 62
     2
 10
252.35
 20
23.2264973081
 30
0.0
 11
257.65
 21
23.2264973081
 31
0.0
  0
LINE
  5
4F2
  8
VIDITELNE
  6
SLD-PLNÁ
 62
     2
 10
257.65
 20
23.2264973081
 30
0.0
 11
257.65
 21
23.7176646687
 31
0.0
  0
LINE
  5
4F3
  8
VIDITELNE
  6
SLD-PLNÁ
 62
     2
 10
252.35
 20
23.2264973081
 30
0.0
 11
252.35
 21
26.1132486541
 31
0.0
  0
LINE
  5
4F4
  8
VIDITELNE
  6
SLD-PLNÁ
 62
     2
 10
252.35
 20
34.7735026919
 30
0.0
 11
257.65
 21
34.7735026919
 31
0.0
  0
LINE
  5
4F5
  8
VIDITELNE
  6
SLD-PLNÁ
 62
     2
 10
252.35
 20
31.8867513459
 30
0.0
 11
252.35
 21
34.7735026919
 31
0.0
  0
LINE
  5
4F6
  8
VIDITELNE
  6
SLD-PLNÁ
 62
     2
 10
522.65
 20
55.7598292458
 30
0.0
 11
522.65
 21
21.0
 31
0.0
  0
POLYLINE
  5
4F7
  8
VIDITELNE
  6
SLD-PLNÁ
 62
     2
 66
     1
 10
0.0
 20
0.0
 30
0.0
  0
VERTEX
  5
900
  8
VIDITELNE
  6
SLD-PLNÁ
 62
     2
 10
410.65
 20
-169.8570617804
 30
0.0
  0
VERTEX
  5
901
  8
VIDITELNE
  6
SLD-PLNÁ
 62
     2
 10
410.2660171155
 20
-169.9150775655
 30
0.0
  0
VERTEX
  5
902
  8
VIDITELNE
  6
SLD-PLNÁ
 62
     2
 10
409.4898591322
 20
-170.0277990231
 30
0.0
  0
VERTEX
  5
903
  8
VIDITELNE
  6
SLD-PLNÁ
 62
     2
 10
408.3238798069
 20
-170.1851150002
 30
0.0
  0
VERTEX
  5
904
  8
VIDITELNE
  6
SLD-PLNÁ
 62
     2
 10
408.317531557
 20
-170.1859337678
 30
0.0
  0
VERTEX
  5
905
  8
VIDITELNE
  6
SLD-PLNÁ
 62
     2
 10
406.7910093215
 20
-170.3706897936
 30
0.0
  0
VERTEX
  5
906
  8
VIDITELNE
  6
SLD-PLNÁ
 62
     2
 10
404.9518247486
 20
-170.5617035333
 30
0.0
  0
VERTEX
  5
907
  8
VIDITELNE
  6
SLD-PLNÁ
 62
     2
 10
402.8640693802
 20
-170.7362667966
 30
0.0
  0
VERTEX
  5
908
  8
VIDITELNE
  6
SLD-PLNÁ
 62
     2
 10
400.5747750034
 20
-170.8772944374
 30
0.0
  0
VERTEX
  5
909
  8
VIDITELNE
  6
SLD-PLNÁ
 62
     2
 10
398.1446946624
 20
-170.9680965093
 30
0.0
  0
VERTEX
  5
90A
  8
VIDITELNE
  6
SLD-PLNÁ
 62
     2
 10
395.643989353
 20
-170.9999998173
 30
0.0
  0
VERTEX
  5
90B
  8
VIDITELNE
  6
SLD-PLNÁ
 62
     2
 10
393.1238900176
 20
-170.967285603
 30
0.0
  0
VERTEX
  5
90C
  8
VIDITELNE
  6
SLD-PLNÁ
 62
     2
 10
390.6764231561
 20
-170.874849292
 30
0.0
  0
VERTEX
  5
90D
  8
VIDITELNE
  6
SLD-PLNÁ
 62
     2
 10
388.3655414012
 20
-170.7310850644
 30
0.0
  0
VERTEX
  5
90E
  8
VIDITELNE
  6
SLD-PLNÁ
 62
     2
 10
386.2627698547
 20
-170.5536038215
 30
0.0
  0
VERTEX
  5
90F
  8
VIDITELNE
  6
SLD-PLNÁ
 62
     2
 10
384.440794193
 20
-170.3629487798
 30
0.0
  0
VERTEX
  5
910
  8
VIDITELNE
  6
SLD-PLNÁ
 62
     2
 10
382.9316554315
 20
-170.179368495
 30
0.0
  0
VERTEX
  5
911
  8
VIDITELNE
  6
SLD-PLNÁ
 62
     2
 10
381.7866971456
 20
-170.0244871361
 30
0.0
  0
VERTEX
  5
912
  8
VIDITELNE
  6
SLD-PLNÁ
 62
     2
 10
381.0253793931
 20
-169.9137944334
 30
0.0
  0
VERTEX
  5
913
  8
VIDITELNE
  6
SLD-PLNÁ
 62
     2
 10
380.6756297536
 20
-169.8612050745
 30
0.0
  0
VERTEX
  5
914
  8
VIDITELNE
  6
SLD-PLNÁ
 62
     2
 10
380.6984027485
 20
-169.8646007915
 30
0.0
  0
SEQEND
  5
915
  8
VIDITELNE
  6
SLD-PLNÁ
 62
     2
  0
LINE
  5
4F8
  8
VIDITELNE
  6
SLD-PLNÁ
 62
     2
 10
269.15
 20
-4.0
 30
0.0
 11
269.15
 21
-19.0635083269
 31
0.0
  0
LINE
  5
4F9
  8
VIDITELNE
  6
SLD-PLNÁ
 62
     2
 10
385.15
 20
-175.0
 30
0.0
 11
406.15
 21
-175.0
 31
0.0
  0
LINE
  5
4FA
  8
VIDITELNE
  6
SLD-PLNÁ
 62
     2
 10
264.65
 20
6.5
 30
0.0
 11
264.65
 21
-14.5
 31
0.0
  0
LINE
  5
4FB
  8
VIDITELNE
  6
SLD-PLNÁ
 62
     2
 10
496.15
 20
132.0
 30
0.0
 11
475.15
 21
132.0
 31
0.0
  0
ARC
  5
4FC
  8
VIDITELNE
  6
SLD-PLNÁ
 62
     2
 10
476.9672798365
 20
37.3172798365
 30
0.0
 40
7.000000000000014
 50
171.8698976456
 51
278.1301023544
  0
ARC
  5
4FD
  8
VIDITELNE
  6
SLD-PLNÁ
 62
     2
 10
314.3327201635
 20
37.3172798365
 30
0.0
 40
7.000000000000002
 50
261.8698976459
 51
8.1301023541
  0
LINE
  5
4FE
  8
VIDITELNE
  6
SLD-PLNÁ
 62
     2
 10
314.3327201635
 20
-118.3172798365
 30
0.0
 11
313.3427706699
 21
-118.3876333808
 31
0.0
  0
ARC
  5
4FF
  8
VIDITELNE
  6
SLD-PLNÁ
 62
     2
 10
314.3327201635
 20
-125.3172798365
 30
0.0
 40
7.0
 50
351.8698976458
 51
90.0
  0
ARC
  5
500
  8
VIDITELNE
  6
SLD-PLNÁ
 62
     2
 10
476.9672798365
 20
-125.3172798365
 30
0.0
 40
6.999999999999998
 50
81.8698976458
 51
188.1301023542
  0
LINE
  5
501
  8
VIDITELNE
  6
SLD-PLNÁ
 62
     2
 10
537.5802010066
 20
175.6483548705
 30
0.0
 11
537.5802010066
 21
-23.6483548705
 31
0.0
  0
LINE
  5
502
  8
VIDITELNE
  6
SLD-PLNÁ
 62
     2
 10
532.7546984901
 20
131.2481015383
 30
0.0
 11
532.7546984901
 21
20.7518984617
 31
0.0
  0
LINE
  5
503
  8
VIDITELNE
  6
SLD-PLNÁ
 62
     2
 10
259.5802010066
 20
130.2880379485
 30
0.0
 11
259.5802010066
 21
21.7119620515
 31
0.0
  0
LINE
  5
504
  8
VIDITELNE
  6
SLD-PLNÁ
 62
     2
 10
75.5
 20
270.65
 30
0.0
 11
80.5
 21
270.65
 31
0.0
  0
LINE
  5
505
  8
VIDITELNE
  6
SLD-PLNÁ
 62
     2
 10
-35.5
 20
270.65
 30
0.0
 11
-30.5
 21
270.65
 31
0.0
  0
LINE
  5
506
  8
VIDITELNE
  6
SLD-PLNÁ
 62
     2
 10
-30.5
 20
520.65
 30
0.0
 11
-35.5
 21
520.65
 31
0.0
  0
LINE
  5
507
  8
VIDITELNE
  6
SLD-PLNÁ
 62
     2
 10
80.5
 20
520.65
 30
0.0
 11
75.5
 21
520.65
 31
0.0
  0
ARC
  5
508
  8
VIDITELNE
  6
SLD-PLNÁ
 62
     2
 10
106.5
 20
426.15
 30
0.0
 40
2.0
 50
0.0
 51
90.0
  0
ARC
  5
509
  8
VIDITELNE
  6
SLD-PLNÁ
 62
     2
 10
106.5
 20
365.15
 30
0.0
 40
2.0
 50
270.0
 51
0.0
  0
ARC
  5
50A
  8
VIDITELNE
  6
SLD-PLNÁ
 62
     2
 10
32.0
 20
264.65
 30
0.0
 40
1.0
 50
270.0
 51
0.0
  0
ARC
  5
50B
  8
VIDITELNE
  6
SLD-PLNÁ
 62
     2
 10
13.0
 20
264.65
 30
0.0
 40
1.000000000000002
 50
180.0
 51
270.0
  0
LINE
  5
50C
  8
VIDITELNE
  6
SLD-PLNÁ
 62
     2
 10
12.0
 20
267.65
 30
0.0
 11
12.0
 21
264.65
 31
0.0
  0
LINE
  5
50D
  8
VIDITELNE
  6
SLD-PLNÁ
 62
     2
 10
33.0
 20
264.65
 30
0.0
 11
33.0
 21
267.65
 31
0.0
  0
LINE
  5
50E
  8
VIDITELNE
  6
SLD-PLNÁ
 62
     2
 10
77.5
 20
520.65
 30
0.0
 11
77.5
 21
525.65
 31
0.0
  0
LINE
  5
50F
  8
VIDITELNE
  6
SLD-PLNÁ
 62
     2
 10
77.5
 20
265.65
 30
0.0
 11
77.5
 21
270.65
 31
0.0
  0
LINE
  5
510
  8
VIDITELNE
  6
SLD-PLNÁ
 62
     2
 10
-32.5
 20
270.65
 30
0.0
 11
-32.5
 21
265.65
 31
0.0
  0
LINE
  5
511
  8
VIDITELNE
  6
SLD-PLNÁ
 62
     2
 10
-32.5
 20
525.65
 30
0.0
 11
-32.5
 21
520.65
 31
0.0
  0
ARC
  5
512
  8
VIDITELNE
  6
SLD-PLNÁ
 62
     2
 10
-109.5
 20
518.65
 30
0.0
 40
2.0
 50
0.0
 51
90.0
  0
ARC
  5
513
  8
VIDITELNE
  6
SLD-PLNÁ
 62
     2
 10
-109.5
 20
272.65
 30
0.0
 40
2.0
 50
270.0
 51
0.0
  0
LINE
  5
514
  8
VIDITELNE
  6
SLD-PLNÁ
 62
     2
 10
-35.5
 20
520.65
 30
0.0
 11
-44.5844928937
 21
520.3327625177
 31
0.0
  0
LINE
  5
515
  8
VIDITELNE
  6
SLD-PLNÁ
 62
     2
 10
-44.5844928937
 20
270.9672374823
 30
0.0
 11
-35.5
 21
270.65
 31
0.0
  0
LINE
  5
516
  8
VIDITELNE
  6
SLD-PLNÁ
 62
     2
 10
-109.5
 20
520.65
 30
0.0
 11
-122.5
 21
520.65
 31
0.0
  0
LINE
  5
517
  8
VIDITELNE
  6
SLD-PLNÁ
 62
     2
 10
-122.5
 20
270.65
 30
0.0
 11
-109.5
 21
270.65
 31
0.0
  0
ARC
  5
518
  8
VIDITELNE
  6
SLD-PLNÁ
 62
     2
 10
-55.5
 20
402.65
 30
0.0
 40
1.0
 50
90.0
 51
180.0
  0
ARC
  5
519
  8
VIDITELNE
  6
SLD-PLNÁ
 62
     2
 10
-55.5
 20
388.65
 30
0.0
 40
1.0
 50
180.0
 51
270.0
  0
LINE
  5
51A
  8
VIDITELNE
  6
SLD-PLNÁ
 62
     2
 10
-46.5
 20
403.65
 30
0.0
 11
-55.5
 21
403.65
 31
0.0
  0
LINE
  5
51B
  8
VIDITELNE
  6
SLD-PLNÁ
 62
     2
 10
-55.5
 20
387.65
 30
0.0
 11
-46.5
 21
387.65
 31
0.0
  0
ARC
  5
51C
  8
VIDITELNE
  6
SLD-PLNÁ
 62
     2
 10
-105.5
 20
486.1983979384
 30
0.0
 40
2.000000000000043
 50
180.0
 51
235.0
  0
ARC
  5
51D
  8
VIDITELNE
  6
SLD-PLNÁ
 62
     2
 10
-105.5
 20
305.1016020616
 30
0.0
 40
2.000000000000043
 50
125.0
 51
180.0
  0
LINE
  5
51E
  8
VIDITELNE
  6
SLD-PLNÁ
 62
     2
 10
-46.5
 20
322.3327201635
 30
0.0
 11
-55.5
 21
322.3327201635
 31
0.0
  0
LINE
  5
51F
  8
VIDITELNE
  6
SLD-PLNÁ
 62
     2
 10
-55.5
 20
306.3327201635
 30
0.0
 11
-46.5
 21
306.3327201635
 31
0.0
  0
ARC
  5
520
  8
VIDITELNE
  6
SLD-PLNÁ
 62
     2
 10
-55.5
 20
321.3327201635
 30
0.0
 40
1.0
 50
90.0
 51
180.0
  0
ARC
  5
521
  8
VIDITELNE
  6
SLD-PLNÁ
 62
     2
 10
-55.5
 20
307.3327201635
 30
0.0
 40
1.0
 50
180.0
 51
270.0
  0
LINE
  5
522
  8
VIDITELNE
  6
SLD-PLNÁ
 62
     2
 10
-46.5
 20
484.9672798365
 30
0.0
 11
-55.5
 21
484.9672798365
 31
0.0
  0
LINE
  5
523
  8
VIDITELNE
  6
SLD-PLNÁ
 62
     2
 10
-55.5
 20
468.9672798365
 30
0.0
 11
-46.5
 21
468.9672798365
 31
0.0
  0
ARC
  5
524
  8
VIDITELNE
  6
SLD-PLNÁ
 62
     2
 10
-55.5
 20
483.9672798365
 30
0.0
 40
1.0
 50
90.0
 51
180.0
  0
ARC
  5
525
  8
VIDITELNE
  6
SLD-PLNÁ
 62
     2
 10
-55.5
 20
469.9672798365
 30
0.0
 40
1.0
 50
180.0
 51
270.0
  0
LINE
  5
526
  8
VIDITELNE
  6
SLD-PLNÁ
 62
     2
 10
-106.6471528727
 20
306.7399061501
 30
0.0
 11
-73.7913882374
 21
329.7457602214
 31
0.0
  0
LINE
  5
527
  8
VIDITELNE
  6
SLD-PLNÁ
 62
     2
 10
-73.7913882374
 20
461.5542397786
 30
0.0
 11
-106.6471528727
 21
484.5600938499
 31
0.0
  0
ARC
  5
528
  8
VIDITELNE
  6
SLD-PLNÁ
 62
     2
 10
-48.5
 20
328.65
 30
0.0
 40
2.0
 50
0.0
 51
90.0
  0
ARC
  5
529
  8
VIDITELNE
  6
SLD-PLNÁ
 62
     2
 10
-48.5
 20
462.65
 30
0.0
 40
2.0
 50
270.0
 51
0.0
  0
ARC
  5
52A
  8
VIDITELNE
  6
SLD-PLNÁ
 62
     2
 10
-70.9235060556
 20
465.65
 30
0.0
 40
5.000000000000057
 50
235.0
 51
270.0
  0
ARC
  5
52B
  8
VIDITELNE
  6
SLD-PLNÁ
 62
     2
 10
-70.9235060556
 20
325.65
 30
0.0
 40
5.00000000000004
 50
90.0
 51
125.0
  0
LINE
  5
52C
  8
VIDITELNE
  6
SLD-PLNÁ
 62
     2
 10
-48.5
 20
460.65
 30
0.0
 11
-70.9235060556
 21
460.65
 31
0.0
  0
LINE
  5
52D
  8
VIDITELNE
  6
SLD-PLNÁ
 62
     2
 10
-70.9235060556
 20
330.65
 30
0.0
 11
-48.5
 21
330.65
 31
0.0
  0
LINE
  5
52E
  8
VIDITELNE
  6
SLD-PLNÁ
 62
     2
 10
-46.5
 20
288.65
 30
0.0
 11
-55.5
 21
288.65
 31
0.0
  0
LINE
  5
52F
  8
VIDITELNE
  6
SLD-PLNÁ
 62
     2
 10
-55.5
 20
272.65
 30
0.0
 11
-46.5
 21
272.65
 31
0.0
  0
ARC
  5
530
  8
VIDITELNE
  6
SLD-PLNÁ
 62
     2
 10
-55.5
 20
287.65
 30
0.0
 40
1.0
 50
90.0
 51
180.0
  0
ARC
  5
531
  8
VIDITELNE
  6
SLD-PLNÁ
 62
     2
 10
-55.5
 20
273.65
 30
0.0
 40
1.0
 50
180.0
 51
270.0
  0
ARC
  5
532
  8
VIDITELNE
  6
SLD-PLNÁ
 62
     2
 10
-55.5
 20
517.65
 30
0.0
 40
1.0
 50
90.0
 51
180.0
  0
ARC
  5
533
  8
VIDITELNE
  6
SLD-PLNÁ
 62
     2
 10
-55.5
 20
503.65
 30
0.0
 40
1.0
 50
180.0
 51
270.0
  0
LINE
  5
534
  8
VIDITELNE
  6
SLD-PLNÁ
 62
     2
 10
-46.5
 20
518.65
 30
0.0
 11
-55.5
 21
518.65
 31
0.0
  0
LINE
  5
535
  8
VIDITELNE
  6
SLD-PLNÁ
 62
     2
 10
-55.5
 20
502.65
 30
0.0
 11
-46.5
 21
502.65
 31
0.0
  0
ARC
  5
536
  8
VIDITELNE
  6
SLD-PLNÁ
 62
     2
 10
-44.6186147008
 20
272.8377951448
 30
0.0
 40
1.862866478968158
 50
182.3951698079
 51
271.0599704795
  0
ARC
  5
537
  8
VIDITELNE
  6
SLD-PLNÁ
 62
     2
 10
-44.5976064934
 20
518.4417605277
 30
0.0
 40
1.88388472821666
 50
89.5929807369
 51
177.036400639
  0
LINE
  5
538
  8
VIDITELNE
  6
SLD-PLNÁ
 62
     2
 10
80.5
 20
270.65
 30
0.0
 11
91.5
 21
271.0341284644
 31
0.0
  0
LINE
  5
539
  8
VIDITELNE
  6
SLD-PLNÁ
 62
     2
 10
91.5
 20
520.2658715356
 30
0.0
 11
80.5
 21
520.65
 31
0.0
  0
ARC
  5
53A
  8
VIDITELNE
  6
SLD-PLNÁ
 62
     2
 10
100.5
 20
402.65
 30
0.0
 40
1.0
 50
0.0
 51
90.0
  0
ARC
  5
53B
  8
VIDITELNE
  6
SLD-PLNÁ
 62
     2
 10
100.5
 20
388.65
 30
0.0
 40
1.0
 50
270.0
 51
0.0
  0
LINE
  5
53C
  8
VIDITELNE
  6
SLD-PLNÁ
 62
     2
 10
91.5
 20
387.65
 30
0.0
 11
100.5
 21
387.65
 31
0.0
  0
LINE
  5
53D
  8
VIDITELNE
  6
SLD-PLNÁ
 62
     2
 10
100.5
 20
403.65
 30
0.0
 11
91.5
 21
403.65
 31
0.0
  0
ARC
  5
53E
  8
VIDITELNE
  6
SLD-PLNÁ
 62
     2
 10
100.5
 20
483.9672798365
 30
0.0
 40
1.000000000000014
 50
0.0
 51
90.0
  0
ARC
  5
53F
  8
VIDITELNE
  6
SLD-PLNÁ
 62
     2
 10
100.5
 20
469.9672798365
 30
0.0
 40
1.000000000000014
 50
270.0
 51
0.0
  0
LINE
  5
540
  8
VIDITELNE
  6
SLD-PLNÁ
 62
     2
 10
91.5
 20
468.9672798365
 30
0.0
 11
100.5
 21
468.9672798365
 31
0.0
  0
LINE
  5
541
  8
VIDITELNE
  6
SLD-PLNÁ
 62
     2
 10
100.5
 20
484.9672798365
 30
0.0
 11
91.5
 21
484.9672798365
 31
0.0
  0
LINE
  5
542
  8
VIDITELNE
  6
SLD-PLNÁ
 62
     2
 10
91.5
 20
306.3327201635
 30
0.0
 11
100.5
 21
306.3327201635
 31
0.0
  0
LINE
  5
543
  8
VIDITELNE
  6
SLD-PLNÁ
 62
     2
 10
100.5
 20
322.3327201635
 30
0.0
 11
91.5
 21
322.3327201635
 31
0.0
  0
ARC
  5
544
  8
VIDITELNE
  6
SLD-PLNÁ
 62
     2
 10
100.5
 20
321.3327201635
 30
0.0
 40
1.000000000000014
 50
0.0
 51
90.0
  0
ARC
  5
545
  8
VIDITELNE
  6
SLD-PLNÁ
 62
     2
 10
100.5
 20
307.3327201635
 30
0.0
 40
1.000000000000014
 50
270.0
 51
0.0
  0
LINE
  5
546
  8
VIDITELNE
  6
SLD-PLNÁ
 62
     2
 10
106.5
 20
460.65
 30
0.0
 11
103.0
 21
460.65
 31
0.0
  0
LINE
  5
547
  8
VIDITELNE
  6
SLD-PLNÁ
 62
     2
 10
103.0
 20
330.65
 30
0.0
 11
106.5
 21
330.65
 31
0.0
  0
LINE
  5
548
  8
VIDITELNE
  6
SLD-PLNÁ
 62
     2
 10
103.0
 20
490.65
 30
0.0
 11
99.3731240234
 21
492.7439778214
 31
0.0
  0
LINE
  5
549
  8
VIDITELNE
  6
SLD-PLNÁ
 62
     2
 10
99.3731240234
 20
298.5560221786
 30
0.0
 11
103.0
 21
300.65
 31
0.0
  0
LINE
  5
54A
  8
VIDITELNE
  6
SLD-PLNÁ
 62
     2
 10
94.8094140097
 20
502.65
 30
0.0
 11
100.5
 21
502.65
 31
0.0
  0
LINE
  5
54B
  8
VIDITELNE
  6
SLD-PLNÁ
 62
     2
 10
100.5
 20
518.65
 30
0.0
 11
91.5
 21
518.65
 31
0.0
  0
ARC
  5
54C
  8
VIDITELNE
  6
SLD-PLNÁ
 62
     2
 10
100.5
 20
517.65
 30
0.0
 40
1.000000000000014
 50
0.0
 51
90.0
  0
ARC
  5
54D
  8
VIDITELNE
  6
SLD-PLNÁ
 62
     2
 10
100.5
 20
503.65
 30
0.0
 40
1.000000000000014
 50
270.0
 51
0.0
  0
LINE
  5
54E
  8
VIDITELNE
  6
SLD-PLNÁ
 62
     2
 10
91.5
 20
272.65
 30
0.0
 11
100.5
 21
272.65
 31
0.0
  0
LINE
  5
54F
  8
VIDITELNE
  6
SLD-PLNÁ
 62
     2
 10
100.5
 20
288.65
 30
0.0
 11
94.8094140097
 21
288.65
 31
0.0
  0
ARC
  5
550
  8
VIDITELNE
  6
SLD-PLNÁ
 62
     2
 10
100.5
 20
287.65
 30
0.0
 40
1.000000000000014
 50
0.0
 51
90.0
  0
ARC
  5
551
  8
VIDITELNE
  6
SLD-PLNÁ
 62
     2
 10
100.5
 20
273.65
 30
0.0
 40
1.000000000000014
 50
270.0
 51
0.0
  0
LINE
  5
552
  8
VIDITELNE
  6
SLD-PLNÁ
 62
     2
 10
-77.5
 20
547.65
 30
0.0
 11
-77.1483548705
 21
537.5802010066
 31
0.0
  0
LINE
  5
553
  8
VIDITELNE
  6
SLD-PLNÁ
 62
     2
 10
122.1483548705
 20
537.5802010066
 30
0.0
 11
122.5
 21
547.65
 31
0.0
  0
ARC
  5
554
  8
VIDITELNE
  6
SLD-PLNÁ
 62
     2
 10
-75.1495732165
 20
537.65
 30
0.0
 40
2.000000000000682
 50
182.0
 51
270.0
  0
ARC
  5
555
  8
VIDITELNE
  6
SLD-PLNÁ
 62
     2
 10
120.1495732165
 20
537.65
 30
0.0
 40
1.999999999999982
 50
270.0
 51
358.0
  0
ARC
  5
556
  8
VIDITELNE
  6
SLD-PLNÁ
 62
     2
 10
-35.7462740193
 20
532.65
 30
0.0
 40
2.999999999999981
 50
2.0
 51
90.0
  0
ARC
  5
557
  8
VIDITELNE
  6
SLD-PLNÁ
 62
     2
 10
80.7462740193
 20
532.65
 30
0.0
 40
3.000000000000341
 50
90.0
 51
178.0
  0
LINE
  5
558
  8
VIDITELNE
  6
SLD-PLNÁ
 62
     2
 10
-32.7481015383
 20
532.7546984901
 30
0.0
 11
-32.5
 21
525.65
 31
0.0
  0
LINE
  5
559
  8
VIDITELNE
  6
SLD-PLNÁ
 62
     2
 10
77.5
 20
525.65
 30
0.0
 11
77.7481015383
 21
532.7546984901
 31
0.0
  0
LINE
  5
55A
  8
VIDITELNE
  6
SLD-PLNÁ
 62
     2
 10
-32.0
 20
265.65
 30
0.0
 11
-31.7880379485
 21
259.5802010066
 31
0.0
  0
LINE
  5
55B
  8
VIDITELNE
  6
SLD-PLNÁ
 62
     2
 10
76.7880379485
 20
259.5802010066
 30
0.0
 11
77.0
 21
265.65
 31
0.0
  0
ARC
  5
55C
  8
VIDITELNE
  6
SLD-PLNÁ
 62
     2
 10
-29.7892562945
 20
259.65
 30
0.0
 40
2.000000000000008
 50
182.0
 51
270.0
  0
ARC
  5
55D
  8
VIDITELNE
  6
SLD-PLNÁ
 62
     2
 10
74.7892562945
 20
259.65
 30
0.0
 40
2.000000000000018
 50
270.0
 51
358.0
  0
CIRCLE
  5
55E
  8
VIDITELNE
  6
SLD-PLNÁ
 62
     2
 10
22.5
 20
395.65
 30
0.0
 40
9.5
  0
CIRCLE
  5
55F
  8
VIDITELNE
  6
SLD-PLNÁ
 62
     2
 10
22.5
 20
395.65
 30
0.0
 40
10.5
  0
CIRCLE
  5
560
  8
VIDITELNE
  6
SLD-PLNÁ
 62
     2
 10
22.5
 20
395.65
 30
0.0
 40
15.00000000000006
  0
POLYLINE
  5
561
  8
VIDITELNE
  6
SLD-PLNÁ
 62
     2
 66
     1
 10
0.0
 20
0.0
 30
0.0
  0
VERTEX
  5
916
  8
VIDITELNE
  6
SLD-PLNÁ
 62
     2
 10
22.5
 20
412.3822834646
 30
0.0
  0
VERTEX
  5
917
  8
VIDITELNE
  6
SLD-PLNÁ
 62
     2
 10
24.3657836043
 20
412.2812038237
 30
0.0
  0
VERTEX
  5
918
  8
VIDITELNE
  6
SLD-PLNÁ
 62
     2
 10
27.1122414471
 20
411.7546971923
 30
0.0
  0
VERTEX
  5
919
  8
VIDITELNE
  6
SLD-PLNÁ
 62
     2
 10
29.806772763
 20
410.7579013199
 30
0.0
  0
VERTEX
  5
91A
  8
VIDITELNE
  6
SLD-PLNÁ
 62
     2
 10
32.2282675314
 20
409.371786038
 30
0.0
  0
VERTEX
  5
91B
  8
VIDITELNE
  6
SLD-PLNÁ
 62
     2
 10
34.4462296926
 20
407.5544694206
 30
0.0
  0
VERTEX
  5
91C
  8
VIDITELNE
  6
SLD-PLNÁ
 62
     2
 10
36.2817328465
 20
405.4463404746
 30
0.0
  0
VERTEX
  5
91D
  8
VIDITELNE
  6
SLD-PLNÁ
 62
     2
 10
37.7780433489
 20
402.98788666
 30
0.0
  0
VERTEX
  5
91E
  8
VIDITELNE
  6
SLD-PLNÁ
 62
     2
 10
38.8018276398
 20
400.3959335397
 30
0.0
  0
VERTEX
  5
91F
  8
VIDITELNE
  6
SLD-PLNÁ
 62
     2
 10
39.3861593759
 20
397.5831524342
 30
0.0
  0
VERTEX
  5
920
  8
VIDITELNE
  6
SLD-PLNÁ
 62
     2
 10
39.4790631037
 20
394.819827882
 30
0.0
  0
VERTEX
  5
921
  8
VIDITELNE
  6
SLD-PLNÁ
 62
     2
 10
39.0902768437
 20
391.9986090193
 30
0.0
  0
VERTEX
  5
922
  8
VIDITELNE
  6
SLD-PLNÁ
 62
     2
 10
38.2564330389
 20
389.3681265729
 30
0.0
  0
VERTEX
  5
923
  8
VIDITELNE
  6
SLD-PLNÁ
 62
     2
 10
36.9558852249
 20
386.8450762798
 30
0.0
  0
VERTEX
  5
924
  8
VIDITELNE
  6
SLD-PLNÁ
 62
     2
 10
35.2819557024
 20
384.6184009976
 30
0.0
  0
VERTEX
  5
925
  8
VIDITELNE
  6
SLD-PLNÁ
 62
     2
 10
33.2009629574
 20
382.6485794482
 30
0.0
  0
VERTEX
  5
926
  8
VIDITELNE
  6
SLD-PLNÁ
 62
     2
 10
30.8589573015
 20
381.080150563
 30
0.0
  0
VERTEX
  5
927
  8
VIDITELNE
  6
SLD-PLNÁ
 62
     2
 10
28.2124277974
 20
379.8906484872
 30
0.0
  0
VERTEX
  5
928
  8
VIDITELNE
  6
SLD-PLNÁ
 62
     2
 10
24.3804076526
 20
379.0203918251
 30
0.0
  0
VERTEX
  5
929
  8
VIDITELNE
  6
SLD-PLNÁ
 62
     2
 10
21.5768361167
 20
378.9424056499
 30
0.0
  0
VERTEX
  5
92A
  8
VIDITELNE
  6
SLD-PLNÁ
 62
     2
 10
18.7206311883
 20
379.3364468296
 30
0.0
  0
VERTEX
  5
92B
  8
VIDITELNE
  6
SLD-PLNÁ
 62
     2
 10
16.0512202124
 20
380.1683316504
 30
0.0
  0
VERTEX
  5
92C
  8
VIDITELNE
  6
SLD-PLNÁ
 62
     2
 10
13.4870629759
 20
381.4628702319
 30
0.0
  0
VERTEX
  5
92D
  8
VIDITELNE
  6
SLD-PLNÁ
 62
     2
 10
11.2375626881
 20
383.1164291632
 30
0.0
  0
VERTEX
  5
92E
  8
VIDITELNE
  6
SLD-PLNÁ
 62
     2
 10
9.2404886888
 20
385.1786802841
 30
0.0
  0
VERTEX
  5
92F
  8
VIDITELNE
  6
SLD-PLNÁ
 62
     2
 10
7.6616223948
 20
387.484708903
 30
0.0
  0
VERTEX
  5
930
  8
VIDITELNE
  6
SLD-PLNÁ
 62
     2
 10
6.4616901491
 20
390.1020468277
 30
0.0
  0
VERTEX
  5
931
  8
VIDITELNE
  6
SLD-PLNÁ
 62
     2
 10
5.7503393602
 20
392.7890809726
 30
0.0
  0
VERTEX
  5
932
  8
VIDITELNE
  6
SLD-PLNÁ
 62
     2
 10
5.5000013648
 20
395.64329521
 30
0.0
  0
VERTEX
  5
933
  8
VIDITELNE
  6
SLD-PLNÁ
 62
     2
 10
5.7300409949
 20
398.3933055199
 30
0.0
  0
VERTEX
  5
934
  8
VIDITELNE
  6
SLD-PLNÁ
 62
     2
 10
6.4423587111
 20
401.1435154238
 30
0.0
  0
VERTEX
  5
935
  8
VIDITELNE
  6
SLD-PLNÁ
 62
     2
 10
7.5774091165
 20
403.6652371156
 30
0.0
  0
VERTEX
  5
936
  8
VIDITELNE
  6
SLD-PLNÁ
 62
     2
 10
9.1634036852
 20
406.0260512288
 30
0.0
  0
VERTEX
  5
937
  8
VIDITELNE
  6
SLD-PLNÁ
 62
     2
 10
11.0910541401
 20
408.054541045
 30
0.0
  0
VERTEX
  5
938
  8
VIDITELNE
  6
SLD-PLNÁ
 62
     2
 10
13.3956120008
 20
409.7804485872
 30
0.0
  0
VERTEX
  5
939
  8
VIDITELNE
  6
SLD-PLNÁ
 62
     2
 10
15.9071071623
 20
411.0727529847
 30
0.0
  0
VERTEX
  5
93A
  8
VIDITELNE
  6
SLD-PLNÁ
 62
     2
 10
18.6781211001
 20
411.9539561
 30
0.0
  0
VERTEX
  5
93B
  8
VIDITELNE
  6
SLD-PLNÁ
 62
     2
 10
22.5
 20
412.3822834646
 30
0.0
  0
SEQEND
  5
93C
  8
VIDITELNE
  6
SLD-PLNÁ
 62
     2
  0
LINE
  5
562
  8
VIDITELNE
  6
SLD-PLNÁ
 62
     2
 10
-35.5
 20
520.65
 30
0.0
 11
-35.5
 21
270.65
 31
0.0
  0
LINE
  5
563
  8
VIDITELNE
  6
SLD-PLNÁ
 62
     2
 10
75.5
 20
520.65
 30
0.0
 11
-30.5
 21
520.65
 31
0.0
  0
LINE
  5
564
  8
VIDITELNE
  6
SLD-PLNÁ
 62
     2
 10
75.5
 20
270.65
 30
0.0
 11
-30.5
 21
270.65
 31
0.0
  0
LINE
  5
565
  8
VIDITELNE
  6
SLD-PLNÁ
 62
     2
 10
80.5
 20
520.65
 30
0.0
 11
80.5
 21
270.65
 31
0.0
  0
LINE
  5
566
  8
VIDITELNE
  6
SLD-PLNÁ
 62
     2
 10
108.5
 20
426.1499999487
 30
0.0
 11
108.5
 21
365.15
 31
0.0
  0
ARC
  5
567
  8
VIDITELNE
  6
SLD-PLNÁ
 62
     2
 10
39.5
 20
268.65
 30
0.0
 40
1.999999999999987
 50
90.0
 51
165.5224878141
  0
LINE
  5
568
  8
VIDITELNE
  6
SLD-PLNÁ
 62
     2
 10
7.4364916731
 20
269.15
 30
0.0
 11
37.5635083269
 21
269.15
 31
0.0
  0
ARC
  5
569
  8
VIDITELNE
  6
SLD-PLNÁ
 62
     2
 10
5.5
 20
268.65
 30
0.0
 40
1.999999999999987
 50
14.4775121859
 51
90.0
  0
ARC
  5
56A
  8
VIDITELNE
  6
SLD-PLNÁ
 62
     2
 10
35.6270166538
 20
269.65
 30
0.0
 40
2.000000000000008
 50
270.0
 51
345.5224878141
  0
LINE
  5
56B
  8
VIDITELNE
  6
SLD-PLNÁ
 62
     2
 10
35.6270166538
 20
267.65
 30
0.0
 11
9.3729833462
 21
267.65
 31
0.0
  0
ARC
  5
56C
  8
VIDITELNE
  6
SLD-PLNÁ
 62
     2
 10
9.3729833462
 20
269.65
 30
0.0
 40
2.000000000000016
 50
194.4775121859
 51
270.0
  0
LINE
  5
56D
  8
VIDITELNE
  6
SLD-PLNÁ
 62
     2
 10
32.0
 20
263.65
 30
0.0
 11
13.0
 21
263.65
 31
0.0
  0
LINE
  5
56E
  8
VIDITELNE
  6
SLD-PLNÁ
 62
     2
 10
-28.6403508772
 20
522.65
 30
0.0
 11
73.6403508772
 21
522.65
 31
0.0
  0
ARC
  5
56F
  8
VIDITELNE
  6
SLD-PLNÁ
 62
     2
 10
75.5728235684
 20
522.5822868575
 30
0.0
 40
1.933658649233073
 50
177.9931976903
 51
267.8416717502
  0
ARC
  5
570
  8
VIDITELNE
  6
SLD-PLNÁ
 62
     2
 10
-30.5728235684
 20
522.5822868575
 30
0.0
 40
1.93365864923308
 50
272.1583282498
 51
2.0068023097
  0
POLYLINE
  5
571
  8
VIDITELNE
  6
SLD-PLNÁ
 62
     2
 66
     1
 10
0.0
 20
0.0
 30
0.0
  0
VERTEX
  5
93D
  8
VIDITELNE
  6
SLD-PLNÁ
 62
     2
 10
36.2181035559
 20
267.15
 30
0.0
  0
VERTEX
  5
93E
  8
VIDITELNE
  6
SLD-PLNÁ
 62
     2
 10
35.825010629
 20
267.4448449443
 30
0.0
  0
VERTEX
  5
93F
  8
VIDITELNE
  6
SLD-PLNÁ
 62
     2
 10
35.7157910714
 20
267.5811358957
 30
0.0
  0
SEQEND
  5
940
  8
VIDITELNE
  6
SLD-PLNÁ
 62
     2
  0
ARC
  5
572
  8
VIDITELNE
  6
SLD-PLNÁ
 62
     2
 10
61.9346120058
 20
310.0356968947
 30
0.0
 40
50.0052177777422
 50
239.0508924142
 51
242.575847044
  0
LINE
  5
573
  8
VIDITELNE
  6
SLD-PLNÁ
 62
     2
 10
6.0964912281
 20
265.65
 30
0.0
 11
12.0
 21
265.65
 31
0.0
  0
LINE
  5
574
  8
VIDITELNE
  6
SLD-PLNÁ
 62
     2
 10
33.0
 20
265.65
 30
0.0
 11
38.9035087719
 21
265.65
 31
0.0
  0
POLYLINE
  5
575
  8
VIDITELNE
  6
SLD-PLNÁ
 62
     2
 66
     1
 10
0.0
 20
0.0
 30
0.0
  0
VERTEX
  5
941
  8
VIDITELNE
  6
SLD-PLNÁ
 62
     2
 10
8.7818964441
 20
267.15
 30
0.0
  0
VERTEX
  5
942
  8
VIDITELNE
  6
SLD-PLNÁ
 62
     2
 10
7.8008908835
 20
266.5729198154
 30
0.0
  0
VERTEX
  5
943
  8
VIDITELNE
  6
SLD-PLNÁ
 62
     2
 10
6.10740883
 20
265.6557163898
 30
0.0
  0
VERTEX
  5
944
  8
VIDITELNE
  6
SLD-PLNÁ
 62
     2
 10
6.0964912281
 20
265.65
 30
0.0
  0
SEQEND
  5
945
  8
VIDITELNE
  6
SLD-PLNÁ
 62
     2
  0
ARC
  5
576
  8
VIDITELNE
  6
SLD-PLNÁ
 62
     2
 10
8.0482537002
 20
268.5129482294
 30
0.0
 40
1.547856437724464
 50
298.2925277769
 51
322.9866003527
  0
ARC
  5
577
  8
VIDITELNE
  6
SLD-PLNÁ
 62
     2
 10
35.6555350578
 20
269.5225003143
 30
0.0
 40
1.942299305736783
 50
271.7777740477
 51
346.8654780684
  0
ARC
  5
578
  8
VIDITELNE
  6
SLD-PLNÁ
 62
     2
 10
9.3444649422
 20
269.5225003143
 30
0.0
 40
1.942299305736777
 50
193.1345219316
 51
268.2222259523
  0
LINE
  5
579
  8
VIDITELNE
  6
SLD-PLNÁ
 62
     2
 10
6.0964912281
 20
268.65
 30
0.0
 11
-28.6403508772
 21
268.65
 31
0.0
  0
LINE
  5
57A
  8
VIDITELNE
  6
SLD-PLNÁ
 62
     2
 10
6.0964912281
 20
265.65
 30
0.0
 11
6.0964912281
 21
268.65
 31
0.0
  0
LINE
  5
57B
  8
VIDITELNE
  6
SLD-PLNÁ
 62
     2
 10
38.9035087719
 20
265.65
 30
0.0
 11
77.5
 21
265.65
 31
0.0
  0
LINE
  5
57C
  8
VIDITELNE
  6
SLD-PLNÁ
 62
     2
 10
-32.5
 20
265.65
 30
0.0
 11
6.0964912281
 21
265.65
 31
0.0
  0
LINE
  5
57D
  8
VIDITELNE
  6
SLD-PLNÁ
 62
     2
 10
38.9035087719
 20
268.65
 30
0.0
 11
38.9035087719
 21
265.65
 31
0.0
  0
LINE
  5
57E
  8
VIDITELNE
  6
SLD-PLNÁ
 62
     2
 10
73.6403508772
 20
268.65
 30
0.0
 11
38.9035087719
 21
268.65
 31
0.0
  0
LINE
  5
57F
  8
VIDITELNE
  6
SLD-PLNÁ
 62
     2
 10
-32.5
 20
525.65
 30
0.0
 11
77.5
 21
525.65
 31
0.0
  0
POLYLINE
  5
580
  8
VIDITELNE
  6
SLD-PLNÁ
 62
     2
 66
     1
 10
0.0
 20
0.0
 30
0.0
  0
VERTEX
  5
946
  8
VIDITELNE
  6
SLD-PLNÁ
 62
     2
 10
37.5470223147
 20
269.0811358957
 30
0.0
  0
VERTEX
  5
947
  8
VIDITELNE
  6
SLD-PLNÁ
 62
     2
 10
37.5577499726
 20
268.9448449443
 30
0.0
  0
VERTEX
  5
948
  8
VIDITELNE
  6
SLD-PLNÁ
 62
     2
 10
37.6960822869
 20
268.65
 30
0.0
  0
SEQEND
  5
949
  8
VIDITELNE
  6
SLD-PLNÁ
 62
     2
  0
ARC
  5
581
  8
VIDITELNE
  6
SLD-PLNÁ
 62
     2
 10
35.3940542318
 20
269.4400919593
 30
0.0
 40
2.433840272163732
 50
289.790375707
 51
341.056979422
  0
POLYLINE
  5
582
  8
VIDITELNE
  6
SLD-PLNÁ
 62
     2
 66
     1
 10
0.0
 20
0.0
 30
0.0
  0
VERTEX
  5
94A
  8
VIDITELNE
  6
SLD-PLNÁ
 62
     2
 10
7.3039177131
 20
268.65
 30
0.0
  0
VERTEX
  5
94B
  8
VIDITELNE
  6
SLD-PLNÁ
 62
     2
 10
7.4138389876
 20
268.8601812454
 30
0.0
  0
VERTEX
  5
94C
  8
VIDITELNE
  6
SLD-PLNÁ
 62
     2
 10
7.4529776853
 20
269.0811358957
 30
0.0
  0
SEQEND
  5
94D
  8
VIDITELNE
  6
SLD-PLNÁ
 62
     2
  0
ARC
  5
583
  8
VIDITELNE
  6
SLD-PLNÁ
 62
     2
 10
9.6059457682
 20
269.4400919593
 30
0.0
 40
2.433840272163728
 50
198.943020578
 51
250.209624293
  0
POLYLINE
  5
584
  8
VIDITELNE
  6
SLD-PLNÁ
 62
     2
 66
     1
 10
0.0
 20
0.0
 30
0.0
  0
VERTEX
  5
94E
  8
VIDITELNE
  6
SLD-PLNÁ
 62
     2
 10
5.5
 20
270.65
 30
0.0
  0
VERTEX
  5
94F
  8
VIDITELNE
  6
SLD-PLNÁ
 62
     2
 10
5.6163696658
 20
270.6115705608
 30
0.0
  0
VERTEX
  5
950
  8
VIDITELNE
  6
SLD-PLNÁ
 62
     2
 10
5.7282673105
 20
270.497759065
 30
0.0
  0
VERTEX
  5
951
  8
VIDITELNE
  6
SLD-PLNÁ
 62
     2
 10
5.8313927706
 20
270.3129392246
 30
0.0
  0
VERTEX
  5
952
  8
VIDITELNE
  6
SLD-PLNÁ
 62
     2
 10
5.9217829923
 20
270.0642135624
 30
0.0
  0
VERTEX
  5
953
  8
VIDITELNE
  6
SLD-PLNÁ
 62
     2
 10
5.9959643301
 20
269.761140466
 30
0.0
  0
VERTEX
  5
954
  8
VIDITELNE
  6
SLD-PLNÁ
 62
     2
 10
6.0510860369
 20
269.4153668647
 30
0.0
  0
VERTEX
  5
955
  8
VIDITELNE
  6
SLD-PLNÁ
 62
     2
 10
6.0850298164
 20
269.040180644
 30
0.0
  0
VERTEX
  5
956
  8
VIDITELNE
  6
SLD-PLNÁ
 62
     2
 10
6.0964912281
 20
268.65
 30
0.0
  0
SEQEND
  5
957
  8
VIDITELNE
  6
SLD-PLNÁ
 62
     2
  0
LINE
  5
585
  8
VIDITELNE
  6
SLD-PLNÁ
 62
     2
 10
6.0964912281
 20
268.65
 30
0.0
 11
7.3039177131
 21
268.65
 31
0.0
  0
POLYLINE
  5
586
  8
VIDITELNE
  6
SLD-PLNÁ
 62
     2
 66
     1
 10
0.0
 20
0.0
 30
0.0
  0
VERTEX
  5
958
  8
VIDITELNE
  6
SLD-PLNÁ
 62
     2
 10
38.9035087719
 20
268.65
 30
0.0
  0
VERTEX
  5
959
  8
VIDITELNE
  6
SLD-PLNÁ
 62
     2
 10
38.9149701836
 20
269.040180644
 30
0.0
  0
VERTEX
  5
95A
  8
VIDITELNE
  6
SLD-PLNÁ
 62
     2
 10
38.9489139631
 20
269.4153668647
 30
0.0
  0
VERTEX
  5
95B
  8
VIDITELNE
  6
SLD-PLNÁ
 62
     2
 10
39.0040356699
 20
269.761140466
 30
0.0
  0
VERTEX
  5
95C
  8
VIDITELNE
  6
SLD-PLNÁ
 62
     2
 10
39.0782170077
 20
270.0642135624
 30
0.0
  0
VERTEX
  5
95D
  8
VIDITELNE
  6
SLD-PLNÁ
 62
     2
 10
39.1686072294
 20
270.3129392246
 30
0.0
  0
VERTEX
  5
95E
  8
VIDITELNE
  6
SLD-PLNÁ
 62
     2
 10
39.2717326895
 20
270.497759065
 30
0.0
  0
VERTEX
  5
95F
  8
VIDITELNE
  6
SLD-PLNÁ
 62
     2
 10
39.3836303342
 20
270.6115705608
 30
0.0
  0
VERTEX
  5
960
  8
VIDITELNE
  6
SLD-PLNÁ
 62
     2
 10
39.5
 20
270.65
 30
0.0
  0
SEQEND
  5
961
  8
VIDITELNE
  6
SLD-PLNÁ
 62
     2
  0
LINE
  5
587
  8
VIDITELNE
  6
SLD-PLNÁ
 62
     2
 10
37.6960822869
 20
268.65
 30
0.0
 11
38.9035087719
 21
268.65
 31
0.0
  0
ARC
  5
588
  8
VIDITELNE
  6
SLD-PLNÁ
 62
     2
 10
-30.5728235684
 20
268.7177131425
 30
0.0
 40
1.933658649233123
 50
357.9931976903
 51
87.8416717502
  0
ARC
  5
589
  8
VIDITELNE
  6
SLD-PLNÁ
 62
     2
 10
75.5728235684
 20
268.7177131425
 30
0.0
 40
1.933658649233124
 50
92.1583282498
 51
182.0068023097
  0
ARC
  5
58A
  8
VIDITELNE
  6
SLD-PLNÁ
 62
     2
 10
66.7281742885
 20
278.5917258133
 30
0.0
 40
30.68713538496545
 50
198.9032131713
 51
204.9439406828
  0
ARC
  5
58B
  8
VIDITELNE
  6
SLD-PLNÁ
 62
     2
 10
-21.7281742885
 20
278.5917258133
 30
0.0
 40
30.68713538496542
 50
335.0560593172
 51
341.0967868287
  0
LINE
  5
58C
  8
VIDITELNE
  6
SLD-PLNÁ
 62
     2
 10
-107.5
 20
518.65
 30
0.0
 11
-107.5
 21
272.65
 31
0.0
  0
LINE
  5
58D
  8
VIDITELNE
  6
SLD-PLNÁ
 62
     2
 10
-44.5697989934
 20
305.8499866801
 30
0.0
 11
-44.5697989934
 21
270.9885903349
 31
0.0
  0
POLYLINE
  5
58E
  8
VIDITELNE
  6
SLD-PLNÁ
 62
     2
 66
     1
 10
0.0
 20
0.0
 30
0.0
  0
VERTEX
  5
962
  8
VIDITELNE
  6
SLD-PLNÁ
 62
     2
 10
-44.5697989934
 20
309.152157067
 30
0.0
  0
VERTEX
  5
963
  8
VIDITELNE
  6
SLD-PLNÁ
 62
     2
 10
-44.5892079691
 20
308.0575455954
 30
0.0
  0
VERTEX
  5
964
  8
VIDITELNE
  6
SLD-PLNÁ
 62
     2
 10
-44.5697989934
 20
305.8499866801
 30
0.0
  0
SEQEND
  5
965
  8
VIDITELNE
  6
SLD-PLNÁ
 62
     2
  0
LINE
  5
58F
  8
VIDITELNE
  6
SLD-PLNÁ
 62
     2
 10
-44.5697989934
 20
393.3150129268
 30
0.0
 11
-44.5697989934
 21
309.152157067
 31
0.0
  0
POLYLINE
  5
590
  8
VIDITELNE
  6
SLD-PLNÁ
 62
     2
 66
     1
 10
0.0
 20
0.0
 30
0.0
  0
VERTEX
  5
966
  8
VIDITELNE
  6
SLD-PLNÁ
 62
     2
 10
-44.5697989934
 20
397.9849870732
 30
0.0
  0
VERTEX
  5
967
  8
VIDITELNE
  6
SLD-PLNÁ
 62
     2
 10
-44.5892079691
 20
396.4555585499
 30
0.0
  0
VERTEX
  5
968
  8
VIDITELNE
  6
SLD-PLNÁ
 62
     2
 10
-44.5697989934
 20
393.3150129268
 30
0.0
  0
SEQEND
  5
969
  8
VIDITELNE
  6
SLD-PLNÁ
 62
     2
  0
LINE
  5
591
  8
VIDITELNE
  6
SLD-PLNÁ
 62
     2
 10
-44.5697989934
 20
482.147842933
 30
0.0
 11
-44.5697989934
 21
397.9849870732
 31
0.0
  0
POLYLINE
  5
592
  8
VIDITELNE
  6
SLD-PLNÁ
 62
     2
 66
     1
 10
0.0
 20
0.0
 30
0.0
  0
VERTEX
  5
96A
  8
VIDITELNE
  6
SLD-PLNÁ
 62
     2
 10
-44.5697989934
 20
485.4500133199
 30
0.0
  0
VERTEX
  5
96B
  8
VIDITELNE
  6
SLD-PLNÁ
 62
     2
 10
-44.5892079691
 20
484.3816862311
 30
0.0
  0
VERTEX
  5
96C
  8
VIDITELNE
  6
SLD-PLNÁ
 62
     2
 10
-44.5697989934
 20
482.147842933
 30
0.0
  0
SEQEND
  5
96D
  8
VIDITELNE
  6
SLD-PLNÁ
 62
     2
  0
LINE
  5
593
  8
VIDITELNE
  6
SLD-PLNÁ
 62
     2
 10
-44.5697989934
 20
520.3114096651
 30
0.0
 11
-44.5697989934
 21
485.4500133199
 31
0.0
  0
LINE
  5
594
  8
VIDITELNE
  6
SLD-PLNÁ
 62
     2
 10
-122.5
 20
520.65
 30
0.0
 11
-122.5
 21
270.65
 31
0.0
  0
ARC
  5
595
  8
VIDITELNE
  6
SLD-PLNÁ
 62
     2
 10
-45.0411458116
 20
418.7944825836
 30
0.0
 40
25.48382902576921
 50
266.7182361343
 51
271.0597984854
  0
LINE
  5
596
  8
VIDITELNE
  6
SLD-PLNÁ
 62
     2
 10
-46.5
 20
393.3524448061
 30
0.0
 11
-46.5
 21
397.9475551939
 31
0.0
  0
ARC
  5
597
  8
VIDITELNE
  6
SLD-PLNÁ
 62
     2
 10
-45.0411458116
 20
372.5055174165
 30
0.0
 40
25.48382902567376
 50
88.9402015146
 51
93.2817638657
  0
ARC
  5
598
  8
VIDITELNE
  6
SLD-PLNÁ
 62
     2
 10
-44.7808038361
 20
310.8951782709
 30
0.0
 40
1.755746553724602
 50
191.7114058078
 51
276.9024654221
  0
LINE
  5
599
  8
VIDITELNE
  6
SLD-PLNÁ
 62
     2
 10
-46.5
 20
310.5387929304
 30
0.0
 11
-46.5
 21
393.3524448061
 31
0.0
  0
LINE
  5
59A
  8
VIDITELNE
  6
SLD-PLNÁ
 62
     2
 10
-46.5
 20
397.9475551939
 30
0.0
 11
-46.5
 21
480.7612070696
 31
0.0
  0
ARC
  5
59B
  8
VIDITELNE
  6
SLD-PLNÁ
 62
     2
 10
-44.7808038361
 20
480.4048217291
 30
0.0
 40
1.755746553723813
 50
83.0975345779
 51
168.2885941922
  0
LINE
  5
59C
  8
VIDITELNE
  6
SLD-PLNÁ
 62
     2
 10
-56.5
 20
388.65
 30
0.0
 11
-56.5
 21
402.65
 31
0.0
  0
ARC
  5
59D
  8
VIDITELNE
  6
SLD-PLNÁ
 62
     2
 10
-44.7605318293
 20
307.6080570318
 30
0.0
 40
1.768386376468022
 50
190.3759610839
 51
276.1917952532
  0
LINE
  5
59E
  8
VIDITELNE
  6
SLD-PLNÁ
 62
     2
 10
-46.5
 20
307.2895592148
 30
0.0
 11
-46.5
 21
310.5387929304
 31
0.0
  0
LINE
  5
59F
  8
VIDITELNE
  6
SLD-PLNÁ
 62
     2
 10
-46.5
 20
480.7612070696
 30
0.0
 11
-46.5
 21
484.0104407852
 31
0.0
  0
ARC
  5
5A0
  8
VIDITELNE
  6
SLD-PLNÁ
 62
     2
 10
-44.7605318293
 20
483.6919429682
 30
0.0
 40
1.768386376468053
 50
83.8082047468
 51
169.6240389161
  0
LINE
  5
5A1
  8
VIDITELNE
  6
SLD-PLNÁ
 62
     2
 10
-56.5
 20
307.3327201635
 30
0.0
 11
-56.5
 21
321.3327201635
 31
0.0
  0
LINE
  5
5A2
  8
VIDITELNE
  6
SLD-PLNÁ
 62
     2
 10
-56.5
 20
469.9672798365
 30
0.0
 11
-56.5
 21
483.9672798365
 31
0.0
  0
ARC
  5
5A3
  8
VIDITELNE
  6
SLD-PLNÁ
 62
     2
 10
-44.5001898538
 20
272.9871886479
 30
0.0
 40
1.999810153232789
 50
180.0047900837
 51
268.005252791
  0
LINE
  5
5A4
  8
VIDITELNE
  6
SLD-PLNÁ
 62
     2
 10
-46.5
 20
272.9870214583
 30
0.0
 11
-46.5
 21
307.2895592148
 31
0.0
  0
ARC
  5
5A5
  8
VIDITELNE
  6
SLD-PLNÁ
 62
     2
 10
-44.5001898538
 20
518.3128113521
 30
0.0
 40
1.99981015323214
 50
91.9947472089
 51
179.9952099163
  0
LINE
  5
5A6
  8
VIDITELNE
  6
SLD-PLNÁ
 62
     2
 10
-46.5
 20
484.0104407852
 30
0.0
 11
-46.5
 21
518.3129785417
 31
0.0
  0
LINE
  5
5A7
  8
VIDITELNE
  6
SLD-PLNÁ
 62
     2
 10
-46.5
 20
272.6527882181
 30
0.0
 11
-46.5
 21
272.9870214583
 31
0.0
  0
LINE
  5
5A8
  8
VIDITELNE
  6
SLD-PLNÁ
 62
     2
 10
-56.5
 20
273.65
 30
0.0
 11
-56.5
 21
287.65
 31
0.0
  0
LINE
  5
5A9
  8
VIDITELNE
  6
SLD-PLNÁ
 62
     2
 10
-56.5
 20
503.65
 30
0.0
 11
-56.5
 21
517.65
 31
0.0
  0
LINE
  5
5AA
  8
VIDITELNE
  6
SLD-PLNÁ
 62
     2
 10
-46.5
 20
518.3129785417
 30
0.0
 11
-46.5
 21
518.65
 31
0.0
  0
LINE
  5
5AB
  8
VIDITELNE
  6
SLD-PLNÁ
 62
     2
 10
91.5
 20
520.2658715356
 30
0.0
 11
91.5
 21
271.0341284644
 31
0.0
  0
LINE
  5
5AC
  8
VIDITELNE
  6
SLD-PLNÁ
 62
     2
 10
101.5
 20
402.6499991568
 30
0.0
 11
101.5
 21
388.65
 31
0.0
  0
LINE
  5
5AD
  8
VIDITELNE
  6
SLD-PLNÁ
 62
     2
 10
103.0
 20
363.0228323243
 30
0.0
 11
91.5
 21
352.6832401246
 31
0.0
  0
LINE
  5
5AE
  8
VIDITELNE
  6
SLD-PLNÁ
 62
     2
 10
91.5
 20
360.4798871613
 30
0.0
 11
103.0
 21
363.0228323243
 31
0.0
  0
LINE
  5
5AF
  8
VIDITELNE
  6
SLD-PLNÁ
 62
     2
 10
103.0
 20
363.0228323243
 30
0.0
 11
103.0
 21
355.6317960642
 31
0.0
  0
LINE
  5
5B0
  8
VIDITELNE
  6
SLD-PLNÁ
 62
     2
 10
91.5
 20
345.2922038645
 30
0.0
 11
103.0
 21
355.6317960642
 31
0.0
  0
LINE
  5
5B1
  8
VIDITELNE
  6
SLD-PLNÁ
 62
     2
 10
91.5
 20
438.6167598754
 30
0.0
 11
103.0
 21
428.2771676757
 31
0.0
  0
LINE
  5
5B2
  8
VIDITELNE
  6
SLD-PLNÁ
 62
     2
 10
103.0
 20
428.2771676757
 30
0.0
 11
91.5
 21
430.8201128387
 31
0.0
  0
LINE
  5
5B3
  8
VIDITELNE
  6
SLD-PLNÁ
 62
     2
 10
103.0
 20
435.6682039358
 30
0.0
 11
91.5
 21
446.0077961355
 31
0.0
  0
LINE
  5
5B4
  8
VIDITELNE
  6
SLD-PLNÁ
 62
     2
 10
103.0
 20
435.6682039358
 30
0.0
 11
103.0
 21
428.2771676757
 31
0.0
  0
LINE
  5
5B5
  8
VIDITELNE
  6
SLD-PLNÁ
 62
     2
 10
103.0
 20
428.2771676757
 30
0.0
 11
103.0
 21
363.0228323243
 31
0.0
  0
LINE
  5
5B6
  8
VIDITELNE
  6
SLD-PLNÁ
 62
     2
 10
91.5
 20
303.3508003345
 30
0.0
 11
97.0857452259
 21
306.3327201635
 31
0.0
  0
LINE
  5
5B7
  8
VIDITELNE
  6
SLD-PLNÁ
 62
     2
 10
101.5
 20
308.6892461613
 30
0.0
 11
103.0
 21
309.4900130353
 31
0.0
  0
LINE
  5
5B8
  8
VIDITELNE
  6
SLD-PLNÁ
 62
     2
 10
103.0
 20
355.6317960642
 30
0.0
 11
103.0
 21
309.4900130353
 31
0.0
  0
LINE
  5
5B9
  8
VIDITELNE
  6
SLD-PLNÁ
 62
     2
 10
103.0
 20
481.8099869647
 30
0.0
 11
101.5
 21
482.6107538387
 31
0.0
  0
LINE
  5
5BA
  8
VIDITELNE
  6
SLD-PLNÁ
 62
     2
 10
97.0857452259
 20
484.9672798365
 30
0.0
 11
91.5
 21
487.9491996655
 31
0.0
  0
LINE
  5
5BB
  8
VIDITELNE
  6
SLD-PLNÁ
 62
     2
 10
103.0
 20
481.8099869647
 30
0.0
 11
103.0
 21
435.6682039358
 31
0.0
  0
LINE
  5
5BC
  8
VIDITELNE
  6
SLD-PLNÁ
 62
     2
 10
101.5
 20
483.9672789933
 30
0.0
 11
101.5
 21
469.9672798365
 31
0.0
  0
LINE
  5
5BD
  8
VIDITELNE
  6
SLD-PLNÁ
 62
     2
 10
101.5
 20
321.3327193204
 30
0.0
 11
101.5
 21
307.3327201635
 31
0.0
  0
LINE
  5
5BE
  8
VIDITELNE
  6
SLD-PLNÁ
 62
     2
 10
106.5
 20
460.65
 30
0.0
 11
106.5
 21
330.65
 31
0.0
  0
LINE
  5
5BF
  8
VIDITELNE
  6
SLD-PLNÁ
 62
     2
 10
103.0
 20
484.8714544236
 30
0.0
 11
91.5
 21
509.8334381415
 31
0.0
  0
LINE
  5
5C0
  8
VIDITELNE
  6
SLD-PLNÁ
 62
     2
 10
91.5
 20
506.7719706826
 30
0.0
 11
103.0
 21
481.8099869647
 31
0.0
  0
LINE
  5
5C1
  8
VIDITELNE
  6
SLD-PLNÁ
 62
     2
 10
103.0
 20
484.8714544236
 30
0.0
 11
103.0
 21
481.8099869647
 31
0.0
  0
LINE
  5
5C2
  8
VIDITELNE
  6
SLD-PLNÁ
 62
     2
 10
103.0
 20
309.4900130353
 30
0.0
 11
91.5
 21
284.5280293174
 31
0.0
  0
LINE
  5
5C3
  8
VIDITELNE
  6
SLD-PLNÁ
 62
     2
 10
91.5
 20
281.4665618585
 30
0.0
 11
103.0
 21
306.4285455764
 31
0.0
  0
LINE
  5
5C4
  8
VIDITELNE
  6
SLD-PLNÁ
 62
     2
 10
103.0
 20
309.4900130353
 30
0.0
 11
103.0
 21
306.4285455764
 31
0.0
  0
LINE
  5
5C5
  8
VIDITELNE
  6
SLD-PLNÁ
 62
     2
 10
103.0
 20
490.65
 30
0.0
 11
103.0
 21
484.8714544236
 31
0.0
  0
LINE
  5
5C6
  8
VIDITELNE
  6
SLD-PLNÁ
 62
     2
 10
103.0
 20
306.4285455764
 30
0.0
 11
103.0
 21
300.65
 31
0.0
  0
LINE
  5
5C7
  8
VIDITELNE
  6
SLD-PLNÁ
 62
     2
 10
101.5
 20
517.6499991568
 30
0.0
 11
101.5
 21
503.65
 31
0.0
  0
LINE
  5
5C8
  8
VIDITELNE
  6
SLD-PLNÁ
 62
     2
 10
101.5
 20
287.6499991568
 30
0.0
 11
101.5
 21
273.65
 31
0.0
  0
LINE
  5
5C9
  8
VIDITELNE
  6
SLD-PLNÁ
 62
     2
 10
-77.5
 20
547.65
 30
0.0
 11
122.5
 21
547.65
 31
0.0
  0
LINE
  5
5CA
  8
VIDITELNE
  6
SLD-PLNÁ
 62
     2
 10
120.1495732165
 20
535.65
 30
0.0
 11
-75.1495732165
 21
535.65
 31
0.0
  0
LINE
  5
5CB
  8
VIDITELNE
  6
SLD-PLNÁ
 62
     2
 10
68.2031939779
 20
257.65
 30
0.0
 11
74.7892562945
 21
257.65
 31
0.0
  0
LINE
  5
5CC
  8
VIDITELNE
  6
SLD-PLNÁ
 62
     2
 10
23.3507268235
 20
257.65
 30
0.0
 11
67.3524671544
 21
257.65
 31
0.0
  0
LINE
  5
5CD
  8
VIDITELNE
  6
SLD-PLNÁ
 62
     2
 10
-22.3524671544
 20
257.65
 30
0.0
 11
21.6492731765
 21
257.65
 31
0.0
  0
LINE
  5
5CE
  8
VIDITELNE
  6
SLD-PLNÁ
 62
     2
 10
-29.7892562945
 20
257.65
 30
0.0
 11
-23.2031939779
 21
257.65
 31
0.0
  0
LINE
  5
5CF
  8
VIDITELNE
  6
SLD-PLNÁ
 62
     2
 10
27.5
 20
252.35
 30
0.0
 11
27.5
 21
257.65
 31
0.0
  0
LINE
  5
5D0
  8
VIDITELNE
  6
SLD-PLNÁ
 62
     2
 10
27.5
 20
252.35
 30
0.0
 11
22.5
 21
252.35
 31
0.0
  0
LINE
  5
5D1
  8
VIDITELNE
  6
SLD-PLNÁ
 62
     2
 10
22.5
 20
252.35
 30
0.0
 11
22.5
 21
257.65
 31
0.0
  0
LINE
  5
5D2
  8
VIDITELNE
  6
SLD-PLNÁ
 62
     2
 10
23.3507268235
 20
257.65
 30
0.0
 11
22.5
 21
257.65
 31
0.0
  0
LINE
  5
5D3
  8
VIDITELNE
  6
SLD-PLNÁ
 62
     2
 10
22.5
 20
252.35
 30
0.0
 11
17.5
 21
252.35
 31
0.0
  0
LINE
  5
5D4
  8
VIDITELNE
  6
SLD-PLNÁ
 62
     2
 10
17.5
 20
252.35
 30
0.0
 11
17.5
 21
257.65
 31
0.0
  0
LINE
  5
5D5
  8
VIDITELNE
  6
SLD-PLNÁ
 62
     2
 10
22.5
 20
257.65
 30
0.0
 11
21.6492731765
 21
257.65
 31
0.0
  0
LINE
  5
5D6
  8
VIDITELNE
  6
SLD-PLNÁ
 62
     2
 10
-18.2031939779
 20
252.35
 30
0.0
 11
-18.2031939779
 21
257.65
 31
0.0
  0
LINE
  5
5D7
  8
VIDITELNE
  6
SLD-PLNÁ
 62
     2
 10
-23.2031939779
 20
252.35
 30
0.0
 11
-23.2031939779
 21
257.65
 31
0.0
  0
LINE
  5
5D8
  8
VIDITELNE
  6
SLD-PLNÁ
 62
     2
 10
-22.3524671544
 20
257.65
 30
0.0
 11
-23.2031939779
 21
257.65
 31
0.0
  0
LINE
  5
5D9
  8
VIDITELNE
  6
SLD-PLNÁ
 62
     2
 10
-18.2031939779
 20
252.35
 30
0.0
 11
-23.2031939779
 21
252.35
 31
0.0
  0
LINE
  5
5DA
  8
VIDITELNE
  6
SLD-PLNÁ
 62
     2
 10
-13.2031939779
 20
252.35
 30
0.0
 11
-13.2031939779
 21
257.65
 31
0.0
  0
LINE
  5
5DB
  8
VIDITELNE
  6
SLD-PLNÁ
 62
     2
 10
-13.2031939779
 20
252.35
 30
0.0
 11
-18.2031939779
 21
252.35
 31
0.0
  0
LINE
  5
5DC
  8
VIDITELNE
  6
SLD-PLNÁ
 62
     2
 10
68.2031939779
 20
252.35
 30
0.0
 11
68.2031939779
 21
257.65
 31
0.0
  0
LINE
  5
5DD
  8
VIDITELNE
  6
SLD-PLNÁ
 62
     2
 10
68.2031939779
 20
252.35
 30
0.0
 11
63.2031939779
 21
252.35
 31
0.0
  0
LINE
  5
5DE
  8
VIDITELNE
  6
SLD-PLNÁ
 62
     2
 10
63.2031939779
 20
252.35
 30
0.0
 11
63.2031939779
 21
257.65
 31
0.0
  0
LINE
  5
5DF
  8
VIDITELNE
  6
SLD-PLNÁ
 62
     2
 10
68.2031939779
 20
257.65
 30
0.0
 11
67.3524671544
 21
257.65
 31
0.0
  0
LINE
  5
5E0
  8
VIDITELNE
  6
SLD-PLNÁ
 62
     2
 10
63.2031939779
 20
252.35
 30
0.0
 11
58.2031939779
 21
252.35
 31
0.0
  0
LINE
  5
5E1
  8
VIDITELNE
  6
SLD-PLNÁ
 62
     2
 10
58.2031939779
 20
252.35
 30
0.0
 11
58.2031939779
 21
257.65
 31
0.0
  0
LINE
  5
5E2
  8
VIDITELNE
  6
SLD-PLNÁ
 62
     2
 10
12.0
 20
264.65
 30
0.0
 11
33.0
 21
264.65
 31
0.0
  0
ARC
  5
5E3
  8
VIDITELNE
  6
SLD-PLNÁ
 62
     2
 10
-28.7573344869
 20
272.1930054716
 30
0.0
 40
3.544936238730681
 50
205.8024949382
 51
271.8911156085
  0
ARC
  5
5E4
  8
VIDITELNE
  6
SLD-PLNÁ
 62
     2
 10
73.7566761971
 20
272.1963872092
 30
0.0
 40
3.548294494215402
 50
268.1213102984
 51
334.1630639129
  0
ARC
  5
5E5
  8
VIDITELNE
  6
SLD-PLNÁ
 62
     2
 10
73.7573344869
 20
519.1069945284
 30
0.0
 40
3.544936238731069
 50
25.8024949382
 51
91.8911156084
  0
ARC
  5
5E6
  8
VIDITELNE
  6
SLD-PLNÁ
 62
     2
 10
-28.7566761971
 20
519.1036127908
 30
0.0
 40
3.548294494215823
 50
88.1213102984
 51
154.1630639129
  0
LINE
  5
5E7
  8
VIDITELNE
  6
SLD-PLNÁ
 62
     2
 10
-109.5
 20
270.65
 30
0.0
 11
-109.5
 21
520.65
 31
0.0
  0
LINE
  5
5E8
  8
VIDITELNE
  6
SLD-PLNÁ
 62
     2
 10
-44.5697989934
 20
270.9885903349
 30
0.0
 11
-44.5892079691
 21
270.9700044696
 31
0.0
  0
LINE
  5
5E9
  8
VIDITELNE
  6
SLD-PLNÁ
 62
     2
 10
-44.5842297993
 20
520.3252284785
 30
0.0
 11
-44.5697989934
 21
520.3114096651
 31
0.0
  0
LINE
  5
5EA
  8
VIDITELNE
  6
SLD-PLNÁ
 62
     2
 10
-55.5
 20
403.65
 30
0.0
 11
-55.5
 21
387.65
 31
0.0
  0
LINE
  5
5EB
  8
VIDITELNE
  6
SLD-PLNÁ
 62
     2
 10
-106.6471528727
 20
395.65
 30
0.0
 11
-106.6471528727
 21
306.7399061501
 31
0.0
  0
LINE
  5
5EC
  8
VIDITELNE
  6
SLD-PLNÁ
 62
     2
 10
-106.6471528727
 20
484.5600938499
 30
0.0
 11
-106.6471528727
 21
395.65
 31
0.0
  0
LINE
  5
5ED
  8
VIDITELNE
  6
SLD-PLNÁ
 62
     2
 10
-55.5
 20
322.3327201635
 30
0.0
 11
-55.5
 21
306.3327201635
 31
0.0
  0
LINE
  5
5EE
  8
VIDITELNE
  6
SLD-PLNÁ
 62
     2
 10
-55.5
 20
484.9672798365
 30
0.0
 11
-55.5
 21
468.9672798365
 31
0.0
  0
LINE
  5
5EF
  8
VIDITELNE
  6
SLD-PLNÁ
 62
     2
 10
-73.7913882374
 20
461.5542397786
 30
0.0
 11
-73.7913882374
 21
329.7457602214
 31
0.0
  0
LINE
  5
5F0
  8
VIDITELNE
  6
SLD-PLNÁ
 62
     2
 10
-48.5
 20
403.65
 30
0.0
 11
-48.5
 21
460.65
 31
0.0
  0
LINE
  5
5F1
  8
VIDITELNE
  6
SLD-PLNÁ
 62
     2
 10
-48.5
 20
330.65
 30
0.0
 11
-48.5
 21
387.65
 31
0.0
  0
LINE
  5
5F2
  8
VIDITELNE
  6
SLD-PLNÁ
 62
     2
 10
-70.9235060556
 20
460.65
 30
0.0
 11
-70.9235060556
 21
330.65
 31
0.0
  0
LINE
  5
5F3
  8
VIDITELNE
  6
SLD-PLNÁ
 62
     2
 10
-55.5
 20
288.65
 30
0.0
 11
-55.5
 21
272.65
 31
0.0
  0
LINE
  5
5F4
  8
VIDITELNE
  6
SLD-PLNÁ
 62
     2
 10
-55.5
 20
518.65
 30
0.0
 11
-55.5
 21
502.65
 31
0.0
  0
LINE
  5
5F5
  8
VIDITELNE
  6
SLD-PLNÁ
 62
     2
 10
100.5
 20
387.65
 30
0.0
 11
100.5
 21
403.65
 31
0.0
  0
LINE
  5
5F6
  8
VIDITELNE
  6
SLD-PLNÁ
 62
     2
 10
100.5
 20
468.9672798365
 30
0.0
 11
100.5
 21
484.9672798365
 31
0.0
  0
LINE
  5
5F7
  8
VIDITELNE
  6
SLD-PLNÁ
 62
     2
 10
100.5
 20
306.3327201635
 30
0.0
 11
100.5
 21
322.3327201635
 31
0.0
  0
LINE
  5
5F8
  8
VIDITELNE
  6
SLD-PLNÁ
 62
     2
 10
100.5
 20
502.65
 30
0.0
 11
100.5
 21
518.65
 31
0.0
  0
LINE
  5
5F9
  8
VIDITELNE
  6
SLD-PLNÁ
 62
     2
 10
100.5
 20
272.65
 30
0.0
 11
100.5
 21
288.65
 31
0.0
  0
LINE
  5
5FA
  8
VIDITELNE
  6
SLD-PLNÁ
 62
     2
 10
-77.1483548705
 20
537.5802010066
 30
0.0
 11
122.1483548705
 21
537.5802010066
 31
0.0
  0
LINE
  5
5FB
  8
VIDITELNE
  6
SLD-PLNÁ
 62
     2
 10
-32.7481015383
 20
532.7546984901
 30
0.0
 11
77.7481015383
 21
532.7546984901
 31
0.0
  0
LINE
  5
5FC
  8
VIDITELNE
  6
SLD-PLNÁ
 62
     2
 10
-31.7880379485
 20
259.5802010066
 30
0.0
 11
76.7880379485
 21
259.5802010066
 31
0.0
  0
LINE
  5
5FD
  8
VIDITELNE
  6
SLD-PLNÁ
 62
     2
 10
-32.5
 20
-518.65
 30
0.0
 11
-32.5
 21
-525.65
 31
0.0
  0
LINE
  5
5FE
  8
VIDITELNE
  6
SLD-PLNÁ
 62
     2
 10
-32.5
 20
-265.65
 30
0.0
 11
-32.5
 21
-272.65
 31
0.0
  0
LINE
  5
5FF
  8
VIDITELNE
  6
SLD-PLNÁ
 62
     2
 10
77.5
 20
-272.65
 30
0.0
 11
77.5
 21
-265.65
 31
0.0
  0
LINE
  5
600
  8
VIDITELNE
  6
SLD-PLNÁ
 62
     2
 10
77.5
 20
-525.65
 30
0.0
 11
77.5
 21
-518.65
 31
0.0
  0
LINE
  5
601
  8
VIDITELNE
  6
SLD-PLNÁ
 62
     2
 10
77.5
 20
-520.65
 30
0.0
 11
80.5
 21
-520.65
 31
0.0
  0
LINE
  5
602
  8
VIDITELNE
  6
SLD-PLNÁ
 62
     2
 10
-35.5
 20
-520.65
 30
0.0
 11
-32.5
 21
-520.65
 31
0.0
  0
LINE
  5
603
  8
VIDITELNE
  6
SLD-PLNÁ
 62
     2
 10
-32.5
 20
-270.65
 30
0.0
 11
-35.5
 21
-270.65
 31
0.0
  0
LINE
  5
604
  8
VIDITELNE
  6
SLD-PLNÁ
 62
     2
 10
80.5
 20
-270.65
 30
0.0
 11
77.5
 21
-270.65
 31
0.0
  0
ARC
  5
605
  8
VIDITELNE
  6
SLD-PLNÁ
 62
     2
 10
106.5
 20
-365.15
 30
0.0
 40
2.0
 50
0.0
 51
90.0
  0
ARC
  5
606
  8
VIDITELNE
  6
SLD-PLNÁ
 62
     2
 10
106.5
 20
-426.15
 30
0.0
 40
2.0
 50
270.0
 51
0.0
  0
ARC
  5
607
  8
VIDITELNE
  6
SLD-PLNÁ
 62
     2
 10
-109.5
 20
-272.65
 30
0.0
 40
2.0
 50
0.0
 51
90.0
  0
ARC
  5
608
  8
VIDITELNE
  6
SLD-PLNÁ
 62
     2
 10
-109.5
 20
-518.65
 30
0.0
 40
2.0
 50
270.0
 51
0.0
  0
LINE
  5
609
  8
VIDITELNE
  6
SLD-PLNÁ
 62
     2
 10
-109.5
 20
-270.65
 30
0.0
 11
-122.5
 21
-270.65
 31
0.0
  0
LINE
  5
60A
  8
VIDITELNE
  6
SLD-PLNÁ
 62
     2
 10
-122.5
 20
-520.65
 30
0.0
 11
-109.5
 21
-520.65
 31
0.0
  0
LINE
  5
60B
  8
VIDITELNE
  6
SLD-PLNÁ
 62
     2
 10
-35.5
 20
-270.65
 30
0.0
 11
-44.5844928937
 21
-270.9672374823
 31
0.0
  0
LINE
  5
60C
  8
VIDITELNE
  6
SLD-PLNÁ
 62
     2
 10
-44.5844928937
 20
-520.3327625177
 30
0.0
 11
-35.5
 21
-520.65
 31
0.0
  0
LINE
  5
60D
  8
VIDITELNE
  6
SLD-PLNÁ
 62
     2
 10
-46.5
 20
-387.65
 30
0.0
 11
-55.5
 21
-387.65
 31
0.0
  0
LINE
  5
60E
  8
VIDITELNE
  6
SLD-PLNÁ
 62
     2
 10
-55.5
 20
-403.65
 30
0.0
 11
-46.5
 21
-403.65
 31
0.0
  0
ARC
  5
60F
  8
VIDITELNE
  6
SLD-PLNÁ
 62
     2
 10
-55.5
 20
-388.65
 30
0.0
 40
1.0
 50
90.0
 51
180.0
  0
ARC
  5
610
  8
VIDITELNE
  6
SLD-PLNÁ
 62
     2
 10
-55.5
 20
-402.65
 30
0.0
 40
1.0
 50
180.0
 51
270.0
  0
ARC
  5
611
  8
VIDITELNE
  6
SLD-PLNÁ
 62
     2
 10
-105.5
 20
-305.1016020616
 30
0.0
 40
2.000000000000043
 50
180.0
 51
235.0
  0
ARC
  5
612
  8
VIDITELNE
  6
SLD-PLNÁ
 62
     2
 10
-105.5
 20
-486.1983979384
 30
0.0
 40
2.000000000000043
 50
125.0
 51
180.0
  0
LINE
  5
613
  8
VIDITELNE
  6
SLD-PLNÁ
 62
     2
 10
-46.5
 20
-468.9672798365
 30
0.0
 11
-55.5
 21
-468.9672798365
 31
0.0
  0
LINE
  5
614
  8
VIDITELNE
  6
SLD-PLNÁ
 62
     2
 10
-55.5
 20
-484.9672798365
 30
0.0
 11
-46.5
 21
-484.9672798365
 31
0.0
  0
ARC
  5
615
  8
VIDITELNE
  6
SLD-PLNÁ
 62
     2
 10
-55.5
 20
-469.9672798365
 30
0.0
 40
1.0
 50
90.0
 51
180.0
  0
ARC
  5
616
  8
VIDITELNE
  6
SLD-PLNÁ
 62
     2
 10
-55.5
 20
-483.9672798365
 30
0.0
 40
1.0
 50
180.0
 51
270.0
  0
LINE
  5
617
  8
VIDITELNE
  6
SLD-PLNÁ
 62
     2
 10
-46.5
 20
-306.3327201635
 30
0.0
 11
-55.5
 21
-306.3327201635
 31
0.0
  0
LINE
  5
618
  8
VIDITELNE
  6
SLD-PLNÁ
 62
     2
 10
-55.5
 20
-322.3327201635
 30
0.0
 11
-46.5
 21
-322.3327201635
 31
0.0
  0
ARC
  5
619
  8
VIDITELNE
  6
SLD-PLNÁ
 62
     2
 10
-55.5
 20
-307.3327201635
 30
0.0
 40
1.0
 50
90.0
 51
180.0
  0
ARC
  5
61A
  8
VIDITELNE
  6
SLD-PLNÁ
 62
     2
 10
-55.5
 20
-321.3327201635
 30
0.0
 40
1.0
 50
180.0
 51
270.0
  0
LINE
  5
61B
  8
VIDITELNE
  6
SLD-PLNÁ
 62
     2
 10
-106.6471528727
 20
-484.5600938499
 30
0.0
 11
-73.7913882374
 21
-461.5542397786
 31
0.0
  0
LINE
  5
61C
  8
VIDITELNE
  6
SLD-PLNÁ
 62
     2
 10
-73.7913882374
 20
-329.7457602214
 30
0.0
 11
-106.6471528727
 21
-306.7399061501
 31
0.0
  0
ARC
  5
61D
  8
VIDITELNE
  6
SLD-PLNÁ
 62
     2
 10
-48.5
 20
-462.65
 30
0.0
 40
2.0
 50
0.0
 51
90.0
  0
ARC
  5
61E
  8
VIDITELNE
  6
SLD-PLNÁ
 62
     2
 10
-48.5
 20
-328.65
 30
0.0
 40
2.0
 50
270.0
 51
0.0
  0
ARC
  5
61F
  8
VIDITELNE
  6
SLD-PLNÁ
 62
     2
 10
-70.9235060556
 20
-325.65
 30
0.0
 40
5.00000000000004
 50
235.0
 51
270.0
  0
ARC
  5
620
  8
VIDITELNE
  6
SLD-PLNÁ
 62
     2
 10
-70.9235060556
 20
-465.65
 30
0.0
 40
5.000000000000057
 50
90.0
 51
125.0
  0
LINE
  5
621
  8
VIDITELNE
  6
SLD-PLNÁ
 62
     2
 10
-48.5
 20
-330.65
 30
0.0
 11
-70.9235060556
 21
-330.65
 31
0.0
  0
LINE
  5
622
  8
VIDITELNE
  6
SLD-PLNÁ
 62
     2
 10
-70.9235060556
 20
-460.65
 30
0.0
 11
-48.5
 21
-460.65
 31
0.0
  0
LINE
  5
623
  8
VIDITELNE
  6
SLD-PLNÁ
 62
     2
 10
-46.5
 20
-502.65
 30
0.0
 11
-55.5
 21
-502.65
 31
0.0
  0
LINE
  5
624
  8
VIDITELNE
  6
SLD-PLNÁ
 62
     2
 10
-55.5
 20
-518.65
 30
0.0
 11
-46.5
 21
-518.65
 31
0.0
  0
ARC
  5
625
  8
VIDITELNE
  6
SLD-PLNÁ
 62
     2
 10
-55.5
 20
-503.65
 30
0.0
 40
1.0
 50
90.0
 51
180.0
  0
ARC
  5
626
  8
VIDITELNE
  6
SLD-PLNÁ
 62
     2
 10
-55.5
 20
-517.65
 30
0.0
 40
1.0
 50
180.0
 51
270.0
  0
LINE
  5
627
  8
VIDITELNE
  6
SLD-PLNÁ
 62
     2
 10
-46.5
 20
-272.65
 30
0.0
 11
-55.5
 21
-272.65
 31
0.0
  0
LINE
  5
628
  8
VIDITELNE
  6
SLD-PLNÁ
 62
     2
 10
-55.5
 20
-288.65
 30
0.0
 11
-46.5
 21
-288.65
 31
0.0
  0
ARC
  5
629
  8
VIDITELNE
  6
SLD-PLNÁ
 62
     2
 10
-55.5
 20
-273.65
 30
0.0
 40
1.0
 50
90.0
 51
180.0
  0
ARC
  5
62A
  8
VIDITELNE
  6
SLD-PLNÁ
 62
     2
 10
-55.5
 20
-287.65
 30
0.0
 40
1.0
 50
180.0
 51
270.0
  0
ARC
  5
62B
  8
VIDITELNE
  6
SLD-PLNÁ
 62
     2
 10
-44.6186147006
 20
-518.462204855
 30
0.0
 40
1.862866479227474
 50
182.3951698146
 51
271.059970472
  0
ARC
  5
62C
  8
VIDITELNE
  6
SLD-PLNÁ
 62
     2
 10
-44.5976064934
 20
-272.8582394723
 30
0.0
 40
1.883884728213103
 50
89.5929807369
 51
177.0364006391
  0
LINE
  5
62D
  8
VIDITELNE
  6
SLD-PLNÁ
 62
     2
 10
80.5
 20
-520.65
 30
0.0
 11
91.5
 21
-520.2658715356
 31
0.0
  0
LINE
  5
62E
  8
VIDITELNE
  6
SLD-PLNÁ
 62
     2
 10
91.5
 20
-271.0341284644
 30
0.0
 11
80.5
 21
-270.65
 31
0.0
  0
ARC
  5
62F
  8
VIDITELNE
  6
SLD-PLNÁ
 62
     2
 10
100.5
 20
-388.65
 30
0.0
 40
1.000000000000014
 50
0.0
 51
90.0
  0
ARC
  5
630
  8
VIDITELNE
  6
SLD-PLNÁ
 62
     2
 10
100.5
 20
-402.65
 30
0.0
 40
1.000000000000014
 50
270.0
 51
0.0
  0
LINE
  5
631
  8
VIDITELNE
  6
SLD-PLNÁ
 62
     2
 10
91.5
 20
-403.65
 30
0.0
 11
100.5
 21
-403.65
 31
0.0
  0
LINE
  5
632
  8
VIDITELNE
  6
SLD-PLNÁ
 62
     2
 10
100.5
 20
-387.65
 30
0.0
 11
91.5
 21
-387.65
 31
0.0
  0
LINE
  5
633
  8
VIDITELNE
  6
SLD-PLNÁ
 62
     2
 10
91.5
 20
-484.9672798365
 30
0.0
 11
100.5
 21
-484.9672798365
 31
0.0
  0
LINE
  5
634
  8
VIDITELNE
  6
SLD-PLNÁ
 62
     2
 10
100.5
 20
-468.9672798365
 30
0.0
 11
91.5
 21
-468.9672798365
 31
0.0
  0
ARC
  5
635
  8
VIDITELNE
  6
SLD-PLNÁ
 62
     2
 10
100.5
 20
-469.9672798365
 30
0.0
 40
1.000000000000014
 50
0.0
 51
90.0
  0
ARC
  5
636
  8
VIDITELNE
  6
SLD-PLNÁ
 62
     2
 10
100.5
 20
-483.9672798365
 30
0.0
 40
1.000000000000014
 50
270.0
 51
0.0
  0
ARC
  5
637
  8
VIDITELNE
  6
SLD-PLNÁ
 62
     2
 10
100.5
 20
-307.3327201635
 30
0.0
 40
1.0
 50
0.0
 51
90.0
  0
ARC
  5
638
  8
VIDITELNE
  6
SLD-PLNÁ
 62
     2
 10
100.5
 20
-321.3327201635
 30
0.0
 40
1.0
 50
270.0
 51
0.0
  0
LINE
  5
639
  8
VIDITELNE
  6
SLD-PLNÁ
 62
     2
 10
91.5
 20
-322.3327201635
 30
0.0
 11
100.5
 21
-322.3327201635
 31
0.0
  0
LINE
  5
63A
  8
VIDITELNE
  6
SLD-PLNÁ
 62
     2
 10
100.5
 20
-306.3327201635
 30
0.0
 11
91.5
 21
-306.3327201635
 31
0.0
  0
LINE
  5
63B
  8
VIDITELNE
  6
SLD-PLNÁ
 62
     2
 10
106.5
 20
-330.65
 30
0.0
 11
103.0
 21
-330.65
 31
0.0
  0
LINE
  5
63C
  8
VIDITELNE
  6
SLD-PLNÁ
 62
     2
 10
103.0
 20
-460.65
 30
0.0
 11
106.5
 21
-460.65
 31
0.0
  0
LINE
  5
63D
  8
VIDITELNE
  6
SLD-PLNÁ
 62
     2
 10
103.0
 20
-300.65
 30
0.0
 11
99.3731240234
 21
-298.5560221786
 31
0.0
  0
LINE
  5
63E
  8
VIDITELNE
  6
SLD-PLNÁ
 62
     2
 10
99.3731240234
 20
-492.7439778214
 30
0.0
 11
103.0
 21
-490.65
 31
0.0
  0
LINE
  5
63F
  8
VIDITELNE
  6
SLD-PLNÁ
 62
     2
 10
91.5
 20
-518.65
 30
0.0
 11
100.5
 21
-518.65
 31
0.0
  0
LINE
  5
640
  8
VIDITELNE
  6
SLD-PLNÁ
 62
     2
 10
100.5
 20
-502.65
 30
0.0
 11
94.8094140097
 21
-502.65
 31
0.0
  0
ARC
  5
641
  8
VIDITELNE
  6
SLD-PLNÁ
 62
     2
 10
100.5
 20
-503.65
 30
0.0
 40
1.000000000000014
 50
0.0
 51
90.0
  0
ARC
  5
642
  8
VIDITELNE
  6
SLD-PLNÁ
 62
     2
 10
100.5
 20
-517.65
 30
0.0
 40
1.000000000000014
 50
270.0
 51
0.0
  0
LINE
  5
643
  8
VIDITELNE
  6
SLD-PLNÁ
 62
     2
 10
94.8094140097
 20
-288.65
 30
0.0
 11
100.5
 21
-288.65
 31
0.0
  0
LINE
  5
644
  8
VIDITELNE
  6
SLD-PLNÁ
 62
     2
 10
100.5
 20
-272.65
 30
0.0
 11
91.5
 21
-272.65
 31
0.0
  0
ARC
  5
645
  8
VIDITELNE
  6
SLD-PLNÁ
 62
     2
 10
100.5
 20
-273.65
 30
0.0
 40
1.000000000000014
 50
0.0
 51
90.0
  0
ARC
  5
646
  8
VIDITELNE
  6
SLD-PLNÁ
 62
     2
 10
100.5
 20
-287.65
 30
0.0
 40
1.000000000000014
 50
270.0
 51
0.0
  0
LINE
  5
647
  8
VIDITELNE
  6
SLD-PLNÁ
 62
     2
 10
122.5
 20
-547.65
 30
0.0
 11
122.1483548705
 21
-537.5802010066
 31
0.0
  0
LINE
  5
648
  8
VIDITELNE
  6
SLD-PLNÁ
 62
     2
 10
-77.1483548705
 20
-537.5802010066
 30
0.0
 11
-77.5
 21
-547.65
 31
0.0
  0
ARC
  5
649
  8
VIDITELNE
  6
SLD-PLNÁ
 62
     2
 10
120.1495732165
 20
-537.65
 30
0.0
 40
1.999999999999982
 50
2.0
 51
90.0
  0
ARC
  5
64A
  8
VIDITELNE
  6
SLD-PLNÁ
 62
     2
 10
-75.1495732165
 20
-537.65
 30
0.0
 40
2.000000000000568
 50
90.0
 51
178.0
  0
ARC
  5
64B
  8
VIDITELNE
  6
SLD-PLNÁ
 62
     2
 10
80.7462740193
 20
-532.65
 30
0.0
 40
3.000000000000341
 50
182.0
 51
270.0
  0
ARC
  5
64C
  8
VIDITELNE
  6
SLD-PLNÁ
 62
     2
 10
-35.7462740193
 20
-532.65
 30
0.0
 40
2.999999999999985
 50
270.0
 51
358.0
  0
LINE
  5
64D
  8
VIDITELNE
  6
SLD-PLNÁ
 62
     2
 10
77.7481015383
 20
-532.7546984901
 30
0.0
 11
77.5
 21
-525.65
 31
0.0
  0
LINE
  5
64E
  8
VIDITELNE
  6
SLD-PLNÁ
 62
     2
 10
-32.5
 20
-525.65
 30
0.0
 11
-32.7481015383
 21
-532.7546984901
 31
0.0
  0
POLYLINE
  5
64F
  8
VIDITELNE
  6
SLD-PLNÁ
 62
     2
 66
     1
 10
0.0
 20
0.0
 30
0.0
  0
VERTEX
  5
96E
  8
VIDITELNE
  6
SLD-PLNÁ
 62
     2
 10
28.1666846725
 20
-387.1306102589
 30
0.0
  0
VERTEX
  5
96F
  8
VIDITELNE
  6
SLD-PLNÁ
 62
     2
 10
28.1469290453
 20
-386.6636939954
 30
0.0
  0
VERTEX
  5
970
  8
VIDITELNE
  6
SLD-PLNÁ
 62
     2
 10
28.0695338792
 20
-384.9596062025
 30
0.0
  0
VERTEX
  5
971
  8
VIDITELNE
  6
SLD-PLNÁ
 62
     2
 10
27.9848058498
 20
-383.2711937163
 30
0.0
  0
VERTEX
  5
972
  8
VIDITELNE
  6
SLD-PLNÁ
 62
     2
 10
27.8922397945
 20
-381.666711847
 30
0.0
  0
VERTEX
  5
973
  8
VIDITELNE
  6
SLD-PLNÁ
 62
     2
 10
27.7941389348
 20
-380.2671891699
 30
0.0
  0
VERTEX
  5
974
  8
VIDITELNE
  6
SLD-PLNÁ
 62
     2
 10
27.6840504156
 20
-379.0908963203
 30
0.0
  0
VERTEX
  5
975
  8
VIDITELNE
  6
SLD-PLNÁ
 62
     2
 10
27.5568832559
 20
-378.1855286419
 30
0.0
  0
VERTEX
  5
976
  8
VIDITELNE
  6
SLD-PLNÁ
 62
     2
 10
27.4253837934
 20
-377.5716119229
 30
0.0
  0
VERTEX
  5
977
  8
VIDITELNE
  6
SLD-PLNÁ
 62
     2
 10
27.2345654673
 20
-376.9633048764
 30
0.0
  0
VERTEX
  5
978
  8
VIDITELNE
  6
SLD-PLNÁ
 62
     2
 10
26.7882497035
 20
-376.0496659084
 30
0.0
  0
VERTEX
  5
979
  8
VIDITELNE
  6
SLD-PLNÁ
 62
     2
 10
25.896082496
 20
-374.9661860828
 30
0.0
  0
VERTEX
  5
97A
  8
VIDITELNE
  6
SLD-PLNÁ
 62
     2
 10
24.4181534028
 20
-374.0229568418
 30
0.0
  0
VERTEX
  5
97B
  8
VIDITELNE
  6
SLD-PLNÁ
 62
     2
 10
22.5257601348
 20
-373.6412475265
 30
0.0
  0
VERTEX
  5
97C
  8
VIDITELNE
  6
SLD-PLNÁ
 62
     2
 10
20.664955442
 20
-373.9883008487
 30
0.0
  0
VERTEX
  5
97D
  8
VIDITELNE
  6
SLD-PLNÁ
 62
     2
 10
19.9378792379
 20
-374.3438944204
 30
0.0
  0
VERTEX
  5
97E
  8
VIDITELNE
  6
SLD-PLNÁ
 62
     2
 10
19.3734692148
 20
-374.7337320124
 30
0.0
  0
VERTEX
  5
97F
  8
VIDITELNE
  6
SLD-PLNÁ
 62
     2
 10
18.5392174944
 20
-375.5822648389
 30
0.0
  0
VERTEX
  5
980
  8
VIDITELNE
  6
SLD-PLNÁ
 62
     2
 10
17.944441165
 20
-376.5671640636
 30
0.0
  0
VERTEX
  5
981
  8
VIDITELNE
  6
SLD-PLNÁ
 62
     2
 10
17.5214089427
 20
-377.8551908071
 30
0.0
  0
VERTEX
  5
982
  8
VIDITELNE
  6
SLD-PLNÁ
 62
     2
 10
17.3272204876
 20
-379.0743777347
 30
0.0
  0
VERTEX
  5
983
  8
VIDITELNE
  6
SLD-PLNÁ
 62
     2
 10
17.192815582
 20
-380.4600382301
 30
0.0
  0
VERTEX
  5
984
  8
VIDITELNE
  6
SLD-PLNÁ
 62
     2
 10
17.0377436526
 20
-382.856176907
 30
0.0
  0
VERTEX
  5
985
  8
VIDITELNE
  6
SLD-PLNÁ
 62
     2
 10
16.8986173201
 20
-385.6466833756
 30
0.0
  0
VERTEX
  5
986
  8
VIDITELNE
  6
SLD-PLNÁ
 62
     2
 10
16.8341543341
 20
-387.1062559607
 30
0.0
  0
SEQEND
  5
987
  8
VIDITELNE
  6
SLD-PLNÁ
 62
     2
  0
POLYLINE
  5
650
  8
VIDITELNE
  6
SLD-PLNÁ
 62
     2
 66
     1
 10
0.0
 20
0.0
 30
0.0
  0
VERTEX
  5
988
  8
VIDITELNE
  6
SLD-PLNÁ
 62
     2
 10
26.5
 20
-395.65
 30
0.0
  0
VERTEX
  5
989
  8
VIDITELNE
  6
SLD-PLNÁ
 62
     2
 10
26.6124347247
 20
-392.6704624991
 30
0.0
  0
VERTEX
  5
98A
  8
VIDITELNE
  6
SLD-PLNÁ
 62
     2
 10
26.7051998722
 20
-390.2705819662
 30
0.0
  0
VERTEX
  5
98B
  8
VIDITELNE
  6
SLD-PLNÁ
 62
     2
 10
26.7792266692
 20
-388.4457101775
 30
0.0
  0
VERTEX
  5
98C
  8
VIDITELNE
  6
SLD-PLNÁ
 62
     2
 10
26.8546746922
 20
-386.6884231237
 30
0.0
  0
VERTEX
  5
98D
  8
VIDITELNE
  6
SLD-PLNÁ
 62
     2
 10
26.8967270427
 20
-385.763251282
 30
0.0
  0
VERTEX
  5
98E
  8
VIDITELNE
  6
SLD-PLNÁ
 62
     2
 10
27.0030677015
 20
-383.6321543056
 30
0.0
  0
VERTEX
  5
98F
  8
VIDITELNE
  6
SLD-PLNÁ
 62
     2
 10
27.0712849343
 20
-382.4452404232
 30
0.0
  0
VERTEX
  5
990
  8
VIDITELNE
  6
SLD-PLNÁ
 62
     2
 10
27.1398456345
 20
-381.4150340634
 30
0.0
  0
VERTEX
  5
991
  8
VIDITELNE
  6
SLD-PLNÁ
 62
     2
 10
27.2617259821
 20
-380.047183796
 30
0.0
  0
VERTEX
  5
992
  8
VIDITELNE
  6
SLD-PLNÁ
 62
     2
 10
27.2859590723
 20
-379.862323065
 30
0.0
  0
VERTEX
  5
993
  8
VIDITELNE
  6
SLD-PLNÁ
 62
     2
 10
27.2868066783
 20
-379.8661541402
 30
0.0
  0
SEQEND
  5
994
  8
VIDITELNE
  6
SLD-PLNÁ
 62
     2
  0
POLYLINE
  5
651
  8
VIDITELNE
  6
SLD-PLNÁ
 62
     2
 66
     1
 10
0.0
 20
0.0
 30
0.0
  0
VERTEX
  5
995
  8
VIDITELNE
  6
SLD-PLNÁ
 62
     2
 10
17.9390593969
 20
-380.9052247045
 30
0.0
  0
VERTEX
  5
996
  8
VIDITELNE
  6
SLD-PLNÁ
 62
     2
 10
17.8916906895
 20
-381.0825876396
 30
0.0
  0
VERTEX
  5
997
  8
VIDITELNE
  6
SLD-PLNÁ
 62
     2
 10
17.9127170707
 20
-381.7992030088
 30
0.0
  0
VERTEX
  5
998
  8
VIDITELNE
  6
SLD-PLNÁ
 62
     2
 10
17.9665698067
 20
-382.9024763961
 30
0.0
  0
VERTEX
  5
999
  8
VIDITELNE
  6
SLD-PLNÁ
 62
     2
 10
18.0227950604
 20
-384.0617190805
 30
0.0
  0
VERTEX
  5
99A
  8
VIDITELNE
  6
SLD-PLNÁ
 62
     2
 10
18.0746876812
 20
-385.1495109281
 30
0.0
  0
VERTEX
  5
99B
  8
VIDITELNE
  6
SLD-PLNÁ
 62
     2
 10
18.1174315688
 20
-386.0696092096
 30
0.0
  0
VERTEX
  5
99C
  8
VIDITELNE
  6
SLD-PLNÁ
 62
     2
 10
18.140130877
 20
-386.5718730035
 30
0.0
  0
VERTEX
  5
99D
  8
VIDITELNE
  6
SLD-PLNÁ
 62
     2
 10
18.1745334608
 20
-387.355087054
 30
0.0
  0
VERTEX
  5
99E
  8
VIDITELNE
  6
SLD-PLNÁ
 62
     2
 10
18.2276415567
 20
-388.6117743898
 30
0.0
  0
VERTEX
  5
99F
  8
VIDITELNE
  6
SLD-PLNÁ
 62
     2
 10
18.299557394
 20
-390.3922920468
 30
0.0
  0
VERTEX
  5
9A0
  8
VIDITELNE
  6
SLD-PLNÁ
 62
     2
 10
18.3901168531
 20
-392.7361780941
 30
0.0
  0
VERTEX
  5
9A1
  8
VIDITELNE
  6
SLD-PLNÁ
 62
     2
 10
18.5
 20
-395.65
 30
0.0
  0
SEQEND
  5
9A2
  8
VIDITELNE
  6
SLD-PLNÁ
 62
     2
  0
POLYLINE
  5
652
  8
VIDITELNE
  6
SLD-PLNÁ
 62
     2
 66
     1
 10
0.0
 20
0.0
 30
0.0
  0
VERTEX
  5
9A3
  8
VIDITELNE
  6
SLD-PLNÁ
 62
     2
 10
16.835439758
 20
-404.2228486391
 30
0.0
  0
VERTEX
  5
9A4
  8
VIDITELNE
  6
SLD-PLNÁ
 62
     2
 10
16.8986173201
 20
-405.6533166244
 30
0.0
  0
VERTEX
  5
9A5
  8
VIDITELNE
  6
SLD-PLNÁ
 62
     2
 10
17.0377436526
 20
-408.443823093
 30
0.0
  0
VERTEX
  5
9A6
  8
VIDITELNE
  6
SLD-PLNÁ
 62
     2
 10
17.192815582
 20
-410.8399617699
 30
0.0
  0
VERTEX
  5
9A7
  8
VIDITELNE
  6
SLD-PLNÁ
 62
     2
 10
17.3272204876
 20
-412.2256222653
 30
0.0
  0
VERTEX
  5
9A8
  8
VIDITELNE
  6
SLD-PLNÁ
 62
     2
 10
17.5214089427
 20
-413.4448091929
 30
0.0
  0
VERTEX
  5
9A9
  8
VIDITELNE
  6
SLD-PLNÁ
 62
     2
 10
17.944441165
 20
-414.7328359364
 30
0.0
  0
VERTEX
  5
9AA
  8
VIDITELNE
  6
SLD-PLNÁ
 62
     2
 10
18.5392174944
 20
-415.7177351611
 30
0.0
  0
VERTEX
  5
9AB
  8
VIDITELNE
  6
SLD-PLNÁ
 62
     2
 10
19.3734692148
 20
-416.5662679876
 30
0.0
  0
VERTEX
  5
9AC
  8
VIDITELNE
  6
SLD-PLNÁ
 62
     2
 10
19.9378792379
 20
-416.9561055796
 30
0.0
  0
VERTEX
  5
9AD
  8
VIDITELNE
  6
SLD-PLNÁ
 62
     2
 10
20.664955442
 20
-417.3116991513
 30
0.0
  0
VERTEX
  5
9AE
  8
VIDITELNE
  6
SLD-PLNÁ
 62
     2
 10
22.5257601348
 20
-417.6587524735
 30
0.0
  0
VERTEX
  5
9AF
  8
VIDITELNE
  6
SLD-PLNÁ
 62
     2
 10
24.4181534028
 20
-417.2770431582
 30
0.0
  0
VERTEX
  5
9B0
  8
VIDITELNE
  6
SLD-PLNÁ
 62
     2
 10
25.896082496
 20
-416.3338139172
 30
0.0
  0
VERTEX
  5
9B1
  8
VIDITELNE
  6
SLD-PLNÁ
 62
     2
 10
26.7882497035
 20
-415.2503340916
 30
0.0
  0
VERTEX
  5
9B2
  8
VIDITELNE
  6
SLD-PLNÁ
 62
     2
 10
27.2345654673
 20
-414.3366951236
 30
0.0
  0
VERTEX
  5
9B3
  8
VIDITELNE
  6
SLD-PLNÁ
 62
     2
 10
27.4652466052
 20
-413.5657153042
 30
0.0
  0
VERTEX
  5
9B4
  8
VIDITELNE
  6
SLD-PLNÁ
 62
     2
 10
27.615144877
 20
-412.7497748113
 30
0.0
  0
VERTEX
  5
9B5
  8
VIDITELNE
  6
SLD-PLNÁ
 62
     2
 10
27.7941389348
 20
-411.0328108301
 30
0.0
  0
VERTEX
  5
9B6
  8
VIDITELNE
  6
SLD-PLNÁ
 62
     2
 10
27.8922397945
 20
-409.633288153
 30
0.0
  0
VERTEX
  5
9B7
  8
VIDITELNE
  6
SLD-PLNÁ
 62
     2
 10
27.9848058498
 20
-408.0288062837
 30
0.0
  0
VERTEX
  5
9B8
  8
VIDITELNE
  6
SLD-PLNÁ
 62
     2
 10
28.0695338792
 20
-406.3403937975
 30
0.0
  0
VERTEX
  5
9B9
  8
VIDITELNE
  6
SLD-PLNÁ
 62
     2
 10
28.1469290453
 20
-404.6363060046
 30
0.0
  0
VERTEX
  5
9BA
  8
VIDITELNE
  6
SLD-PLNÁ
 62
     2
 10
28.1666858978
 20
-404.1693607805
 30
0.0
  0
SEQEND
  5
9BB
  8
VIDITELNE
  6
SLD-PLNÁ
 62
     2
  0
POLYLINE
  5
653
  8
VIDITELNE
  6
SLD-PLNÁ
 62
     2
 66
     1
 10
0.0
 20
0.0
 30
0.0
  0
VERTEX
  5
9BC
  8
VIDITELNE
  6
SLD-PLNÁ
 62
     2
 10
18.5
 20
-395.65
 30
0.0
  0
VERTEX
  5
9BD
  8
VIDITELNE
  6
SLD-PLNÁ
 62
     2
 10
18.3901168531
 20
-398.5638219059
 30
0.0
  0
VERTEX
  5
9BE
  8
VIDITELNE
  6
SLD-PLNÁ
 62
     2
 10
18.299557394
 20
-400.9077079532
 30
0.0
  0
VERTEX
  5
9BF
  8
VIDITELNE
  6
SLD-PLNÁ
 62
     2
 10
18.2276415567
 20
-402.6882256102
 30
0.0
  0
VERTEX
  5
9C0
  8
VIDITELNE
  6
SLD-PLNÁ
 62
     2
 10
18.1550048705
 20
-404.3927147306
 30
0.0
  0
VERTEX
  5
9C1
  8
VIDITELNE
  6
SLD-PLNÁ
 62
     2
 10
18.1174315688
 20
-405.2303907904
 30
0.0
  0
VERTEX
  5
9C2
  8
VIDITELNE
  6
SLD-PLNÁ
 62
     2
 10
18.0746876812
 20
-406.1504890719
 30
0.0
  0
VERTEX
  5
9C3
  8
VIDITELNE
  6
SLD-PLNÁ
 62
     2
 10
18.0227950604
 20
-407.2382809195
 30
0.0
  0
VERTEX
  5
9C4
  8
VIDITELNE
  6
SLD-PLNÁ
 62
     2
 10
17.9665698067
 20
-408.3975236039
 30
0.0
  0
VERTEX
  5
9C5
  8
VIDITELNE
  6
SLD-PLNÁ
 62
     2
 10
17.9127170707
 20
-409.5007969912
 30
0.0
  0
VERTEX
  5
9C6
  8
VIDITELNE
  6
SLD-PLNÁ
 62
     2
 10
17.8916906895
 20
-410.2174123604
 30
0.0
  0
VERTEX
  5
9C7
  8
VIDITELNE
  6
SLD-PLNÁ
 62
     2
 10
17.9390593969
 20
-410.3947752955
 30
0.0
  0
SEQEND
  5
9C8
  8
VIDITELNE
  6
SLD-PLNÁ
 62
     2
  0
POLYLINE
  5
654
  8
VIDITELNE
  6
SLD-PLNÁ
 62
     2
 66
     1
 10
0.0
 20
0.0
 30
0.0
  0
VERTEX
  5
9C9
  8
VIDITELNE
  6
SLD-PLNÁ
 62
     2
 10
27.2868066783
 20
-411.4338458598
 30
0.0
  0
VERTEX
  5
9CA
  8
VIDITELNE
  6
SLD-PLNÁ
 62
     2
 10
27.2859590723
 20
-411.437676935
 30
0.0
  0
VERTEX
  5
9CB
  8
VIDITELNE
  6
SLD-PLNÁ
 62
     2
 10
27.2617259821
 20
-411.252816204
 30
0.0
  0
VERTEX
  5
9CC
  8
VIDITELNE
  6
SLD-PLNÁ
 62
     2
 10
27.1398456345
 20
-409.8849659366
 30
0.0
  0
VERTEX
  5
9CD
  8
VIDITELNE
  6
SLD-PLNÁ
 62
     2
 10
27.0712849343
 20
-408.8547595768
 30
0.0
  0
VERTEX
  5
9CE
  8
VIDITELNE
  6
SLD-PLNÁ
 62
     2
 10
27.0030677015
 20
-407.6678456944
 30
0.0
  0
VERTEX
  5
9CF
  8
VIDITELNE
  6
SLD-PLNÁ
 62
     2
 10
26.8967270427
 20
-405.536748718
 30
0.0
  0
VERTEX
  5
9D0
  8
VIDITELNE
  6
SLD-PLNÁ
 62
     2
 10
26.870339666
 20
-404.9611526733
 30
0.0
  0
VERTEX
  5
9D1
  8
VIDITELNE
  6
SLD-PLNÁ
 62
     2
 10
26.8342702199
 20
-404.1478962046
 30
0.0
  0
VERTEX
  5
9D2
  8
VIDITELNE
  6
SLD-PLNÁ
 62
     2
 10
26.7792266692
 20
-402.8542898225
 30
0.0
  0
VERTEX
  5
9D3
  8
VIDITELNE
  6
SLD-PLNÁ
 62
     2
 10
26.7051998722
 20
-401.0294180338
 30
0.0
  0
VERTEX
  5
9D4
  8
VIDITELNE
  6
SLD-PLNÁ
 62
     2
 10
26.6124347247
 20
-398.6295375009
 30
0.0
  0
VERTEX
  5
9D5
  8
VIDITELNE
  6
SLD-PLNÁ
 62
     2
 10
26.5
 20
-395.65
 30
0.0
  0
SEQEND
  5
9D6
  8
VIDITELNE
  6
SLD-PLNÁ
 62
     2
  0
LINE
  5
655
  8
VIDITELNE
  6
SLD-PLNÁ
 62
     2
 10
77.0
 20
-265.65
 30
0.0
 11
76.7880379485
 21
-259.5802010066
 31
0.0
  0
LINE
  5
656
  8
VIDITELNE
  6
SLD-PLNÁ
 62
     2
 10
-31.7880379485
 20
-259.5802010066
 30
0.0
 11
-32.0
 21
-265.65
 31
0.0
  0
ARC
  5
657
  8
VIDITELNE
  6
SLD-PLNÁ
 62
     2
 10
74.7892562945
 20
-259.65
 30
0.0
 40
2.000000000000018
 50
2.0
 51
90.0
  0
ARC
  5
658
  8
VIDITELNE
  6
SLD-PLNÁ
 62
     2
 10
-29.7892562945
 20
-259.65
 30
0.0
 40
2.000000000000008
 50
90.0
 51
178.0
  0
CIRCLE
  5
659
  8
VIDITELNE
  6
SLD-PLNÁ
 62
     2
 10
22.5
 20
-485.65
 30
0.0
 40
9.499999999999943
  0
CIRCLE
  5
65A
  8
VIDITELNE
  6
SLD-PLNÁ
 62
     2
 10
22.5
 20
-485.65
 30
0.0
 40
10.49999999999994
  0
LINE
  5
65B
  8
VIDITELNE
  6
SLD-PLNÁ
 62
     2
 10
77.5
 20
-265.65
 30
0.0
 11
-32.5
 21
-265.65
 31
0.0
  0
LINE
  5
65C
  8
VIDITELNE
  6
SLD-PLNÁ
 62
     2
 10
77.5
 20
-272.65
 30
0.0
 11
77.5
 21
-354.0687542274
 31
0.0
  0
POLYLINE
  5
65D
  8
VIDITELNE
  6
SLD-PLNÁ
 62
     2
 66
     1
 10
0.0
 20
0.0
 30
0.0
  0
VERTEX
  5
9D7
  8
VIDITELNE
  6
SLD-PLNÁ
 62
     2
 10
77.5
 20
-437.2312457726
 30
0.0
  0
VERTEX
  5
9D8
  8
VIDITELNE
  6
SLD-PLNÁ
 62
     2
 10
77.4244562995
 20
-427.3253482867
 30
0.0
  0
VERTEX
  5
9D9
  8
VIDITELNE
  6
SLD-PLNÁ
 62
     2
 10
77.2737032823
 20
-417.1589070791
 30
0.0
  0
VERTEX
  5
9DA
  8
VIDITELNE
  6
SLD-PLNÁ
 62
     2
 10
77.1387595913
 20
-406.6563376722
 30
0.0
  0
VERTEX
  5
9DB
  8
VIDITELNE
  6
SLD-PLNÁ
 62
     2
 10
77.0837429017
 20
-396.0118447351
 30
0.0
  0
VERTEX
  5
9DC
  8
VIDITELNE
  6
SLD-PLNÁ
 62
     2
 10
77.1304935584
 20
-385.5296635596
 30
0.0
  0
VERTEX
  5
9DD
  8
VIDITELNE
  6
SLD-PLNÁ
 62
     2
 10
77.2601596688
 20
-375.0451319364
 30
0.0
  0
VERTEX
  5
9DE
  8
VIDITELNE
  6
SLD-PLNÁ
 62
     2
 10
77.4176842556
 20
-364.4872838873
 30
0.0
  0
VERTEX
  5
9DF
  8
VIDITELNE
  6
SLD-PLNÁ
 62
     2
 10
77.5
 20
-354.0687542274
 30
0.0
  0
SEQEND
  5
9E0
  8
VIDITELNE
  6
SLD-PLNÁ
 62
     2
  0
LINE
  5
65E
  8
VIDITELNE
  6
SLD-PLNÁ
 62
     2
 10
77.5
 20
-518.65
 30
0.0
 11
77.5
 21
-437.2312457726
 31
0.0
  0
LINE
  5
65F
  8
VIDITELNE
  6
SLD-PLNÁ
 62
     2
 10
-32.5
 20
-518.65
 30
0.0
 11
-32.5
 21
-437.2312457726
 31
0.0
  0
POLYLINE
  5
660
  8
VIDITELNE
  6
SLD-PLNÁ
 62
     2
 66
     1
 10
0.0
 20
0.0
 30
0.0
  0
VERTEX
  5
9E1
  8
VIDITELNE
  6
SLD-PLNÁ
 62
     2
 10
-32.5
 20
-354.0687542274
 30
0.0
  0
VERTEX
  5
9E2
  8
VIDITELNE
  6
SLD-PLNÁ
 62
     2
 10
-32.4244562995
 20
-363.9746517133
 30
0.0
  0
VERTEX
  5
9E3
  8
VIDITELNE
  6
SLD-PLNÁ
 62
     2
 10
-32.2737032823
 20
-374.1410929209
 30
0.0
  0
VERTEX
  5
9E4
  8
VIDITELNE
  6
SLD-PLNÁ
 62
     2
 10
-32.1387595913
 20
-384.6436623278
 30
0.0
  0
VERTEX
  5
9E5
  8
VIDITELNE
  6
SLD-PLNÁ
 62
     2
 10
-32.0837429017
 20
-395.2881552649
 30
0.0
  0
VERTEX
  5
9E6
  8
VIDITELNE
  6
SLD-PLNÁ
 62
     2
 10
-32.1304935584
 20
-405.7703364404
 30
0.0
  0
VERTEX
  5
9E7
  8
VIDITELNE
  6
SLD-PLNÁ
 62
     2
 10
-32.2601596688
 20
-416.2548680636
 30
0.0
  0
VERTEX
  5
9E8
  8
VIDITELNE
  6
SLD-PLNÁ
 62
     2
 10
-32.4176842556
 20
-426.8127161127
 30
0.0
  0
VERTEX
  5
9E9
  8
VIDITELNE
  6
SLD-PLNÁ
 62
     2
 10
-32.5
 20
-437.2312457726
 30
0.0
  0
SEQEND
  5
9EA
  8
VIDITELNE
  6
SLD-PLNÁ
 62
     2
  0
LINE
  5
661
  8
VIDITELNE
  6
SLD-PLNÁ
 62
     2
 10
-32.5
 20
-272.65
 30
0.0
 11
-32.5
 21
-354.0687542274
 31
0.0
  0
LINE
  5
662
  8
VIDITELNE
  6
SLD-PLNÁ
 62
     2
 10
7.8030615433
 20
-482.65
 30
0.0
 11
7.8030615433
 21
-488.65
 31
0.0
  0
LINE
  5
663
  8
VIDITELNE
  6
SLD-PLNÁ
 62
     2
 10
37.1969384567
 20
-488.65
 30
0.0
 11
37.1969384567
 21
-482.65
 31
0.0
  0
LINE
  5
664
  8
VIDITELNE
  6
SLD-PLNÁ
 62
     2
 10
7.8030615433
 20
-392.65
 30
0.0
 11
7.8030615433
 21
-398.65
 31
0.0
  0
LINE
  5
665
  8
VIDITELNE
  6
SLD-PLNÁ
 62
     2
 10
37.1969384567
 20
-398.65
 30
0.0
 11
37.1969384567
 21
-392.65
 31
0.0
  0
ARC
  5
666
  8
VIDITELNE
  6
SLD-PLNÁ
 62
     2
 10
22.4509167494
 20
-395.6206744422
 30
0.0
 40
14.94605529163394
 50
110.9160083024
 51
168.5355571455
  0
ARC
  5
667
  8
VIDITELNE
  6
SLD-PLNÁ
 62
     2
 10
22.6840675937
 20
-395.5563880321
 30
0.0
 40
14.80103077756538
 50
11.3244094782
 51
69.3891184066
  0
LINE
  5
668
  8
VIDITELNE
  6
SLD-PLNÁ
 62
     2
 10
77.5
 20
-525.65
 30
0.0
 11
-32.5
 21
-525.65
 31
0.0
  0
ARC
  5
669
  8
VIDITELNE
  6
SLD-PLNÁ
 62
     2
 10
22.5
 20
-485.65
 30
0.0
 40
15.0
 50
11.5369590328
 51
168.4630409672
  0
ARC
  5
66A
  8
VIDITELNE
  6
SLD-PLNÁ
 62
     2
 10
22.5
 20
-485.65
 30
0.0
 40
15.00000000000003
 50
191.5369590328
 51
348.4630409672
  0
ARC
  5
66B
  8
VIDITELNE
  6
SLD-PLNÁ
 62
     2
 10
22.5526373742
 20
-395.681456797
 30
0.0
 40
14.94214853839191
 50
290.9365547945
 51
348.5408575868
  0
ARC
  5
66C
  8
VIDITELNE
  6
SLD-PLNÁ
 62
     2
 10
22.2685814131
 20
-395.7982008779
 30
0.0
 40
14.74394870236796
 50
191.1525364468
 51
249.5338957352
  0
POLYLINE
  5
66D
  8
VIDITELNE
  6
SLD-PLNÁ
 62
     2
 66
     1
 10
0.0
 20
0.0
 30
0.0
  0
VERTEX
  5
9EB
  8
VIDITELNE
  6
SLD-PLNÁ
 62
     2
 10
77.5
 20
-354.0687542274
 30
0.0
  0
VERTEX
  5
9EC
  8
VIDITELNE
  6
SLD-PLNÁ
 62
     2
 10
77.5384294392
 20
-354.1965038121
 30
0.0
  0
VERTEX
  5
9ED
  8
VIDITELNE
  6
SLD-PLNÁ
 62
     2
 10
77.652240935
 20
-354.3193440519
 30
0.0
  0
VERTEX
  5
9EE
  8
VIDITELNE
  6
SLD-PLNÁ
 62
     2
 10
77.8370607754
 20
-354.4325542653
 30
0.0
  0
VERTEX
  5
9EF
  8
VIDITELNE
  6
SLD-PLNÁ
 62
     2
 10
78.0857864376
 20
-354.5317838472
 30
0.0
  0
VERTEX
  5
9F0
  8
VIDITELNE
  6
SLD-PLNÁ
 62
     2
 10
78.388859534
 20
-354.6132194605
 30
0.0
  0
VERTEX
  5
9F1
  8
VIDITELNE
  6
SLD-PLNÁ
 62
     2
 10
78.7346331353
 20
-354.6737315803
 30
0.0
  0
VERTEX
  5
9F2
  8
VIDITELNE
  6
SLD-PLNÁ
 62
     2
 10
79.109819356
 20
-354.7109947596
 30
0.0
  0
VERTEX
  5
9F3
  8
VIDITELNE
  6
SLD-PLNÁ
 62
     2
 10
79.5
 20
-354.7235769955
 30
0.0
  0
SEQEND
  5
9F4
  8
VIDITELNE
  6
SLD-PLNÁ
 62
     2
  0
POLYLINE
  5
66E
  8
VIDITELNE
  6
SLD-PLNÁ
 62
     2
 66
     1
 10
0.0
 20
0.0
 30
0.0
  0
VERTEX
  5
9F5
  8
VIDITELNE
  6
SLD-PLNÁ
 62
     2
 10
79.5
 20
-354.7235769955
 30
0.0
  0
VERTEX
  5
9F6
  8
VIDITELNE
  6
SLD-PLNÁ
 62
     2
 10
79.4198240852
 20
-364.6102908637
 30
0.0
  0
VERTEX
  5
9F7
  8
VIDITELNE
  6
SLD-PLNÁ
 62
     2
 10
79.2607301576
 20
-374.7791056912
 30
0.0
  0
VERTEX
  5
9F8
  8
VIDITELNE
  6
SLD-PLNÁ
 62
     2
 10
79.1206470441
 20
-385.315778591
 30
0.0
  0
VERTEX
  5
9F9
  8
VIDITELNE
  6
SLD-PLNÁ
 62
     2
 10
79.0686062799
 20
-396.0061463928
 30
0.0
  0
VERTEX
  5
9FA
  8
VIDITELNE
  6
SLD-PLNÁ
 62
     2
 10
79.1223021314
 20
-406.1523842888
 30
0.0
  0
VERTEX
  5
9FB
  8
VIDITELNE
  6
SLD-PLNÁ
 62
     2
 10
79.2571835531
 20
-416.2962185974
 30
0.0
  0
VERTEX
  5
9FC
  8
VIDITELNE
  6
SLD-PLNÁ
 62
     2
 10
79.4173060719
 20
-426.5084693365
 30
0.0
  0
VERTEX
  5
9FD
  8
VIDITELNE
  6
SLD-PLNÁ
 62
     2
 10
79.5
 20
-436.5764230045
 30
0.0
  0
SEQEND
  5
9FE
  8
VIDITELNE
  6
SLD-PLNÁ
 62
     2
  0
POLYLINE
  5
66F
  8
VIDITELNE
  6
SLD-PLNÁ
 62
     2
 66
     1
 10
0.0
 20
0.0
 30
0.0
  0
VERTEX
  5
9FF
  8
VIDITELNE
  6
SLD-PLNÁ
 62
     2
 10
77.5
 20
-437.2312457726
 30
0.0
  0
VERTEX
  5
A00
  8
VIDITELNE
  6
SLD-PLNÁ
 62
     2
 10
77.5384294392
 20
-437.1034961879
 30
0.0
  0
VERTEX
  5
A01
  8
VIDITELNE
  6
SLD-PLNÁ
 62
     2
 10
77.652240935
 20
-436.9806559481
 30
0.0
  0
VERTEX
  5
A02
  8
VIDITELNE
  6
SLD-PLNÁ
 62
     2
 10
77.8370607754
 20
-436.8674457347
 30
0.0
  0
VERTEX
  5
A03
  8
VIDITELNE
  6
SLD-PLNÁ
 62
     2
 10
78.0857864376
 20
-436.7682161528
 30
0.0
  0
VERTEX
  5
A04
  8
VIDITELNE
  6
SLD-PLNÁ
 62
     2
 10
78.388859534
 20
-436.6867805395
 30
0.0
  0
VERTEX
  5
A05
  8
VIDITELNE
  6
SLD-PLNÁ
 62
     2
 10
78.7346331353
 20
-436.6262684197
 30
0.0
  0
VERTEX
  5
A06
  8
VIDITELNE
  6
SLD-PLNÁ
 62
     2
 10
79.109819356
 20
-436.5890052404
 30
0.0
  0
VERTEX
  5
A07
  8
VIDITELNE
  6
SLD-PLNÁ
 62
     2
 10
79.5
 20
-436.5764230045
 30
0.0
  0
SEQEND
  5
A08
  8
VIDITELNE
  6
SLD-PLNÁ
 62
     2
  0
POLYLINE
  5
670
  8
VIDITELNE
  6
SLD-PLNÁ
 62
     2
 66
     1
 10
0.0
 20
0.0
 30
0.0
  0
VERTEX
  5
A09
  8
VIDITELNE
  6
SLD-PLNÁ
 62
     2
 10
-34.5
 20
-436.5764230045
 30
0.0
  0
VERTEX
  5
A0A
  8
VIDITELNE
  6
SLD-PLNÁ
 62
     2
 10
-34.4198240852
 20
-426.6897091363
 30
0.0
  0
VERTEX
  5
A0B
  8
VIDITELNE
  6
SLD-PLNÁ
 62
     2
 10
-34.2607301576
 20
-416.5208943088
 30
0.0
  0
VERTEX
  5
A0C
  8
VIDITELNE
  6
SLD-PLNÁ
 62
     2
 10
-34.1206470441
 20
-405.984221409
 30
0.0
  0
VERTEX
  5
A0D
  8
VIDITELNE
  6
SLD-PLNÁ
 62
     2
 10
-34.0686062799
 20
-395.2938536072
 30
0.0
  0
VERTEX
  5
A0E
  8
VIDITELNE
  6
SLD-PLNÁ
 62
     2
 10
-34.1223021314
 20
-385.1476157112
 30
0.0
  0
VERTEX
  5
A0F
  8
VIDITELNE
  6
SLD-PLNÁ
 62
     2
 10
-34.2571835531
 20
-375.0037814026
 30
0.0
  0
VERTEX
  5
A10
  8
VIDITELNE
  6
SLD-PLNÁ
 62
     2
 10
-34.4173060719
 20
-364.7915306635
 30
0.0
  0
VERTEX
  5
A11
  8
VIDITELNE
  6
SLD-PLNÁ
 62
     2
 10
-34.5
 20
-354.7235769955
 30
0.0
  0
SEQEND
  5
A12
  8
VIDITELNE
  6
SLD-PLNÁ
 62
     2
  0
POLYLINE
  5
671
  8
VIDITELNE
  6
SLD-PLNÁ
 62
     2
 66
     1
 10
0.0
 20
0.0
 30
0.0
  0
VERTEX
  5
A13
  8
VIDITELNE
  6
SLD-PLNÁ
 62
     2
 10
-34.5
 20
-354.7235769955
 30
0.0
  0
VERTEX
  5
A14
  8
VIDITELNE
  6
SLD-PLNÁ
 62
     2
 10
-34.109819356
 20
-354.7109947596
 30
0.0
  0
VERTEX
  5
A15
  8
VIDITELNE
  6
SLD-PLNÁ
 62
     2
 10
-33.7346331353
 20
-354.6737315803
 30
0.0
  0
VERTEX
  5
A16
  8
VIDITELNE
  6
SLD-PLNÁ
 62
     2
 10
-33.388859534
 20
-354.6132194605
 30
0.0
  0
VERTEX
  5
A17
  8
VIDITELNE
  6
SLD-PLNÁ
 62
     2
 10
-33.0857864376
 20
-354.5317838472
 30
0.0
  0
VERTEX
  5
A18
  8
VIDITELNE
  6
SLD-PLNÁ
 62
     2
 10
-32.8370607754
 20
-354.4325542653
 30
0.0
  0
VERTEX
  5
A19
  8
VIDITELNE
  6
SLD-PLNÁ
 62
     2
 10
-32.652240935
 20
-354.3193440519
 30
0.0
  0
VERTEX
  5
A1A
  8
VIDITELNE
  6
SLD-PLNÁ
 62
     2
 10
-32.5384294392
 20
-354.1965038121
 30
0.0
  0
VERTEX
  5
A1B
  8
VIDITELNE
  6
SLD-PLNÁ
 62
     2
 10
-32.5
 20
-354.0687542274
 30
0.0
  0
SEQEND
  5
A1C
  8
VIDITELNE
  6
SLD-PLNÁ
 62
     2
  0
POLYLINE
  5
672
  8
VIDITELNE
  6
SLD-PLNÁ
 62
     2
 66
     1
 10
0.0
 20
0.0
 30
0.0
  0
VERTEX
  5
A1D
  8
VIDITELNE
  6
SLD-PLNÁ
 62
     2
 10
-34.5
 20
-436.5764230045
 30
0.0
  0
VERTEX
  5
A1E
  8
VIDITELNE
  6
SLD-PLNÁ
 62
     2
 10
-34.109819356
 20
-436.5890052404
 30
0.0
  0
VERTEX
  5
A1F
  8
VIDITELNE
  6
SLD-PLNÁ
 62
     2
 10
-33.7346331353
 20
-436.6262684197
 30
0.0
  0
VERTEX
  5
A20
  8
VIDITELNE
  6
SLD-PLNÁ
 62
     2
 10
-33.388859534
 20
-436.6867805395
 30
0.0
  0
VERTEX
  5
A21
  8
VIDITELNE
  6
SLD-PLNÁ
 62
     2
 10
-33.0857864376
 20
-436.7682161528
 30
0.0
  0
VERTEX
  5
A22
  8
VIDITELNE
  6
SLD-PLNÁ
 62
     2
 10
-32.8370607754
 20
-436.8674457347
 30
0.0
  0
VERTEX
  5
A23
  8
VIDITELNE
  6
SLD-PLNÁ
 62
     2
 10
-32.652240935
 20
-436.9806559481
 30
0.0
  0
VERTEX
  5
A24
  8
VIDITELNE
  6
SLD-PLNÁ
 62
     2
 10
-32.5384294392
 20
-437.1034961879
 30
0.0
  0
VERTEX
  5
A25
  8
VIDITELNE
  6
SLD-PLNÁ
 62
     2
 10
-32.5
 20
-437.2312457726
 30
0.0
  0
SEQEND
  5
A26
  8
VIDITELNE
  6
SLD-PLNÁ
 62
     2
  0
LINE
  5
673
  8
VIDITELNE
  6
SLD-PLNÁ
 62
     2
 10
-35.5
 20
-270.65
 30
0.0
 11
-35.5
 21
-520.65
 31
0.0
  0
LINE
  5
674
  8
VIDITELNE
  6
SLD-PLNÁ
 62
     2
 10
80.5
 20
-270.65
 30
0.0
 11
80.5
 21
-520.65
 31
0.0
  0
LINE
  5
675
  8
VIDITELNE
  6
SLD-PLNÁ
 62
     2
 10
-34.5
 20
-354.7235769955
 30
0.0
 11
-34.5
 21
-274.587007874
 31
0.0
  0
LINE
  5
676
  8
VIDITELNE
  6
SLD-PLNÁ
 62
     2
 10
-34.5
 20
-516.712992126
 30
0.0
 11
-34.5
 21
-436.5764230045
 31
0.0
  0
LINE
  5
677
  8
VIDITELNE
  6
SLD-PLNÁ
 62
     2
 10
79.5
 20
-436.5764230045
 30
0.0
 11
79.5
 21
-516.712992126
 31
0.0
  0
LINE
  5
678
  8
VIDITELNE
  6
SLD-PLNÁ
 62
     2
 10
79.5
 20
-274.587007874
 30
0.0
 11
79.5
 21
-354.7235769955
 31
0.0
  0
ARC
  5
679
  8
VIDITELNE
  6
SLD-PLNÁ
 62
     2
 10
-34.468999938
 20
-272.6179918059
 30
0.0
 40
1.969260084481762
 50
269.0980134629
 51
359.0686780244
  0
ARC
  5
67A
  8
VIDITELNE
  6
SLD-PLNÁ
 62
     2
 10
79.468999938
 20
-272.6179918059
 30
0.0
 40
1.969260084481706
 50
180.9313219756
 51
270.9019865372
  0
ARC
  5
67B
  8
VIDITELNE
  6
SLD-PLNÁ
 62
     2
 10
79.468999938
 20
-518.6820081941
 30
0.0
 40
1.969260084481595
 50
89.0980134628
 51
179.0686780244
  0
ARC
  5
67C
  8
VIDITELNE
  6
SLD-PLNÁ
 62
     2
 10
-34.468999938
 20
-518.6820081941
 30
0.0
 40
1.969260084481595
 50
0.9313219756
 51
90.9019865372
  0
LINE
  5
67D
  8
VIDITELNE
  6
SLD-PLNÁ
 62
     2
 10
108.5
 20
-365.15
 30
0.0
 11
108.5
 21
-426.15
 31
0.0
  0
LINE
  5
67E
  8
VIDITELNE
  6
SLD-PLNÁ
 62
     2
 10
-107.5
 20
-395.65
 30
0.0
 11
-107.5
 21
-518.65
 31
0.0
  0
LINE
  5
67F
  8
VIDITELNE
  6
SLD-PLNÁ
 62
     2
 10
-107.5
 20
-272.65
 30
0.0
 11
-107.5
 21
-395.65
 31
0.0
  0
LINE
  5
680
  8
VIDITELNE
  6
SLD-PLNÁ
 62
     2
 10
-122.5
 20
-395.65
 30
0.0
 11
-122.5
 21
-520.65
 31
0.0
  0
LINE
  5
681
  8
VIDITELNE
  6
SLD-PLNÁ
 62
     2
 10
-122.5
 20
-270.65
 30
0.0
 11
-122.5
 21
-395.65
 31
0.0
  0
LINE
  5
682
  8
VIDITELNE
  6
SLD-PLNÁ
 62
     2
 10
-35.5
 20
-395.65
 30
0.0
 11
-35.5
 21
-520.65
 31
0.0
  0
LINE
  5
683
  8
VIDITELNE
  6
SLD-PLNÁ
 62
     2
 10
-35.5
 20
-270.65
 30
0.0
 11
-35.5
 21
-395.65
 31
0.0
  0
POLYLINE
  5
684
  8
VIDITELNE
  6
SLD-PLNÁ
 62
     2
 66
     1
 10
0.0
 20
0.0
 30
0.0
  0
VERTEX
  5
A27
  8
VIDITELNE
  6
SLD-PLNÁ
 62
     2
 10
-44.5697989934
 20
-305.8499866801
 30
0.0
  0
VERTEX
  5
A28
  8
VIDITELNE
  6
SLD-PLNÁ
 62
     2
 10
-44.5892079691
 20
-306.9183137689
 30
0.0
  0
VERTEX
  5
A29
  8
VIDITELNE
  6
SLD-PLNÁ
 62
     2
 10
-44.5697989934
 20
-309.152157067
 30
0.0
  0
SEQEND
  5
A2A
  8
VIDITELNE
  6
SLD-PLNÁ
 62
     2
  0
LINE
  5
685
  8
VIDITELNE
  6
SLD-PLNÁ
 62
     2
 10
-44.5697989934
 20
-270.9885903349
 30
0.0
 11
-44.5697989934
 21
-305.8499866801
 31
0.0
  0
LINE
  5
686
  8
VIDITELNE
  6
SLD-PLNÁ
 62
     2
 10
-44.5697989934
 20
-485.4500133199
 30
0.0
 11
-44.5697989934
 21
-520.3114096651
 31
0.0
  0
POLYLINE
  5
687
  8
VIDITELNE
  6
SLD-PLNÁ
 62
     2
 66
     1
 10
0.0
 20
0.0
 30
0.0
  0
VERTEX
  5
A2B
  8
VIDITELNE
  6
SLD-PLNÁ
 62
     2
 10
-44.5697989934
 20
-482.147842933
 30
0.0
  0
VERTEX
  5
A2C
  8
VIDITELNE
  6
SLD-PLNÁ
 62
     2
 10
-44.5892079691
 20
-483.2424544046
 30
0.0
  0
VERTEX
  5
A2D
  8
VIDITELNE
  6
SLD-PLNÁ
 62
     2
 10
-44.5697989934
 20
-485.4500133199
 30
0.0
  0
SEQEND
  5
A2E
  8
VIDITELNE
  6
SLD-PLNÁ
 62
     2
  0
LINE
  5
688
  8
VIDITELNE
  6
SLD-PLNÁ
 62
     2
 10
-44.5697989934
 20
-397.9849870732
 30
0.0
 11
-44.5697989934
 21
-482.147842933
 31
0.0
  0
POLYLINE
  5
689
  8
VIDITELNE
  6
SLD-PLNÁ
 62
     2
 66
     1
 10
0.0
 20
0.0
 30
0.0
  0
VERTEX
  5
A2F
  8
VIDITELNE
  6
SLD-PLNÁ
 62
     2
 10
-44.5697989934
 20
-393.3150129268
 30
0.0
  0
VERTEX
  5
A30
  8
VIDITELNE
  6
SLD-PLNÁ
 62
     2
 10
-44.5892079691
 20
-394.8444414501
 30
0.0
  0
VERTEX
  5
A31
  8
VIDITELNE
  6
SLD-PLNÁ
 62
     2
 10
-44.5697989934
 20
-397.9849870732
 30
0.0
  0
SEQEND
  5
A32
  8
VIDITELNE
  6
SLD-PLNÁ
 62
     2
  0
LINE
  5
68A
  8
VIDITELNE
  6
SLD-PLNÁ
 62
     2
 10
-44.5697989934
 20
-309.152157067
 30
0.0
 11
-44.5697989934
 21
-393.3150129268
 31
0.0
  0
ARC
  5
68B
  8
VIDITELNE
  6
SLD-PLNÁ
 62
     2
 10
-45.0411458116
 20
-372.5055174165
 30
0.0
 40
25.48382902574176
 50
266.7182361343
 51
271.0597984854
  0
LINE
  5
68C
  8
VIDITELNE
  6
SLD-PLNÁ
 62
     2
 10
-46.5
 20
-397.9475551939
 30
0.0
 11
-46.5
 21
-393.3524448061
 31
0.0
  0
ARC
  5
68D
  8
VIDITELNE
  6
SLD-PLNÁ
 62
     2
 10
-45.0411458116
 20
-418.7944825836
 30
0.0
 40
25.48382902575542
 50
88.9402015146
 51
93.2817638657
  0
LINE
  5
68E
  8
VIDITELNE
  6
SLD-PLNÁ
 62
     2
 10
-46.5
 20
-393.3524448061
 30
0.0
 11
-46.5
 21
-310.5387929304
 31
0.0
  0
ARC
  5
68F
  8
VIDITELNE
  6
SLD-PLNÁ
 62
     2
 10
-44.7808038361
 20
-310.8951782709
 30
0.0
 40
1.755746553723862
 50
83.0975345779
 51
168.2885941922
  0
LINE
  5
690
  8
VIDITELNE
  6
SLD-PLNÁ
 62
     2
 10
-46.5
 20
-480.7612070696
 30
0.0
 11
-46.5
 21
-397.9475551939
 31
0.0
  0
ARC
  5
691
  8
VIDITELNE
  6
SLD-PLNÁ
 62
     2
 10
-44.7808038361
 20
-480.4048217291
 30
0.0
 40
1.755746553723645
 50
191.7114058078
 51
276.9024654221
  0
LINE
  5
692
  8
VIDITELNE
  6
SLD-PLNÁ
 62
     2
 10
-56.5
 20
-395.65
 30
0.0
 11
-56.5
 21
-388.65
 31
0.0
  0
LINE
  5
693
  8
VIDITELNE
  6
SLD-PLNÁ
 62
     2
 10
-56.5
 20
-402.65
 30
0.0
 11
-56.5
 21
-395.65
 31
0.0
  0
LINE
  5
694
  8
VIDITELNE
  6
SLD-PLNÁ
 62
     2
 10
-46.5
 20
-484.0104407852
 30
0.0
 11
-46.5
 21
-480.7612070696
 31
0.0
  0
ARC
  5
695
  8
VIDITELNE
  6
SLD-PLNÁ
 62
     2
 10
-44.7605318293
 20
-483.6919429682
 30
0.0
 40
1.768386376468178
 50
190.3759610839
 51
276.1917952532
  0
LINE
  5
696
  8
VIDITELNE
  6
SLD-PLNÁ
 62
     2
 10
-46.5
 20
-310.5387929304
 30
0.0
 11
-46.5
 21
-307.2895592148
 31
0.0
  0
ARC
  5
697
  8
VIDITELNE
  6
SLD-PLNÁ
 62
     2
 10
-44.7605318293
 20
-307.6080570318
 30
0.0
 40
1.768386376468912
 50
83.8082047469
 51
169.6240389161
  0
LINE
  5
698
  8
VIDITELNE
  6
SLD-PLNÁ
 62
     2
 10
-56.5
 20
-476.9672798365
 30
0.0
 11
-56.5
 21
-469.9672798365
 31
0.0
  0
LINE
  5
699
  8
VIDITELNE
  6
SLD-PLNÁ
 62
     2
 10
-56.5
 20
-483.9672798365
 30
0.0
 11
-56.5
 21
-476.9672798365
 31
0.0
  0
LINE
  5
69A
  8
VIDITELNE
  6
SLD-PLNÁ
 62
     2
 10
-56.5
 20
-314.3327201635
 30
0.0
 11
-56.5
 21
-307.3327201635
 31
0.0
  0
LINE
  5
69B
  8
VIDITELNE
  6
SLD-PLNÁ
 62
     2
 10
-56.5
 20
-321.3327201635
 30
0.0
 11
-56.5
 21
-314.3327201635
 31
0.0
  0
ARC
  5
69C
  8
VIDITELNE
  6
SLD-PLNÁ
 62
     2
 10
-44.5001898538
 20
-518.3128113521
 30
0.0
 40
1.999810153231785
 50
180.0047900837
 51
268.0052527911
  0
LINE
  5
69D
  8
VIDITELNE
  6
SLD-PLNÁ
 62
     2
 10
-46.5
 20
-518.3129785417
 30
0.0
 11
-46.5
 21
-484.0104407852
 31
0.0
  0
ARC
  5
69E
  8
VIDITELNE
  6
SLD-PLNÁ
 62
     2
 10
-44.5001898538
 20
-272.9871886479
 30
0.0
 40
1.999810153231881
 50
91.9947472089
 51
179.9952099163
  0
LINE
  5
69F
  8
VIDITELNE
  6
SLD-PLNÁ
 62
     2
 10
-46.5
 20
-307.2895592148
 30
0.0
 11
-46.5
 21
-272.9870214583
 31
0.0
  0
LINE
  5
6A0
  8
VIDITELNE
  6
SLD-PLNÁ
 62
     2
 10
-46.5
 20
-518.6472117819
 30
0.0
 11
-46.5
 21
-518.3129785417
 31
0.0
  0
LINE
  5
6A1
  8
VIDITELNE
  6
SLD-PLNÁ
 62
     2
 10
-56.5
 20
-510.65
 30
0.0
 11
-56.5
 21
-503.65
 31
0.0
  0
LINE
  5
6A2
  8
VIDITELNE
  6
SLD-PLNÁ
 62
     2
 10
-56.5
 20
-517.65
 30
0.0
 11
-56.5
 21
-510.65
 31
0.0
  0
LINE
  5
6A3
  8
VIDITELNE
  6
SLD-PLNÁ
 62
     2
 10
-46.5
 20
-272.9870214583
 30
0.0
 11
-46.5
 21
-272.65
 31
0.0
  0
LINE
  5
6A4
  8
VIDITELNE
  6
SLD-PLNÁ
 62
     2
 10
-56.5
 20
-280.65
 30
0.0
 11
-56.5
 21
-273.65
 31
0.0
  0
LINE
  5
6A5
  8
VIDITELNE
  6
SLD-PLNÁ
 62
     2
 10
-56.5
 20
-287.65
 30
0.0
 11
-56.5
 21
-280.65
 31
0.0
  0
LINE
  5
6A6
  8
VIDITELNE
  6
SLD-PLNÁ
 62
     2
 10
91.5
 20
-271.0341284644
 30
0.0
 11
91.5
 21
-520.2658715356
 31
0.0
  0
LINE
  5
6A7
  8
VIDITELNE
  6
SLD-PLNÁ
 62
     2
 10
101.5
 20
-388.65
 30
0.0
 11
101.5
 21
-402.65
 31
0.0
  0
LINE
  5
6A8
  8
VIDITELNE
  6
SLD-PLNÁ
 62
     2
 10
91.5
 20
-352.6832401246
 30
0.0
 11
103.0
 21
-363.0228323243
 31
0.0
  0
LINE
  5
6A9
  8
VIDITELNE
  6
SLD-PLNÁ
 62
     2
 10
103.0
 20
-363.0228323243
 30
0.0
 11
91.5
 21
-360.4798871613
 31
0.0
  0
LINE
  5
6AA
  8
VIDITELNE
  6
SLD-PLNÁ
 62
     2
 10
103.0
 20
-428.2771676757
 30
0.0
 11
91.5
 21
-438.6167598754
 31
0.0
  0
LINE
  5
6AB
  8
VIDITELNE
  6
SLD-PLNÁ
 62
     2
 10
91.5
 20
-430.8201128387
 30
0.0
 11
103.0
 21
-428.2771676757
 31
0.0
  0
LINE
  5
6AC
  8
VIDITELNE
  6
SLD-PLNÁ
 62
     2
 10
103.0
 20
-428.2771676757
 30
0.0
 11
103.0
 21
-435.6682039358
 31
0.0
  0
LINE
  5
6AD
  8
VIDITELNE
  6
SLD-PLNÁ
 62
     2
 10
91.5
 20
-446.0077961355
 30
0.0
 11
103.0
 21
-435.6682039358
 31
0.0
  0
LINE
  5
6AE
  8
VIDITELNE
  6
SLD-PLNÁ
 62
     2
 10
103.0
 20
-355.6317960642
 30
0.0
 11
91.5
 21
-345.2922038645
 31
0.0
  0
LINE
  5
6AF
  8
VIDITELNE
  6
SLD-PLNÁ
 62
     2
 10
103.0
 20
-355.6317960642
 30
0.0
 11
103.0
 21
-363.0228323243
 31
0.0
  0
LINE
  5
6B0
  8
VIDITELNE
  6
SLD-PLNÁ
 62
     2
 10
103.0
 20
-363.0228323243
 30
0.0
 11
103.0
 21
-428.2771676757
 31
0.0
  0
LINE
  5
6B1
  8
VIDITELNE
  6
SLD-PLNÁ
 62
     2
 10
91.5
 20
-487.9491996655
 30
0.0
 11
97.0857452259
 21
-484.9672798365
 31
0.0
  0
LINE
  5
6B2
  8
VIDITELNE
  6
SLD-PLNÁ
 62
     2
 10
101.5
 20
-482.6107538387
 30
0.0
 11
103.0
 21
-481.8099869647
 31
0.0
  0
LINE
  5
6B3
  8
VIDITELNE
  6
SLD-PLNÁ
 62
     2
 10
103.0
 20
-435.6682039358
 30
0.0
 11
103.0
 21
-481.8099869647
 31
0.0
  0
LINE
  5
6B4
  8
VIDITELNE
  6
SLD-PLNÁ
 62
     2
 10
103.0
 20
-309.4900130353
 30
0.0
 11
101.5
 21
-308.6892461613
 31
0.0
  0
LINE
  5
6B5
  8
VIDITELNE
  6
SLD-PLNÁ
 62
     2
 10
97.0857452259
 20
-306.3327201635
 30
0.0
 11
91.5
 21
-303.3508003345
 31
0.0
  0
LINE
  5
6B6
  8
VIDITELNE
  6
SLD-PLNÁ
 62
     2
 10
103.0
 20
-309.4900130353
 30
0.0
 11
103.0
 21
-355.6317960642
 31
0.0
  0
LINE
  5
6B7
  8
VIDITELNE
  6
SLD-PLNÁ
 62
     2
 10
101.5
 20
-469.9672798365
 30
0.0
 11
101.5
 21
-483.9672798365
 31
0.0
  0
LINE
  5
6B8
  8
VIDITELNE
  6
SLD-PLNÁ
 62
     2
 10
101.5
 20
-307.3327201635
 30
0.0
 11
101.5
 21
-321.3327201635
 31
0.0
  0
LINE
  5
6B9
  8
VIDITELNE
  6
SLD-PLNÁ
 62
     2
 10
106.5
 20
-330.65
 30
0.0
 11
106.5
 21
-460.65
 31
0.0
  0
LINE
  5
6BA
  8
VIDITELNE
  6
SLD-PLNÁ
 62
     2
 10
91.5
 20
-284.5280293174
 30
0.0
 11
103.0
 21
-309.4900130353
 31
0.0
  0
LINE
  5
6BB
  8
VIDITELNE
  6
SLD-PLNÁ
 62
     2
 10
103.0
 20
-306.4285455764
 30
0.0
 11
91.5
 21
-281.4665618585
 31
0.0
  0
LINE
  5
6BC
  8
VIDITELNE
  6
SLD-PLNÁ
 62
     2
 10
103.0
 20
-306.4285455764
 30
0.0
 11
103.0
 21
-309.4900130353
 31
0.0
  0
LINE
  5
6BD
  8
VIDITELNE
  6
SLD-PLNÁ
 62
     2
 10
103.0
 20
-481.8099869647
 30
0.0
 11
91.5
 21
-506.7719706826
 31
0.0
  0
LINE
  5
6BE
  8
VIDITELNE
  6
SLD-PLNÁ
 62
     2
 10
91.5
 20
-509.8334381415
 30
0.0
 11
103.0
 21
-484.8714544236
 31
0.0
  0
LINE
  5
6BF
  8
VIDITELNE
  6
SLD-PLNÁ
 62
     2
 10
103.0
 20
-481.8099869647
 30
0.0
 11
103.0
 21
-484.8714544236
 31
0.0
  0
LINE
  5
6C0
  8
VIDITELNE
  6
SLD-PLNÁ
 62
     2
 10
103.0
 20
-300.65
 30
0.0
 11
103.0
 21
-306.4285455764
 31
0.0
  0
LINE
  5
6C1
  8
VIDITELNE
  6
SLD-PLNÁ
 62
     2
 10
103.0
 20
-484.8714544236
 30
0.0
 11
103.0
 21
-490.65
 31
0.0
  0
LINE
  5
6C2
  8
VIDITELNE
  6
SLD-PLNÁ
 62
     2
 10
101.5
 20
-503.65
 30
0.0
 11
101.5
 21
-517.65
 31
0.0
  0
LINE
  5
6C3
  8
VIDITELNE
  6
SLD-PLNÁ
 62
     2
 10
101.5
 20
-273.65
 30
0.0
 11
101.5
 21
-287.65
 31
0.0
  0
LINE
  5
6C4
  8
VIDITELNE
  6
SLD-PLNÁ
 62
     2
 10
122.5
 20
-547.65
 30
0.0
 11
-77.5
 21
-547.65
 31
0.0
  0
LINE
  5
6C5
  8
VIDITELNE
  6
SLD-PLNÁ
 62
     2
 10
120.1495732165
 20
-535.65
 30
0.0
 11
-75.1495732074
 21
-535.65
 31
0.0
  0
POLYLINE
  5
6C6
  8
VIDITELNE
  6
SLD-PLNÁ
 62
     2
 66
     1
 10
0.0
 20
0.0
 30
0.0
  0
VERTEX
  5
A33
  8
VIDITELNE
  6
SLD-PLNÁ
 62
     2
 10
18.3168428109
 20
-390.8396781935
 30
0.0
  0
VERTEX
  5
A34
  8
VIDITELNE
  6
SLD-PLNÁ
 62
     2
 10
18.2839307327
 20
-390.7744250205
 30
0.0
  0
VERTEX
  5
A35
  8
VIDITELNE
  6
SLD-PLNÁ
 62
     2
 10
17.7532176224
 20
-389.4625698182
 30
0.0
  0
SEQEND
  5
A36
  8
VIDITELNE
  6
SLD-PLNÁ
 62
     2
  0
ARC
  5
6C7
  8
VIDITELNE
  6
SLD-PLNÁ
 62
     2
 10
34.9820932479
 20
-381.3157989783
 30
0.0
 40
19.05791254143053
 50
197.7653628289
 51
205.3073893692
  0
ARC
  5
6C8
  8
VIDITELNE
  6
SLD-PLNÁ
 62
     2
 10
-36.1403476544
 20
-363.0992202628
 30
0.0
 40
68.65094738966985
 50
337.4170821323
 51
339.509394849
  0
LINE
  5
6C9
  8
VIDITELNE
  6
SLD-PLNÁ
 62
     2
 10
27.2467711593
 20
-389.4625612119
 30
0.0
 11
26.6897357826
 21
-390.6706456602
 31
0.0
  0
LINE
  5
6CA
  8
VIDITELNE
  6
SLD-PLNÁ
 62
     2
 10
22.5
 20
-395.65
 30
0.0
 11
18.5000229149
 21
-395.65
 31
0.0
  0
LINE
  5
6CB
  8
VIDITELNE
  6
SLD-PLNÁ
 62
     2
 10
26.499987549
 20
-395.65
 30
0.0
 11
22.5
 21
-395.65
 31
0.0
  0
POLYLINE
  5
6CC
  8
VIDITELNE
  6
SLD-PLNÁ
 62
     2
 66
     1
 10
0.0
 20
0.0
 30
0.0
  0
VERTEX
  5
A37
  8
VIDITELNE
  6
SLD-PLNÁ
 62
     2
 10
26.6832844796
 20
-400.4624559199
 30
0.0
  0
VERTEX
  5
A38
  8
VIDITELNE
  6
SLD-PLNÁ
 62
     2
 10
26.7254278412
 20
-400.5461436434
 30
0.0
  0
VERTEX
  5
A39
  8
VIDITELNE
  6
SLD-PLNÁ
 62
     2
 10
27.2467711593
 20
-401.8374387881
 30
0.0
  0
SEQEND
  5
A3A
  8
VIDITELNE
  6
SLD-PLNÁ
 62
     2
  0
ARC
  5
6CD
  8
VIDITELNE
  6
SLD-PLNÁ
 62
     2
 10
9.9946252571
 20
-409.9935283394
 30
0.0
 40
19.08293308165898
 50
17.7707066334
 51
25.3028163852
  0
ARC
  5
6CE
  8
VIDITELNE
  6
SLD-PLNÁ
 62
     2
 10
80.6767469446
 20
-428.0173243907
 30
0.0
 40
68.15245705878156
 50
157.4098128093
 51
159.5174349925
  0
LINE
  5
6CF
  8
VIDITELNE
  6
SLD-PLNÁ
 62
     2
 10
17.7532176224
 20
-401.8374301818
 30
0.0
 11
18.3103222835
 21
-400.6290879777
 31
0.0
  0
ARC
  5
6D0
  8
VIDITELNE
  6
SLD-PLNÁ
 62
     2
 10
22.5
 20
-395.65
 30
0.0
 40
7.798476466232907
 50
307.494068554
 51
52.505931446
  0
ARC
  5
6D1
  8
VIDITELNE
  6
SLD-PLNÁ
 62
     2
 10
22.5
 20
-395.65
 30
0.0
 40
7.798476466232881
 50
127.4941724357
 51
232.5058275643
  0
ARC
  5
6D2
  8
VIDITELNE
  6
SLD-PLNÁ
 62
     2
 10
22.5
 20
-395.65
 30
0.0
 40
10.23195519226863
 50
303.6319354642
 51
56.3680645358
  0
ARC
  5
6D3
  8
VIDITELNE
  6
SLD-PLNÁ
 62
     2
 10
22.5
 20
-395.65
 30
0.0
 40
10.23195519226929
 50
123.6319167472
 51
236.3680832528
  0
ARC
  5
6D4
  8
VIDITELNE
  6
SLD-PLNÁ
 62
     2
 10
22.5
 20
-395.65
 30
0.0
 40
11.49999999999993
 50
119.6876819111
 51
240.3112313773
  0
ARC
  5
6D5
  8
VIDITELNE
  6
SLD-PLNÁ
 62
     2
 10
22.5
 20
-395.65
 30
0.0
 40
11.49999999999996
 50
299.6837589263
 51
60.313000748
  0
LINE
  5
6D6
  8
VIDITELNE
  6
SLD-PLNÁ
 62
     2
 10
67.3524671544
 20
-257.65
 30
0.0
 11
23.3507268235
 21
-257.65
 31
0.0
  0
LINE
  5
6D7
  8
VIDITELNE
  6
SLD-PLNÁ
 62
     2
 10
74.7892562945
 20
-257.65
 30
0.0
 11
68.2031939779
 21
-257.65
 31
0.0
  0
LINE
  5
6D8
  8
VIDITELNE
  6
SLD-PLNÁ
 62
     2
 10
-23.2031939779
 20
-257.65
 30
0.0
 11
-29.7892562945
 21
-257.65
 31
0.0
  0
LINE
  5
6D9
  8
VIDITELNE
  6
SLD-PLNÁ
 62
     2
 10
21.6492731765
 20
-257.65
 30
0.0
 11
-22.3524671544
 21
-257.65
 31
0.0
  0
LINE
  5
6DA
  8
VIDITELNE
  6
SLD-PLNÁ
 62
     2
 10
22.5
 20
-252.35
 30
0.0
 11
22.5
 21
-257.65
 31
0.0
  0
LINE
  5
6DB
  8
VIDITELNE
  6
SLD-PLNÁ
 62
     2
 10
22.5
 20
-252.35
 30
0.0
 11
27.5
 21
-252.35
 31
0.0
  0
LINE
  5
6DC
  8
VIDITELNE
  6
SLD-PLNÁ
 62
     2
 10
27.5
 20
-252.35
 30
0.0
 11
27.5
 21
-257.65
 31
0.0
  0
LINE
  5
6DD
  8
VIDITELNE
  6
SLD-PLNÁ
 62
     2
 10
22.5
 20
-257.65
 30
0.0
 11
23.3507268235
 21
-257.65
 31
0.0
  0
LINE
  5
6DE
  8
VIDITELNE
  6
SLD-PLNÁ
 62
     2
 10
17.5
 20
-252.35
 30
0.0
 11
17.5
 21
-257.65
 31
0.0
  0
LINE
  5
6DF
  8
VIDITELNE
  6
SLD-PLNÁ
 62
     2
 10
21.6492731765
 20
-257.65
 30
0.0
 11
22.5
 21
-257.65
 31
0.0
  0
LINE
  5
6E0
  8
VIDITELNE
  6
SLD-PLNÁ
 62
     2
 10
17.5
 20
-252.35
 30
0.0
 11
22.5
 21
-252.35
 31
0.0
  0
LINE
  5
6E1
  8
VIDITELNE
  6
SLD-PLNÁ
 62
     2
 10
63.2031939779
 20
-252.35
 30
0.0
 11
63.2031939779
 21
-257.65
 31
0.0
  0
LINE
  5
6E2
  8
VIDITELNE
  6
SLD-PLNÁ
 62
     2
 10
63.2031939779
 20
-252.35
 30
0.0
 11
68.2031939779
 21
-252.35
 31
0.0
  0
LINE
  5
6E3
  8
VIDITELNE
  6
SLD-PLNÁ
 62
     2
 10
68.2031939779
 20
-252.35
 30
0.0
 11
68.2031939779
 21
-257.65
 31
0.0
  0
LINE
  5
6E4
  8
VIDITELNE
  6
SLD-PLNÁ
 62
     2
 10
67.3524671544
 20
-257.65
 30
0.0
 11
68.2031939779
 21
-257.65
 31
0.0
  0
LINE
  5
6E5
  8
VIDITELNE
  6
SLD-PLNÁ
 62
     2
 10
58.2031939779
 20
-252.35
 30
0.0
 11
58.2031939779
 21
-257.65
 31
0.0
  0
LINE
  5
6E6
  8
VIDITELNE
  6
SLD-PLNÁ
 62
     2
 10
58.2031939779
 20
-252.35
 30
0.0
 11
63.2031939779
 21
-252.35
 31
0.0
  0
LINE
  5
6E7
  8
VIDITELNE
  6
SLD-PLNÁ
 62
     2
 10
-18.2031939779
 20
-252.35
 30
0.0
 11
-18.2031939779
 21
-257.65
 31
0.0
  0
LINE
  5
6E8
  8
VIDITELNE
  6
SLD-PLNÁ
 62
     2
 10
-18.2031939779
 20
-252.35
 30
0.0
 11
-13.2031939779
 21
-252.35
 31
0.0
  0
LINE
  5
6E9
  8
VIDITELNE
  6
SLD-PLNÁ
 62
     2
 10
-13.2031939779
 20
-252.35
 30
0.0
 11
-13.2031939779
 21
-257.65
 31
0.0
  0
LINE
  5
6EA
  8
VIDITELNE
  6
SLD-PLNÁ
 62
     2
 10
-23.2031939779
 20
-252.35
 30
0.0
 11
-23.2031939779
 21
-257.65
 31
0.0
  0
LINE
  5
6EB
  8
VIDITELNE
  6
SLD-PLNÁ
 62
     2
 10
-23.2031939779
 20
-257.65
 30
0.0
 11
-22.3524671544
 21
-257.65
 31
0.0
  0
LINE
  5
6EC
  8
VIDITELNE
  6
SLD-PLNÁ
 62
     2
 10
-23.2031939779
 20
-252.35
 30
0.0
 11
-18.2031939779
 21
-252.35
 31
0.0
  0
ARC
  5
6ED
  8
VIDITELNE
  6
SLD-PLNÁ
 62
     2
 10
-31.0249692744
 20
-274.3506492686
 30
0.0
 40
3.483059565159202
 50
115.0549380399
 51
183.8910519421
  0
ARC
  5
6EE
  8
VIDITELNE
  6
SLD-PLNÁ
 62
     2
 10
-31.007792309
 20
-516.9448599116
 30
0.0
 40
3.499896745190184
 50
176.2013785398
 51
244.7633725658
  0
ARC
  5
6EF
  8
VIDITELNE
  6
SLD-PLNÁ
 62
     2
 10
76.0249692744
 20
-516.9493507314
 30
0.0
 40
3.483059565160877
 50
295.0549380399
 51
3.8910519421
  0
ARC
  5
6F0
  8
VIDITELNE
  6
SLD-PLNÁ
 62
     2
 10
76.007792309
 20
-274.3551400884
 30
0.0
 40
3.499896745188781
 50
356.2013785398
 51
64.7633725658
  0
LINE
  5
6F1
  8
VIDITELNE
  6
SLD-PLNÁ
 62
     2
 10
-109.5
 20
-395.65
 30
0.0
 11
-109.5
 21
-270.65
 31
0.0
  0
LINE
  5
6F2
  8
VIDITELNE
  6
SLD-PLNÁ
 62
     2
 10
-109.5
 20
-520.65
 30
0.0
 11
-109.5
 21
-395.65
 31
0.0
  0
LINE
  5
6F3
  8
VIDITELNE
  6
SLD-PLNÁ
 62
     2
 10
-44.5842297993
 20
-270.9747715215
 30
0.0
 11
-44.5697989934
 21
-270.9885903349
 31
0.0
  0
LINE
  5
6F4
  8
VIDITELNE
  6
SLD-PLNÁ
 62
     2
 10
-44.5697989934
 20
-520.3114096651
 30
0.0
 11
-44.5892079691
 21
-520.3299955304
 31
0.0
  0
LINE
  5
6F5
  8
VIDITELNE
  6
SLD-PLNÁ
 62
     2
 10
-55.5
 20
-395.65
 30
0.0
 11
-55.5
 21
-403.65
 31
0.0
  0
LINE
  5
6F6
  8
VIDITELNE
  6
SLD-PLNÁ
 62
     2
 10
-55.5
 20
-387.65
 30
0.0
 11
-55.5
 21
-395.65
 31
0.0
  0
LINE
  5
6F7
  8
VIDITELNE
  6
SLD-PLNÁ
 62
     2
 10
-106.6471528727
 20
-306.7399061501
 30
0.0
 11
-106.6471528727
 21
-484.5600938499
 31
0.0
  0
LINE
  5
6F8
  8
VIDITELNE
  6
SLD-PLNÁ
 62
     2
 10
-55.5
 20
-476.9672798365
 30
0.0
 11
-55.5
 21
-484.9672798365
 31
0.0
  0
LINE
  5
6F9
  8
VIDITELNE
  6
SLD-PLNÁ
 62
     2
 10
-55.5
 20
-468.9672798365
 30
0.0
 11
-55.5
 21
-476.9672798365
 31
0.0
  0
LINE
  5
6FA
  8
VIDITELNE
  6
SLD-PLNÁ
 62
     2
 10
-55.5
 20
-314.3327201635
 30
0.0
 11
-55.5
 21
-322.3327201635
 31
0.0
  0
LINE
  5
6FB
  8
VIDITELNE
  6
SLD-PLNÁ
 62
     2
 10
-55.5
 20
-306.3327201635
 30
0.0
 11
-55.5
 21
-314.3327201635
 31
0.0
  0
LINE
  5
6FC
  8
VIDITELNE
  6
SLD-PLNÁ
 62
     2
 10
-73.7913882374
 20
-395.65
 30
0.0
 11
-73.7913882374
 21
-461.5542397786
 31
0.0
  0
LINE
  5
6FD
  8
VIDITELNE
  6
SLD-PLNÁ
 62
     2
 10
-73.7913882374
 20
-329.7457602214
 30
0.0
 11
-73.7913882374
 21
-395.65
 31
0.0
  0
LINE
  5
6FE
  8
VIDITELNE
  6
SLD-PLNÁ
 62
     2
 10
-48.5
 20
-460.65
 30
0.0
 11
-48.5
 21
-403.65
 31
0.0
  0
LINE
  5
6FF
  8
VIDITELNE
  6
SLD-PLNÁ
 62
     2
 10
-48.5
 20
-387.65
 30
0.0
 11
-48.5
 21
-330.65
 31
0.0
  0
LINE
  5
700
  8
VIDITELNE
  6
SLD-PLNÁ
 62
     2
 10
-70.9235060556
 20
-395.65
 30
0.0
 11
-70.9235060556
 21
-460.65
 31
0.0
  0
LINE
  5
701
  8
VIDITELNE
  6
SLD-PLNÁ
 62
     2
 10
-70.9235060556
 20
-330.65
 30
0.0
 11
-70.9235060556
 21
-395.65
 31
0.0
  0
LINE
  5
702
  8
VIDITELNE
  6
SLD-PLNÁ
 62
     2
 10
-55.5
 20
-510.65
 30
0.0
 11
-55.5
 21
-518.65
 31
0.0
  0
LINE
  5
703
  8
VIDITELNE
  6
SLD-PLNÁ
 62
     2
 10
-55.5
 20
-502.65
 30
0.0
 11
-55.5
 21
-510.65
 31
0.0
  0
LINE
  5
704
  8
VIDITELNE
  6
SLD-PLNÁ
 62
     2
 10
-55.5
 20
-280.65
 30
0.0
 11
-55.5
 21
-288.65
 31
0.0
  0
LINE
  5
705
  8
VIDITELNE
  6
SLD-PLNÁ
 62
     2
 10
-55.5
 20
-272.65
 30
0.0
 11
-55.5
 21
-280.65
 31
0.0
  0
LINE
  5
706
  8
VIDITELNE
  6
SLD-PLNÁ
 62
     2
 10
100.5
 20
-403.65
 30
0.0
 11
100.5
 21
-387.65
 31
0.0
  0
LINE
  5
707
  8
VIDITELNE
  6
SLD-PLNÁ
 62
     2
 10
100.5
 20
-484.9672798365
 30
0.0
 11
100.5
 21
-468.9672798365
 31
0.0
  0
LINE
  5
708
  8
VIDITELNE
  6
SLD-PLNÁ
 62
     2
 10
100.5
 20
-322.3327201635
 30
0.0
 11
100.5
 21
-306.3327201635
 31
0.0
  0
LINE
  5
709
  8
VIDITELNE
  6
SLD-PLNÁ
 62
     2
 10
100.5
 20
-518.65
 30
0.0
 11
100.5
 21
-502.65
 31
0.0
  0
LINE
  5
70A
  8
VIDITELNE
  6
SLD-PLNÁ
 62
     2
 10
100.5
 20
-288.65
 30
0.0
 11
100.5
 21
-272.65
 31
0.0
  0
LINE
  5
70B
  8
VIDITELNE
  6
SLD-PLNÁ
 62
     2
 10
122.1483548705
 20
-537.5802010066
 30
0.0
 11
-77.1483548705
 21
-537.5802010066
 31
0.0
  0
LINE
  5
70C
  8
VIDITELNE
  6
SLD-PLNÁ
 62
     2
 10
77.7481015383
 20
-532.7546984901
 30
0.0
 11
-32.7481015383
 21
-532.7546984901
 31
0.0
  0
LINE
  5
70D
  8
VIDITELNE
  6
SLD-PLNÁ
 62
     2
 10
76.7880379485
 20
-259.5802010066
 30
0.0
 11
-31.7880379485
 21
-259.5802010066
 31
0.0
  0
ENDSEC
  0
EOF
