  0
SECTION
  2
HEADER
  9
$ACADVER
  1
AC1009
  9
$DWGCODEPAGE
  3
ansi_1250
  9
$INSBASE
 10
0.0
 20
0.0
 30
0.0
  9
$EXTMIN
 10
0.0
 20
0.0
 30
0.0
  9
$EXTMAX
 10
279.4
 20
215.9
 30
0.0
  9
$LIMMIN
 10
0.0
 20
0.0
  9
$LIMMAX
 10
279.4
 20
215.9
  9
$ORTHOMODE
 70
     0
  9
$REGENMODE
 70
     1
  9
$FILLMODE
 70
     1
  9
$QTEXTMODE
 70
     0
  9
$MIRRTEXT
 70
     1
  9
$DRAGMODE
 70
     2
  9
$LTSCALE
 40
1.0
  9
$OSMODE
 70
    37
  9
$ATTMODE
 70
     1
  9
$TEXTSIZE
 40
3.5
  9
$TRACEWID
 40
1.0
  9
$TEXTSTYLE
  7
STANDARD
  9
$CLAYER
  8
0
  9
$CELTYPE
  6
BYLAYER
  9
$CECOLOR
 62
   256
  9
$DIMSCALE
 40
1.0
  9
$DIMASZ
 40
6.0
  9
$DIMEXO
 40
1.0
  9
$DIMDLI
 40
3.75
  9
$DIMRND
 40
0.0
  9
$DIMDLE
 40
0.0
  9
$DIMEXE
 40
1.0
  9
$DIMTP
 40
0.0
  9
$DIMTM
 40
0.0
  9
$DIMTXT
 40
3.5
  9
$DIMCEN
 40
2.5
  9
$DIMTSZ
 40
0.0
  9
$DIMTOL
 70
     0
  9
$DIMLIM
 70
     0
  9
$DIMTIH
 70
     1
  9
$DIMTOH
 70
     1
  9
$DIMSE1
 70
     0
  9
$DIMSE2
 70
     0
  9
$DIMTAD
 70
     1
  9
$DIMZIN
 70
     0
  9
$DIMBLK
  1

  9
$DIMASO
 70
     1
  9
$DIMSHO
 70
     1
  9
$DIMPOST
  1

  9
$DIMAPOST
  1

  9
$DIMALT
 70
     0
  9
$DIMALTD
 70
     3
  9
$DIMALTF
 40
0.0393700787
  9
$DIMLFAC
 40
1.0
  9
$DIMTOFL
 70
     1
  9
$DIMTVP
 40
0.0
  9
$DIMTIX
 70
     0
  9
$DIMSOXD
 70
     0
  9
$DIMSAH
 70
     0
  9
$DIMBLK1
  1

  9
$DIMBLK2
  1

  9
$DIMSTYLE
  2
ISO-25
  9
$DIMCLRD
 70
     0
  9
$DIMCLRE
 70
     0
  9
$DIMCLRT
 70
     0
  9
$DIMTFAC
 40
1.0
  9
$DIMGAP
 40
1.524
  9
$LUNITS
 70
     2
  9
$LUPREC
 70
     2
  9
$SKETCHINC
 40
1.0
  9
$FILLETRAD
 40
10.0
  9
$AUNITS
 70
     0
  9
$AUPREC
 70
     2
  9
$MENU
  1
.
  9
$ELEVATION
 40
0.0
  9
$PELEVATION
 40
0.0
  9
$THICKNESS
 40
0.0
  9
$LIMCHECK
 70
     0
  9
$CHAMFERA
 40
10.0
  9
$CHAMFERB
 40
10.0
  9
$SKPOLY
 70
     0
  9
$TDCREATE
 40
2455964.306506609
  9
$TDUPDATE
 40
2455964.30650662
  9
$TDINDWG
 40
0.0000000116
  9
$TDUSRTIMER
 40
0.0000000116
  9
$USRTIMER
 70
     1
  9
$ANGBASE
 50
0.0
  9
$ANGDIR
 70
     0
  9
$PDMODE
 70
     0
  9
$PDSIZE
 40
-1.0
  9
$PLINEWID
 40
0.0
  9
$COORDS
 70
     1
  9
$SPLFRAME
 70
     0
  9
$SPLINETYPE
 70
     6
  9
$SPLINESEGS
 70
     8
  9
$ATTDIA
 70
     0
  9
$ATTREQ
 70
     1
  9
$HANDLING
 70
     1
  9
$HANDSEED
  5
A28
  9
$SURFTAB1
 70
     6
  9
$SURFTAB2
 70
     6
  9
$SURFTYPE
 70
     6
  9
$SURFU
 70
     6
  9
$SURFV
 70
     6
  9
$UCSNAME
  2

  9
$UCSORG
 10
0.0
 20
0.0
 30
0.0
  9
$UCSXDIR
 10
1.0
 20
0.0
 30
0.0
  9
$UCSYDIR
 10
0.0
 20
1.0
 30
0.0
  9
$PUCSNAME
  2

  9
$PUCSORG
 10
0.0
 20
0.0
 30
0.0
  9
$PUCSXDIR
 10
1.0
 20
0.0
 30
0.0
  9
$PUCSYDIR
 10
0.0
 20
1.0
 30
0.0
  9
$USERI1
 70
     0
  9
$USERI2
 70
     0
  9
$USERI3
 70
     0
  9
$USERI4
 70
     0
  9
$USERI5
 70
     0
  9
$USERR1
 40
0.0
  9
$USERR2
 40
0.0
  9
$USERR3
 40
0.0
  9
$USERR4
 40
0.0
  9
$USERR5
 40
0.0
  9
$WORLDVIEW
 70
     1
  9
$SHADEDGE
 70
     3
  9
$SHADEDIF
 70
    70
  9
$TILEMODE
 70
     1
  9
$MAXACTVP
 70
    64
  9
$PLIMCHECK
 70
     0
  9
$PEXTMIN
 10
1.0000000000E+20
 20
1.0000000000E+20
 30
1.0000000000E+20
  9
$PEXTMAX
 10
-1.0000000000E+20
 20
-1.0000000000E+20
 30
-1.0000000000E+20
  9
$PLIMMIN
 10
0.0
 20
0.0
  9
$PLIMMAX
 10
420.0
 20
297.0
  9
$UNITMODE
 70
     0
  9
$VISRETAIN
 70
     1
  9
$PLINEGEN
 70
     0
  9
$PSLTSCALE
 70
     1
  0
ENDSEC
  0
SECTION
  2
TABLES
  0
TABLE
  2
VPORT
 70
     1
  0
VPORT
  2
*ACTIVE
 70
     0
 10
0.0
 20
0.0
 11
1.0
 21
1.0
 12
139.7
 22
107.95
 13
0.0
 23
0.0
 14
10.0
 24
10.0
 15
10.0
 25
10.0
 16
0.0
 26
0.0
 36
1.0
 17
0.0
 27
0.0
 37
0.0
 40
215.9
 41
1.2941176471
 42
50.0
 43
0.0
 44
0.0
 50
0.0
 51
0.0
 71
     0
 72
  2000
 73
     1
 74
     3
 75
     0
 76
     0
 77
     0
 78
     0
  0
ENDTAB
  0
TABLE
  2
LTYPE
 70
    10
  0
LTYPE
  2
CONTINUOUS
 70
     0
  3
Solid line
 72
    65
 73
     0
 40
0.0
  0
LTYPE
  2
SLD-PLNÁ
 70
     0
  3
SolidWorks Line Style
 72
    65
 73
     0
 40
0.0
  0
LTYPE
  2
SLD-ČÁRKOVANÁ
 70
     0
  3
SolidWorks Line Style
 72
    65
 73
     2
 40
1.905
 49
1.27
 49
-0.635
  0
LTYPE
  2
SLD-DVOJITĚ-ČERCHOVANÁ
 70
     0
  3
SolidWorks Line Style
 72
    65
 73
     6
 40
12.7
 49
6.35
 49
-1.27
 49
1.27
 49
-1.27
 49
1.27
 49
-1.27
  0
LTYPE
  2
SLD-ČERCHOVANÁ
 70
     0
  3
SolidWorks Line Style
 72
    65
 73
     4
 40
10.16
 49
6.35
 49
-1.27
 49
1.27
 49
-1.27
  0
LTYPE
  2
SLD-OSA
 70
     0
  3
SolidWorks Line Style
 72
    65
 73
     4
 40
19.05
 49
15.24
 49
-1.27
 49
1.27
 49
-1.27
  0
LTYPE
  2
SLD-TEČKOVANÁ
 70
     0
  3
SolidWorks Line Style
 72
    65
 73
     2
 40
0.635
 49
0.0
 49
-0.635
  0
LTYPE
  2
SLD-HRUBÁ-TENKÁ-ČERCHOVANÁ
 70
     0
  3
SolidWorks Line Style
 72
    65
 73
     4
 40
10.16
 49
6.35
 49
-1.27
 49
1.27
 49
-1.27
  0
LTYPE
  2
SLD-ŘEZ-1
 70
     0
  3
SolidWorks Line Style
 72
    65
 73
     4
 40
8.128
 49
5.08
 49
-1.016
 49
1.016
 49
-1.016
  0
LTYPE
  2
SLD-ŘEZ-2
 70
     0
  3
SolidWorks Line Style
 72
    65
 73
     2
 40
5080.0
 49
0.0
 49
-5080.0
  0
ENDTAB
  0
TABLE
  2
LAYER
 70
    15
  0
LAYER
  2
0
 70
     0
 62
     7
  6
CONTINUOUS
  0
LAYER
  2
DEFPOINTS
 70
     0
 62
     7
  6
CONTINUOUS
  0
LAYER
  2
VIDITELNE
 70
     0
 62
     2
  6
SLD-PLNÁ
  0
LAYER
  2
SKRYTE
 70
     0
 62
     4
  6
SLD-ČÁRKOVANÁ
  0
LAYER
  2
SKICA
 70
     0
 62
     6
  6
SLD-PLNÁ
  0
LAYER
  2
DETAIL
 70
     0
 62
     7
  6
SLD-PLNÁ
  0
LAYER
  2
REZY
 70
     0
 62
     1
  6
SLD-HRUBÁ-TENKÁ-ČERCHOVANÁ
  0
LAYER
  2
KOTY
 70
     0
 62
     3
  6
SLD-PLNÁ
  0
LAYER
  2
OSY
 70
     0
 62
     7
  6
SLD-OSA
  0
LAYER
  2
SRAF
 70
     0
 62
     7
  6
SLD-PLNÁ
  0
LAYER
  2
TECNE
 70
     0
 62
     7
  6
SLD-DVOJITĚ-ČERCHOVANÁ
  0
LAYER
  2
HRANICE
 70
     0
 62
     4
  6
SLD-PLNÁ
  0
LAYER
  2
UZ-1
 70
     0
 62
    11
  6
SLD-DVOJITĚ-ČERCHOVANÁ
  0
LAYER
  2
UZ-2
 70
     0
 62
    11
  6
SLD-DVOJITĚ-ČERCHOVANÁ
  0
LAYER
  2
UZ-3
 70
     0
 62
    11
  6
SLD-ČÁRKOVANÁ
  0
ENDTAB
  0
TABLE
  2
STYLE
 70
     1
  0
STYLE
  2
STANDARD
 70
     0
 40
0.0
 41
1.0
 50
0.0
 71
     0
 42
2.5
  3
txt
  4

  0
ENDTAB
  0
TABLE
  2
VIEW
 70
     0
  0
ENDTAB
  0
TABLE
  2
UCS
 70
     0
  0
ENDTAB
  0
TABLE
  2
APPID
 70
     1
  0
APPID
  2
ACAD
 70
     0
  0
ENDTAB
  0
TABLE
  2
DIMSTYLE
 70
     1
  0
DIMSTYLE
  2
ISO-25
 70
     0
  3

  4

  5

  6

  7

 40
1.0
 41
2.5
 42
0.625
 43
3.75
 44
1.25
 45
0.0
 46
0.0
 47
0.0
 48
0.0
140
2.5
141
2.5
142
0.0
143
0.0393700787
144
1.0
145
0.0
146
1.0
147
0.625
 71
     0
 72
     0
 73
     0
 74
     0
 75
     0
 76
     0
 77
     1
 78
     8
170
     0
171
     3
172
     1
173
     0
174
     0
175
     0
176
     0
177
     0
178
     0
  0
ENDTAB
  0
ENDSEC
  0
SECTION
  2
BLOCKS
  0
BLOCK
  8
0
  2
$MODEL_SPACE
 70
     0
 10
0.0
 20
0.0
 30
0.0
  3
$MODEL_SPACE
  1

  0
ENDBLK
  5
21
  8
0
  0
BLOCK
 67
     1
  8
0
  2
$PAPER_SPACE
 70
     0
 10
0.0
 20
0.0
 30
0.0
  3
$PAPER_SPACE
  1

  0
ENDBLK
  5
1D
 67
     1
  8
0
  0
ENDSEC
  0
SECTION
  2
ENTITIES
  0
LINE
  5
56
  8
VIDITELNE
  6
SLD-PLNÁ
 62
     2
 10
-58.0
 20
82.9693703116
 30
0.0
 11
-69.0
 21
82.5852418472
 31
0.0
  0
LINE
  5
57
  8
VIDITELNE
  6
SLD-PLNÁ
 62
     2
 10
-69.0
 20
-166.646501224
 30
0.0
 11
-58.0
 21
-167.0306296884
 31
0.0
  0
LINE
  5
58
  8
VIDITELNE
  6
SLD-PLNÁ
 62
     2
 10
-69.0
 20
-34.0306296884
 30
0.0
 11
-78.0
 21
-34.0306296884
 31
0.0
  0
LINE
  5
59
  8
VIDITELNE
  6
SLD-PLNÁ
 62
     2
 10
-78.0
 20
-50.0306296884
 30
0.0
 11
-69.0
 21
-50.0306296884
 31
0.0
  0
ARC
  5
5A
  8
VIDITELNE
  6
SLD-PLNÁ
 62
     2
 10
-78.0
 20
-49.0306296884
 30
0.0
 40
1.0
 50
180.0
 51
270.0
  0
ARC
  5
5B
  8
VIDITELNE
  6
SLD-PLNÁ
 62
     2
 10
-78.0
 20
-35.0306296884
 30
0.0
 40
1.0
 50
90.0
 51
180.0
  0
LINE
  5
5C
  8
VIDITELNE
  6
SLD-PLNÁ
 62
     2
 10
-69.0
 20
-115.3479095249
 30
0.0
 11
-78.0
 21
-115.3479095249
 31
0.0
  0
LINE
  5
5D
  8
VIDITELNE
  6
SLD-PLNÁ
 62
     2
 10
-78.0
 20
-131.3479095249
 30
0.0
 11
-69.0
 21
-131.3479095249
 31
0.0
  0
ARC
  5
5E
  8
VIDITELNE
  6
SLD-PLNÁ
 62
     2
 10
-78.0
 20
-130.3479095249
 30
0.0
 40
1.0
 50
180.0
 51
270.0
  0
ARC
  5
5F
  8
VIDITELNE
  6
SLD-PLNÁ
 62
     2
 10
-78.0
 20
-116.3479095249
 30
0.0
 40
1.0
 50
90.0
 51
180.0
  0
ARC
  5
60
  8
VIDITELNE
  6
SLD-PLNÁ
 62
     2
 10
-78.0
 20
32.286650148
 30
0.0
 40
1.000000000000004
 50
180.0
 51
270.0
  0
ARC
  5
61
  8
VIDITELNE
  6
SLD-PLNÁ
 62
     2
 10
-78.0
 20
46.286650148
 30
0.0
 40
1.0
 50
90.0
 51
180.0
  0
LINE
  5
62
  8
VIDITELNE
  6
SLD-PLNÁ
 62
     2
 10
-69.0
 20
47.286650148
 30
0.0
 11
-78.0
 21
47.286650148
 31
0.0
  0
LINE
  5
63
  8
VIDITELNE
  6
SLD-PLNÁ
 62
     2
 10
-78.0
 20
31.286650148
 30
0.0
 11
-69.0
 21
31.286650148
 31
0.0
  0
LINE
  5
64
  8
VIDITELNE
  6
SLD-PLNÁ
 62
     2
 10
-84.0
 20
-107.0306296884
 30
0.0
 11
-80.5
 21
-107.0306296884
 31
0.0
  0
LINE
  5
65
  8
VIDITELNE
  6
SLD-PLNÁ
 62
     2
 10
-80.5
 20
22.9693703116
 30
0.0
 11
-84.0
 21
22.9693703116
 31
0.0
  0
LINE
  5
66
  8
VIDITELNE
  6
SLD-PLNÁ
 62
     2
 10
-76.8731240234
 20
55.063348133
 30
0.0
 11
-80.5
 21
52.9693703116
 31
0.0
  0
LINE
  5
67
  8
VIDITELNE
  6
SLD-PLNÁ
 62
     2
 10
-80.5
 20
-137.0306296884
 30
0.0
 11
-76.8731240234
 21
-139.1246075099
 31
0.0
  0
ARC
  5
68
  8
VIDITELNE
  6
SLD-PLNÁ
 62
     2
 10
-78.0
 20
-164.0306296884
 30
0.0
 40
1.0
 50
180.0
 51
270.0
  0
ARC
  5
69
  8
VIDITELNE
  6
SLD-PLNÁ
 62
     2
 10
-78.0
 20
-150.0306296884
 30
0.0
 40
1.0
 50
90.0
 51
180.0
  0
LINE
  5
6A
  8
VIDITELNE
  6
SLD-PLNÁ
 62
     2
 10
-72.3094140097
 20
-149.0306296884
 30
0.0
 11
-78.0
 21
-149.0306296884
 31
0.0
  0
LINE
  5
6B
  8
VIDITELNE
  6
SLD-PLNÁ
 62
     2
 10
-78.0
 20
-165.0306296884
 30
0.0
 11
-69.0
 21
-165.0306296884
 31
0.0
  0
LINE
  5
6C
  8
VIDITELNE
  6
SLD-PLNÁ
 62
     2
 10
-69.0
 20
80.9693703116
 30
0.0
 11
-78.0
 21
80.9693703116
 31
0.0
  0
LINE
  5
6D
  8
VIDITELNE
  6
SLD-PLNÁ
 62
     2
 10
-78.0
 20
64.9693703116
 30
0.0
 11
-72.3094140097
 21
64.9693703116
 31
0.0
  0
ARC
  5
6E
  8
VIDITELNE
  6
SLD-PLNÁ
 62
     2
 10
-78.0
 20
65.9693703116
 30
0.0
 40
1.0
 50
180.0
 51
270.0
  0
ARC
  5
6F
  8
VIDITELNE
  6
SLD-PLNÁ
 62
     2
 10
-78.0
 20
79.9693703116
 30
0.0
 40
1.0
 50
90.0
 51
180.0
  0
LINE
  5
70
  8
VIDITELNE
  6
SLD-PLNÁ
 62
     2
 10
58.0
 20
-167.0306296884
 30
0.0
 11
69.0
 21
-166.646501224
 31
0.0
  0
LINE
  5
71
  8
VIDITELNE
  6
SLD-PLNÁ
 62
     2
 10
69.0
 20
82.5852418472
 30
0.0
 11
58.0
 21
82.9693703116
 31
0.0
  0
LINE
  5
72
  8
VIDITELNE
  6
SLD-PLNÁ
 62
     2
 10
69.0
 20
-50.0306296884
 30
0.0
 11
78.0
 21
-50.0306296884
 31
0.0
  0
LINE
  5
73
  8
VIDITELNE
  6
SLD-PLNÁ
 62
     2
 10
78.0
 20
-34.0306296884
 30
0.0
 11
69.0
 21
-34.0306296884
 31
0.0
  0
ARC
  5
74
  8
VIDITELNE
  6
SLD-PLNÁ
 62
     2
 10
78.0
 20
-35.0306296884
 30
0.0
 40
1.0
 50
0.0
 51
90.0
  0
ARC
  5
75
  8
VIDITELNE
  6
SLD-PLNÁ
 62
     2
 10
78.0
 20
-49.0306296884
 30
0.0
 40
1.000000000000007
 50
270.0
 51
0.0
  0
ARC
  5
76
  8
VIDITELNE
  6
SLD-PLNÁ
 62
     2
 10
78.0
 20
46.286650148
 30
0.0
 40
1.000000000000007
 50
0.0
 51
90.0
  0
ARC
  5
77
  8
VIDITELNE
  6
SLD-PLNÁ
 62
     2
 10
78.0
 20
32.286650148
 30
0.0
 40
1.000000000000004
 50
270.0
 51
0.0
  0
LINE
  5
78
  8
VIDITELNE
  6
SLD-PLNÁ
 62
     2
 10
69.0
 20
31.286650148
 30
0.0
 11
78.0
 21
31.286650148
 31
0.0
  0
LINE
  5
79
  8
VIDITELNE
  6
SLD-PLNÁ
 62
     2
 10
78.0
 20
47.286650148
 30
0.0
 11
69.0
 21
47.286650148
 31
0.0
  0
ARC
  5
7A
  8
VIDITELNE
  6
SLD-PLNÁ
 62
     2
 10
78.0
 20
-116.3479095249
 30
0.0
 40
1.0
 50
0.0
 51
90.0
  0
ARC
  5
7B
  8
VIDITELNE
  6
SLD-PLNÁ
 62
     2
 10
78.0
 20
-130.3479095249
 30
0.0
 40
1.0
 50
270.0
 51
0.0
  0
LINE
  5
7C
  8
VIDITELNE
  6
SLD-PLNÁ
 62
     2
 10
69.0
 20
-131.3479095249
 30
0.0
 11
78.0
 21
-131.3479095249
 31
0.0
  0
LINE
  5
7D
  8
VIDITELNE
  6
SLD-PLNÁ
 62
     2
 10
78.0
 20
-115.3479095249
 30
0.0
 11
69.0
 21
-115.3479095249
 31
0.0
  0
LINE
  5
7E
  8
VIDITELNE
  6
SLD-PLNÁ
 62
     2
 10
84.0
 20
22.9693703116
 30
0.0
 11
80.5
 21
22.9693703116
 31
0.0
  0
LINE
  5
7F
  8
VIDITELNE
  6
SLD-PLNÁ
 62
     2
 10
80.5
 20
-107.0306296884
 30
0.0
 11
84.0
 21
-107.0306296884
 31
0.0
  0
LINE
  5
80
  8
VIDITELNE
  6
SLD-PLNÁ
 62
     2
 10
76.8731240234
 20
-139.1246075099
 30
0.0
 11
80.5
 21
-137.0306296884
 31
0.0
  0
LINE
  5
81
  8
VIDITELNE
  6
SLD-PLNÁ
 62
     2
 10
80.5
 20
52.9693703116
 30
0.0
 11
76.8731240234
 21
55.063348133
 31
0.0
  0
LINE
  5
82
  8
VIDITELNE
  6
SLD-PLNÁ
 62
     2
 10
69.0
 20
-165.0306296884
 30
0.0
 11
78.0
 21
-165.0306296884
 31
0.0
  0
LINE
  5
83
  8
VIDITELNE
  6
SLD-PLNÁ
 62
     2
 10
78.0
 20
-149.0306296884
 30
0.0
 11
72.3094140097
 21
-149.0306296884
 31
0.0
  0
ARC
  5
84
  8
VIDITELNE
  6
SLD-PLNÁ
 62
     2
 10
78.0
 20
-150.0306296884
 30
0.0
 40
1.0
 50
0.0
 51
90.0
  0
ARC
  5
85
  8
VIDITELNE
  6
SLD-PLNÁ
 62
     2
 10
78.0
 20
-164.0306296884
 30
0.0
 40
1.0
 50
270.0
 51
0.0
  0
ARC
  5
86
  8
VIDITELNE
  6
SLD-PLNÁ
 62
     2
 10
78.0
 20
79.9693703116
 30
0.0
 40
1.0
 50
0.0
 51
90.0
  0
ARC
  5
87
  8
VIDITELNE
  6
SLD-PLNÁ
 62
     2
 10
78.0
 20
65.9693703116
 30
0.0
 40
1.0
 50
270.0
 51
0.0
  0
LINE
  5
88
  8
VIDITELNE
  6
SLD-PLNÁ
 62
     2
 10
72.3094140097
 20
64.9693703116
 30
0.0
 11
78.0
 21
64.9693703116
 31
0.0
  0
LINE
  5
89
  8
VIDITELNE
  6
SLD-PLNÁ
 62
     2
 10
78.0
 20
80.9693703116
 30
0.0
 11
69.0
 21
80.9693703116
 31
0.0
  0
POLYLINE
  5
8A
  8
VIDITELNE
  6
SLD-PLNÁ
 62
     2
 66
     1
 10
0.0
 20
0.0
 30
0.0
  0
VERTEX
  5
6F1
  8
VIDITELNE
  6
SLD-PLNÁ
 62
     2
 10
5.5946237826
 20
139.064621104
 30
0.0
  0
VERTEX
  5
6F2
  8
VIDITELNE
  6
SLD-PLNÁ
 62
     2
 10
5.5915410997
 20
139.1980905197
 30
0.0
  0
VERTEX
  5
6F3
  8
VIDITELNE
  6
SLD-PLNÁ
 62
     2
 10
5.5459647509
 20
140.1179574803
 30
0.0
  0
VERTEX
  5
6F4
  8
VIDITELNE
  6
SLD-PLNÁ
 62
     2
 10
5.4785626013
 20
141.4045058532
 30
0.0
  0
VERTEX
  5
6F5
  8
VIDITELNE
  6
SLD-PLNÁ
 62
     2
 10
5.4003160838
 20
143.0077114242
 30
0.0
  0
VERTEX
  5
6F6
  8
VIDITELNE
  6
SLD-PLNÁ
 62
     2
 10
5.2458621659
 20
146.5810856135
 30
0.0
  0
VERTEX
  5
6F7
  8
VIDITELNE
  6
SLD-PLNÁ
 62
     2
 10
5.1485529682
 20
149.043667719
 30
0.0
  0
VERTEX
  5
6F8
  8
VIDITELNE
  6
SLD-PLNÁ
 62
     2
 10
5.0671827207
 20
151.1789727794
 30
0.0
  0
VERTEX
  5
6F9
  8
VIDITELNE
  6
SLD-PLNÁ
 62
     2
 10
5.0051171413
 20
152.8310527443
 30
0.0
  0
VERTEX
  5
6FA
  8
VIDITELNE
  6
SLD-PLNÁ
 62
     2
 10
4.9132881242
 20
155.2776517217
 30
0.0
  0
VERTEX
  5
6FB
  8
VIDITELNE
  6
SLD-PLNÁ
 62
     2
 10
4.7843179476
 20
158.629180405
 30
0.0
  0
VERTEX
  5
6FC
  8
VIDITELNE
  6
SLD-PLNÁ
 62
     2
 10
4.6361769247
 20
162.1931877671
 30
0.0
  0
VERTEX
  5
6FD
  8
VIDITELNE
  6
SLD-PLNÁ
 62
     2
 10
4.4786937459
 20
165.4448308915
 30
0.0
  0
VERTEX
  5
6FE
  8
VIDITELNE
  6
SLD-PLNÁ
 62
     2
 10
4.3238013452
 20
167.9114790107
 30
0.0
  0
VERTEX
  5
6FF
  8
VIDITELNE
  6
SLD-PLNÁ
 62
     2
 10
4.1077103725
 20
169.8111823495
 30
0.0
  0
VERTEX
  5
700
  8
VIDITELNE
  6
SLD-PLNÁ
 62
     2
 10
3.5808469496
 20
171.681311692
 30
0.0
  0
VERTEX
  5
701
  8
VIDITELNE
  6
SLD-PLNÁ
 62
     2
 10
2.513843704
 20
173.0807349369
 30
0.0
  0
SEQEND
  5
702
  8
VIDITELNE
  6
SLD-PLNÁ
 62
     2
  0
POLYLINE
  5
8B
  8
VIDITELNE
  6
SLD-PLNÁ
 62
     2
 66
     1
 10
0.0
 20
0.0
 30
0.0
  0
VERTEX
  5
703
  8
VIDITELNE
  6
SLD-PLNÁ
 62
     2
 10
-2.5151621247
 20
173.07966925
 30
0.0
  0
VERTEX
  5
704
  8
VIDITELNE
  6
SLD-PLNÁ
 62
     2
 10
-3.3320236952
 20
172.0843480018
 30
0.0
  0
VERTEX
  5
705
  8
VIDITELNE
  6
SLD-PLNÁ
 62
     2
 10
-3.874174853
 20
170.5976586379
 30
0.0
  0
VERTEX
  5
706
  8
VIDITELNE
  6
SLD-PLNÁ
 62
     2
 10
-4.225662531
 20
168.7035939616
 30
0.0
  0
VERTEX
  5
707
  8
VIDITELNE
  6
SLD-PLNÁ
 62
     2
 10
-4.3830194185
 20
167.039887921
 30
0.0
  0
VERTEX
  5
708
  8
VIDITELNE
  6
SLD-PLNÁ
 62
     2
 10
-4.4608135566
 20
165.7723787531
 30
0.0
  0
VERTEX
  5
709
  8
VIDITELNE
  6
SLD-PLNÁ
 62
     2
 10
-4.5281260814
 20
164.4970365952
 30
0.0
  0
VERTEX
  5
70A
  8
VIDITELNE
  6
SLD-PLNÁ
 62
     2
 10
-4.5982264029
 20
163.0355099462
 30
0.0
  0
VERTEX
  5
70B
  8
VIDITELNE
  6
SLD-PLNÁ
 62
     2
 10
-4.7212060487
 20
160.1948314984
 30
0.0
  0
VERTEX
  5
70C
  8
VIDITELNE
  6
SLD-PLNÁ
 62
     2
 10
-4.8373493163
 20
157.2697390442
 30
0.0
  0
VERTEX
  5
70D
  8
VIDITELNE
  6
SLD-PLNÁ
 62
     2
 10
-4.9415346167
 20
154.5258795556
 30
0.0
  0
VERTEX
  5
70E
  8
VIDITELNE
  6
SLD-PLNÁ
 62
     2
 10
-5.0513084054
 20
151.5999290087
 30
0.0
  0
VERTEX
  5
70F
  8
VIDITELNE
  6
SLD-PLNÁ
 62
     2
 10
-5.1679915233
 20
148.5421500319
 30
0.0
  0
VERTEX
  5
710
  8
VIDITELNE
  6
SLD-PLNÁ
 62
     2
 10
-5.2853262406
 20
145.6223434705
 30
0.0
  0
VERTEX
  5
711
  8
VIDITELNE
  6
SLD-PLNÁ
 62
     2
 10
-5.3456105008
 20
144.211022414
 30
0.0
  0
VERTEX
  5
712
  8
VIDITELNE
  6
SLD-PLNÁ
 62
     2
 10
-5.4074947443
 20
142.795849303
 30
0.0
  0
VERTEX
  5
713
  8
VIDITELNE
  6
SLD-PLNÁ
 62
     2
 10
-5.4629457425
 20
141.4565908545
 30
0.0
  0
VERTEX
  5
714
  8
VIDITELNE
  6
SLD-PLNÁ
 62
     2
 10
-5.4989132655
 20
140.2883003109
 30
0.0
  0
VERTEX
  5
715
  8
VIDITELNE
  6
SLD-PLNÁ
 62
     2
 10
-5.4965499262
 20
139.4764937473
 30
0.0
  0
SEQEND
  5
716
  8
VIDITELNE
  6
SLD-PLNÁ
 62
     2
  0
LINE
  5
8C
  8
VIDITELNE
  6
SLD-PLNÁ
 62
     2
 10
11.3563269083
 20
131.7841809045
 30
0.0
 11
10.2319551923
 21
138.1608097761
 31
0.0
  0
LINE
  5
8D
  8
VIDITELNE
  6
SLD-PLNÁ
 62
     2
 10
-10.2319551923
 20
138.1608097761
 30
0.0
 11
-11.3563269083
 21
131.7841809045
 31
0.0
  0
ARC
  5
8E
  8
VIDITELNE
  6
SLD-PLNÁ
 62
     2
 10
7.2775319332
 20
137.6398652431
 30
0.0
 40
2.99999999999999
 50
10.0
 51
80.0
  0
ARC
  5
8F
  8
VIDITELNE
  6
SLD-PLNÁ
 62
     2
 10
-7.2775319332
 20
137.6398652431
 30
0.0
 40
2.999999999999989
 50
100.0
 51
170.0
  0
LINE
  5
90
  8
VIDITELNE
  6
SLD-PLNÁ
 62
     2
 10
7.7984764662
 20
140.5942885021
 30
0.0
 11
5.4997749738
 21
140.9996115959
 31
0.0
  0
LINE
  5
91
  8
VIDITELNE
  6
SLD-PLNÁ
 62
     2
 10
-5.4768902843
 20
141.0036467841
 30
0.0
 11
-7.7984764662
 21
140.5942885021
 31
0.0
  0
LINE
  5
92
  8
VIDITELNE
  6
SLD-PLNÁ
 62
     2
 10
16.9511534421
 20
-167.0306296884
 30
0.0
 11
58.0
 21
-167.0306296884
 31
0.0
  0
LINE
  5
93
  8
VIDITELNE
  6
SLD-PLNÁ
 62
     2
 10
-58.0
 20
-167.0306296884
 30
0.0
 11
-16.9994378438
 21
-167.0306296884
 31
0.0
  0
LINE
  5
94
  8
VIDITELNE
  6
SLD-PLNÁ
 62
     2
 10
-56.5703954845
 20
82.9693703116
 30
0.0
 11
-58.0
 21
82.9693703116
 31
0.0
  0
LINE
  5
95
  8
VIDITELNE
  6
SLD-PLNÁ
 62
     2
 10
58.0
 20
82.9693703116
 30
0.0
 11
56.5703954845
 21
82.9693703116
 31
0.0
  0
LINE
  5
96
  8
VIDITELNE
  6
SLD-PLNÁ
 62
     2
 10
10.5
 20
131.9577949969
 30
0.0
 11
10.5
 21
133.9693703116
 31
0.0
  0
LINE
  5
97
  8
VIDITELNE
  6
SLD-PLNÁ
 62
     2
 10
-10.5
 20
133.9693703116
 30
0.0
 11
-10.5
 21
131.9577949969
 31
0.0
  0
ARC
  5
98
  8
VIDITELNE
  6
SLD-PLNÁ
 62
     2
 10
-9.5
 20
133.9693703116
 30
0.0
 40
1.0
 50
90.0
 51
180.0
  0
ARC
  5
99
  8
VIDITELNE
  6
SLD-PLNÁ
 62
     2
 10
9.5
 20
133.9693703116
 30
0.0
 40
1.0
 50
0.0
 51
90.0
  0
ARC
  5
9A
  8
VIDITELNE
  6
SLD-PLNÁ
 62
     2
 10
-56.4592008385
 20
84.8029996964
 30
0.0
 40
1.840867892165581
 50
266.5923223877
 51
346.208762965
  0
ARC
  5
9B
  8
VIDITELNE
  6
SLD-PLNÁ
 62
     2
 10
56.5333840881
 20
84.9164750709
 30
0.0
 40
1.940215984765325
 50
196.5320364997
 51
271.1766035539
  0
ARC
  5
9C
  8
VIDITELNE
  6
SLD-PLNÁ
 62
     2
 10
-84.0
 20
-72.5306296884
 30
0.0
 40
2.0
 50
180.0
 51
270.0
  0
ARC
  5
9D
  8
VIDITELNE
  6
SLD-PLNÁ
 62
     2
 10
-84.0
 20
-11.5306296884
 30
0.0
 40
2.000000000000002
 50
90.0
 51
180.0
  0
ARC
  5
9E
  8
VIDITELNE
  6
SLD-PLNÁ
 62
     2
 10
84.0
 20
-11.5306296884
 30
0.0
 40
2.000000000000002
 50
0.0
 51
90.0
  0
ARC
  5
9F
  8
VIDITELNE
  6
SLD-PLNÁ
 62
     2
 10
84.0
 20
-72.5306296884
 30
0.0
 40
2.0
 50
270.0
 51
0.0
  0
ARC
  5
A0
  8
VIDITELNE
  6
SLD-PLNÁ
 62
     2
 10
-17.0
 20
-169.0306296884
 30
0.0
 40
1.999999999988299
 50
359.9999999996
 51
89.9999999997
  0
ARC
  5
A1
  8
VIDITELNE
  6
SLD-PLNÁ
 62
     2
 10
17.0
 20
-169.0306296884
 30
0.0
 40
2.000000000006125
 50
90.0000000014
 51
180.0
  0
LINE
  5
A2
  8
VIDITELNE
  6
SLD-PLNÁ
 62
     2
 10
-15.0
 20
-169.0305533641
 30
0.0
 11
-15.0
 21
-170.0306296884
 31
0.0
  0
LINE
  5
A3
  8
VIDITELNE
  6
SLD-PLNÁ
 62
     2
 10
15.0
 20
-170.0306296884
 30
0.0
 11
15.0
 21
-169.0234783528
 31
0.0
  0
LINE
  5
A4
  8
VIDITELNE
  6
SLD-PLNÁ
 62
     2
 10
-10.5
 20
-170.0306296884
 30
0.0
 11
-10.5
 21
-173.0306296884
 31
0.0
  0
LINE
  5
A5
  8
VIDITELNE
  6
SLD-PLNÁ
 62
     2
 10
10.5
 20
-173.0306296884
 30
0.0
 11
10.5
 21
-170.0306296884
 31
0.0
  0
ARC
  5
A6
  8
VIDITELNE
  6
SLD-PLNÁ
 62
     2
 10
9.5
 20
-173.0306296884
 30
0.0
 40
1.0
 50
270.0
 51
0.0
  0
ARC
  5
A7
  8
VIDITELNE
  6
SLD-PLNÁ
 62
     2
 10
-9.5
 20
-173.0306296884
 30
0.0
 40
1.0
 50
180.0
 51
270.0
  0
LINE
  5
A8
  8
VIDITELNE
  6
SLD-PLNÁ
 62
     2
 10
-69.0
 20
-42.0306296884
 30
0.0
 11
-69.0
 21
82.5852418472
 31
0.0
  0
LINE
  5
A9
  8
VIDITELNE
  6
SLD-PLNÁ
 62
     2
 10
-69.0
 20
-166.646501224
 30
0.0
 11
-69.0
 21
-42.0306296884
 31
0.0
  0
LINE
  5
AA
  8
VIDITELNE
  6
SLD-PLNÁ
 62
     2
 10
-58.0
 20
-42.0306296884
 30
0.0
 11
-58.0
 21
82.9693703116
 31
0.0
  0
LINE
  5
AB
  8
VIDITELNE
  6
SLD-PLNÁ
 62
     2
 10
-58.0
 20
-167.0306296884
 30
0.0
 11
-58.0
 21
-42.0306296884
 31
0.0
  0
LINE
  5
AC
  8
VIDITELNE
  6
SLD-PLNÁ
 62
     2
 10
-79.0
 20
-42.0306296884
 30
0.0
 11
-79.0
 21
-35.0306296884
 31
0.0
  0
LINE
  5
AD
  8
VIDITELNE
  6
SLD-PLNÁ
 62
     2
 10
-79.0
 20
-49.0306296884
 30
0.0
 11
-79.0
 21
-42.0306296884
 31
0.0
  0
LINE
  5
AE
  8
VIDITELNE
  6
SLD-PLNÁ
 62
     2
 10
-80.5
 20
-82.0488336243
 30
0.0
 11
-69.0
 21
-92.3884258239
 31
0.0
  0
LINE
  5
AF
  8
VIDITELNE
  6
SLD-PLNÁ
 62
     2
 10
-80.5
 20
-82.0488336243
 30
0.0
 11
-80.5
 21
-74.6577973642
 31
0.0
  0
LINE
  5
B0
  8
VIDITELNE
  6
SLD-PLNÁ
 62
     2
 10
-69.0
 20
-84.9973895639
 30
0.0
 11
-80.5
 21
-74.6577973642
 31
0.0
  0
LINE
  5
B1
  8
VIDITELNE
  6
SLD-PLNÁ
 62
     2
 10
-80.5
 20
-74.6577973642
 30
0.0
 11
-69.0
 21
-77.2007425272
 31
0.0
  0
LINE
  5
B2
  8
VIDITELNE
  6
SLD-PLNÁ
 62
     2
 10
-80.5
 20
-9.4034620127
 30
0.0
 11
-69.0
 21
0.936130187
 31
0.0
  0
LINE
  5
B3
  8
VIDITELNE
  6
SLD-PLNÁ
 62
     2
 10
-69.0
 20
-6.8605168497
 30
0.0
 11
-80.5
 21
-9.4034620127
 31
0.0
  0
LINE
  5
B4
  8
VIDITELNE
  6
SLD-PLNÁ
 62
     2
 10
-69.0
 20
8.3271664471
 30
0.0
 11
-80.5
 21
-2.0124257526
 31
0.0
  0
LINE
  5
B5
  8
VIDITELNE
  6
SLD-PLNÁ
 62
     2
 10
-80.5
 20
-9.4034620127
 30
0.0
 11
-80.5
 21
-2.0124257526
 31
0.0
  0
LINE
  5
B6
  8
VIDITELNE
  6
SLD-PLNÁ
 62
     2
 10
-80.5
 20
-74.6577973642
 30
0.0
 11
-80.5
 21
-9.4034620127
 31
0.0
  0
LINE
  5
B7
  8
VIDITELNE
  6
SLD-PLNÁ
 62
     2
 10
-80.5
 20
-128.1906166531
 30
0.0
 11
-79.0
 21
-128.9913835271
 31
0.0
  0
LINE
  5
B8
  8
VIDITELNE
  6
SLD-PLNÁ
 62
     2
 10
-74.5857452259
 20
-131.3479095249
 30
0.0
 11
-69.0
 21
-134.329829354
 31
0.0
  0
LINE
  5
B9
  8
VIDITELNE
  6
SLD-PLNÁ
 62
     2
 10
-80.5
 20
-128.1906166531
 30
0.0
 11
-80.5
 21
-82.0488336243
 31
0.0
  0
LINE
  5
BA
  8
VIDITELNE
  6
SLD-PLNÁ
 62
     2
 10
-69.0
 20
50.2685699771
 30
0.0
 11
-74.5857452259
 21
47.286650148
 31
0.0
  0
LINE
  5
BB
  8
VIDITELNE
  6
SLD-PLNÁ
 62
     2
 10
-79.0
 20
44.9301241503
 30
0.0
 11
-80.5
 21
44.1293572762
 31
0.0
  0
LINE
  5
BC
  8
VIDITELNE
  6
SLD-PLNÁ
 62
     2
 10
-80.5
 20
-2.0124257526
 30
0.0
 11
-80.5
 21
44.1293572762
 31
0.0
  0
LINE
  5
BD
  8
VIDITELNE
  6
SLD-PLNÁ
 62
     2
 10
-79.0
 20
-123.3479095249
 30
0.0
 11
-79.0
 21
-116.3479095249
 31
0.0
  0
LINE
  5
BE
  8
VIDITELNE
  6
SLD-PLNÁ
 62
     2
 10
-79.0
 20
-130.3479095249
 30
0.0
 11
-79.0
 21
-123.3479095249
 31
0.0
  0
LINE
  5
BF
  8
VIDITELNE
  6
SLD-PLNÁ
 62
     2
 10
-79.0
 20
39.286650148
 30
0.0
 11
-79.0
 21
46.286650148
 31
0.0
  0
LINE
  5
C0
  8
VIDITELNE
  6
SLD-PLNÁ
 62
     2
 10
-79.0
 20
32.286650148
 30
0.0
 11
-79.0
 21
39.286650148
 31
0.0
  0
LINE
  5
C1
  8
VIDITELNE
  6
SLD-PLNÁ
 62
     2
 10
-84.0
 20
-42.0306296884
 30
0.0
 11
-84.0
 21
22.9693703116
 31
0.0
  0
LINE
  5
C2
  8
VIDITELNE
  6
SLD-PLNÁ
 62
     2
 10
-84.0
 20
-107.0306296884
 30
0.0
 11
-84.0
 21
-42.0306296884
 31
0.0
  0
LINE
  5
C3
  8
VIDITELNE
  6
SLD-PLNÁ
 62
     2
 10
-80.5
 20
44.1293572762
 30
0.0
 11
-69.0
 21
69.0913409941
 31
0.0
  0
LINE
  5
C4
  8
VIDITELNE
  6
SLD-PLNÁ
 62
     2
 10
-69.0
 20
72.152808453
 30
0.0
 11
-80.5
 21
47.1908247351
 31
0.0
  0
LINE
  5
C5
  8
VIDITELNE
  6
SLD-PLNÁ
 62
     2
 10
-80.5
 20
44.1293572762
 30
0.0
 11
-80.5
 21
47.1908247351
 31
0.0
  0
LINE
  5
C6
  8
VIDITELNE
  6
SLD-PLNÁ
 62
     2
 10
-69.0
 20
-153.152600371
 30
0.0
 11
-80.5
 21
-128.1906166531
 31
0.0
  0
LINE
  5
C7
  8
VIDITELNE
  6
SLD-PLNÁ
 62
     2
 10
-80.5
 20
-131.252084112
 30
0.0
 11
-69.0
 21
-156.2140678299
 31
0.0
  0
LINE
  5
C8
  8
VIDITELNE
  6
SLD-PLNÁ
 62
     2
 10
-80.5
 20
-131.252084112
 30
0.0
 11
-80.5
 21
-128.1906166531
 31
0.0
  0
LINE
  5
C9
  8
VIDITELNE
  6
SLD-PLNÁ
 62
     2
 10
-80.5
 20
47.1908247351
 30
0.0
 11
-80.5
 21
52.9693703116
 31
0.0
  0
LINE
  5
CA
  8
VIDITELNE
  6
SLD-PLNÁ
 62
     2
 10
-80.5
 20
-137.0306296884
 30
0.0
 11
-80.5
 21
-131.252084112
 31
0.0
  0
LINE
  5
CB
  8
VIDITELNE
  6
SLD-PLNÁ
 62
     2
 10
-79.0
 20
-157.0306296884
 30
0.0
 11
-79.0
 21
-150.0306296884
 31
0.0
  0
LINE
  5
CC
  8
VIDITELNE
  6
SLD-PLNÁ
 62
     2
 10
-79.0
 20
-164.0306296884
 30
0.0
 11
-79.0
 21
-157.0306296884
 31
0.0
  0
LINE
  5
CD
  8
VIDITELNE
  6
SLD-PLNÁ
 62
     2
 10
-79.0
 20
72.9693703116
 30
0.0
 11
-79.0
 21
79.9693703116
 31
0.0
  0
LINE
  5
CE
  8
VIDITELNE
  6
SLD-PLNÁ
 62
     2
 10
-79.0
 20
65.9693703116
 30
0.0
 11
-79.0
 21
72.9693703116
 31
0.0
  0
LINE
  5
CF
  8
VIDITELNE
  6
SLD-PLNÁ
 62
     2
 10
69.0
 20
82.5852418472
 30
0.0
 11
69.0
 21
-166.646501224
 31
0.0
  0
LINE
  5
D0
  8
VIDITELNE
  6
SLD-PLNÁ
 62
     2
 10
58.0
 20
82.9693703116
 30
0.0
 11
58.0
 21
-167.0306296884
 31
0.0
  0
LINE
  5
D1
  8
VIDITELNE
  6
SLD-PLNÁ
 62
     2
 10
79.0
 20
-35.0306296884
 30
0.0
 11
79.0
 21
-49.0306296884
 31
0.0
  0
LINE
  5
D2
  8
VIDITELNE
  6
SLD-PLNÁ
 62
     2
 10
80.5
 20
-2.0124257526
 30
0.0
 11
69.0
 21
8.3271664471
 31
0.0
  0
LINE
  5
D3
  8
VIDITELNE
  6
SLD-PLNÁ
 62
     2
 10
80.5
 20
-2.0124257526
 30
0.0
 11
80.5
 21
-9.4034620127
 31
0.0
  0
LINE
  5
D4
  8
VIDITELNE
  6
SLD-PLNÁ
 62
     2
 10
69.0
 20
0.936130187
 30
0.0
 11
80.5
 21
-9.4034620127
 31
0.0
  0
LINE
  5
D5
  8
VIDITELNE
  6
SLD-PLNÁ
 62
     2
 10
80.5
 20
-9.4034620127
 30
0.0
 11
69.0
 21
-6.8605168497
 31
0.0
  0
LINE
  5
D6
  8
VIDITELNE
  6
SLD-PLNÁ
 62
     2
 10
80.5
 20
-74.6577973642
 30
0.0
 11
69.0
 21
-84.9973895639
 31
0.0
  0
LINE
  5
D7
  8
VIDITELNE
  6
SLD-PLNÁ
 62
     2
 10
69.0
 20
-77.2007425272
 30
0.0
 11
80.5
 21
-74.6577973642
 31
0.0
  0
LINE
  5
D8
  8
VIDITELNE
  6
SLD-PLNÁ
 62
     2
 10
80.5
 20
-74.6577973642
 30
0.0
 11
80.5
 21
-82.0488336243
 31
0.0
  0
LINE
  5
D9
  8
VIDITELNE
  6
SLD-PLNÁ
 62
     2
 10
69.0
 20
-92.3884258239
 30
0.0
 11
80.5
 21
-82.0488336243
 31
0.0
  0
LINE
  5
DA
  8
VIDITELNE
  6
SLD-PLNÁ
 62
     2
 10
80.5
 20
-9.4034620127
 30
0.0
 11
80.5
 21
-74.6577973642
 31
0.0
  0
LINE
  5
DB
  8
VIDITELNE
  6
SLD-PLNÁ
 62
     2
 10
80.5
 20
44.1293572762
 30
0.0
 11
79.0
 21
44.9301241503
 31
0.0
  0
LINE
  5
DC
  8
VIDITELNE
  6
SLD-PLNÁ
 62
     2
 10
74.5857452259
 20
47.286650148
 30
0.0
 11
69.0
 21
50.2685699771
 31
0.0
  0
LINE
  5
DD
  8
VIDITELNE
  6
SLD-PLNÁ
 62
     2
 10
80.5
 20
44.1293572762
 30
0.0
 11
80.5
 21
-2.0124257526
 31
0.0
  0
LINE
  5
DE
  8
VIDITELNE
  6
SLD-PLNÁ
 62
     2
 10
69.0
 20
-134.329829354
 30
0.0
 11
74.5857452259
 21
-131.3479095249
 31
0.0
  0
LINE
  5
DF
  8
VIDITELNE
  6
SLD-PLNÁ
 62
     2
 10
79.0
 20
-128.9913835271
 30
0.0
 11
80.5
 21
-128.1906166531
 31
0.0
  0
LINE
  5
E0
  8
VIDITELNE
  6
SLD-PLNÁ
 62
     2
 10
80.5
 20
-82.0488336243
 30
0.0
 11
80.5
 21
-128.1906166531
 31
0.0
  0
LINE
  5
E1
  8
VIDITELNE
  6
SLD-PLNÁ
 62
     2
 10
79.0
 20
46.286650148
 30
0.0
 11
79.0
 21
32.286650148
 31
0.0
  0
LINE
  5
E2
  8
VIDITELNE
  6
SLD-PLNÁ
 62
     2
 10
79.0
 20
-116.3479095249
 30
0.0
 11
79.0
 21
-130.3479095249
 31
0.0
  0
LINE
  5
E3
  8
VIDITELNE
  6
SLD-PLNÁ
 62
     2
 10
84.0
 20
22.9693703116
 30
0.0
 11
84.0
 21
-107.0306296884
 31
0.0
  0
LINE
  5
E4
  8
VIDITELNE
  6
SLD-PLNÁ
 62
     2
 10
80.5
 20
-128.1906166531
 30
0.0
 11
69.0
 21
-153.152600371
 31
0.0
  0
LINE
  5
E5
  8
VIDITELNE
  6
SLD-PLNÁ
 62
     2
 10
69.0
 20
-156.2140678299
 30
0.0
 11
80.5
 21
-131.252084112
 31
0.0
  0
LINE
  5
E6
  8
VIDITELNE
  6
SLD-PLNÁ
 62
     2
 10
80.5
 20
-128.1906166531
 30
0.0
 11
80.5
 21
-131.252084112
 31
0.0
  0
LINE
  5
E7
  8
VIDITELNE
  6
SLD-PLNÁ
 62
     2
 10
69.0
 20
69.0913409941
 30
0.0
 11
80.5
 21
44.1293572762
 31
0.0
  0
LINE
  5
E8
  8
VIDITELNE
  6
SLD-PLNÁ
 62
     2
 10
80.5
 20
47.1908247351
 30
0.0
 11
69.0
 21
72.152808453
 31
0.0
  0
LINE
  5
E9
  8
VIDITELNE
  6
SLD-PLNÁ
 62
     2
 10
80.5
 20
47.1908247351
 30
0.0
 11
80.5
 21
44.1293572762
 31
0.0
  0
LINE
  5
EA
  8
VIDITELNE
  6
SLD-PLNÁ
 62
     2
 10
80.5
 20
-131.252084112
 30
0.0
 11
80.5
 21
-137.0306296884
 31
0.0
  0
LINE
  5
EB
  8
VIDITELNE
  6
SLD-PLNÁ
 62
     2
 10
80.5
 20
52.9693703116
 30
0.0
 11
80.5
 21
47.1908247351
 31
0.0
  0
LINE
  5
EC
  8
VIDITELNE
  6
SLD-PLNÁ
 62
     2
 10
79.0
 20
-150.0306296884
 30
0.0
 11
79.0
 21
-164.0306296884
 31
0.0
  0
LINE
  5
ED
  8
VIDITELNE
  6
SLD-PLNÁ
 62
     2
 10
79.0
 20
79.9693703116
 30
0.0
 11
79.0
 21
65.9693703116
 31
0.0
  0
LINE
  5
EE
  8
VIDITELNE
  6
SLD-PLNÁ
 62
     2
 10
-45.7031939779
 20
104.3561216575
 30
0.0
 11
-45.7031939779
 21
98.5826189656
 31
0.0
  0
LINE
  5
EF
  8
VIDITELNE
  6
SLD-PLNÁ
 62
     2
 10
-45.7031939779
 20
98.5826189656
 30
0.0
 11
-40.7031939779
 21
95.6958676197
 31
0.0
  0
LINE
  5
F0
  8
VIDITELNE
  6
SLD-PLNÁ
 62
     2
 10
-35.7031939779
 20
104.3561216575
 30
0.0
 11
-40.7031939779
 21
107.2428730035
 31
0.0
  0
LINE
  5
F1
  8
VIDITELNE
  6
SLD-PLNÁ
 62
     2
 10
-40.7031939779
 20
107.2428730035
 30
0.0
 11
-45.7031939779
 21
104.3561216575
 31
0.0
  0
LINE
  5
F2
  8
VIDITELNE
  6
SLD-PLNÁ
 62
     2
 10
-40.7031939779
 20
95.6958676197
 30
0.0
 11
-35.7031939779
 21
98.5826189656
 31
0.0
  0
LINE
  5
F3
  8
VIDITELNE
  6
SLD-PLNÁ
 62
     2
 10
-35.7031939779
 20
98.5826189656
 30
0.0
 11
-35.7031939779
 21
104.3561216575
 31
0.0
  0
LINE
  5
F4
  8
VIDITELNE
  6
SLD-PLNÁ
 62
     2
 10
40.7031939779
 20
107.2428730035
 30
0.0
 11
35.7031939779
 21
104.3561216575
 31
0.0
  0
LINE
  5
F5
  8
VIDITELNE
  6
SLD-PLNÁ
 62
     2
 10
45.7031939779
 20
104.3561216575
 30
0.0
 11
40.7031939779
 21
107.2428730035
 31
0.0
  0
LINE
  5
F6
  8
VIDITELNE
  6
SLD-PLNÁ
 62
     2
 10
45.7031939779
 20
98.5826189656
 30
0.0
 11
45.7031939779
 21
104.3561216575
 31
0.0
  0
LINE
  5
F7
  8
VIDITELNE
  6
SLD-PLNÁ
 62
     2
 10
40.7031939779
 20
95.6958676197
 30
0.0
 11
45.7031939779
 21
98.5826189656
 31
0.0
  0
LINE
  5
F8
  8
VIDITELNE
  6
SLD-PLNÁ
 62
     2
 10
35.7031939779
 20
98.5826189656
 30
0.0
 11
40.7031939779
 21
95.6958676197
 31
0.0
  0
LINE
  5
F9
  8
VIDITELNE
  6
SLD-PLNÁ
 62
     2
 10
35.7031939779
 20
104.3561216575
 30
0.0
 11
35.7031939779
 21
98.5826189656
 31
0.0
  0
LINE
  5
FA
  8
VIDITELNE
  6
SLD-PLNÁ
 62
     2
 10
-45.7031939779
 20
57.3561216575
 30
0.0
 11
-45.7031939779
 21
51.5826189656
 31
0.0
  0
LINE
  5
FB
  8
VIDITELNE
  6
SLD-PLNÁ
 62
     2
 10
-40.7031939779
 20
60.2428730035
 30
0.0
 11
-45.7031939779
 21
57.3561216575
 31
0.0
  0
LINE
  5
FC
  8
VIDITELNE
  6
SLD-PLNÁ
 62
     2
 10
-35.7031939779
 20
57.3561216575
 30
0.0
 11
-40.7031939779
 21
60.2428730035
 31
0.0
  0
LINE
  5
FD
  8
VIDITELNE
  6
SLD-PLNÁ
 62
     2
 10
-35.7031939779
 20
51.5826189656
 30
0.0
 11
-35.7031939779
 21
57.3561216575
 31
0.0
  0
LINE
  5
FE
  8
VIDITELNE
  6
SLD-PLNÁ
 62
     2
 10
-40.7031939779
 20
48.6958676197
 30
0.0
 11
-35.7031939779
 21
51.5826189656
 31
0.0
  0
LINE
  5
FF
  8
VIDITELNE
  6
SLD-PLNÁ
 62
     2
 10
-45.7031939779
 20
51.5826189656
 30
0.0
 11
-40.7031939779
 21
48.6958676197
 31
0.0
  0
LINE
  5
100
  8
VIDITELNE
  6
SLD-PLNÁ
 62
     2
 10
45.7031939779
 20
57.3561216575
 30
0.0
 11
40.7031939779
 21
60.2428730035
 31
0.0
  0
LINE
  5
101
  8
VIDITELNE
  6
SLD-PLNÁ
 62
     2
 10
45.7031939779
 20
51.5826189656
 30
0.0
 11
45.7031939779
 21
57.3561216575
 31
0.0
  0
LINE
  5
102
  8
VIDITELNE
  6
SLD-PLNÁ
 62
     2
 10
40.7031939779
 20
48.6958676197
 30
0.0
 11
45.7031939779
 21
51.5826189656
 31
0.0
  0
LINE
  5
103
  8
VIDITELNE
  6
SLD-PLNÁ
 62
     2
 10
35.7031939779
 20
51.5826189656
 30
0.0
 11
40.7031939779
 21
48.6958676197
 31
0.0
  0
LINE
  5
104
  8
VIDITELNE
  6
SLD-PLNÁ
 62
     2
 10
35.7031939779
 20
57.3561216575
 30
0.0
 11
35.7031939779
 21
51.5826189656
 31
0.0
  0
LINE
  5
105
  8
VIDITELNE
  6
SLD-PLNÁ
 62
     2
 10
40.7031939779
 20
60.2428730035
 30
0.0
 11
35.7031939779
 21
57.3561216575
 31
0.0
  0
LINE
  5
106
  8
VIDITELNE
  6
SLD-PLNÁ
 62
     2
 10
5.0
 20
122.0826189656
 30
0.0
 11
5.0
 21
127.8561216575
 31
0.0
  0
LINE
  5
107
  8
VIDITELNE
  6
SLD-PLNÁ
 62
     2
 10
0.0
 20
119.1958676197
 30
0.0
 11
5.0
 21
122.0826189656
 31
0.0
  0
LINE
  5
108
  8
VIDITELNE
  6
SLD-PLNÁ
 62
     2
 10
-5.0
 20
127.8561216575
 30
0.0
 11
-5.0
 21
122.0826189656
 31
0.0
  0
LINE
  5
109
  8
VIDITELNE
  6
SLD-PLNÁ
 62
     2
 10
0.0
 20
130.7428730035
 30
0.0
 11
-5.0
 21
127.8561216575
 31
0.0
  0
LINE
  5
10A
  8
VIDITELNE
  6
SLD-PLNÁ
 62
     2
 10
-5.0
 20
122.0826189656
 30
0.0
 11
0.0
 21
119.1958676197
 31
0.0
  0
LINE
  5
10B
  8
VIDITELNE
  6
SLD-PLNÁ
 62
     2
 10
5.0
 20
127.8561216575
 30
0.0
 11
0.0
 21
130.7428730035
 31
0.0
  0
LINE
  5
10C
  8
VIDITELNE
  6
SLD-PLNÁ
 62
     2
 10
5.0
 20
28.0826189656
 30
0.0
 11
5.0
 21
33.8561216575
 31
0.0
  0
LINE
  5
10D
  8
VIDITELNE
  6
SLD-PLNÁ
 62
     2
 10
0.0
 20
25.1958676197
 30
0.0
 11
5.0
 21
28.0826189656
 31
0.0
  0
LINE
  5
10E
  8
VIDITELNE
  6
SLD-PLNÁ
 62
     2
 10
-5.0
 20
28.0826189656
 30
0.0
 11
0.0
 21
25.1958676197
 31
0.0
  0
LINE
  5
10F
  8
VIDITELNE
  6
SLD-PLNÁ
 62
     2
 10
-5.0
 20
33.8561216575
 30
0.0
 11
-5.0
 21
28.0826189656
 31
0.0
  0
LINE
  5
110
  8
VIDITELNE
  6
SLD-PLNÁ
 62
     2
 10
0.0
 20
36.7428730035
 30
0.0
 11
-5.0
 21
33.8561216575
 31
0.0
  0
LINE
  5
111
  8
VIDITELNE
  6
SLD-PLNÁ
 62
     2
 10
5.0
 20
33.8561216575
 30
0.0
 11
0.0
 21
36.7428730035
 31
0.0
  0
ARC
  5
112
  8
VIDITELNE
  6
SLD-PLNÁ
 62
     2
 10
0.0
 20
77.9693703116
 30
0.0
 40
52.28925629445185
 50
90.9322222308
 51
149.0677777692
  0
ARC
  5
113
  8
VIDITELNE
  6
SLD-PLNÁ
 62
     2
 10
0.0
 20
77.9693703116
 30
0.0
 40
52.28925629445185
 50
30.9322222308
 51
89.0677777692
  0
ARC
  5
114
  8
VIDITELNE
  6
SLD-PLNÁ
 62
     2
 10
0.0
 20
77.9693703116
 30
0.0
 40
52.28925629445185
 50
330.9322222308
 51
29.0677777692
  0
ARC
  5
115
  8
VIDITELNE
  6
SLD-PLNÁ
 62
     2
 10
0.0
 20
77.9693703116
 30
0.0
 40
52.28925629445184
 50
270.9322222308
 51
329.0677777692
  0
ARC
  5
116
  8
VIDITELNE
  6
SLD-PLNÁ
 62
     2
 10
0.0
 20
77.9693703116
 30
0.0
 40
52.28925629445185
 50
210.9322222308
 51
269.0677777692
  0
ARC
  5
117
  8
VIDITELNE
  6
SLD-PLNÁ
 62
     2
 10
0.0
 20
77.9693703116
 30
0.0
 40
52.28925629445185
 50
150.9322222308
 51
209.0677777692
  0
CIRCLE
  5
118
  8
VIDITELNE
  6
SLD-PLNÁ
 62
     2
 10
0.0
 20
77.9693703116
 30
0.0
 40
29.50000000000002
  0
CIRCLE
  5
119
  8
VIDITELNE
  6
SLD-PLNÁ
 62
     2
 10
0.0
 20
77.9693703116
 30
0.0
 40
54.28803794849005
  0
CIRCLE
  5
11A
  8
VIDITELNE
  6
SLD-PLNÁ
 62
     2
 10
0.0
 20
77.9693703116
 30
0.0
 40
28.00000000000001
  0
CIRCLE
  5
11B
  8
VIDITELNE
  6
SLD-PLNÁ
 62
     2
 10
0.0
 20
77.9693703116
 30
0.0
 40
54.50000000000002
  0
POLYLINE
  5
11C
  8
VIDITELNE
  6
SLD-PLNÁ
 62
     2
 66
     1
 10
0.0
 20
0.0
 30
0.0
  0
VERTEX
  5
717
  8
VIDITELNE
  6
SLD-PLNÁ
 62
     2
 10
5.5732464489
 20
139.0605863636
 30
0.0
  0
VERTEX
  5
718
  8
VIDITELNE
  6
SLD-PLNÁ
 62
     2
 10
5.6358630079
 20
138.7768439413
 30
0.0
  0
VERTEX
  5
719
  8
VIDITELNE
  6
SLD-PLNÁ
 62
     2
 10
5.6670268698
 20
138.1608097761
 30
0.0
  0
SEQEND
  5
71A
  8
VIDITELNE
  6
SLD-PLNÁ
 62
     2
  0
ARC
  5
11D
  8
VIDITELNE
  6
SLD-PLNÁ
 62
     2
 10
1.7794536146
 20
137.8576091744
 30
0.0
 40
3.899378978677239
 50
312.2096021851
 51
4.4595993524
  0
ARC
  5
11E
  8
VIDITELNE
  6
SLD-PLNÁ
 62
     2
 10
-1.8039323993
 20
137.8688020835
 30
0.0
 40
3.874112269662697
 50
175.6772829911
 51
228.45299946
  0
POLYLINE
  5
11F
  8
VIDITELNE
  6
SLD-PLNÁ
 62
     2
 66
     1
 10
0.0
 20
0.0
 30
0.0
  0
VERTEX
  5
71B
  8
VIDITELNE
  6
SLD-PLNÁ
 62
     2
 10
-5.6670240867
 20
138.1608097761
 30
0.0
  0
VERTEX
  5
71C
  8
VIDITELNE
  6
SLD-PLNÁ
 62
     2
 10
-5.5861688288
 20
139.1126101684
 30
0.0
  0
VERTEX
  5
71D
  8
VIDITELNE
  6
SLD-PLNÁ
 62
     2
 10
-5.4729870912
 20
139.470866044
 30
0.0
  0
SEQEND
  5
71E
  8
VIDITELNE
  6
SLD-PLNÁ
 62
     2
  0
ARC
  5
120
  8
VIDITELNE
  6
SLD-PLNÁ
 62
     2
 10
0.0
 20
169.9693703116
 30
0.0
 40
3.999999999999992
 50
90.0
 51
132.3271812592
  0
ARC
  5
121
  8
VIDITELNE
  6
SLD-PLNÁ
 62
     2
 10
0.0
 20
169.9693703116
 30
0.0
 40
3.999999999999983
 50
49.6226293363
 51
90.0
  0
CIRCLE
  5
122
  8
VIDITELNE
  6
SLD-PLNÁ
 62
     2
 10
0.0
 20
77.9693703116
 30
0.0
 40
5.850000000000022
  0
CIRCLE
  5
123
  8
VIDITELNE
  6
SLD-PLNÁ
 62
     2
 10
0.0
 20
77.9693703116
 30
0.0
 40
6.599999999999994
  0
CIRCLE
  5
124
  8
VIDITELNE
  6
SLD-PLNÁ
 62
     2
 10
0.0
 20
77.9693703116
 30
0.0
 40
17.50000000000013
  0
CIRCLE
  5
125
  8
VIDITELNE
  6
SLD-PLNÁ
 62
     2
 10
0.0
 20
77.9693703116
 30
0.0
 40
19.0
  0
CIRCLE
  5
126
  8
VIDITELNE
  6
SLD-PLNÁ
 62
     2
 10
0.0
 20
77.9693703116
 30
0.0
 40
4.199999999999996
  0
CIRCLE
  5
127
  8
VIDITELNE
  6
SLD-PLNÁ
 62
     2
 10
0.0
 20
77.9693703116
 30
0.0
 40
3.399999999999993
  0
LINE
  5
128
  8
VIDITELNE
  6
SLD-PLNÁ
 62
     2
 10
5.0
 20
100.2693703116
 30
0.0
 11
5.0
 21
96.2996730914
 31
0.0
  0
LINE
  5
129
  8
VIDITELNE
  6
SLD-PLNÁ
 62
     2
 10
-5.0
 20
100.2693703116
 30
0.0
 11
-5.0
 21
96.2996730914
 31
0.0
  0
LINE
  5
12A
  8
VIDITELNE
  6
SLD-PLNÁ
 62
     2
 10
-5.0
 20
100.2693703116
 30
0.0
 11
5.0
 21
100.2693703116
 31
0.0
  0
ARC
  5
12B
  8
VIDITELNE
  6
SLD-PLNÁ
 62
     2
 10
0.0
 20
77.9693703116
 30
0.0
 40
20.0
 50
104.4775121859
 51
0.0
  0
ARC
  5
12C
  8
VIDITELNE
  6
SLD-PLNÁ
 62
     2
 10
0.0
 20
77.9693703116
 30
0.0
 40
20.0
 50
0.0
 51
75.5224878141
  0
CIRCLE
  5
12D
  8
VIDITELNE
  6
SLD-PLNÁ
 62
     2
 10
0.0
 20
77.9693703116
 30
0.0
 40
55.0
  0
ARC
  5
12E
  8
VIDITELNE
  6
SLD-PLNÁ
 62
     2
 10
-54.7841805845
 20
77.8534464788
 30
0.0
 40
109.7842417879423
 50
349.0465528217
 51
0.0605000088
  0
LINE
  5
12F
  8
VIDITELNE
  6
SLD-PLNÁ
 62
     2
 10
51.1403508772
 20
57.7291995574
 30
0.0
 11
53.0
 21
56.9931933482
 31
0.0
  0
LINE
  5
130
  8
VIDITELNE
  6
SLD-PLNÁ
 62
     2
 10
-51.1403508772
 20
57.7291995574
 30
0.0
 11
-53.0
 21
56.9931933482
 31
0.0
  0
ARC
  5
131
  8
VIDITELNE
  6
SLD-PLNÁ
 62
     2
 10
54.7841805844
 20
77.8534464788
 30
0.0
 40
109.7842417878252
 50
179.9394999912
 51
190.9534471783
  0
ARC
  5
132
  8
VIDITELNE
  6
SLD-PLNÁ
 62
     2
 10
0.0
 20
77.9693703116
 30
0.0
 40
57.00000000000001
 50
201.5925161782
 51
338.4074838218
  0
LINE
  5
133
  8
VIDITELNE
  6
SLD-PLNÁ
 62
     2
 10
-53.0
 20
56.9931933482
 30
0.0
 11
-53.0
 21
-42.0306296884
 31
0.0
  0
ARC
  5
134
  8
VIDITELNE
  6
SLD-PLNÁ
 62
     2
 10
406.5163259312
 20
2.9063684051
 30
0.0
 40
461.7083360683529
 50
181.6524598005
 51
185.5853066594
  0
LINE
  5
135
  8
VIDITELNE
  6
SLD-PLNÁ
 62
     2
 10
-55.0
 20
-10.4078530868
 30
0.0
 11
-55.0
 21
77.9693703116
 31
0.0
  0
ARC
  5
136
  8
VIDITELNE
  6
SLD-PLNÁ
 62
     2
 10
-56.531000062
 20
-8.524305893
 30
0.0
 40
2.427284742432331
 50
258.8592408081
 51
309.1051800945
  0
POLYLINE
  5
137
  8
VIDITELNE
  6
SLD-PLNÁ
 62
     2
 66
     1
 10
0.0
 20
0.0
 30
0.0
  0
VERTEX
  5
71F
  8
VIDITELNE
  6
SLD-PLNÁ
 62
     2
 10
-53.0
 20
-42.0306296884
 30
0.0
  0
VERTEX
  5
720
  8
VIDITELNE
  6
SLD-PLNÁ
 62
     2
 10
-53.0125475578
 20
-41.9610411238
 30
0.0
  0
VERTEX
  5
721
  8
VIDITELNE
  6
SLD-PLNÁ
 62
     2
 10
-55.0388819987
 20
-30.3191717045
 30
0.0
  0
VERTEX
  5
722
  8
VIDITELNE
  6
SLD-PLNÁ
 62
     2
 10
-55.917725463
 20
-24.4490972781
 30
0.0
  0
VERTEX
  5
723
  8
VIDITELNE
  6
SLD-PLNÁ
 62
     2
 10
-56.597986477
 20
-18.5936778876
 30
0.0
  0
VERTEX
  5
724
  8
VIDITELNE
  6
SLD-PLNÁ
 62
     2
 10
-57.0
 20
-10.9058495687
 30
0.0
  0
SEQEND
  5
725
  8
VIDITELNE
  6
SLD-PLNÁ
 62
     2
  0
LINE
  5
138
  8
VIDITELNE
  6
SLD-PLNÁ
 62
     2
 10
55.0
 20
77.9693703116
 30
0.0
 11
55.0
 21
-10.4078530868
 31
0.0
  0
ARC
  5
139
  8
VIDITELNE
  6
SLD-PLNÁ
 62
     2
 10
-406.3888040549
 20
2.8983032135
 30
0.0
 40
461.5806346703216
 50
354.4141490939
 51
358.3480844461
  0
LINE
  5
13A
  8
VIDITELNE
  6
SLD-PLNÁ
 62
     2
 10
53.0
 20
-42.0306296884
 30
0.0
 11
53.0
 21
56.9931933482
 31
0.0
  0
LINE
  5
13B
  8
VIDITELNE
  6
SLD-PLNÁ
 62
     2
 10
53.0
 20
-42.0306296884
 30
0.0
 11
-53.0
 21
-42.0306296884
 31
0.0
  0
ARC
  5
13C
  8
VIDITELNE
  6
SLD-PLNÁ
 62
     2
 10
56.531000062
 20
-8.524305893
 30
0.0
 40
2.42728474243217
 50
230.8948199055
 51
281.1407591919
  0
POLYLINE
  5
13D
  8
VIDITELNE
  6
SLD-PLNÁ
 62
     2
 66
     1
 10
0.0
 20
0.0
 30
0.0
  0
VERTEX
  5
726
  8
VIDITELNE
  6
SLD-PLNÁ
 62
     2
 10
57.0
 20
-10.9058495687
 30
0.0
  0
VERTEX
  5
727
  8
VIDITELNE
  6
SLD-PLNÁ
 62
     2
 10
56.597986477
 20
-18.5936778876
 30
0.0
  0
VERTEX
  5
728
  8
VIDITELNE
  6
SLD-PLNÁ
 62
     2
 10
55.9259467632
 20
-24.3880321598
 30
0.0
  0
VERTEX
  5
729
  8
VIDITELNE
  6
SLD-PLNÁ
 62
     2
 10
55.0586030129
 20
-30.1968124068
 30
0.0
  0
VERTEX
  5
72A
  8
VIDITELNE
  6
SLD-PLNÁ
 62
     2
 10
53.0125475578
 20
-41.9610411238
 30
0.0
  0
VERTEX
  5
72B
  8
VIDITELNE
  6
SLD-PLNÁ
 62
     2
 10
53.0
 20
-42.0306296884
 30
0.0
  0
SEQEND
  5
72C
  8
VIDITELNE
  6
SLD-PLNÁ
 62
     2
  0
LINE
  5
13E
  8
VIDITELNE
  6
SLD-PLNÁ
 62
     2
 10
-58.0
 20
82.9693703116
 30
0.0
 11
-58.0
 21
-167.0306296884
 31
0.0
  0
LINE
  5
13F
  8
VIDITELNE
  6
SLD-PLNÁ
 62
     2
 10
-57.0
 20
-10.9058495687
 30
0.0
 11
-57.0
 21
76.079606532
 31
0.0
  0
LINE
  5
140
  8
VIDITELNE
  6
SLD-PLNÁ
 62
     2
 10
57.0
 20
76.079606532
 30
0.0
 11
57.0
 21
-10.9058495687
 31
0.0
  0
ARC
  5
141
  8
VIDITELNE
  6
SLD-PLNÁ
 62
     2
 10
-56.9464008928
 20
78.0260960334
 30
0.0
 40
1.947227321863479
 50
268.4226851541
 51
358.3306497957
  0
ARC
  5
142
  8
VIDITELNE
  6
SLD-PLNÁ
 62
     2
 10
56.9464008928
 20
78.0260960334
 30
0.0
 40
1.947227321863424
 50
181.6693502043
 51
271.5773148459
  0
LINE
  5
143
  8
VIDITELNE
  6
SLD-PLNÁ
 62
     2
 10
0.0
 20
134.9693703116
 30
0.0
 11
9.5
 21
134.9693703116
 31
0.0
  0
LINE
  5
144
  8
VIDITELNE
  6
SLD-PLNÁ
 62
     2
 10
-9.5
 20
134.9693703116
 30
0.0
 11
0.0
 21
134.9693703116
 31
0.0
  0
LINE
  5
145
  8
VIDITELNE
  6
SLD-PLNÁ
 62
     2
 10
-86.0
 20
-42.0306296884
 30
0.0
 11
-86.0
 21
-11.5306296884
 31
0.0
  0
LINE
  5
146
  8
VIDITELNE
  6
SLD-PLNÁ
 62
     2
 10
-86.0
 20
-72.5306296884
 30
0.0
 11
-86.0
 21
-42.0306296884
 31
0.0
  0
LINE
  5
147
  8
VIDITELNE
  6
SLD-PLNÁ
 62
     2
 10
86.0
 20
-11.5306296884
 30
0.0
 11
86.0
 21
-72.5306296884
 31
0.0
  0
LINE
  5
148
  8
VIDITELNE
  6
SLD-PLNÁ
 62
     2
 10
0.0
 20
-170.0306296884
 30
0.0
 11
15.0
 21
-170.0306296884
 31
0.0
  0
LINE
  5
149
  8
VIDITELNE
  6
SLD-PLNÁ
 62
     2
 10
-15.0
 20
-170.0306296884
 30
0.0
 11
0.0
 21
-170.0306296884
 31
0.0
  0
LINE
  5
14A
  8
VIDITELNE
  6
SLD-PLNÁ
 62
     2
 10
9.5
 20
-174.0306296884
 30
0.0
 11
-9.5
 21
-174.0306296884
 31
0.0
  0
LINE
  5
14B
  8
VIDITELNE
  6
SLD-PLNÁ
 62
     2
 10
-78.0
 20
-42.0306296884
 30
0.0
 11
-78.0
 21
-50.0306296884
 31
0.0
  0
LINE
  5
14C
  8
VIDITELNE
  6
SLD-PLNÁ
 62
     2
 10
-78.0
 20
-34.0306296884
 30
0.0
 11
-78.0
 21
-42.0306296884
 31
0.0
  0
LINE
  5
14D
  8
VIDITELNE
  6
SLD-PLNÁ
 62
     2
 10
-78.0
 20
-123.3479095249
 30
0.0
 11
-78.0
 21
-131.3479095249
 31
0.0
  0
LINE
  5
14E
  8
VIDITELNE
  6
SLD-PLNÁ
 62
     2
 10
-78.0
 20
-115.3479095249
 30
0.0
 11
-78.0
 21
-123.3479095249
 31
0.0
  0
LINE
  5
14F
  8
VIDITELNE
  6
SLD-PLNÁ
 62
     2
 10
-78.0
 20
39.286650148
 30
0.0
 11
-78.0
 21
31.286650148
 31
0.0
  0
LINE
  5
150
  8
VIDITELNE
  6
SLD-PLNÁ
 62
     2
 10
-78.0
 20
47.286650148
 30
0.0
 11
-78.0
 21
39.286650148
 31
0.0
  0
LINE
  5
151
  8
VIDITELNE
  6
SLD-PLNÁ
 62
     2
 10
-78.0
 20
-157.0306296884
 30
0.0
 11
-78.0
 21
-165.0306296884
 31
0.0
  0
LINE
  5
152
  8
VIDITELNE
  6
SLD-PLNÁ
 62
     2
 10
-78.0
 20
-149.0306296884
 30
0.0
 11
-78.0
 21
-157.0306296884
 31
0.0
  0
LINE
  5
153
  8
VIDITELNE
  6
SLD-PLNÁ
 62
     2
 10
-78.0
 20
72.9693703116
 30
0.0
 11
-78.0
 21
64.9693703116
 31
0.0
  0
LINE
  5
154
  8
VIDITELNE
  6
SLD-PLNÁ
 62
     2
 10
-78.0
 20
80.9693703116
 30
0.0
 11
-78.0
 21
72.9693703116
 31
0.0
  0
LINE
  5
155
  8
VIDITELNE
  6
SLD-PLNÁ
 62
     2
 10
78.0
 20
-50.0306296884
 30
0.0
 11
78.0
 21
-34.0306296884
 31
0.0
  0
LINE
  5
156
  8
VIDITELNE
  6
SLD-PLNÁ
 62
     2
 10
78.0
 20
31.286650148
 30
0.0
 11
78.0
 21
47.286650148
 31
0.0
  0
LINE
  5
157
  8
VIDITELNE
  6
SLD-PLNÁ
 62
     2
 10
78.0
 20
-131.3479095249
 30
0.0
 11
78.0
 21
-115.3479095249
 31
0.0
  0
LINE
  5
158
  8
VIDITELNE
  6
SLD-PLNÁ
 62
     2
 10
78.0
 20
-165.0306296884
 30
0.0
 11
78.0
 21
-149.0306296884
 31
0.0
  0
LINE
  5
159
  8
VIDITELNE
  6
SLD-PLNÁ
 62
     2
 10
78.0
 20
64.9693703116
 30
0.0
 11
78.0
 21
80.9693703116
 31
0.0
  0
LINE
  5
15A
  8
VIDITELNE
  6
SLD-PLNÁ
 62
     2
 10
10.2319551923
 20
138.1608097761
 30
0.0
 11
5.6670268698
 21
138.1608097761
 31
0.0
  0
LINE
  5
15B
  8
VIDITELNE
  6
SLD-PLNÁ
 62
     2
 10
-5.6670240867
 20
138.1608097761
 30
0.0
 11
-10.2319551923
 21
138.1608097761
 31
0.0
  0
LINE
  5
15C
  8
VIDITELNE
  6
SLD-PLNÁ
 62
     2
 10
7.7984764662
 20
140.5942885021
 30
0.0
 11
5.5556711765
 21
140.5942885021
 31
0.0
  0
LINE
  5
15D
  8
VIDITELNE
  6
SLD-PLNÁ
 62
     2
 10
-5.5967747917
 20
140.5942885021
 30
0.0
 11
-7.7984764662
 21
140.5942885021
 31
0.0
  0
ARC
  5
15E
  8
VIDITELNE
  6
SLD-PLNÁ
 62
     2
 10
0.0
 20
77.9693703116
 30
0.0
 40
19.5
 50
0.0
 51
75.1428344551
  0
ARC
  5
15F
  8
VIDITELNE
  6
SLD-PLNÁ
 62
     2
 10
0.0
 20
77.9693703116
 30
0.0
 40
19.5
 50
104.8571655449
 51
0.0
  0
ARC
  5
160
  8
VIDITELNE
  6
SLD-PLNÁ
 62
     2
 10
-3.2756539631
 20
76.1734738277
 30
0.0
 40
53.72442803939484
 50
172.7486732488
 51
180.1001072102
  0
POLYLINE
  5
161
  8
VIDITELNE
  6
SLD-PLNÁ
 62
     2
 66
     1
 10
0.0
 20
0.0
 30
0.0
  0
VERTEX
  5
72D
  8
VIDITELNE
  6
SLD-PLNÁ
 62
     2
 10
56.5703954845
 20
82.954675368
 30
0.0
  0
VERTEX
  5
72E
  8
VIDITELNE
  6
SLD-PLNÁ
 62
     2
 10
56.5686062799
 20
82.9688629495
 30
0.0
  0
VERTEX
  5
72F
  8
VIDITELNE
  6
SLD-PLNÁ
 62
     2
 10
56.6242572381
 20
82.5238130553
 30
0.0
  0
VERTEX
  5
730
  8
VIDITELNE
  6
SLD-PLNÁ
 62
     2
 10
56.7571835531
 20
81.2525145675
 30
0.0
  0
VERTEX
  5
731
  8
VIDITELNE
  6
SLD-PLNÁ
 62
     2
 10
56.9192434427
 20
79.0905966406
 30
0.0
  0
VERTEX
  5
732
  8
VIDITELNE
  6
SLD-PLNÁ
 62
     2
 10
57.0
 20
76.079606532
 30
0.0
  0
SEQEND
  5
733
  8
VIDITELNE
  6
SLD-PLNÁ
 62
     2
  0
ARC
  5
162
  8
VIDITELNE
  6
SLD-PLNÁ
 62
     2
 10
-0.0857815544
 20
-296.2122464906
 30
0.0
 40
130.3065842298865
 50
82.4873545902
 51
89.9622818646
  0
ARC
  5
163
  8
VIDITELNE
  6
SLD-PLNÁ
 62
     2
 10
0.088584611
 20
-296.2581440699
 30
0.0
 40
130.3524836740708
 50
90.0389369238
 51
97.5326349277
  0
LINE
  5
164
  8
VIDITELNE
  6
SLD-PLNÁ
 62
     2
 10
0.0
 20
133.9693703116
 30
0.0
 11
-10.5
 21
133.9693703116
 31
0.0
  0
LINE
  5
165
  8
VIDITELNE
  6
SLD-PLNÁ
 62
     2
 10
10.5
 20
133.9693703116
 30
0.0
 11
0.0
 21
133.9693703116
 31
0.0
  0
ARC
  5
166
  8
VIDITELNE
  6
SLD-PLNÁ
 62
     2
 10
0.0952242976
 20
-268.139379447
 30
0.0
 40
100.2517332026703
 50
90.0544225123
 51
98.6598773543
  0
ARC
  5
167
  8
VIDITELNE
  6
SLD-PLNÁ
 62
     2
 10
-0.0913424496
 20
-268.0983319672
 30
0.0
 40
100.2106821278624
 50
81.3652800788
 51
89.9477746537
  0
LINE
  5
168
  8
VIDITELNE
  6
SLD-PLNÁ
 62
     2
 10
-10.5
 20
-173.0306296884
 30
0.0
 11
10.5
 21
-173.0306296884
 31
0.0
  0
LINE
  5
169
  8
VIDITELNE
  6
SLD-PLNÁ
 62
     2
 10
858.0
 20
-167.0306296884
 30
0.0
 11
869.0
 21
-166.646501224
 31
0.0
  0
LINE
  5
16A
  8
VIDITELNE
  6
SLD-PLNÁ
 62
     2
 10
869.0
 20
82.5852418472
 30
0.0
 11
858.0
 21
82.9693703116
 31
0.0
  0
ARC
  5
16B
  8
VIDITELNE
  6
SLD-PLNÁ
 62
     2
 10
878.0
 20
-35.0306296884
 30
0.0
 40
1.0
 50
0.0
 51
90.0
  0
ARC
  5
16C
  8
VIDITELNE
  6
SLD-PLNÁ
 62
     2
 10
878.0
 20
-49.0306296884
 30
0.0
 40
0.9999999999999929
 50
270.0
 51
0.0
  0
LINE
  5
16D
  8
VIDITELNE
  6
SLD-PLNÁ
 62
     2
 10
869.0
 20
-50.0306296884
 30
0.0
 11
878.0
 21
-50.0306296884
 31
0.0
  0
LINE
  5
16E
  8
VIDITELNE
  6
SLD-PLNÁ
 62
     2
 10
878.0
 20
-34.0306296884
 30
0.0
 11
869.0
 21
-34.0306296884
 31
0.0
  0
ARC
  5
16F
  8
VIDITELNE
  6
SLD-PLNÁ
 62
     2
 10
878.0
 20
46.286650148
 30
0.0
 40
1.000000000000007
 50
0.0
 51
90.0
  0
ARC
  5
170
  8
VIDITELNE
  6
SLD-PLNÁ
 62
     2
 10
878.0
 20
32.286650148
 30
0.0
 40
1.000000000000004
 50
270.0
 51
0.0
  0
LINE
  5
171
  8
VIDITELNE
  6
SLD-PLNÁ
 62
     2
 10
869.0
 20
31.286650148
 30
0.0
 11
878.0
 21
31.286650148
 31
0.0
  0
LINE
  5
172
  8
VIDITELNE
  6
SLD-PLNÁ
 62
     2
 10
878.0
 20
47.286650148
 30
0.0
 11
869.0
 21
47.286650148
 31
0.0
  0
ARC
  5
173
  8
VIDITELNE
  6
SLD-PLNÁ
 62
     2
 10
878.0
 20
-116.3479095249
 30
0.0
 40
1.0
 50
0.0
 51
90.0
  0
ARC
  5
174
  8
VIDITELNE
  6
SLD-PLNÁ
 62
     2
 10
878.0
 20
-130.3479095249
 30
0.0
 40
1.0
 50
270.0
 51
0.0
  0
LINE
  5
175
  8
VIDITELNE
  6
SLD-PLNÁ
 62
     2
 10
869.0
 20
-131.3479095249
 30
0.0
 11
878.0
 21
-131.3479095249
 31
0.0
  0
LINE
  5
176
  8
VIDITELNE
  6
SLD-PLNÁ
 62
     2
 10
878.0
 20
-115.3479095249
 30
0.0
 11
869.0
 21
-115.3479095249
 31
0.0
  0
LINE
  5
177
  8
VIDITELNE
  6
SLD-PLNÁ
 62
     2
 10
884.0
 20
22.9693703116
 30
0.0
 11
880.5
 21
22.9693703116
 31
0.0
  0
LINE
  5
178
  8
VIDITELNE
  6
SLD-PLNÁ
 62
     2
 10
880.5
 20
-107.0306296884
 30
0.0
 11
884.0
 21
-107.0306296884
 31
0.0
  0
LINE
  5
179
  8
VIDITELNE
  6
SLD-PLNÁ
 62
     2
 10
876.8731240234
 20
-139.1246075099
 30
0.0
 11
880.5
 21
-137.0306296884
 31
0.0
  0
LINE
  5
17A
  8
VIDITELNE
  6
SLD-PLNÁ
 62
     2
 10
880.5
 20
52.9693703116
 30
0.0
 11
876.8731240234
 21
55.063348133
 31
0.0
  0
LINE
  5
17B
  8
VIDITELNE
  6
SLD-PLNÁ
 62
     2
 10
869.0
 20
-165.0306296884
 30
0.0
 11
878.0
 21
-165.0306296884
 31
0.0
  0
LINE
  5
17C
  8
VIDITELNE
  6
SLD-PLNÁ
 62
     2
 10
878.0
 20
-149.0306296884
 30
0.0
 11
872.3094140097
 21
-149.0306296884
 31
0.0
  0
ARC
  5
17D
  8
VIDITELNE
  6
SLD-PLNÁ
 62
     2
 10
878.0
 20
-150.0306296884
 30
0.0
 40
1.0
 50
0.0
 51
90.0
  0
ARC
  5
17E
  8
VIDITELNE
  6
SLD-PLNÁ
 62
     2
 10
878.0
 20
-164.0306296884
 30
0.0
 40
1.0
 50
270.0
 51
0.0
  0
LINE
  5
17F
  8
VIDITELNE
  6
SLD-PLNÁ
 62
     2
 10
872.3094140097
 20
64.9693703116
 30
0.0
 11
878.0
 21
64.9693703116
 31
0.0
  0
LINE
  5
180
  8
VIDITELNE
  6
SLD-PLNÁ
 62
     2
 10
878.0
 20
80.9693703116
 30
0.0
 11
869.0
 21
80.9693703116
 31
0.0
  0
ARC
  5
181
  8
VIDITELNE
  6
SLD-PLNÁ
 62
     2
 10
878.0
 20
79.9693703116
 30
0.0
 40
1.0
 50
0.0
 51
90.0
  0
ARC
  5
182
  8
VIDITELNE
  6
SLD-PLNÁ
 62
     2
 10
878.0
 20
65.9693703116
 30
0.0
 40
1.0
 50
270.0
 51
0.0
  0
LINE
  5
183
  8
VIDITELNE
  6
SLD-PLNÁ
 62
     2
 10
742.0
 20
82.9693703116
 30
0.0
 11
731.0
 21
82.5852418472
 31
0.0
  0
LINE
  5
184
  8
VIDITELNE
  6
SLD-PLNÁ
 62
     2
 10
731.0
 20
-166.646501224
 30
0.0
 11
742.0
 21
-167.0306296884
 31
0.0
  0
LINE
  5
185
  8
VIDITELNE
  6
SLD-PLNÁ
 62
     2
 10
731.0
 20
-34.0306296884
 30
0.0
 11
722.0
 21
-34.0306296884
 31
0.0
  0
LINE
  5
186
  8
VIDITELNE
  6
SLD-PLNÁ
 62
     2
 10
722.0
 20
-50.0306296884
 30
0.0
 11
731.0
 21
-50.0306296884
 31
0.0
  0
ARC
  5
187
  8
VIDITELNE
  6
SLD-PLNÁ
 62
     2
 10
722.0
 20
-49.0306296884
 30
0.0
 40
1.0
 50
180.0
 51
270.0
  0
ARC
  5
188
  8
VIDITELNE
  6
SLD-PLNÁ
 62
     2
 10
722.0
 20
-35.0306296884
 30
0.0
 40
1.0
 50
90.0
 51
180.0
  0
ARC
  5
189
  8
VIDITELNE
  6
SLD-PLNÁ
 62
     2
 10
722.0
 20
-130.3479095249
 30
0.0
 40
1.0
 50
180.0
 51
270.0
  0
ARC
  5
18A
  8
VIDITELNE
  6
SLD-PLNÁ
 62
     2
 10
722.0
 20
-116.3479095249
 30
0.0
 40
1.0
 50
90.0
 51
180.0
  0
ARC
  5
18B
  8
VIDITELNE
  6
SLD-PLNÁ
 62
     2
 10
722.0
 20
32.286650148
 30
0.0
 40
1.000000000000004
 50
180.0
 51
270.0
  0
ARC
  5
18C
  8
VIDITELNE
  6
SLD-PLNÁ
 62
     2
 10
722.0
 20
46.286650148
 30
0.0
 40
1.0
 50
90.0
 51
180.0
  0
LINE
  5
18D
  8
VIDITELNE
  6
SLD-PLNÁ
 62
     2
 10
731.0
 20
47.286650148
 30
0.0
 11
722.0
 21
47.286650148
 31
0.0
  0
LINE
  5
18E
  8
VIDITELNE
  6
SLD-PLNÁ
 62
     2
 10
722.0
 20
31.286650148
 30
0.0
 11
731.0
 21
31.286650148
 31
0.0
  0
LINE
  5
18F
  8
VIDITELNE
  6
SLD-PLNÁ
 62
     2
 10
731.0
 20
-115.3479095249
 30
0.0
 11
722.0
 21
-115.3479095249
 31
0.0
  0
LINE
  5
190
  8
VIDITELNE
  6
SLD-PLNÁ
 62
     2
 10
722.0
 20
-131.3479095249
 30
0.0
 11
731.0
 21
-131.3479095249
 31
0.0
  0
LINE
  5
191
  8
VIDITELNE
  6
SLD-PLNÁ
 62
     2
 10
716.0
 20
-107.0306296884
 30
0.0
 11
719.5
 21
-107.0306296884
 31
0.0
  0
LINE
  5
192
  8
VIDITELNE
  6
SLD-PLNÁ
 62
     2
 10
719.5
 20
22.9693703116
 30
0.0
 11
716.0
 21
22.9693703116
 31
0.0
  0
LINE
  5
193
  8
VIDITELNE
  6
SLD-PLNÁ
 62
     2
 10
723.1268759766
 20
55.063348133
 30
0.0
 11
719.5
 21
52.9693703116
 31
0.0
  0
LINE
  5
194
  8
VIDITELNE
  6
SLD-PLNÁ
 62
     2
 10
719.5
 20
-137.0306296884
 30
0.0
 11
723.1268759766
 21
-139.1246075099
 31
0.0
  0
ARC
  5
195
  8
VIDITELNE
  6
SLD-PLNÁ
 62
     2
 10
722.0
 20
-164.0306296884
 30
0.0
 40
1.0
 50
180.0
 51
270.0
  0
ARC
  5
196
  8
VIDITELNE
  6
SLD-PLNÁ
 62
     2
 10
722.0
 20
-150.0306296884
 30
0.0
 40
1.0
 50
90.0
 51
180.0
  0
LINE
  5
197
  8
VIDITELNE
  6
SLD-PLNÁ
 62
     2
 10
727.6905859903
 20
-149.0306296884
 30
0.0
 11
722.0
 21
-149.0306296884
 31
0.0
  0
LINE
  5
198
  8
VIDITELNE
  6
SLD-PLNÁ
 62
     2
 10
722.0
 20
-165.0306296884
 30
0.0
 11
731.0
 21
-165.0306296884
 31
0.0
  0
ARC
  5
199
  8
VIDITELNE
  6
SLD-PLNÁ
 62
     2
 10
722.0
 20
65.9693703116
 30
0.0
 40
1.0
 50
180.0
 51
270.0
  0
ARC
  5
19A
  8
VIDITELNE
  6
SLD-PLNÁ
 62
     2
 10
722.0
 20
79.9693703116
 30
0.0
 40
1.0
 50
90.0
 51
180.0
  0
LINE
  5
19B
  8
VIDITELNE
  6
SLD-PLNÁ
 62
     2
 10
731.0
 20
80.9693703116
 30
0.0
 11
722.0
 21
80.9693703116
 31
0.0
  0
LINE
  5
19C
  8
VIDITELNE
  6
SLD-PLNÁ
 62
     2
 10
722.0
 20
64.9693703116
 30
0.0
 11
727.6905859903
 21
64.9693703116
 31
0.0
  0
POLYLINE
  5
19D
  8
VIDITELNE
  6
SLD-PLNÁ
 62
     2
 66
     1
 10
0.0
 20
0.0
 30
0.0
  0
VERTEX
  5
734
  8
VIDITELNE
  6
SLD-PLNÁ
 62
     2
 10
805.4965663235
 20
139.4821262072
 30
0.0
  0
VERTEX
  5
735
  8
VIDITELNE
  6
SLD-PLNÁ
 62
     2
 10
805.4989132655
 20
140.2883003109
 30
0.0
  0
VERTEX
  5
736
  8
VIDITELNE
  6
SLD-PLNÁ
 62
     2
 10
805.4629457425
 20
141.4565908545
 30
0.0
  0
VERTEX
  5
737
  8
VIDITELNE
  6
SLD-PLNÁ
 62
     2
 10
805.4074947443
 20
142.795849303
 30
0.0
  0
VERTEX
  5
738
  8
VIDITELNE
  6
SLD-PLNÁ
 62
     2
 10
805.3456105008
 20
144.211022414
 30
0.0
  0
VERTEX
  5
739
  8
VIDITELNE
  6
SLD-PLNÁ
 62
     2
 10
805.2853262406
 20
145.6223434705
 30
0.0
  0
VERTEX
  5
73A
  8
VIDITELNE
  6
SLD-PLNÁ
 62
     2
 10
805.1679915233
 20
148.5421500319
 30
0.0
  0
VERTEX
  5
73B
  8
VIDITELNE
  6
SLD-PLNÁ
 62
     2
 10
805.0513084054
 20
151.5999290087
 30
0.0
  0
VERTEX
  5
73C
  8
VIDITELNE
  6
SLD-PLNÁ
 62
     2
 10
804.9415346167
 20
154.5258795556
 30
0.0
  0
VERTEX
  5
73D
  8
VIDITELNE
  6
SLD-PLNÁ
 62
     2
 10
804.8373493163
 20
157.2697390442
 30
0.0
  0
VERTEX
  5
73E
  8
VIDITELNE
  6
SLD-PLNÁ
 62
     2
 10
804.7212060487
 20
160.1948314984
 30
0.0
  0
VERTEX
  5
73F
  8
VIDITELNE
  6
SLD-PLNÁ
 62
     2
 10
804.5982264029
 20
163.0355099462
 30
0.0
  0
VERTEX
  5
740
  8
VIDITELNE
  6
SLD-PLNÁ
 62
     2
 10
804.5205136478
 20
164.6478465886
 30
0.0
  0
VERTEX
  5
741
  8
VIDITELNE
  6
SLD-PLNÁ
 62
     2
 10
804.4462149658
 20
166.0311636816
 30
0.0
  0
VERTEX
  5
742
  8
VIDITELNE
  6
SLD-PLNÁ
 62
     2
 10
804.3438292241
 20
167.553868466
 30
0.0
  0
VERTEX
  5
743
  8
VIDITELNE
  6
SLD-PLNÁ
 62
     2
 10
804.1844227782
 20
169.0108723896
 30
0.0
  0
VERTEX
  5
744
  8
VIDITELNE
  6
SLD-PLNÁ
 62
     2
 10
803.874174853
 20
170.5976586379
 30
0.0
  0
VERTEX
  5
745
  8
VIDITELNE
  6
SLD-PLNÁ
 62
     2
 10
803.3320236952
 20
172.0843480018
 30
0.0
  0
VERTEX
  5
746
  8
VIDITELNE
  6
SLD-PLNÁ
 62
     2
 10
802.5151621247
 20
173.07966925
 30
0.0
  0
SEQEND
  5
747
  8
VIDITELNE
  6
SLD-PLNÁ
 62
     2
  0
POLYLINE
  5
19E
  8
VIDITELNE
  6
SLD-PLNÁ
 62
     2
 66
     1
 10
0.0
 20
0.0
 30
0.0
  0
VERTEX
  5
748
  8
VIDITELNE
  6
SLD-PLNÁ
 62
     2
 10
797.486156296
 20
173.0807349369
 30
0.0
  0
VERTEX
  5
749
  8
VIDITELNE
  6
SLD-PLNÁ
 62
     2
 10
796.4191530504
 20
171.681311692
 30
0.0
  0
VERTEX
  5
74A
  8
VIDITELNE
  6
SLD-PLNÁ
 62
     2
 10
795.8922896275
 20
169.8111823495
 30
0.0
  0
VERTEX
  5
74B
  8
VIDITELNE
  6
SLD-PLNÁ
 62
     2
 10
795.6761986548
 20
167.9114790107
 30
0.0
  0
VERTEX
  5
74C
  8
VIDITELNE
  6
SLD-PLNÁ
 62
     2
 10
795.5213062541
 20
165.4448308915
 30
0.0
  0
VERTEX
  5
74D
  8
VIDITELNE
  6
SLD-PLNÁ
 62
     2
 10
795.3638230753
 20
162.1931877671
 30
0.0
  0
VERTEX
  5
74E
  8
VIDITELNE
  6
SLD-PLNÁ
 62
     2
 10
795.2156820524
 20
158.629180405
 30
0.0
  0
VERTEX
  5
74F
  8
VIDITELNE
  6
SLD-PLNÁ
 62
     2
 10
795.0867118758
 20
155.2776517217
 30
0.0
  0
VERTEX
  5
750
  8
VIDITELNE
  6
SLD-PLNÁ
 62
     2
 10
794.9948828587
 20
152.8310527443
 30
0.0
  0
VERTEX
  5
751
  8
VIDITELNE
  6
SLD-PLNÁ
 62
     2
 10
794.9328172793
 20
151.1789727794
 30
0.0
  0
VERTEX
  5
752
  8
VIDITELNE
  6
SLD-PLNÁ
 62
     2
 10
794.8514470318
 20
149.043667719
 30
0.0
  0
VERTEX
  5
753
  8
VIDITELNE
  6
SLD-PLNÁ
 62
     2
 10
794.7541378341
 20
146.5810856135
 30
0.0
  0
VERTEX
  5
754
  8
VIDITELNE
  6
SLD-PLNÁ
 62
     2
 10
794.5996839162
 20
143.0077114242
 30
0.0
  0
VERTEX
  5
755
  8
VIDITELNE
  6
SLD-PLNÁ
 62
     2
 10
794.5214373987
 20
141.4045058532
 30
0.0
  0
VERTEX
  5
756
  8
VIDITELNE
  6
SLD-PLNÁ
 62
     2
 10
794.4540352491
 20
140.1179574803
 30
0.0
  0
VERTEX
  5
757
  8
VIDITELNE
  6
SLD-PLNÁ
 62
     2
 10
794.4084589003
 20
139.1980905197
 30
0.0
  0
VERTEX
  5
758
  8
VIDITELNE
  6
SLD-PLNÁ
 62
     2
 10
794.4055629571
 20
139.0727062811
 30
0.0
  0
SEQEND
  5
759
  8
VIDITELNE
  6
SLD-PLNÁ
 62
     2
  0
LINE
  5
19F
  8
VIDITELNE
  6
SLD-PLNÁ
 62
     2
 10
811.3563269083
 20
131.7841809045
 30
0.0
 11
810.2319551923
 21
138.1608097761
 31
0.0
  0
LINE
  5
1A0
  8
VIDITELNE
  6
SLD-PLNÁ
 62
     2
 10
789.7680448077
 20
138.1608097761
 30
0.0
 11
788.6436730917
 21
131.7841809045
 31
0.0
  0
ARC
  5
1A1
  8
VIDITELNE
  6
SLD-PLNÁ
 62
     2
 10
807.2775319332
 20
137.6398652431
 30
0.0
 40
3.000000000000101
 50
10.0
 51
80.0
  0
ARC
  5
1A2
  8
VIDITELNE
  6
SLD-PLNÁ
 62
     2
 10
792.7224680668
 20
137.6398652431
 30
0.0
 40
2.999999999999999
 50
100.0
 51
170.0
  0
LINE
  5
1A3
  8
VIDITELNE
  6
SLD-PLNÁ
 62
     2
 10
794.5002250262
 20
140.9996115959
 30
0.0
 11
792.2015235338
 21
140.5942885021
 31
0.0
  0
LINE
  5
1A4
  8
VIDITELNE
  6
SLD-PLNÁ
 62
     2
 10
807.7984764662
 20
140.5942885021
 30
0.0
 11
805.4768902843
 21
141.0036467841
 31
0.0
  0
LINE
  5
1A5
  8
VIDITELNE
  6
SLD-PLNÁ
 62
     2
 10
743.4296628631
 20
82.9693703116
 30
0.0
 11
742.0
 21
82.9693703116
 31
0.0
  0
LINE
  5
1A6
  8
VIDITELNE
  6
SLD-PLNÁ
 62
     2
 10
858.0
 20
82.9693703116
 30
0.0
 11
856.5703371369
 21
82.9693703116
 31
0.0
  0
LINE
  5
1A7
  8
VIDITELNE
  6
SLD-PLNÁ
 62
     2
 10
816.9994378438
 20
-167.0306296884
 30
0.0
 11
858.0
 21
-167.0306296884
 31
0.0
  0
LINE
  5
1A8
  8
VIDITELNE
  6
SLD-PLNÁ
 62
     2
 10
742.0
 20
-167.0306296884
 30
0.0
 11
783.0488465579
 21
-167.0306296884
 31
0.0
  0
ARC
  5
1A9
  8
VIDITELNE
  6
SLD-PLNÁ
 62
     2
 10
856.5333662873
 20
84.9164618214
 30
0.0
 40
1.94019514967275
 50
196.5318109862
 51
271.1756804181
  0
ARC
  5
1AA
  8
VIDITELNE
  6
SLD-PLNÁ
 62
     2
 10
743.5407969777
 20
84.8029943612
 30
0.0
 40
1.840868741148078
 50
266.5941680486
 51
346.2089404356
  0
ARC
  5
1AB
  8
VIDITELNE
  6
SLD-PLNÁ
 62
     2
 10
884.0
 20
-11.5306296884
 30
0.0
 40
2.000000000000002
 50
0.0
 51
90.0
  0
ARC
  5
1AC
  8
VIDITELNE
  6
SLD-PLNÁ
 62
     2
 10
884.0
 20
-72.5306296884
 30
0.0
 40
2.0
 50
270.0
 51
0.0
  0
ARC
  5
1AD
  8
VIDITELNE
  6
SLD-PLNÁ
 62
     2
 10
716.0
 20
-72.5306296884
 30
0.0
 40
2.0
 50
180.0
 51
270.0
  0
ARC
  5
1AE
  8
VIDITELNE
  6
SLD-PLNÁ
 62
     2
 10
716.0
 20
-11.5306296884
 30
0.0
 40
2.000000000000002
 50
90.0
 51
180.0
  0
ARC
  5
1AF
  8
VIDITELNE
  6
SLD-PLNÁ
 62
     2
 10
783.0
 20
-169.0306296884
 30
0.0
 40
2.000000000006139
 50
0.0
 51
89.9999999986
  0
ARC
  5
1B0
  8
VIDITELNE
  6
SLD-PLNÁ
 62
     2
 10
817.0
 20
-169.0306296884
 30
0.0
 40
1.999999999988205
 50
90.0000000003
 51
180.0000000004
  0
LINE
  5
1B1
  8
VIDITELNE
  6
SLD-PLNÁ
 62
     2
 10
785.0
 20
-169.0234783528
 30
0.0
 11
785.0
 21
-170.0306296884
 31
0.0
  0
LINE
  5
1B2
  8
VIDITELNE
  6
SLD-PLNÁ
 62
     2
 10
815.0
 20
-170.0306296884
 30
0.0
 11
815.0
 21
-169.0305533641
 31
0.0
  0
LINE
  5
1B3
  8
VIDITELNE
  6
SLD-PLNÁ
 62
     2
 10
789.5
 20
-170.0306296884
 30
0.0
 11
789.5
 21
-173.0306296884
 31
0.0
  0
LINE
  5
1B4
  8
VIDITELNE
  6
SLD-PLNÁ
 62
     2
 10
810.5
 20
-173.0306296884
 30
0.0
 11
810.5
 21
-170.0306296884
 31
0.0
  0
ARC
  5
1B5
  8
VIDITELNE
  6
SLD-PLNÁ
 62
     2
 10
809.5
 20
-173.0306296884
 30
0.0
 40
1.0
 50
270.0
 51
0.0
  0
ARC
  5
1B6
  8
VIDITELNE
  6
SLD-PLNÁ
 62
     2
 10
790.5
 20
-173.0306296884
 30
0.0
 40
1.0
 50
180.0
 51
270.0
  0
LINE
  5
1B7
  8
VIDITELNE
  6
SLD-PLNÁ
 62
     2
 10
869.0
 20
82.5852418472
 30
0.0
 11
869.0
 21
-166.646501224
 31
0.0
  0
LINE
  5
1B8
  8
VIDITELNE
  6
SLD-PLNÁ
 62
     2
 10
858.0
 20
82.9693703116
 30
0.0
 11
858.0
 21
-167.0306296884
 31
0.0
  0
LINE
  5
1B9
  8
VIDITELNE
  6
SLD-PLNÁ
 62
     2
 10
879.0
 20
-35.0306296884
 30
0.0
 11
879.0
 21
-49.0306296884
 31
0.0
  0
LINE
  5
1BA
  8
VIDITELNE
  6
SLD-PLNÁ
 62
     2
 10
880.5
 20
-2.0124257526
 30
0.0
 11
869.0
 21
8.3271664471
 31
0.0
  0
LINE
  5
1BB
  8
VIDITELNE
  6
SLD-PLNÁ
 62
     2
 10
880.5
 20
-2.0124257526
 30
0.0
 11
880.5
 21
-9.4034620127
 31
0.0
  0
LINE
  5
1BC
  8
VIDITELNE
  6
SLD-PLNÁ
 62
     2
 10
869.0
 20
0.936130187
 30
0.0
 11
880.5
 21
-9.4034620127
 31
0.0
  0
LINE
  5
1BD
  8
VIDITELNE
  6
SLD-PLNÁ
 62
     2
 10
880.5
 20
-9.4034620127
 30
0.0
 11
869.0
 21
-6.8605168497
 31
0.0
  0
LINE
  5
1BE
  8
VIDITELNE
  6
SLD-PLNÁ
 62
     2
 10
880.5
 20
-74.6577973642
 30
0.0
 11
869.0
 21
-84.9973895639
 31
0.0
  0
LINE
  5
1BF
  8
VIDITELNE
  6
SLD-PLNÁ
 62
     2
 10
880.5
 20
-74.6577973642
 30
0.0
 11
880.5
 21
-82.0488336243
 31
0.0
  0
LINE
  5
1C0
  8
VIDITELNE
  6
SLD-PLNÁ
 62
     2
 10
869.0
 20
-92.3884258239
 30
0.0
 11
880.5
 21
-82.0488336243
 31
0.0
  0
LINE
  5
1C1
  8
VIDITELNE
  6
SLD-PLNÁ
 62
     2
 10
869.0
 20
-77.2007425272
 30
0.0
 11
880.5
 21
-74.6577973642
 31
0.0
  0
LINE
  5
1C2
  8
VIDITELNE
  6
SLD-PLNÁ
 62
     2
 10
880.5
 20
-9.4034620127
 30
0.0
 11
880.5
 21
-74.6577973642
 31
0.0
  0
LINE
  5
1C3
  8
VIDITELNE
  6
SLD-PLNÁ
 62
     2
 10
880.5
 20
44.1293572762
 30
0.0
 11
879.0
 21
44.9301241503
 31
0.0
  0
LINE
  5
1C4
  8
VIDITELNE
  6
SLD-PLNÁ
 62
     2
 10
874.5857452259
 20
47.286650148
 30
0.0
 11
869.0
 21
50.2685699771
 31
0.0
  0
LINE
  5
1C5
  8
VIDITELNE
  6
SLD-PLNÁ
 62
     2
 10
880.5
 20
44.1293572762
 30
0.0
 11
880.5
 21
-2.0124257526
 31
0.0
  0
LINE
  5
1C6
  8
VIDITELNE
  6
SLD-PLNÁ
 62
     2
 10
869.0
 20
-134.329829354
 30
0.0
 11
874.5857452259
 21
-131.3479095249
 31
0.0
  0
LINE
  5
1C7
  8
VIDITELNE
  6
SLD-PLNÁ
 62
     2
 10
879.0
 20
-128.9913835271
 30
0.0
 11
880.5
 21
-128.1906166531
 31
0.0
  0
LINE
  5
1C8
  8
VIDITELNE
  6
SLD-PLNÁ
 62
     2
 10
880.5
 20
-82.0488336243
 30
0.0
 11
880.5
 21
-128.1906166531
 31
0.0
  0
LINE
  5
1C9
  8
VIDITELNE
  6
SLD-PLNÁ
 62
     2
 10
879.0
 20
46.286650148
 30
0.0
 11
879.0
 21
32.286650148
 31
0.0
  0
LINE
  5
1CA
  8
VIDITELNE
  6
SLD-PLNÁ
 62
     2
 10
879.0
 20
-116.3479095249
 30
0.0
 11
879.0
 21
-130.3479095249
 31
0.0
  0
LINE
  5
1CB
  8
VIDITELNE
  6
SLD-PLNÁ
 62
     2
 10
884.0
 20
22.9693703116
 30
0.0
 11
884.0
 21
-107.0306296884
 31
0.0
  0
LINE
  5
1CC
  8
VIDITELNE
  6
SLD-PLNÁ
 62
     2
 10
869.0
 20
-156.2140678299
 30
0.0
 11
880.5
 21
-131.252084112
 31
0.0
  0
LINE
  5
1CD
  8
VIDITELNE
  6
SLD-PLNÁ
 62
     2
 10
880.5
 20
-128.1906166531
 30
0.0
 11
869.0
 21
-153.152600371
 31
0.0
  0
LINE
  5
1CE
  8
VIDITELNE
  6
SLD-PLNÁ
 62
     2
 10
880.5
 20
-128.1906166531
 30
0.0
 11
880.5
 21
-131.252084112
 31
0.0
  0
LINE
  5
1CF
  8
VIDITELNE
  6
SLD-PLNÁ
 62
     2
 10
869.0
 20
69.0913409941
 30
0.0
 11
880.5
 21
44.1293572762
 31
0.0
  0
LINE
  5
1D0
  8
VIDITELNE
  6
SLD-PLNÁ
 62
     2
 10
880.5
 20
47.1908247351
 30
0.0
 11
869.0
 21
72.152808453
 31
0.0
  0
LINE
  5
1D1
  8
VIDITELNE
  6
SLD-PLNÁ
 62
     2
 10
880.5
 20
47.1908247351
 30
0.0
 11
880.5
 21
44.1293572762
 31
0.0
  0
LINE
  5
1D2
  8
VIDITELNE
  6
SLD-PLNÁ
 62
     2
 10
880.5
 20
-131.252084112
 30
0.0
 11
880.5
 21
-137.0306296884
 31
0.0
  0
LINE
  5
1D3
  8
VIDITELNE
  6
SLD-PLNÁ
 62
     2
 10
880.5
 20
52.9693703116
 30
0.0
 11
880.5
 21
47.1908247351
 31
0.0
  0
LINE
  5
1D4
  8
VIDITELNE
  6
SLD-PLNÁ
 62
     2
 10
879.0
 20
-150.0306296884
 30
0.0
 11
879.0
 21
-164.0306296884
 31
0.0
  0
LINE
  5
1D5
  8
VIDITELNE
  6
SLD-PLNÁ
 62
     2
 10
879.0
 20
79.9693703116
 30
0.0
 11
879.0
 21
65.9693703116
 31
0.0
  0
LINE
  5
1D6
  8
VIDITELNE
  6
SLD-PLNÁ
 62
     2
 10
731.0
 20
-42.0306296884
 30
0.0
 11
731.0
 21
82.5852418472
 31
0.0
  0
LINE
  5
1D7
  8
VIDITELNE
  6
SLD-PLNÁ
 62
     2
 10
731.0
 20
-166.646501224
 30
0.0
 11
731.0
 21
-42.0306296884
 31
0.0
  0
LINE
  5
1D8
  8
VIDITELNE
  6
SLD-PLNÁ
 62
     2
 10
742.0
 20
-42.0306296884
 30
0.0
 11
742.0
 21
82.9693703116
 31
0.0
  0
LINE
  5
1D9
  8
VIDITELNE
  6
SLD-PLNÁ
 62
     2
 10
742.0
 20
-167.0306296884
 30
0.0
 11
742.0
 21
-42.0306296884
 31
0.0
  0
LINE
  5
1DA
  8
VIDITELNE
  6
SLD-PLNÁ
 62
     2
 10
721.0
 20
-42.0306296884
 30
0.0
 11
721.0
 21
-35.0306296884
 31
0.0
  0
LINE
  5
1DB
  8
VIDITELNE
  6
SLD-PLNÁ
 62
     2
 10
721.0
 20
-49.0306296884
 30
0.0
 11
721.0
 21
-42.0306296884
 31
0.0
  0
LINE
  5
1DC
  8
VIDITELNE
  6
SLD-PLNÁ
 62
     2
 10
731.0
 20
-84.9973895639
 30
0.0
 11
719.5
 21
-74.6577973642
 31
0.0
  0
LINE
  5
1DD
  8
VIDITELNE
  6
SLD-PLNÁ
 62
     2
 10
719.5
 20
-74.6577973642
 30
0.0
 11
731.0
 21
-77.2007425272
 31
0.0
  0
LINE
  5
1DE
  8
VIDITELNE
  6
SLD-PLNÁ
 62
     2
 10
719.5
 20
-82.0488336243
 30
0.0
 11
731.0
 21
-92.3884258239
 31
0.0
  0
LINE
  5
1DF
  8
VIDITELNE
  6
SLD-PLNÁ
 62
     2
 10
719.5
 20
-82.0488336243
 30
0.0
 11
719.5
 21
-74.6577973642
 31
0.0
  0
LINE
  5
1E0
  8
VIDITELNE
  6
SLD-PLNÁ
 62
     2
 10
731.0
 20
8.3271664471
 30
0.0
 11
719.5
 21
-2.0124257526
 31
0.0
  0
LINE
  5
1E1
  8
VIDITELNE
  6
SLD-PLNÁ
 62
     2
 10
719.5
 20
-9.4034620127
 30
0.0
 11
731.0
 21
0.936130187
 31
0.0
  0
LINE
  5
1E2
  8
VIDITELNE
  6
SLD-PLNÁ
 62
     2
 10
719.5
 20
-9.4034620127
 30
0.0
 11
719.5
 21
-2.0124257526
 31
0.0
  0
LINE
  5
1E3
  8
VIDITELNE
  6
SLD-PLNÁ
 62
     2
 10
731.0
 20
-6.8605168497
 30
0.0
 11
719.5
 21
-9.4034620127
 31
0.0
  0
LINE
  5
1E4
  8
VIDITELNE
  6
SLD-PLNÁ
 62
     2
 10
719.5
 20
-74.6577973642
 30
0.0
 11
719.5
 21
-9.4034620127
 31
0.0
  0
LINE
  5
1E5
  8
VIDITELNE
  6
SLD-PLNÁ
 62
     2
 10
719.5
 20
-128.1906166531
 30
0.0
 11
721.0
 21
-128.9913835271
 31
0.0
  0
LINE
  5
1E6
  8
VIDITELNE
  6
SLD-PLNÁ
 62
     2
 10
725.4142547741
 20
-131.3479095249
 30
0.0
 11
731.0
 21
-134.329829354
 31
0.0
  0
LINE
  5
1E7
  8
VIDITELNE
  6
SLD-PLNÁ
 62
     2
 10
719.5
 20
-128.1906166531
 30
0.0
 11
719.5
 21
-82.0488336243
 31
0.0
  0
LINE
  5
1E8
  8
VIDITELNE
  6
SLD-PLNÁ
 62
     2
 10
731.0
 20
50.2685699771
 30
0.0
 11
725.4142547741
 21
47.286650148
 31
0.0
  0
LINE
  5
1E9
  8
VIDITELNE
  6
SLD-PLNÁ
 62
     2
 10
721.0
 20
44.9301241503
 30
0.0
 11
719.5
 21
44.1293572762
 31
0.0
  0
LINE
  5
1EA
  8
VIDITELNE
  6
SLD-PLNÁ
 62
     2
 10
719.5
 20
-2.0124257526
 30
0.0
 11
719.5
 21
44.1293572762
 31
0.0
  0
LINE
  5
1EB
  8
VIDITELNE
  6
SLD-PLNÁ
 62
     2
 10
721.0
 20
-123.3479095249
 30
0.0
 11
721.0
 21
-116.3479095249
 31
0.0
  0
LINE
  5
1EC
  8
VIDITELNE
  6
SLD-PLNÁ
 62
     2
 10
721.0
 20
-130.3479095249
 30
0.0
 11
721.0
 21
-123.3479095249
 31
0.0
  0
LINE
  5
1ED
  8
VIDITELNE
  6
SLD-PLNÁ
 62
     2
 10
721.0
 20
39.286650148
 30
0.0
 11
721.0
 21
46.286650148
 31
0.0
  0
LINE
  5
1EE
  8
VIDITELNE
  6
SLD-PLNÁ
 62
     2
 10
721.0
 20
32.286650148
 30
0.0
 11
721.0
 21
39.286650148
 31
0.0
  0
LINE
  5
1EF
  8
VIDITELNE
  6
SLD-PLNÁ
 62
     2
 10
716.0
 20
-42.0306296884
 30
0.0
 11
716.0
 21
22.9693703116
 31
0.0
  0
LINE
  5
1F0
  8
VIDITELNE
  6
SLD-PLNÁ
 62
     2
 10
716.0
 20
-107.0306296884
 30
0.0
 11
716.0
 21
-42.0306296884
 31
0.0
  0
LINE
  5
1F1
  8
VIDITELNE
  6
SLD-PLNÁ
 62
     2
 10
719.5
 20
44.1293572762
 30
0.0
 11
731.0
 21
69.0913409941
 31
0.0
  0
LINE
  5
1F2
  8
VIDITELNE
  6
SLD-PLNÁ
 62
     2
 10
731.0
 20
72.152808453
 30
0.0
 11
719.5
 21
47.1908247351
 31
0.0
  0
LINE
  5
1F3
  8
VIDITELNE
  6
SLD-PLNÁ
 62
     2
 10
719.5
 20
44.1293572762
 30
0.0
 11
719.5
 21
47.1908247351
 31
0.0
  0
LINE
  5
1F4
  8
VIDITELNE
  6
SLD-PLNÁ
 62
     2
 10
719.5
 20
-131.252084112
 30
0.0
 11
731.0
 21
-156.2140678299
 31
0.0
  0
LINE
  5
1F5
  8
VIDITELNE
  6
SLD-PLNÁ
 62
     2
 10
731.0
 20
-153.152600371
 30
0.0
 11
719.5
 21
-128.1906166531
 31
0.0
  0
LINE
  5
1F6
  8
VIDITELNE
  6
SLD-PLNÁ
 62
     2
 10
719.5
 20
-131.252084112
 30
0.0
 11
719.5
 21
-128.1906166531
 31
0.0
  0
LINE
  5
1F7
  8
VIDITELNE
  6
SLD-PLNÁ
 62
     2
 10
719.5
 20
47.1908247351
 30
0.0
 11
719.5
 21
52.9693703116
 31
0.0
  0
LINE
  5
1F8
  8
VIDITELNE
  6
SLD-PLNÁ
 62
     2
 10
719.5
 20
-137.0306296884
 30
0.0
 11
719.5
 21
-131.252084112
 31
0.0
  0
LINE
  5
1F9
  8
VIDITELNE
  6
SLD-PLNÁ
 62
     2
 10
721.0
 20
-157.0306296884
 30
0.0
 11
721.0
 21
-150.0306296884
 31
0.0
  0
LINE
  5
1FA
  8
VIDITELNE
  6
SLD-PLNÁ
 62
     2
 10
721.0
 20
-164.0306296884
 30
0.0
 11
721.0
 21
-157.0306296884
 31
0.0
  0
LINE
  5
1FB
  8
VIDITELNE
  6
SLD-PLNÁ
 62
     2
 10
721.0
 20
72.9693703116
 30
0.0
 11
721.0
 21
79.9693703116
 31
0.0
  0
LINE
  5
1FC
  8
VIDITELNE
  6
SLD-PLNÁ
 62
     2
 10
721.0
 20
65.9693703116
 30
0.0
 11
721.0
 21
72.9693703116
 31
0.0
  0
POLYLINE
  5
1FD
  8
VIDITELNE
  6
SLD-PLNÁ
 62
     2
 66
     1
 10
0.0
 20
0.0
 30
0.0
  0
VERTEX
  5
75A
  8
VIDITELNE
  6
SLD-PLNÁ
 62
     2
 10
805.4808531507
 20
139.4793646419
 30
0.0
  0
VERTEX
  5
75B
  8
VIDITELNE
  6
SLD-PLNÁ
 62
     2
 10
805.6358776883
 20
138.7767755603
 30
0.0
  0
VERTEX
  5
75C
  8
VIDITELNE
  6
SLD-PLNÁ
 62
     2
 10
805.6670240867
 20
138.1608097761
 30
0.0
  0
SEQEND
  5
75D
  8
VIDITELNE
  6
SLD-PLNÁ
 62
     2
  0
POLYLINE
  5
1FE
  8
VIDITELNE
  6
SLD-PLNÁ
 62
     2
 66
     1
 10
0.0
 20
0.0
 30
0.0
  0
VERTEX
  5
75E
  8
VIDITELNE
  6
SLD-PLNÁ
 62
     2
 10
805.6670240867
 20
138.1608097761
 30
0.0
  0
VERTEX
  5
75F
  8
VIDITELNE
  6
SLD-PLNÁ
 62
     2
 10
805.4253147328
 20
136.5971315388
 30
0.0
  0
VERTEX
  5
760
  8
VIDITELNE
  6
SLD-PLNÁ
 62
     2
 10
804.714613632
 20
135.2573719879
 30
0.0
  0
VERTEX
  5
761
  8
VIDITELNE
  6
SLD-PLNÁ
 62
     2
 10
803.5498608198
 20
134.1939493877
 30
0.0
  0
VERTEX
  5
762
  8
VIDITELNE
  6
SLD-PLNÁ
 62
     2
 10
801.9218947729
 20
133.4634287573
 30
0.0
  0
VERTEX
  5
763
  8
VIDITELNE
  6
SLD-PLNÁ
 62
     2
 10
800.0374859569
 20
133.201252955
 30
0.0
  0
VERTEX
  5
764
  8
VIDITELNE
  6
SLD-PLNÁ
 62
     2
 10
798.1711223755
 20
133.4377828187
 30
0.0
  0
VERTEX
  5
765
  8
VIDITELNE
  6
SLD-PLNÁ
 62
     2
 10
796.5106253617
 20
134.1549284823
 30
0.0
  0
VERTEX
  5
766
  8
VIDITELNE
  6
SLD-PLNÁ
 62
     2
 10
795.2192258409
 20
135.3446375773
 30
0.0
  0
VERTEX
  5
767
  8
VIDITELNE
  6
SLD-PLNÁ
 62
     2
 10
794.4849058526
 20
136.907684863
 30
0.0
  0
VERTEX
  5
768
  8
VIDITELNE
  6
SLD-PLNÁ
 62
     2
 10
794.3329731302
 20
138.1608097761
 30
0.0
  0
SEQEND
  5
769
  8
VIDITELNE
  6
SLD-PLNÁ
 62
     2
  0
LINE
  5
1FF
  8
VIDITELNE
  6
SLD-PLNÁ
 62
     2
 10
794.3329731302
 20
138.1608097761
 30
0.0
 11
794.4104208147
 21
139.0723255094
 31
0.0
  0
ARC
  5
200
  8
VIDITELNE
  6
SLD-PLNÁ
 62
     2
 10
800.0
 20
169.9693703116
 30
0.0
 40
4.000000000000049
 50
47.6728187408
 51
90.0
  0
ARC
  5
201
  8
VIDITELNE
  6
SLD-PLNÁ
 62
     2
 10
800.0
 20
169.9693703116
 30
0.0
 40
3.999999999999983
 50
90.0
 51
130.3773706637
  0
LINE
  5
202
  8
VIDITELNE
  6
SLD-PLNÁ
 62
     2
 10
840.7031939779
 20
107.2428730035
 30
0.0
 11
835.7031939779
 21
104.3561216575
 31
0.0
  0
LINE
  5
203
  8
VIDITELNE
  6
SLD-PLNÁ
 62
     2
 10
845.7031939779
 20
104.3561216575
 30
0.0
 11
840.7031939779
 21
107.2428730035
 31
0.0
  0
LINE
  5
204
  8
VIDITELNE
  6
SLD-PLNÁ
 62
     2
 10
845.7031939779
 20
98.5826189656
 30
0.0
 11
845.7031939779
 21
104.3561216575
 31
0.0
  0
LINE
  5
205
  8
VIDITELNE
  6
SLD-PLNÁ
 62
     2
 10
840.7031939779
 20
95.6958676197
 30
0.0
 11
845.7031939779
 21
98.5826189656
 31
0.0
  0
LINE
  5
206
  8
VIDITELNE
  6
SLD-PLNÁ
 62
     2
 10
835.7031939779
 20
98.5826189656
 30
0.0
 11
840.7031939779
 21
95.6958676197
 31
0.0
  0
LINE
  5
207
  8
VIDITELNE
  6
SLD-PLNÁ
 62
     2
 10
835.7031939779
 20
104.3561216575
 30
0.0
 11
835.7031939779
 21
98.5826189656
 31
0.0
  0
LINE
  5
208
  8
VIDITELNE
  6
SLD-PLNÁ
 62
     2
 10
845.7031939779
 20
57.3561216575
 30
0.0
 11
840.7031939779
 21
60.2428730035
 31
0.0
  0
LINE
  5
209
  8
VIDITELNE
  6
SLD-PLNÁ
 62
     2
 10
845.7031939779
 20
51.5826189656
 30
0.0
 11
845.7031939779
 21
57.3561216575
 31
0.0
  0
LINE
  5
20A
  8
VIDITELNE
  6
SLD-PLNÁ
 62
     2
 10
840.7031939779
 20
48.6958676197
 30
0.0
 11
845.7031939779
 21
51.5826189656
 31
0.0
  0
LINE
  5
20B
  8
VIDITELNE
  6
SLD-PLNÁ
 62
     2
 10
835.7031939779
 20
51.5826189656
 30
0.0
 11
840.7031939779
 21
48.6958676197
 31
0.0
  0
LINE
  5
20C
  8
VIDITELNE
  6
SLD-PLNÁ
 62
     2
 10
835.7031939779
 20
57.3561216575
 30
0.0
 11
835.7031939779
 21
51.5826189656
 31
0.0
  0
LINE
  5
20D
  8
VIDITELNE
  6
SLD-PLNÁ
 62
     2
 10
840.7031939779
 20
60.2428730035
 30
0.0
 11
835.7031939779
 21
57.3561216575
 31
0.0
  0
LINE
  5
20E
  8
VIDITELNE
  6
SLD-PLNÁ
 62
     2
 10
805.0
 20
28.0826189656
 30
0.0
 11
805.0
 21
33.8561216575
 31
0.0
  0
LINE
  5
20F
  8
VIDITELNE
  6
SLD-PLNÁ
 62
     2
 10
800.0
 20
25.1958676197
 30
0.0
 11
805.0
 21
28.0826189656
 31
0.0
  0
LINE
  5
210
  8
VIDITELNE
  6
SLD-PLNÁ
 62
     2
 10
795.0
 20
28.0826189656
 30
0.0
 11
800.0
 21
25.1958676197
 31
0.0
  0
LINE
  5
211
  8
VIDITELNE
  6
SLD-PLNÁ
 62
     2
 10
795.0
 20
33.8561216575
 30
0.0
 11
795.0
 21
28.0826189656
 31
0.0
  0
LINE
  5
212
  8
VIDITELNE
  6
SLD-PLNÁ
 62
     2
 10
800.0
 20
36.7428730035
 30
0.0
 11
795.0
 21
33.8561216575
 31
0.0
  0
LINE
  5
213
  8
VIDITELNE
  6
SLD-PLNÁ
 62
     2
 10
805.0
 20
33.8561216575
 30
0.0
 11
800.0
 21
36.7428730035
 31
0.0
  0
LINE
  5
214
  8
VIDITELNE
  6
SLD-PLNÁ
 62
     2
 10
754.2968060221
 20
51.5826189656
 30
0.0
 11
759.2968060221
 21
48.6958676197
 31
0.0
  0
LINE
  5
215
  8
VIDITELNE
  6
SLD-PLNÁ
 62
     2
 10
754.2968060221
 20
57.3561216575
 30
0.0
 11
754.2968060221
 21
51.5826189656
 31
0.0
  0
LINE
  5
216
  8
VIDITELNE
  6
SLD-PLNÁ
 62
     2
 10
759.2968060221
 20
60.2428730035
 30
0.0
 11
754.2968060221
 21
57.3561216575
 31
0.0
  0
LINE
  5
217
  8
VIDITELNE
  6
SLD-PLNÁ
 62
     2
 10
764.2968060221
 20
57.3561216575
 30
0.0
 11
759.2968060221
 21
60.2428730035
 31
0.0
  0
LINE
  5
218
  8
VIDITELNE
  6
SLD-PLNÁ
 62
     2
 10
764.2968060221
 20
51.5826189656
 30
0.0
 11
764.2968060221
 21
57.3561216575
 31
0.0
  0
LINE
  5
219
  8
VIDITELNE
  6
SLD-PLNÁ
 62
     2
 10
759.2968060221
 20
48.6958676197
 30
0.0
 11
764.2968060221
 21
51.5826189656
 31
0.0
  0
LINE
  5
21A
  8
VIDITELNE
  6
SLD-PLNÁ
 62
     2
 10
795.0
 20
127.8561216575
 30
0.0
 11
795.0
 21
122.0826189656
 31
0.0
  0
LINE
  5
21B
  8
VIDITELNE
  6
SLD-PLNÁ
 62
     2
 10
805.0
 20
127.8561216575
 30
0.0
 11
800.0
 21
130.7428730035
 31
0.0
  0
LINE
  5
21C
  8
VIDITELNE
  6
SLD-PLNÁ
 62
     2
 10
800.0
 20
119.1958676197
 30
0.0
 11
805.0
 21
122.0826189656
 31
0.0
  0
LINE
  5
21D
  8
VIDITELNE
  6
SLD-PLNÁ
 62
     2
 10
795.0
 20
122.0826189656
 30
0.0
 11
800.0
 21
119.1958676197
 31
0.0
  0
LINE
  5
21E
  8
VIDITELNE
  6
SLD-PLNÁ
 62
     2
 10
800.0
 20
130.7428730035
 30
0.0
 11
795.0
 21
127.8561216575
 31
0.0
  0
LINE
  5
21F
  8
VIDITELNE
  6
SLD-PLNÁ
 62
     2
 10
805.0
 20
122.0826189656
 30
0.0
 11
805.0
 21
127.8561216575
 31
0.0
  0
LINE
  5
220
  8
VIDITELNE
  6
SLD-PLNÁ
 62
     2
 10
754.2968060221
 20
104.3561216575
 30
0.0
 11
754.2968060221
 21
98.5826189656
 31
0.0
  0
LINE
  5
221
  8
VIDITELNE
  6
SLD-PLNÁ
 62
     2
 10
759.2968060221
 20
107.2428730035
 30
0.0
 11
754.2968060221
 21
104.3561216575
 31
0.0
  0
LINE
  5
222
  8
VIDITELNE
  6
SLD-PLNÁ
 62
     2
 10
764.2968060221
 20
104.3561216575
 30
0.0
 11
759.2968060221
 21
107.2428730035
 31
0.0
  0
LINE
  5
223
  8
VIDITELNE
  6
SLD-PLNÁ
 62
     2
 10
764.2968060221
 20
98.5826189656
 30
0.0
 11
764.2968060221
 21
104.3561216575
 31
0.0
  0
LINE
  5
224
  8
VIDITELNE
  6
SLD-PLNÁ
 62
     2
 10
759.2968060221
 20
95.6958676197
 30
0.0
 11
764.2968060221
 21
98.5826189656
 31
0.0
  0
LINE
  5
225
  8
VIDITELNE
  6
SLD-PLNÁ
 62
     2
 10
754.2968060221
 20
98.5826189656
 30
0.0
 11
759.2968060221
 21
95.6958676197
 31
0.0
  0
ARC
  5
226
  8
VIDITELNE
  6
SLD-PLNÁ
 62
     2
 10
800.0
 20
77.9693703116
 30
0.0
 40
52.28925629445185
 50
90.9322222308
 51
149.0677777692
  0
ARC
  5
227
  8
VIDITELNE
  6
SLD-PLNÁ
 62
     2
 10
800.0
 20
77.9693703116
 30
0.0
 40
52.28925629445181
 50
150.9322222308
 51
209.0677777692
  0
ARC
  5
228
  8
VIDITELNE
  6
SLD-PLNÁ
 62
     2
 10
800.0
 20
77.9693703116
 30
0.0
 40
52.28925629445184
 50
210.9322222308
 51
269.0677777692
  0
ARC
  5
229
  8
VIDITELNE
  6
SLD-PLNÁ
 62
     2
 10
800.0
 20
77.9693703116
 30
0.0
 40
52.28925629445196
 50
270.9322222308
 51
329.0677777692
  0
ARC
  5
22A
  8
VIDITELNE
  6
SLD-PLNÁ
 62
     2
 10
800.0
 20
77.9693703116
 30
0.0
 40
52.2892562944519
 50
330.9322222308
 51
29.0677777692
  0
ARC
  5
22B
  8
VIDITELNE
  6
SLD-PLNÁ
 62
     2
 10
800.0
 20
77.9693703116
 30
0.0
 40
52.28925629445193
 50
30.9322222308
 51
89.0677777692
  0
CIRCLE
  5
22C
  8
VIDITELNE
  6
SLD-PLNÁ
 62
     2
 10
800.0
 20
77.9693703116
 30
0.0
 40
54.28803794849
  0
CIRCLE
  5
22D
  8
VIDITELNE
  6
SLD-PLNÁ
 62
     2
 10
800.0
 20
77.9693703116
 30
0.0
 40
54.5
  0
CIRCLE
  5
22E
  8
VIDITELNE
  6
SLD-PLNÁ
 62
     2
 10
800.0
 20
-2.0306296884
 30
0.0
 40
9.500000000000002
  0
CIRCLE
  5
22F
  8
VIDITELNE
  6
SLD-PLNÁ
 62
     2
 10
800.0
 20
-2.0306296884
 30
0.0
 40
10.49999999999999
  0
ARC
  5
230
  8
VIDITELNE
  6
SLD-PLNÁ
 62
     2
 10
783.0
 20
23.5634882767
 30
0.0
 40
1.999999999930588
 50
25.5832431545
 51
72.6477389327
  0
ARC
  5
231
  8
VIDITELNE
  6
SLD-PLNÁ
 62
     2
 10
781.5355931875
 20
18.496451561
 30
0.0
 40
7.274069457287346
 50
49.2699238834
 51
73.5414756497
  0
ARC
  5
232
  8
VIDITELNE
  6
SLD-PLNÁ
 62
     2
 10
785.8300826401
 20
25.2322217594
 30
0.0
 40
1.304294292684106
 50
218.1163664613
 51
290.2675736072
  0
LINE
  5
233
  8
VIDITELNE
  6
SLD-PLNÁ
 62
     2
 10
813.1270166538
 20
22.5015288737
 30
0.0
 11
813.2157910714
 21
23.0576306325
 31
0.0
  0
ARC
  5
234
  8
VIDITELNE
  6
SLD-PLNÁ
 62
     2
 10
800.0
 20
77.9693703116
 30
0.0
 40
57.00000000000001
 50
256.6853514544
 51
283.3146485456
  0
POLYLINE
  5
235
  8
VIDITELNE
  6
SLD-PLNÁ
 62
     2
 66
     1
 10
0.0
 20
0.0
 30
0.0
  0
VERTEX
  5
76A
  8
VIDITELNE
  6
SLD-PLNÁ
 62
     2
 10
786.7842089286
 20
23.0576306325
 30
0.0
  0
VERTEX
  5
76B
  8
VIDITELNE
  6
SLD-PLNÁ
 62
     2
 10
786.8323906995
 20
22.7130629442
 30
0.0
  0
VERTEX
  5
76C
  8
VIDITELNE
  6
SLD-PLNÁ
 62
     2
 10
786.8729833462
 20
22.5015288737
 30
0.0
  0
SEQEND
  5
76D
  8
VIDITELNE
  6
SLD-PLNÁ
 62
     2
  0
POLYLINE
  5
236
  8
VIDITELNE
  6
SLD-PLNÁ
 62
     2
 66
     1
 10
0.0
 20
0.0
 30
0.0
  0
VERTEX
  5
76E
  8
VIDITELNE
  6
SLD-PLNÁ
 62
     2
 10
786.2818964441
 20
24.008682676
 30
0.0
  0
VERTEX
  5
76F
  8
VIDITELNE
  6
SLD-PLNÁ
 62
     2
 10
786.674989371
 20
23.4566620438
 30
0.0
  0
VERTEX
  5
770
  8
VIDITELNE
  6
SLD-PLNÁ
 62
     2
 10
786.7842089286
 20
23.0576306325
 30
0.0
  0
SEQEND
  5
771
  8
VIDITELNE
  6
SLD-PLNÁ
 62
     2
  0
ARC
  5
237
  8
VIDITELNE
  6
SLD-PLNÁ
 62
     2
 10
800.0
 20
77.9693703116
 30
0.0
 40
55.00000000000001
 50
252.6477389318
 51
287.3522610682
  0
ARC
  5
238
  8
VIDITELNE
  6
SLD-PLNÁ
 62
     2
 10
818.4644068125
 20
18.4964515609
 30
0.0
 40
7.274069457346228
 50
106.4585243504
 51
130.7300761165
  0
ARC
  5
239
  8
VIDITELNE
  6
SLD-PLNÁ
 62
     2
 10
814.8045301242
 20
22.826692114
 30
0.0
 40
1.605435883814128
 50
132.5876668876
 51
171.7294329098
  0
ARC
  5
23A
  8
VIDITELNE
  6
SLD-PLNÁ
 62
     2
 10
814.1699173599
 20
25.2322217594
 30
0.0
 40
1.304294292683825
 50
249.7324263928
 51
321.8836335387
  0
ARC
  5
23B
  8
VIDITELNE
  6
SLD-PLNÁ
 62
     2
 10
817.0
 20
23.5634882767
 30
0.0
 40
1.999999999944843
 50
107.3522610675
 51
154.4167568453
  0
ARC
  5
23C
  8
VIDITELNE
  6
SLD-PLNÁ
 62
     2
 10
800.0
 20
77.9693703116
 30
0.0
 40
55.00000000000001
 50
287.3522610682
 51
252.6477389318
  0
POLYLINE
  5
23D
  8
VIDITELNE
  6
SLD-PLNÁ
 62
     2
 66
     1
 10
0.0
 20
0.0
 30
0.0
  0
VERTEX
  5
772
  8
VIDITELNE
  6
SLD-PLNÁ
 62
     2
 10
784.9529776853
 20
23.5634882766
 30
0.0
  0
VERTEX
  5
773
  8
VIDITELNE
  6
SLD-PLNÁ
 62
     2
 10
784.9422500274
 20
23.9386299698
 30
0.0
  0
VERTEX
  5
774
  8
VIDITELNE
  6
SLD-PLNÁ
 62
     2
 10
784.8039177131
 20
24.4271322336
 30
0.0
  0
SEQEND
  5
775
  8
VIDITELNE
  6
SLD-PLNÁ
 62
     2
  0
ARC
  5
23E
  8
VIDITELNE
  6
SLD-PLNÁ
 62
     2
 10
786.6911314685
 20
26.2881908055
 30
0.0
 40
3.231900747997778
 50
237.4652096372
 51
271.650323919
  0
POLYLINE
  5
23F
  8
VIDITELNE
  6
SLD-PLNÁ
 62
     2
 66
     1
 10
0.0
 20
0.0
 30
0.0
  0
VERTEX
  5
776
  8
VIDITELNE
  6
SLD-PLNÁ
 62
     2
 10
815.1960822869
 20
24.4271322336
 30
0.0
  0
VERTEX
  5
777
  8
VIDITELNE
  6
SLD-PLNÁ
 62
     2
 10
815.0861610124
 20
24.1048238227
 30
0.0
  0
VERTEX
  5
778
  8
VIDITELNE
  6
SLD-PLNÁ
 62
     2
 10
815.0470223147
 20
23.5634882766
 30
0.0
  0
SEQEND
  5
779
  8
VIDITELNE
  6
SLD-PLNÁ
 62
     2
  0
ARC
  5
240
  8
VIDITELNE
  6
SLD-PLNÁ
 62
     2
 10
813.3088685315
 20
26.2881908055
 30
0.0
 40
3.231900747997577
 50
268.349676081
 51
302.5347903628
  0
LINE
  5
241
  8
VIDITELNE
  6
SLD-PLNÁ
 62
     2
 10
815.0470223147
 20
23.5634882766
 30
0.0
 11
815.0635083269
 21
22.5015288737
 31
0.0
  0
LINE
  5
242
  8
VIDITELNE
  6
SLD-PLNÁ
 62
     2
 10
815.0635083269
 20
22.5015288737
 30
0.0
 11
813.1270166538
 21
22.5015288737
 31
0.0
  0
POLYLINE
  5
243
  8
VIDITELNE
  6
SLD-PLNÁ
 62
     2
 66
     1
 10
0.0
 20
0.0
 30
0.0
  0
VERTEX
  5
77A
  8
VIDITELNE
  6
SLD-PLNÁ
 62
     2
 10
784.9364916731
 20
22.5015288737
 30
0.0
  0
VERTEX
  5
77B
  8
VIDITELNE
  6
SLD-PLNÁ
 62
     2
 10
784.9389626527
 20
22.9041435054
 30
0.0
  0
VERTEX
  5
77C
  8
VIDITELNE
  6
SLD-PLNÁ
 62
     2
 10
784.9529776853
 20
23.5634882766
 30
0.0
  0
SEQEND
  5
77D
  8
VIDITELNE
  6
SLD-PLNÁ
 62
     2
  0
LINE
  5
244
  8
VIDITELNE
  6
SLD-PLNÁ
 62
     2
 10
784.9364916731
 20
22.5015288737
 30
0.0
 11
786.8729833462
 21
22.5015288737
 31
0.0
  0
LINE
  5
245
  8
VIDITELNE
  6
SLD-PLNÁ
 62
     2
 10
815.0635083269
 20
22.5015288737
 30
0.0
 11
815.0635083269
 21
-2.0306296884
 31
0.0
  0
LINE
  5
246
  8
VIDITELNE
  6
SLD-PLNÁ
 62
     2
 10
815.0635083269
 20
-2.0306296884
 30
0.0
 11
813.1270166538
 21
-2.0306296884
 31
0.0
  0
LINE
  5
247
  8
VIDITELNE
  6
SLD-PLNÁ
 62
     2
 10
813.1270166538
 20
-2.0306296884
 30
0.0
 11
813.1270166538
 21
22.5015288737
 31
0.0
  0
LINE
  5
248
  8
VIDITELNE
  6
SLD-PLNÁ
 62
     2
 10
784.9364916731
 20
-2.0306296884
 30
0.0
 11
784.9364916731
 21
22.5015288737
 31
0.0
  0
LINE
  5
249
  8
VIDITELNE
  6
SLD-PLNÁ
 62
     2
 10
786.8729833462
 20
22.5015288737
 30
0.0
 11
786.8729833462
 21
-2.0306296884
 31
0.0
  0
LINE
  5
24A
  8
VIDITELNE
  6
SLD-PLNÁ
 62
     2
 10
784.9364916731
 20
-2.0306296884
 30
0.0
 11
786.8729833462
 21
-2.0306296884
 31
0.0
  0
ARC
  5
24B
  8
VIDITELNE
  6
SLD-PLNÁ
 62
     2
 10
800.0
 20
-2.0306296884
 30
0.0
 40
15.06350832689634
 50
180.0
 51
0.0
  0
ARC
  5
24C
  8
VIDITELNE
  6
SLD-PLNÁ
 62
     2
 10
800.0
 20
-2.0306296884
 30
0.0
 40
13.12701665379257
 50
180.0
 51
0.0
  0
LINE
  5
24D
  8
VIDITELNE
  6
SLD-PLNÁ
 62
     2
 10
748.8596491228
 20
57.7291995574
 30
0.0
 11
747.0
 21
56.9931933482
 31
0.0
  0
ARC
  5
24E
  8
VIDITELNE
  6
SLD-PLNÁ
 62
     2
 10
854.7841805849
 20
77.8534464788
 30
0.0
 40
109.7842417882918
 50
179.9394999912
 51
190.9534471783
  0
LINE
  5
24F
  8
VIDITELNE
  6
SLD-PLNÁ
 62
     2
 10
853.0
 20
56.9931933482
 30
0.0
 11
851.1403508772
 21
57.7291995574
 31
0.0
  0
ARC
  5
250
  8
VIDITELNE
  6
SLD-PLNÁ
 62
     2
 10
745.2158194161
 20
77.8534464787
 30
0.0
 40
109.7842417873517
 50
349.0465528216
 51
0.0605000089
  0
LINE
  5
251
  8
VIDITELNE
  6
SLD-PLNÁ
 62
     2
 10
817.0
 20
23.5634882766
 30
0.0
 11
816.4035087719
 21
25.4724665936
 31
0.0
  0
LINE
  5
252
  8
VIDITELNE
  6
SLD-PLNÁ
 62
     2
 10
817.0
 20
23.5634882766
 30
0.0
 11
815.0470223147
 21
23.5634882766
 31
0.0
  0
LINE
  5
253
  8
VIDITELNE
  6
SLD-PLNÁ
 62
     2
 10
783.5964912281
 20
25.4724665936
 30
0.0
 11
783.0
 21
23.5634882766
 31
0.0
  0
LINE
  5
254
  8
VIDITELNE
  6
SLD-PLNÁ
 62
     2
 10
784.9529776853
 20
23.5634882766
 30
0.0
 11
783.0
 21
23.5634882766
 31
0.0
  0
ARC
  5
255
  8
VIDITELNE
  6
SLD-PLNÁ
 62
     2
 10
800.0
 20
77.9693703116
 30
0.0
 40
57.00000000000004
 50
287.3522610682
 51
338.4074838218
  0
ARC
  5
256
  8
VIDITELNE
  6
SLD-PLNÁ
 62
     2
 10
800.0
 20
77.9693703116
 30
0.0
 40
57.00000000000001
 50
201.5925161782
 51
252.6477389318
  0
LINE
  5
257
  8
VIDITELNE
  6
SLD-PLNÁ
 62
     2
 10
817.0
 20
23.5634882766
 30
0.0
 11
817.0
 21
-2.0306296884
 31
0.0
  0
LINE
  5
258
  8
VIDITELNE
  6
SLD-PLNÁ
 62
     2
 10
817.0
 20
-2.0306296884
 30
0.0
 11
815.0635083269
 21
-2.0306296884
 31
0.0
  0
LINE
  5
259
  8
VIDITELNE
  6
SLD-PLNÁ
 62
     2
 10
783.0
 20
-2.0306296884
 30
0.0
 11
783.0
 21
23.5634882766
 31
0.0
  0
LINE
  5
25A
  8
VIDITELNE
  6
SLD-PLNÁ
 62
     2
 10
783.0
 20
-2.0306296884
 30
0.0
 11
784.9364916731
 21
-2.0306296884
 31
0.0
  0
ARC
  5
25B
  8
VIDITELNE
  6
SLD-PLNÁ
 62
     2
 10
800.0
 20
-2.0306296884
 30
0.0
 40
17.00000000000011
 50
180.0
 51
0.0
  0
LINE
  5
25C
  8
VIDITELNE
  6
SLD-PLNÁ
 62
     2
 10
745.0
 20
-10.4078530868
 30
0.0
 11
745.0
 21
77.9693703116
 31
0.0
  0
LINE
  5
25D
  8
VIDITELNE
  6
SLD-PLNÁ
 62
     2
 10
747.0
 20
56.9931933482
 30
0.0
 11
747.0
 21
-42.0306296884
 31
0.0
  0
ARC
  5
25E
  8
VIDITELNE
  6
SLD-PLNÁ
 62
     2
 10
1206.3888040701
 20
2.8983032145
 30
0.0
 40
461.5806346855999
 50
181.651915554
 51
185.585850906
  0
POLYLINE
  5
25F
  8
VIDITELNE
  6
SLD-PLNÁ
 62
     2
 66
     1
 10
0.0
 20
0.0
 30
0.0
  0
VERTEX
  5
77E
  8
VIDITELNE
  6
SLD-PLNÁ
 62
     2
 10
747.0
 20
-42.0306296884
 30
0.0
  0
VERTEX
  5
77F
  8
VIDITELNE
  6
SLD-PLNÁ
 62
     2
 10
746.9874524422
 20
-41.9610411238
 30
0.0
  0
VERTEX
  5
780
  8
VIDITELNE
  6
SLD-PLNÁ
 62
     2
 10
744.9611180013
 20
-30.3191717045
 30
0.0
  0
VERTEX
  5
781
  8
VIDITELNE
  6
SLD-PLNÁ
 62
     2
 10
744.0847774843
 20
-24.458674456
 30
0.0
  0
VERTEX
  5
782
  8
VIDITELNE
  6
SLD-PLNÁ
 62
     2
 10
743.402013523
 20
-18.5936778876
 30
0.0
  0
VERTEX
  5
783
  8
VIDITELNE
  6
SLD-PLNÁ
 62
     2
 10
743.0
 20
-10.9058495687
 30
0.0
  0
SEQEND
  5
784
  8
VIDITELNE
  6
SLD-PLNÁ
 62
     2
  0
ARC
  5
260
  8
VIDITELNE
  6
SLD-PLNÁ
 62
     2
 10
743.468999938
 20
-8.524305893
 30
0.0
 40
2.427284742432241
 50
258.8592408081
 51
309.1051800945
  0
LINE
  5
261
  8
VIDITELNE
  6
SLD-PLNÁ
 62
     2
 10
853.0
 20
-42.0306296884
 30
0.0
 11
853.0
 21
56.9931933482
 31
0.0
  0
LINE
  5
262
  8
VIDITELNE
  6
SLD-PLNÁ
 62
     2
 10
855.0
 20
77.9693703116
 30
0.0
 11
855.0
 21
-10.4078530868
 31
0.0
  0
ARC
  5
263
  8
VIDITELNE
  6
SLD-PLNÁ
 62
     2
 10
393.4836740581
 20
2.9063684058
 30
0.0
 40
461.7083360789856
 50
354.4146933406
 51
358.3475401994
  0
LINE
  5
264
  8
VIDITELNE
  6
SLD-PLNÁ
 62
     2
 10
747.0
 20
-42.0306296884
 30
0.0
 11
853.0
 21
-42.0306296884
 31
0.0
  0
ARC
  5
265
  8
VIDITELNE
  6
SLD-PLNÁ
 62
     2
 10
856.531000062
 20
-8.524305893
 30
0.0
 40
2.427284742432366
 50
230.8948199055
 51
281.1407591919
  0
POLYLINE
  5
266
  8
VIDITELNE
  6
SLD-PLNÁ
 62
     2
 66
     1
 10
0.0
 20
0.0
 30
0.0
  0
VERTEX
  5
785
  8
VIDITELNE
  6
SLD-PLNÁ
 62
     2
 10
857.0
 20
-10.9058495687
 30
0.0
  0
VERTEX
  5
786
  8
VIDITELNE
  6
SLD-PLNÁ
 62
     2
 10
856.597986477
 20
-18.5936778876
 30
0.0
  0
VERTEX
  5
787
  8
VIDITELNE
  6
SLD-PLNÁ
 62
     2
 10
855.9259467632
 20
-24.3880321598
 30
0.0
  0
VERTEX
  5
788
  8
VIDITELNE
  6
SLD-PLNÁ
 62
     2
 10
855.0586030129
 20
-30.1968124068
 30
0.0
  0
VERTEX
  5
789
  8
VIDITELNE
  6
SLD-PLNÁ
 62
     2
 10
853.0125475578
 20
-41.9610411238
 30
0.0
  0
VERTEX
  5
78A
  8
VIDITELNE
  6
SLD-PLNÁ
 62
     2
 10
853.0
 20
-42.0306296884
 30
0.0
  0
SEQEND
  5
78B
  8
VIDITELNE
  6
SLD-PLNÁ
 62
     2
  0
LINE
  5
267
  8
VIDITELNE
  6
SLD-PLNÁ
 62
     2
 10
857.0
 20
76.079606532
 30
0.0
 11
857.0
 21
-10.9058495687
 31
0.0
  0
LINE
  5
268
  8
VIDITELNE
  6
SLD-PLNÁ
 62
     2
 10
743.0
 20
-10.9058495687
 30
0.0
 11
743.0
 21
76.079606532
 31
0.0
  0
LINE
  5
269
  8
VIDITELNE
  6
SLD-PLNÁ
 62
     2
 10
858.0
 20
-42.0306296884
 30
0.0
 11
858.0
 21
82.9693703116
 31
0.0
  0
LINE
  5
26A
  8
VIDITELNE
  6
SLD-PLNÁ
 62
     2
 10
858.0
 20
-167.0306296884
 30
0.0
 11
858.0
 21
-42.0306296884
 31
0.0
  0
ARC
  5
26B
  8
VIDITELNE
  6
SLD-PLNÁ
 62
     2
 10
743.0535991072
 20
78.0260960334
 30
0.0
 40
1.947227321863332
 50
268.4226851541
 51
358.3306497957
  0
ARC
  5
26C
  8
VIDITELNE
  6
SLD-PLNÁ
 62
     2
 10
856.9464008928
 20
78.0260960334
 30
0.0
 40
1.947227321863448
 50
181.6693502043
 51
271.5773148459
  0
LINE
  5
26D
  8
VIDITELNE
  6
SLD-PLNÁ
 62
     2
 10
886.0
 20
-11.5306296884
 30
0.0
 11
886.0
 21
-72.5306296884
 31
0.0
  0
LINE
  5
26E
  8
VIDITELNE
  6
SLD-PLNÁ
 62
     2
 10
714.0
 20
-42.0306296884
 30
0.0
 11
714.0
 21
-11.5306296884
 31
0.0
  0
LINE
  5
26F
  8
VIDITELNE
  6
SLD-PLNÁ
 62
     2
 10
714.0
 20
-72.5306296884
 30
0.0
 11
714.0
 21
-42.0306296884
 31
0.0
  0
LINE
  5
270
  8
VIDITELNE
  6
SLD-PLNÁ
 62
     2
 10
785.0
 20
-170.0306296884
 30
0.0
 11
815.0
 21
-170.0306296884
 31
0.0
  0
LINE
  5
271
  8
VIDITELNE
  6
SLD-PLNÁ
 62
     2
 10
800.0
 20
-174.0306296884
 30
0.0
 11
790.5
 21
-174.0306296884
 31
0.0
  0
LINE
  5
272
  8
VIDITELNE
  6
SLD-PLNÁ
 62
     2
 10
809.5
 20
-174.0306296884
 30
0.0
 11
800.0
 21
-174.0306296884
 31
0.0
  0
LINE
  5
273
  8
VIDITELNE
  6
SLD-PLNÁ
 62
     2
 10
878.0
 20
-50.0306296884
 30
0.0
 11
878.0
 21
-34.0306296884
 31
0.0
  0
LINE
  5
274
  8
VIDITELNE
  6
SLD-PLNÁ
 62
     2
 10
878.0
 20
31.286650148
 30
0.0
 11
878.0
 21
47.286650148
 31
0.0
  0
LINE
  5
275
  8
VIDITELNE
  6
SLD-PLNÁ
 62
     2
 10
878.0
 20
-131.3479095249
 30
0.0
 11
878.0
 21
-115.3479095249
 31
0.0
  0
LINE
  5
276
  8
VIDITELNE
  6
SLD-PLNÁ
 62
     2
 10
878.0
 20
-165.0306296884
 30
0.0
 11
878.0
 21
-149.0306296884
 31
0.0
  0
LINE
  5
277
  8
VIDITELNE
  6
SLD-PLNÁ
 62
     2
 10
878.0
 20
64.9693703116
 30
0.0
 11
878.0
 21
80.9693703116
 31
0.0
  0
LINE
  5
278
  8
VIDITELNE
  6
SLD-PLNÁ
 62
     2
 10
722.0
 20
-42.0306296884
 30
0.0
 11
722.0
 21
-50.0306296884
 31
0.0
  0
LINE
  5
279
  8
VIDITELNE
  6
SLD-PLNÁ
 62
     2
 10
722.0
 20
-34.0306296884
 30
0.0
 11
722.0
 21
-42.0306296884
 31
0.0
  0
LINE
  5
27A
  8
VIDITELNE
  6
SLD-PLNÁ
 62
     2
 10
722.0
 20
-123.3479095249
 30
0.0
 11
722.0
 21
-131.3479095249
 31
0.0
  0
LINE
  5
27B
  8
VIDITELNE
  6
SLD-PLNÁ
 62
     2
 10
722.0
 20
-115.3479095249
 30
0.0
 11
722.0
 21
-123.3479095249
 31
0.0
  0
LINE
  5
27C
  8
VIDITELNE
  6
SLD-PLNÁ
 62
     2
 10
722.0
 20
39.286650148
 30
0.0
 11
722.0
 21
31.286650148
 31
0.0
  0
LINE
  5
27D
  8
VIDITELNE
  6
SLD-PLNÁ
 62
     2
 10
722.0
 20
47.286650148
 30
0.0
 11
722.0
 21
39.286650148
 31
0.0
  0
LINE
  5
27E
  8
VIDITELNE
  6
SLD-PLNÁ
 62
     2
 10
722.0
 20
-157.0306296884
 30
0.0
 11
722.0
 21
-165.0306296884
 31
0.0
  0
LINE
  5
27F
  8
VIDITELNE
  6
SLD-PLNÁ
 62
     2
 10
722.0
 20
-149.0306296884
 30
0.0
 11
722.0
 21
-157.0306296884
 31
0.0
  0
LINE
  5
280
  8
VIDITELNE
  6
SLD-PLNÁ
 62
     2
 10
722.0
 20
72.9693703116
 30
0.0
 11
722.0
 21
64.9693703116
 31
0.0
  0
LINE
  5
281
  8
VIDITELNE
  6
SLD-PLNÁ
 62
     2
 10
722.0
 20
80.9693703116
 30
0.0
 11
722.0
 21
72.9693703116
 31
0.0
  0
LINE
  5
282
  8
VIDITELNE
  6
SLD-PLNÁ
 62
     2
 10
794.3329731302
 20
138.1608097761
 30
0.0
 11
789.7680448077
 21
138.1608097761
 31
0.0
  0
LINE
  5
283
  8
VIDITELNE
  6
SLD-PLNÁ
 62
     2
 10
810.2319551923
 20
138.1608097761
 30
0.0
 11
805.6670240867
 21
138.1608097761
 31
0.0
  0
LINE
  5
284
  8
VIDITELNE
  6
SLD-PLNÁ
 62
     2
 10
807.7984764662
 20
140.5942885021
 30
0.0
 11
805.5247218535
 21
140.5942885021
 31
0.0
  0
LINE
  5
285
  8
VIDITELNE
  6
SLD-PLNÁ
 62
     2
 10
794.3696725292
 20
140.5942885021
 30
0.0
 11
792.2015235338
 21
140.5942885021
 31
0.0
  0
POLYLINE
  5
286
  8
VIDITELNE
  6
SLD-PLNÁ
 62
     2
 66
     1
 10
0.0
 20
0.0
 30
0.0
  0
VERTEX
  5
78C
  8
VIDITELNE
  6
SLD-PLNÁ
 62
     2
 10
856.5703371369
 20
82.9546474604
 30
0.0
  0
VERTEX
  5
78D
  8
VIDITELNE
  6
SLD-PLNÁ
 62
     2
 10
856.5686062799
 20
82.9688629495
 30
0.0
  0
VERTEX
  5
78E
  8
VIDITELNE
  6
SLD-PLNÁ
 62
     2
 10
856.6223021314
 20
82.5273886173
 30
0.0
  0
VERTEX
  5
78F
  8
VIDITELNE
  6
SLD-PLNÁ
 62
     2
 10
856.7571835531
 20
81.2525145675
 30
0.0
  0
VERTEX
  5
790
  8
VIDITELNE
  6
SLD-PLNÁ
 62
     2
 10
856.9173060719
 20
79.1005177106
 30
0.0
  0
VERTEX
  5
791
  8
VIDITELNE
  6
SLD-PLNÁ
 62
     2
 10
857.0
 20
76.079606532
 30
0.0
  0
SEQEND
  5
792
  8
VIDITELNE
  6
SLD-PLNÁ
 62
     2
  0
ARC
  5
287
  8
VIDITELNE
  6
SLD-PLNÁ
 62
     2
 10
798.1826552803
 20
76.0818554364
 30
0.0
 40
55.18265532608454
 50
172.8454477425
 51
180.0023350222
  0
POLYLINE
  5
288
  8
VIDITELNE
  6
SLD-PLNÁ
 62
     2
 66
     1
 10
0.0
 20
0.0
 30
0.0
  0
VERTEX
  5
793
  8
VIDITELNE
  6
SLD-PLNÁ
 62
     2
 10
783.0488465579
 20
-167.0242101266
 30
0.0
  0
VERTEX
  5
794
  8
VIDITELNE
  6
SLD-PLNÁ
 62
     2
 10
783.0209368963
 20
-167.0278729151
 30
0.0
  0
VERTEX
  5
795
  8
VIDITELNE
  6
SLD-PLNÁ
 62
     2
 10
783.4097231563
 20
-166.9772876826
 30
0.0
  0
VERTEX
  5
796
  8
VIDITELNE
  6
SLD-PLNÁ
 62
     2
 10
784.2435669611
 20
-166.8726821637
 30
0.0
  0
VERTEX
  5
797
  8
VIDITELNE
  6
SLD-PLNÁ
 62
     2
 10
785.5441147751
 20
-166.7201373396
 30
0.0
  0
VERTEX
  5
798
  8
VIDITELNE
  6
SLD-PLNÁ
 62
     2
 10
787.2180442976
 20
-166.5428934356
 30
0.0
  0
VERTEX
  5
799
  8
VIDITELNE
  6
SLD-PLNÁ
 62
     2
 10
789.2990370426
 20
-166.3526432807
 30
0.0
  0
VERTEX
  5
79A
  8
VIDITELNE
  6
SLD-PLNÁ
 62
     2
 10
791.6410426985
 20
-166.1786038458
 30
0.0
  0
VERTEX
  5
79B
  8
VIDITELNE
  6
SLD-PLNÁ
 62
     2
 10
794.2875722026
 20
-166.0332217577
 30
0.0
  0
VERTEX
  5
79C
  8
VIDITELNE
  6
SLD-PLNÁ
 62
     2
 10
798.1195923474
 20
-165.919515921
 30
0.0
  0
VERTEX
  5
79D
  8
VIDITELNE
  6
SLD-PLNÁ
 62
     2
 10
800.9231638833
 20
-165.9090228449
 30
0.0
  0
VERTEX
  5
79E
  8
VIDITELNE
  6
SLD-PLNÁ
 62
     2
 10
803.7793688117
 20
-165.9615297213
 30
0.0
  0
VERTEX
  5
79F
  8
VIDITELNE
  6
SLD-PLNÁ
 62
     2
 10
806.4487797876
 20
-166.0681963572
 30
0.0
  0
VERTEX
  5
7A0
  8
VIDITELNE
  6
SLD-PLNÁ
 62
     2
 10
809.0129370241
 20
-166.2229215142
 30
0.0
  0
VERTEX
  5
7A1
  8
VIDITELNE
  6
SLD-PLNÁ
 62
     2
 10
811.2624373119
 20
-166.4006807541
 30
0.0
  0
VERTEX
  5
7A2
  8
VIDITELNE
  6
SLD-PLNÁ
 62
     2
 10
813.2595113112
 20
-166.591263371
 30
0.0
  0
VERTEX
  5
7A3
  8
VIDITELNE
  6
SLD-PLNÁ
 62
     2
 10
814.8383776052
 20
-166.7636566753
 30
0.0
  0
VERTEX
  5
7A4
  8
VIDITELNE
  6
SLD-PLNÁ
 62
     2
 10
816.0383098509
 20
-166.9074498577
 30
0.0
  0
VERTEX
  5
7A5
  8
VIDITELNE
  6
SLD-PLNÁ
 62
     2
 10
816.7496606398
 20
-166.9978859691
 30
0.0
  0
VERTEX
  5
7A6
  8
VIDITELNE
  6
SLD-PLNÁ
 62
     2
 10
816.9999986352
 20
-167.0306295086
 30
0.0
  0
VERTEX
  5
7A7
  8
VIDITELNE
  6
SLD-PLNÁ
 62
     2
 10
816.9994378438
 20
-167.0305561153
 30
0.0
  0
SEQEND
  5
7A8
  8
VIDITELNE
  6
SLD-PLNÁ
 62
     2
  0
POLYLINE
  5
289
  8
VIDITELNE
  6
SLD-PLNÁ
 62
     2
 66
     1
 10
0.0
 20
0.0
 30
0.0
  0
VERTEX
  5
7A9
  8
VIDITELNE
  6
SLD-PLNÁ
 62
     2
 10
814.9995356459
 20
-169.0305592927
 30
0.0
  0
VERTEX
  5
7AA
  8
VIDITELNE
  6
SLD-PLNÁ
 62
     2
 10
814.9999987957
 20
-169.0306295057
 30
0.0
  0
VERTEX
  5
7AB
  8
VIDITELNE
  6
SLD-PLNÁ
 62
     2
 10
814.7841711765
 20
-168.9979152915
 30
0.0
  0
VERTEX
  5
7AC
  8
VIDITELNE
  6
SLD-PLNÁ
 62
     2
 10
814.1514498684
 20
-168.9054789805
 30
0.0
  0
VERTEX
  5
7AD
  8
VIDITELNE
  6
SLD-PLNÁ
 62
     2
 10
813.1107359875
 20
-168.7617147529
 30
0.0
  0
VERTEX
  5
7AE
  8
VIDITELNE
  6
SLD-PLNÁ
 62
     2
 10
811.699568804
 20
-168.5842335099
 30
0.0
  0
VERTEX
  5
7AF
  8
VIDITELNE
  6
SLD-PLNÁ
 62
     2
 10
809.9654718481
 20
-168.3935784683
 30
0.0
  0
VERTEX
  5
7B0
  8
VIDITELNE
  6
SLD-PLNÁ
 62
     2
 10
807.9525914918
 20
-168.2099981834
 30
0.0
  0
VERTEX
  5
7B1
  8
VIDITELNE
  6
SLD-PLNÁ
 62
     2
 10
805.724048176
 20
-168.0551168245
 30
0.0
  0
VERTEX
  5
7B2
  8
VIDITELNE
  6
SLD-PLNÁ
 62
     2
 10
803.3347371868
 20
-167.9444241218
 30
0.0
  0
VERTEX
  5
7B3
  8
VIDITELNE
  6
SLD-PLNÁ
 62
     2
 10
800.8498346579
 20
-167.8918347629
 30
0.0
  0
VERTEX
  5
7B4
  8
VIDITELNE
  6
SLD-PLNÁ
 62
     2
 10
798.3408167771
 20
-167.9017381007
 30
0.0
  0
VERTEX
  5
7B5
  8
VIDITELNE
  6
SLD-PLNÁ
 62
     2
 10
794.9596225317
 20
-168.0172632308
 30
0.0
  0
VERTEX
  5
7B6
  8
VIDITELNE
  6
SLD-PLNÁ
 62
     2
 10
792.6539020887
 20
-168.1630519422
 30
0.0
  0
VERTEX
  5
7B7
  8
VIDITELNE
  6
SLD-PLNÁ
 62
     2
 10
790.5579738611
 20
-168.3417954982
 30
0.0
  0
VERTEX
  5
7B8
  8
VIDITELNE
  6
SLD-PLNÁ
 62
     2
 10
788.7443868503
 20
-168.5325687507
 30
0.0
  0
VERTEX
  5
7B9
  8
VIDITELNE
  6
SLD-PLNÁ
 62
     2
 10
787.2448071545
 20
-168.715169462
 30
0.0
  0
VERTEX
  5
7BA
  8
VIDITELNE
  6
SLD-PLNÁ
 62
     2
 10
786.1115079931
 20
-168.8680282894
 30
0.0
  0
VERTEX
  5
7BB
  8
VIDITELNE
  6
SLD-PLNÁ
 62
     2
 10
785.361520432
 20
-168.9764342105
 30
0.0
  0
VERTEX
  5
7BC
  8
VIDITELNE
  6
SLD-PLNÁ
 62
     2
 10
785.0219109877
 20
-169.0270920403
 30
0.0
  0
VERTEX
  5
7BD
  8
VIDITELNE
  6
SLD-PLNÁ
 62
     2
 10
785.0462638461
 20
-169.0234793438
 30
0.0
  0
SEQEND
  5
7BE
  8
VIDITELNE
  6
SLD-PLNÁ
 62
     2
  0
LINE
  5
28A
  8
VIDITELNE
  6
SLD-PLNÁ
 62
     2
 10
800.0
 20
-173.0306296884
 30
0.0
 11
810.5
 21
-173.0306296884
 31
0.0
  0
LINE
  5
28B
  8
VIDITELNE
  6
SLD-PLNÁ
 62
     2
 10
789.5
 20
-173.0306296884
 30
0.0
 11
800.0
 21
-173.0306296884
 31
0.0
  0
LINE
  5
28C
  8
VIDITELNE
  6
SLD-PLNÁ
 62
     2
 10
-488.65
 20
132.4693703116
 30
0.0
 11
-494.7197989934
 21
132.2574082601
 31
0.0
  0
LINE
  5
28D
  8
VIDITELNE
  6
SLD-PLNÁ
 62
     2
 10
-494.7197989934
 20
23.6813323631
 30
0.0
 11
-488.65
 21
23.4693703116
 31
0.0
  0
ARC
  5
28E
  8
VIDITELNE
  6
SLD-PLNÁ
 62
     2
 10
-494.65
 20
130.258626606
 30
0.0
 40
2.000000000000004
 50
92.0
 51
180.0
  0
ARC
  5
28F
  8
VIDITELNE
  6
SLD-PLNÁ
 62
     2
 10
-494.65
 20
25.6801140171
 30
0.0
 40
2.000000000000022
 50
180.0
 51
268.0
  0
LINE
  5
290
  8
VIDITELNE
  6
SLD-PLNÁ
 62
     2
 10
-347.3465354484
 20
132.0839782269
 30
0.0
 11
-347.5444667725
 21
133.2065025466
 31
0.0
  0
LINE
  5
291
  8
VIDITELNE
  6
SLD-PLNÁ
 62
     2
 10
-369.7555279998
 20
133.2065321945
 30
0.0
 11
-369.9540484586
 21
132.0806667258
 31
0.0
  0
POLYLINE
  5
292
  8
VIDITELNE
  6
SLD-PLNÁ
 62
     2
 66
     1
 10
0.0
 20
0.0
 30
0.0
  0
VERTEX
  5
7BF
  8
VIDITELNE
  6
SLD-PLNÁ
 62
     2
 10
-358.65
 20
141.969367316
 30
0.0
  0
VERTEX
  5
7C0
  8
VIDITELNE
  6
SLD-PLNÁ
 62
     2
 10
-360.7428191919
 20
142.0444870367
 30
0.0
  0
VERTEX
  5
7C1
  8
VIDITELNE
  6
SLD-PLNÁ
 62
     2
 10
-362.562057361
 20
142.4472908267
 30
0.0
  0
VERTEX
  5
7C2
  8
VIDITELNE
  6
SLD-PLNÁ
 62
     2
 10
-364.0733746959
 20
143.0348934578
 30
0.0
  0
VERTEX
  5
7C3
  8
VIDITELNE
  6
SLD-PLNÁ
 62
     2
 10
-365.2777837383
 20
143.699773228
 30
0.0
  0
VERTEX
  5
7C4
  8
VIDITELNE
  6
SLD-PLNÁ
 62
     2
 10
-366.9617245108
 20
145.0020426762
 30
0.0
  0
VERTEX
  5
7C5
  8
VIDITELNE
  6
SLD-PLNÁ
 62
     2
 10
-368.2652682567
 20
146.4436662941
 30
0.0
  0
VERTEX
  5
7C6
  8
VIDITELNE
  6
SLD-PLNÁ
 62
     2
 10
-370.0148040045
 20
149.7118429675
 30
0.0
  0
VERTEX
  5
7C7
  8
VIDITELNE
  6
SLD-PLNÁ
 62
     2
 10
-370.4945944462
 20
151.5803132739
 30
0.0
  0
VERTEX
  5
7C8
  8
VIDITELNE
  6
SLD-PLNÁ
 62
     2
 10
-370.666337906
 20
153.7241479769
 30
0.0
  0
VERTEX
  5
7C9
  8
VIDITELNE
  6
SLD-PLNÁ
 62
     2
 10
-370.4379029216
 20
155.9440916712
 30
0.0
  0
VERTEX
  5
7CA
  8
VIDITELNE
  6
SLD-PLNÁ
 62
     2
 10
-369.8872628654
 20
157.8772895207
 30
0.0
  0
VERTEX
  5
7CB
  8
VIDITELNE
  6
SLD-PLNÁ
 62
     2
 10
-369.092747048
 20
159.5805099574
 30
0.0
  0
VERTEX
  5
7CC
  8
VIDITELNE
  6
SLD-PLNÁ
 62
     2
 10
-367.9684249683
 20
161.2445803156
 30
0.0
  0
VERTEX
  5
7CD
  8
VIDITELNE
  6
SLD-PLNÁ
 62
     2
 10
-366.4742363332
 20
162.8104183859
 30
0.0
  0
VERTEX
  5
7CE
  8
VIDITELNE
  6
SLD-PLNÁ
 62
     2
 10
-364.5782991668
 20
164.1905655313
 30
0.0
  0
VERTEX
  5
7CF
  8
VIDITELNE
  6
SLD-PLNÁ
 62
     2
 10
-362.0266018055
 20
165.3484858181
 30
0.0
  0
VERTEX
  5
7D0
  8
VIDITELNE
  6
SLD-PLNÁ
 62
     2
 10
-358.65
 20
165.9693703116
 30
0.0
  0
SEQEND
  5
7D1
  8
VIDITELNE
  6
SLD-PLNÁ
 62
     2
  0
POLYLINE
  5
293
  8
VIDITELNE
  6
SLD-PLNÁ
 62
     2
 66
     1
 10
0.0
 20
0.0
 30
0.0
  0
VERTEX
  5
7D2
  8
VIDITELNE
  6
SLD-PLNÁ
 62
     2
 10
-358.65
 20
173.9693703116
 30
0.0
  0
VERTEX
  5
7D3
  8
VIDITELNE
  6
SLD-PLNÁ
 62
     2
 10
-361.8008773865
 20
173.8313852467
 30
0.0
  0
VERTEX
  5
7D4
  8
VIDITELNE
  6
SLD-PLNÁ
 62
     2
 10
-364.6233232532
 20
173.2914107613
 30
0.0
  0
VERTEX
  5
7D5
  8
VIDITELNE
  6
SLD-PLNÁ
 62
     2
 10
-367.0825647726
 20
172.4839093594
 30
0.0
  0
VERTEX
  5
7D6
  8
VIDITELNE
  6
SLD-PLNÁ
 62
     2
 10
-369.1717852124
 20
171.5221266604
 30
0.0
  0
VERTEX
  5
7D7
  8
VIDITELNE
  6
SLD-PLNÁ
 62
     2
 10
-372.6410770239
 20
169.2311183556
 30
0.0
  0
VERTEX
  5
7D8
  8
VIDITELNE
  6
SLD-PLNÁ
 62
     2
 10
-375.3895604535
 20
166.5655818785
 30
0.0
  0
VERTEX
  5
7D9
  8
VIDITELNE
  6
SLD-PLNÁ
 62
     2
 10
-377.4784629788
 20
163.696821071
 30
0.0
  0
VERTEX
  5
7DA
  8
VIDITELNE
  6
SLD-PLNÁ
 62
     2
 10
-379.0136670817
 20
160.6664199398
 30
0.0
  0
VERTEX
  5
7DB
  8
VIDITELNE
  6
SLD-PLNÁ
 62
     2
 10
-380.1420354921
 20
157.0706736296
 30
0.0
  0
VERTEX
  5
7DC
  8
VIDITELNE
  6
SLD-PLNÁ
 62
     2
 10
-380.6486769324
 20
153.0101750625
 30
0.0
  0
VERTEX
  5
7DD
  8
VIDITELNE
  6
SLD-PLNÁ
 62
     2
 10
-380.4382052283
 20
149.2208263874
 30
0.0
  0
VERTEX
  5
7DE
  8
VIDITELNE
  6
SLD-PLNÁ
 62
     2
 10
-379.6851671011
 20
145.8494441459
 30
0.0
  0
VERTEX
  5
7DF
  8
VIDITELNE
  6
SLD-PLNÁ
 62
     2
 10
-378.4165264182
 20
142.6319872629
 30
0.0
  0
VERTEX
  5
7E0
  8
VIDITELNE
  6
SLD-PLNÁ
 62
     2
 10
-376.6498579938
 20
139.6266387049
 30
0.0
  0
VERTEX
  5
7E1
  8
VIDITELNE
  6
SLD-PLNÁ
 62
     2
 10
-375.2562551695
 20
137.8315704125
 30
0.0
  0
VERTEX
  5
7E2
  8
VIDITELNE
  6
SLD-PLNÁ
 62
     2
 10
-373.7196865358
 20
136.2164247467
 30
0.0
  0
VERTEX
  5
7E3
  8
VIDITELNE
  6
SLD-PLNÁ
 62
     2
 10
-371.6107965573
 20
134.4411761135
 30
0.0
  0
VERTEX
  5
7E4
  8
VIDITELNE
  6
SLD-PLNÁ
 62
     2
 10
-369.7431294952
 20
133.219112136
 30
0.0
  0
SEQEND
  5
7E5
  8
VIDITELNE
  6
SLD-PLNÁ
 62
     2
  0
POLYLINE
  5
294
  8
VIDITELNE
  6
SLD-PLNÁ
 62
     2
 66
     1
 10
0.0
 20
0.0
 30
0.0
  0
VERTEX
  5
7E6
  8
VIDITELNE
  6
SLD-PLNÁ
 62
     2
 10
-347.5550468142
 20
133.2191605017
 30
0.0
  0
VERTEX
  5
7E7
  8
VIDITELNE
  6
SLD-PLNÁ
 62
     2
 10
-346.6892787387
 20
133.7395395936
 30
0.0
  0
VERTEX
  5
7E8
  8
VIDITELNE
  6
SLD-PLNÁ
 62
     2
 10
-345.0662918088
 20
134.9206617398
 30
0.0
  0
VERTEX
  5
7E9
  8
VIDITELNE
  6
SLD-PLNÁ
 62
     2
 10
-343.2545759659
 20
136.5328347147
 30
0.0
  0
VERTEX
  5
7EA
  8
VIDITELNE
  6
SLD-PLNÁ
 62
     2
 10
-341.3508251183
 20
138.6773634889
 30
0.0
  0
VERTEX
  5
7EB
  8
VIDITELNE
  6
SLD-PLNÁ
 62
     2
 10
-339.7272943134
 20
141.0622319609
 30
0.0
  0
VERTEX
  5
7EC
  8
VIDITELNE
  6
SLD-PLNÁ
 62
     2
 10
-338.6485508925
 20
143.1296139797
 30
0.0
  0
VERTEX
  5
7ED
  8
VIDITELNE
  6
SLD-PLNÁ
 62
     2
 10
-337.9684498319
 20
144.7920096573
 30
0.0
  0
VERTEX
  5
7EE
  8
VIDITELNE
  6
SLD-PLNÁ
 62
     2
 10
-337.3963064846
 20
146.6096279
 30
0.0
  0
VERTEX
  5
7EF
  8
VIDITELNE
  6
SLD-PLNÁ
 62
     2
 10
-336.9088595821
 20
148.9070599239
 30
0.0
  0
VERTEX
  5
7F0
  8
VIDITELNE
  6
SLD-PLNÁ
 62
     2
 10
-336.6520918914
 20
151.6347475503
 30
0.0
  0
VERTEX
  5
7F1
  8
VIDITELNE
  6
SLD-PLNÁ
 62
     2
 10
-336.9204978573
 20
155.826602678
 30
0.0
  0
VERTEX
  5
7F2
  8
VIDITELNE
  6
SLD-PLNÁ
 62
     2
 10
-337.9844274657
 20
159.8911897718
 30
0.0
  0
VERTEX
  5
7F3
  8
VIDITELNE
  6
SLD-PLNÁ
 62
     2
 10
-339.016984872
 20
162.2558323398
 30
0.0
  0
VERTEX
  5
7F4
  8
VIDITELNE
  6
SLD-PLNÁ
 62
     2
 10
-340.0756529622
 20
164.1038726326
 30
0.0
  0
VERTEX
  5
7F5
  8
VIDITELNE
  6
SLD-PLNÁ
 62
     2
 10
-341.0729381441
 20
165.5317946101
 30
0.0
  0
VERTEX
  5
7F6
  8
VIDITELNE
  6
SLD-PLNÁ
 62
     2
 10
-342.3356808769
 20
167.0442160452
 30
0.0
  0
VERTEX
  5
7F7
  8
VIDITELNE
  6
SLD-PLNÁ
 62
     2
 10
-344.0226245138
 20
168.6948974146
 30
0.0
  0
VERTEX
  5
7F8
  8
VIDITELNE
  6
SLD-PLNÁ
 62
     2
 10
-346.296128323
 20
170.4334901218
 30
0.0
  0
VERTEX
  5
7F9
  8
VIDITELNE
  6
SLD-PLNÁ
 62
     2
 10
-348.5789613388
 20
171.7534397497
 30
0.0
  0
VERTEX
  5
7FA
  8
VIDITELNE
  6
SLD-PLNÁ
 62
     2
 10
-351.4049051363
 20
172.9140940347
 30
0.0
  0
VERTEX
  5
7FB
  8
VIDITELNE
  6
SLD-PLNÁ
 62
     2
 10
-354.7791592712
 20
173.7349295512
 30
0.0
  0
VERTEX
  5
7FC
  8
VIDITELNE
  6
SLD-PLNÁ
 62
     2
 10
-358.65
 20
173.9693703116
 30
0.0
  0
SEQEND
  5
7FD
  8
VIDITELNE
  6
SLD-PLNÁ
 62
     2
  0
POLYLINE
  5
295
  8
VIDITELNE
  6
SLD-PLNÁ
 62
     2
 66
     1
 10
0.0
 20
0.0
 30
0.0
  0
VERTEX
  5
7FE
  8
VIDITELNE
  6
SLD-PLNÁ
 62
     2
 10
-358.65
 20
165.9693703116
 30
0.0
  0
VERTEX
  5
7FF
  8
VIDITELNE
  6
SLD-PLNÁ
 62
     2
 10
-356.8612761694
 20
165.7571923654
 30
0.0
  0
VERTEX
  5
800
  8
VIDITELNE
  6
SLD-PLNÁ
 62
     2
 10
-355.2733981945
 20
165.3484858181
 30
0.0
  0
VERTEX
  5
801
  8
VIDITELNE
  6
SLD-PLNÁ
 62
     2
 10
-352.7217008332
 20
164.1905655313
 30
0.0
  0
VERTEX
  5
802
  8
VIDITELNE
  6
SLD-PLNÁ
 62
     2
 10
-350.8257636668
 20
162.8104183859
 30
0.0
  0
VERTEX
  5
803
  8
VIDITELNE
  6
SLD-PLNÁ
 62
     2
 10
-349.3315750317
 20
161.2445803156
 30
0.0
  0
VERTEX
  5
804
  8
VIDITELNE
  6
SLD-PLNÁ
 62
     2
 10
-348.207252952
 20
159.5805099574
 30
0.0
  0
VERTEX
  5
805
  8
VIDITELNE
  6
SLD-PLNÁ
 62
     2
 10
-347.4127371346
 20
157.8772895207
 30
0.0
  0
VERTEX
  5
806
  8
VIDITELNE
  6
SLD-PLNÁ
 62
     2
 10
-346.8620970784
 20
155.9440916712
 30
0.0
  0
VERTEX
  5
807
  8
VIDITELNE
  6
SLD-PLNÁ
 62
     2
 10
-346.633662094
 20
153.7241479769
 30
0.0
  0
VERTEX
  5
808
  8
VIDITELNE
  6
SLD-PLNÁ
 62
     2
 10
-346.8054055538
 20
151.5803132739
 30
0.0
  0
VERTEX
  5
809
  8
VIDITELNE
  6
SLD-PLNÁ
 62
     2
 10
-347.2851959955
 20
149.7118429675
 30
0.0
  0
VERTEX
  5
80A
  8
VIDITELNE
  6
SLD-PLNÁ
 62
     2
 10
-349.0347317433
 20
146.4436662941
 30
0.0
  0
VERTEX
  5
80B
  8
VIDITELNE
  6
SLD-PLNÁ
 62
     2
 10
-350.3382754892
 20
145.0020426762
 30
0.0
  0
VERTEX
  5
80C
  8
VIDITELNE
  6
SLD-PLNÁ
 62
     2
 10
-352.0222162617
 20
143.699773228
 30
0.0
  0
VERTEX
  5
80D
  8
VIDITELNE
  6
SLD-PLNÁ
 62
     2
 10
-353.2266253041
 20
143.0348934578
 30
0.0
  0
VERTEX
  5
80E
  8
VIDITELNE
  6
SLD-PLNÁ
 62
     2
 10
-354.737942639
 20
142.4472908267
 30
0.0
  0
VERTEX
  5
80F
  8
VIDITELNE
  6
SLD-PLNÁ
 62
     2
 10
-356.5571808081
 20
142.0444870367
 30
0.0
  0
VERTEX
  5
810
  8
VIDITELNE
  6
SLD-PLNÁ
 62
     2
 10
-358.65
 20
141.969367316
 30
0.0
  0
SEQEND
  5
811
  8
VIDITELNE
  6
SLD-PLNÁ
 62
     2
  0
LINE
  5
296
  8
VIDITELNE
  6
SLD-PLNÁ
 62
     2
 10
-228.65
 20
23.4693703116
 30
0.0
 11
-222.5802010066
 21
23.6813323631
 31
0.0
  0
LINE
  5
297
  8
VIDITELNE
  6
SLD-PLNÁ
 62
     2
 10
-222.5802010066
 20
132.2574082601
 30
0.0
 11
-228.65
 21
132.4693703116
 31
0.0
  0
ARC
  5
298
  8
VIDITELNE
  6
SLD-PLNÁ
 62
     2
 10
-222.65
 20
25.6801140171
 30
0.0
 40
2.000000000000008
 50
272.0
 51
0.0
  0
ARC
  5
299
  8
VIDITELNE
  6
SLD-PLNÁ
 62
     2
 10
-222.65
 20
130.258626606
 30
0.0
 40
2.000000000000004
 50
0.0
 51
88.0
  0
LINE
  5
29A
  8
VIDITELNE
  6
SLD-PLNÁ
 62
     2
 10
-463.65
 20
132.9693703116
 30
0.0
 11
-488.65
 21
132.9693703116
 31
0.0
  0
LINE
  5
29B
  8
VIDITELNE
  6
SLD-PLNÁ
 62
     2
 10
-373.65
 20
132.9693703116
 30
0.0
 11
-433.6725757509
 21
132.9693703116
 31
0.0
  0
LINE
  5
29C
  8
VIDITELNE
  6
SLD-PLNÁ
 62
     2
 10
-228.65
 20
132.9693703116
 30
0.0
 11
-343.6725757509
 21
132.9693703116
 31
0.0
  0
LINE
  5
29D
  8
VIDITELNE
  6
SLD-PLNÁ
 62
     2
 10
-488.65
 20
22.9693703116
 30
0.0
 11
-485.65
 21
22.9693703116
 31
0.0
  0
ARC
  5
29E
  8
VIDITELNE
  6
SLD-PLNÁ
 62
     2
 10
-485.65
 20
20.9693703116
 30
0.0
 40
2.000000000000004
 50
0.0
 51
90.0
  0
LINE
  5
29F
  8
VIDITELNE
  6
SLD-PLNÁ
 62
     2
 10
-501.95
 20
97.9693703116
 30
0.0
 11
-504.15
 21
97.9693703116
 31
0.0
  0
LINE
  5
2A0
  8
VIDITELNE
  6
SLD-PLNÁ
 62
     2
 10
-504.15
 20
57.9693703116
 30
0.0
 11
-501.95
 21
57.9693703116
 31
0.0
  0
ARC
  5
2A1
  8
VIDITELNE
  6
SLD-PLNÁ
 62
     2
 10
-504.15
 20
58.4693703116
 30
0.0
 40
0.5000000000000568
 50
180.0
 51
270.0
  0
ARC
  5
2A2
  8
VIDITELNE
  6
SLD-PLNÁ
 62
     2
 10
-504.15
 20
97.4693703116
 30
0.0
 40
0.5000000000000568
 50
90.0
 51
180.0
  0
LINE
  5
2A3
  8
VIDITELNE
  6
SLD-PLNÁ
 62
     2
 10
-583.15
 20
96.9693703116
 30
0.0
 11
-584.65
 21
95.4693703116
 31
0.0
  0
LINE
  5
2A4
  8
VIDITELNE
  6
SLD-PLNÁ
 62
     2
 10
-584.65
 20
60.4693703116
 30
0.0
 11
-583.15
 21
58.9693703116
 31
0.0
  0
LINE
  5
2A5
  8
VIDITELNE
  6
SLD-PLNÁ
 62
     2
 10
-575.5830327725
 20
96.9693703116
 30
0.0
 11
-583.15
 21
96.9693703116
 31
0.0
  0
LINE
  5
2A6
  8
VIDITELNE
  6
SLD-PLNÁ
 62
     2
 10
-504.65
 20
96.9693703116
 30
0.0
 11
-512.65
 21
96.9693703116
 31
0.0
  0
LINE
  5
2A7
  8
VIDITELNE
  6
SLD-PLNÁ
 62
     2
 10
-583.15
 20
58.9693703116
 30
0.0
 11
-504.65
 21
58.9693703116
 31
0.0
  0
ARC
  5
2A8
  8
VIDITELNE
  6
SLD-PLNÁ
 62
     2
 10
-341.7272726163
 20
-167.8123194521
 30
0.0
 40
1.903464853514898
 50
107.7445842122
 51
182.2778371363
  0
POLYLINE
  5
2A9
  8
VIDITELNE
  6
SLD-PLNÁ
 62
     2
 66
     1
 10
0.0
 20
0.0
 30
0.0
  0
VERTEX
  5
812
  8
VIDITELNE
  6
SLD-PLNÁ
 62
     2
 10
-375.3642425581
 20
-165.908377467
 30
0.0
  0
VERTEX
  5
813
  8
VIDITELNE
  6
SLD-PLNÁ
 62
     2
 10
-375.3642691892
 20
-165.9083793324
 30
0.0
  0
VERTEX
  5
814
  8
VIDITELNE
  6
SLD-PLNÁ
 62
     2
 10
-375.3539248777
 20
-165.9098898261
 30
0.0
  0
VERTEX
  5
815
  8
VIDITELNE
  6
SLD-PLNÁ
 62
     2
 10
-375.3386981413
 20
-165.912216521
 30
0.0
  0
VERTEX
  5
816
  8
VIDITELNE
  6
SLD-PLNÁ
 62
     2
 10
-375.3165299643
 20
-165.9158204744
 30
0.0
  0
VERTEX
  5
817
  8
VIDITELNE
  6
SLD-PLNÁ
 62
     2
 10
-375.2720672647
 20
-165.9238242687
 30
0.0
  0
VERTEX
  5
818
  8
VIDITELNE
  6
SLD-PLNÁ
 62
     2
 10
-375.0409051404
 20
-165.9826235655
 30
0.0
  0
VERTEX
  5
819
  8
VIDITELNE
  6
SLD-PLNÁ
 62
     2
 10
-374.6227790569
 20
-166.1711928936
 30
0.0
  0
VERTEX
  5
81A
  8
VIDITELNE
  6
SLD-PLNÁ
 62
     2
 10
-374.0559665208
 20
-166.6783492632
 30
0.0
  0
VERTEX
  5
81B
  8
VIDITELNE
  6
SLD-PLNÁ
 62
     2
 10
-373.7434584132
 20
-167.2795555141
 30
0.0
  0
VERTEX
  5
81C
  8
VIDITELNE
  6
SLD-PLNÁ
 62
     2
 10
-373.6638422881
 20
-167.8896849522
 30
0.0
  0
SEQEND
  5
81D
  8
VIDITELNE
  6
SLD-PLNÁ
 62
     2
  0
ARC
  5
2AA
  8
VIDITELNE
  6
SLD-PLNÁ
 62
     2
 10
-231.65
 20
-19.0306296884
 30
0.0
 40
2.000000000000001
 50
104.4775121859
 51
180.0
  0
ARC
  5
2AB
  8
VIDITELNE
  6
SLD-PLNÁ
 62
     2
 10
-228.65
 20
20.9693703116
 30
0.0
 40
2.000000000000004
 50
90.0
 51
180.0
  0
ARC
  5
2AC
  8
VIDITELNE
  6
SLD-PLNÁ
 62
     2
 10
-232.65
 20
-15.1576463422
 30
0.0
 40
2.000000000000001
 50
284.4775121859
 51
0.0
  0
LINE
  5
2AD
  8
VIDITELNE
  6
SLD-PLNÁ
 62
     2
 10
-373.65
 20
-167.8876914689
 30
0.0
 11
-373.65
 21
-170.0306296884
 31
0.0
  0
LINE
  5
2AE
  8
VIDITELNE
  6
SLD-PLNÁ
 62
     2
 10
-343.65
 20
-170.0306296884
 30
0.0
 11
-343.65
 21
-167.8951841183
 31
0.0
  0
ARC
  5
2AF
  8
VIDITELNE
  6
SLD-PLNÁ
 62
     2
 10
-227.65
 20
7.4693703116
 30
0.0
 40
1.0
 50
0.0
 51
90.0
  0
ARC
  5
2B0
  8
VIDITELNE
  6
SLD-PLNÁ
 62
     2
 10
-227.65
 20
-11.5306296884
 30
0.0
 40
1.000000000000002
 50
270.0
 51
0.0
  0
LINE
  5
2B1
  8
VIDITELNE
  6
SLD-PLNÁ
 62
     2
 10
-230.65
 20
-12.5306296884
 30
0.0
 11
-227.65
 21
-12.5306296884
 31
0.0
  0
LINE
  5
2B2
  8
VIDITELNE
  6
SLD-PLNÁ
 62
     2
 10
-227.65
 20
8.4693703116
 30
0.0
 11
-230.65
 21
8.4693703116
 31
0.0
  0
ARC
  5
2B3
  8
VIDITELNE
  6
SLD-PLNÁ
 62
     2
 10
-349.15
 20
-173.0306296884
 30
0.0
 40
1.0
 50
270.0
 51
0.0
  0
ARC
  5
2B4
  8
VIDITELNE
  6
SLD-PLNÁ
 62
     2
 10
-368.15
 20
-173.0306296884
 30
0.0
 40
1.0
 50
180.0
 51
270.0
  0
LINE
  5
2B5
  8
VIDITELNE
  6
SLD-PLNÁ
 62
     2
 10
-369.15
 20
-170.0306296884
 30
0.0
 11
-369.15
 21
-173.0306296884
 31
0.0
  0
LINE
  5
2B6
  8
VIDITELNE
  6
SLD-PLNÁ
 62
     2
 10
-348.15
 20
-173.0306296884
 30
0.0
 11
-348.15
 21
-170.0306296884
 31
0.0
  0
ARC
  5
2B7
  8
VIDITELNE
  6
SLD-PLNÁ
 62
     2
 10
-458.15
 20
133.9693703116
 30
0.0
 40
1.0
 50
90.0
 51
180.0
  0
ARC
  5
2B8
  8
VIDITELNE
  6
SLD-PLNÁ
 62
     2
 10
-439.15
 20
133.9693703116
 30
0.0
 40
1.0
 50
0.0
 51
90.0
  0
LINE
  5
2B9
  8
VIDITELNE
  6
SLD-PLNÁ
 62
     2
 10
-438.15
 20
131.9162229335
 30
0.0
 11
-438.15
 21
133.9693703116
 31
0.0
  0
LINE
  5
2BA
  8
VIDITELNE
  6
SLD-PLNÁ
 62
     2
 10
-459.15
 20
133.9693703116
 30
0.0
 11
-459.15
 21
131.9231907798
 31
0.0
  0
LINE
  5
2BB
  8
VIDITELNE
  6
SLD-PLNÁ
 62
     2
 10
-575.65
 20
100.2693703116
 30
0.0
 11
-575.65
 21
96.9518812034
 31
0.0
  0
LINE
  5
2BC
  8
VIDITELNE
  6
SLD-PLNÁ
 62
     2
 10
-512.65
 20
96.9693703116
 30
0.0
 11
-512.65
 21
100.2693703116
 31
0.0
  0
CIRCLE
  5
2BD
  8
VIDITELNE
  6
SLD-PLNÁ
 62
     2
 10
-358.65
 20
-42.0306296884
 30
0.0
 40
42.5
  0
CIRCLE
  5
2BE
  8
VIDITELNE
  6
SLD-PLNÁ
 62
     2
 10
-358.65
 20
-42.0306296884
 30
0.0
 40
65.0
  0
ARC
  5
2BF
  8
VIDITELNE
  6
SLD-PLNÁ
 62
     2
 10
-358.65
 20
-42.0306296884
 30
0.0
 40
95.00000000000001
 50
69.9131672646
 51
110.0868327354
  0
ARC
  5
2C0
  8
VIDITELNE
  6
SLD-PLNÁ
 62
     2
 10
-358.65
 20
-42.0306296884
 30
0.0
 40
95.00000000000004
 50
65.0868327354
 51
69.9131672646
  0
ARC
  5
2C1
  8
VIDITELNE
  6
SLD-PLNÁ
 62
     2
 10
-358.65
 20
-42.0306296884
 30
0.0
 40
95.00000000000004
 50
24.9131672646
 51
65.0868327354
  0
ARC
  5
2C2
  8
VIDITELNE
  6
SLD-PLNÁ
 62
     2
 10
-358.65
 20
-42.0306296884
 30
0.0
 40
95.0
 50
20.0868327354
 51
24.9131672646
  0
ARC
  5
2C3
  8
VIDITELNE
  6
SLD-PLNÁ
 62
     2
 10
-358.65
 20
-42.0306296884
 30
0.0
 40
95.00000000000001
 50
339.9131672646
 51
20.0868327354
  0
ARC
  5
2C4
  8
VIDITELNE
  6
SLD-PLNÁ
 62
     2
 10
-358.65
 20
-42.0306296884
 30
0.0
 40
95.0000000000001
 50
335.0868327354
 51
339.9131672646
  0
ARC
  5
2C5
  8
VIDITELNE
  6
SLD-PLNÁ
 62
     2
 10
-358.65
 20
-42.0306296884
 30
0.0
 40
95.0000000000001
 50
294.9131672646
 51
335.0868327354
  0
ARC
  5
2C6
  8
VIDITELNE
  6
SLD-PLNÁ
 62
     2
 10
-358.65
 20
-42.0306296884
 30
0.0
 40
95.00000000000004
 50
290.0868327354
 51
294.9131672646
  0
ARC
  5
2C7
  8
VIDITELNE
  6
SLD-PLNÁ
 62
     2
 10
-358.65
 20
-42.0306296884
 30
0.0
 40
95.00000000000004
 50
249.9131672646
 51
290.0868327354
  0
ARC
  5
2C8
  8
VIDITELNE
  6
SLD-PLNÁ
 62
     2
 10
-358.65
 20
-42.0306296884
 30
0.0
 40
95.00000000000004
 50
245.0868327354
 51
249.9131672646
  0
ARC
  5
2C9
  8
VIDITELNE
  6
SLD-PLNÁ
 62
     2
 10
-358.65
 20
-42.0306296884
 30
0.0
 40
95.00000000000001
 50
204.9131672646
 51
245.0868327354
  0
ARC
  5
2CA
  8
VIDITELNE
  6
SLD-PLNÁ
 62
     2
 10
-358.65
 20
-42.0306296884
 30
0.0
 40
95.0
 50
200.0868327354
 51
204.9131672646
  0
ARC
  5
2CB
  8
VIDITELNE
  6
SLD-PLNÁ
 62
     2
 10
-358.65
 20
-42.0306296884
 30
0.0
 40
95.0
 50
159.9131672646
 51
200.0868327354
  0
ARC
  5
2CC
  8
VIDITELNE
  6
SLD-PLNÁ
 62
     2
 10
-358.65
 20
-42.0306296884
 30
0.0
 40
95.0
 50
155.0868327354
 51
159.9131672646
  0
ARC
  5
2CD
  8
VIDITELNE
  6
SLD-PLNÁ
 62
     2
 10
-358.65
 20
-42.0306296884
 30
0.0
 40
95.00000000000001
 50
114.9131672646
 51
155.0868327354
  0
ARC
  5
2CE
  8
VIDITELNE
  6
SLD-PLNÁ
 62
     2
 10
-358.65
 20
-42.0306296884
 30
0.0
 40
95.00000000000001
 50
110.0868327354
 51
114.9131672646
  0
CIRCLE
  5
2CF
  8
VIDITELNE
  6
SLD-PLNÁ
 62
     2
 10
-300.3136905521
 20
16.3056797595
 30
0.0
 40
6.0
  0
CIRCLE
  5
2D0
  8
VIDITELNE
  6
SLD-PLNÁ
 62
     2
 10
-300.3136905521
 20
-100.3669391363
 30
0.0
 40
6.0
  0
CIRCLE
  5
2D1
  8
VIDITELNE
  6
SLD-PLNÁ
 62
     2
 10
-416.9863094479
 20
-100.3669391363
 30
0.0
 40
5.999999999999943
  0
CIRCLE
  5
2D2
  8
VIDITELNE
  6
SLD-PLNÁ
 62
     2
 10
-416.9863094479
 20
16.3056797595
 30
0.0
 40
6.0
  0
CIRCLE
  5
2D3
  8
VIDITELNE
  6
SLD-PLNÁ
 62
     2
 10
-300.3136905521
 20
16.3056797595
 30
0.0
 40
5.250000000000057
  0
LINE
  5
2D4
  8
VIDITELNE
  6
SLD-PLNÁ
 62
     2
 10
-326.0228323243
 20
-131.252084112
 30
0.0
 11
-315.6832401246
 21
-156.2140678299
 31
0.0
  0
ARC
  5
2D5
  8
VIDITELNE
  6
SLD-PLNÁ
 62
     2
 10
-358.65
 20
-42.0306296884
 30
0.0
 40
122.0
 50
290.6211131219
 51
294.3788868781
  0
LINE
  5
2D6
  8
VIDITELNE
  6
SLD-PLNÁ
 62
     2
 10
-308.2922038645
 20
-153.152600371
 30
0.0
 11
-318.6317960642
 21
-128.1906166531
 31
0.0
  0
ARC
  5
2D7
  8
VIDITELNE
  6
SLD-PLNÁ
 62
     2
 10
-358.65
 20
-42.0306296884
 30
0.0
 40
101.6395280956807
 50
204.7554445434
 51
245.2445554566
  0
ARC
  5
2D8
  8
VIDITELNE
  6
SLD-PLNÁ
 62
     2
 10
-358.65
 20
-42.0306296884
 30
0.0
 40
122.0
 50
245.6211131219
 51
249.3788868781
  0
LINE
  5
2D9
  8
VIDITELNE
  6
SLD-PLNÁ
 62
     2
 10
-398.6682039358
 20
-128.1906166531
 30
0.0
 11
-409.0077961355
 21
-153.152600371
 31
0.0
  0
LINE
  5
2DA
  8
VIDITELNE
  6
SLD-PLNÁ
 62
     2
 10
-401.6167598754
 20
-156.2140678299
 30
0.0
 11
-391.2771676757
 21
-131.252084112
 31
0.0
  0
ARC
  5
2DB
  8
VIDITELNE
  6
SLD-PLNÁ
 62
     2
 10
-358.65
 20
-42.0306296884
 30
0.0
 40
101.6395280956807
 50
294.7554445434
 51
335.2445554566
  0
ARC
  5
2DC
  8
VIDITELNE
  6
SLD-PLNÁ
 62
     2
 10
-358.65
 20
-42.0306296884
 30
0.0
 40
101.6395280956807
 50
249.7554445434
 51
290.2445554566
  0
CIRCLE
  5
2DD
  8
VIDITELNE
  6
SLD-PLNÁ
 62
     2
 10
-300.3136905521
 20
-100.3669391363
 30
0.0
 40
5.250000000000057
  0
LINE
  5
2DE
  8
VIDITELNE
  6
SLD-PLNÁ
 62
     2
 10
-272.4900130353
 20
-82.0488336243
 30
0.0
 11
-247.5280293174
 21
-92.3884258239
 31
0.0
  0
LINE
  5
2DF
  8
VIDITELNE
  6
SLD-PLNÁ
 62
     2
 10
-244.4665618585
 20
-84.9973895639
 30
0.0
 11
-269.4285455764
 21
-74.6577973642
 31
0.0
  0
ARC
  5
2E0
  8
VIDITELNE
  6
SLD-PLNÁ
 62
     2
 10
-358.65
 20
-42.0306296884
 30
0.0
 40
122.0000000000001
 50
335.6211131219
 51
339.3788868781
  0
ARC
  5
2E1
  8
VIDITELNE
  6
SLD-PLNÁ
 62
     2
 10
-358.65
 20
-42.0306296884
 30
0.0
 40
101.6395280956807
 50
339.7554445434
 51
20.2445554566
  0
ARC
  5
2E2
  8
VIDITELNE
  6
SLD-PLNÁ
 62
     2
 10
-358.65
 20
-42.0306296884
 30
0.0
 40
101.6395280956807
 50
159.7554445434
 51
200.2445554566
  0
LINE
  5
2E3
  8
VIDITELNE
  6
SLD-PLNÁ
 62
     2
 10
-447.8714544236
 20
-74.6577973642
 30
0.0
 11
-472.8334381415
 21
-84.9973895639
 31
0.0
  0
LINE
  5
2E4
  8
VIDITELNE
  6
SLD-PLNÁ
 62
     2
 10
-469.7719706826
 20
-92.3884258239
 30
0.0
 11
-444.8099869647
 21
-82.0488336243
 31
0.0
  0
ARC
  5
2E5
  8
VIDITELNE
  6
SLD-PLNÁ
 62
     2
 10
-358.65
 20
-42.0306296884
 30
0.0
 40
122.0
 50
200.6211131219
 51
204.3788868781
  0
CIRCLE
  5
2E6
  8
VIDITELNE
  6
SLD-PLNÁ
 62
     2
 10
-416.9863094479
 20
16.3056797595
 30
0.0
 40
5.25
  0
ARC
  5
2E7
  8
VIDITELNE
  6
SLD-PLNÁ
 62
     2
 10
-358.65
 20
-42.0306296884
 30
0.0
 40
101.6395280956807
 50
24.7554445434
 51
65.2445554566
  0
ARC
  5
2E8
  8
VIDITELNE
  6
SLD-PLNÁ
 62
     2
 10
-358.65
 20
-42.0306296884
 30
0.0
 40
101.6395280956807
 50
114.7554445434
 51
155.2445554566
  0
LINE
  5
2E9
  8
VIDITELNE
  6
SLD-PLNÁ
 62
     2
 10
-391.2771676757
 20
47.1908247351
 30
0.0
 11
-401.6167598754
 21
72.152808453
 31
0.0
  0
LINE
  5
2EA
  8
VIDITELNE
  6
SLD-PLNÁ
 62
     2
 10
-409.0077961355
 20
69.0913409941
 30
0.0
 11
-398.6682039358
 21
44.1293572762
 31
0.0
  0
ARC
  5
2EB
  8
VIDITELNE
  6
SLD-PLNÁ
 62
     2
 10
-358.65
 20
-42.0306296884
 30
0.0
 40
122.0
 50
110.6211131219
 51
114.3788868781
  0
ARC
  5
2EC
  8
VIDITELNE
  6
SLD-PLNÁ
 62
     2
 10
-358.65
 20
-42.0306296884
 30
0.0
 40
101.6395280956807
 50
69.7554445434
 51
110.2445554566
  0
ARC
  5
2ED
  8
VIDITELNE
  6
SLD-PLNÁ
 62
     2
 10
-358.65
 20
-42.0306296884
 30
0.0
 40
121.9999999999999
 50
20.6211131219
 51
24.3788868781
  0
LINE
  5
2EE
  8
VIDITELNE
  6
SLD-PLNÁ
 62
     2
 10
-247.5280293174
 20
8.3271664471
 30
0.0
 11
-272.4900130353
 21
-2.0124257526
 31
0.0
  0
LINE
  5
2EF
  8
VIDITELNE
  6
SLD-PLNÁ
 62
     2
 10
-269.4285455764
 20
-9.4034620127
 30
0.0
 11
-244.4665618585
 21
0.936130187
 31
0.0
  0
LINE
  5
2F0
  8
VIDITELNE
  6
SLD-PLNÁ
 62
     2
 10
-318.6317960642
 20
44.1293572762
 30
0.0
 11
-308.2922038645
 21
69.0913409941
 31
0.0
  0
LINE
  5
2F1
  8
VIDITELNE
  6
SLD-PLNÁ
 62
     2
 10
-315.6832401246
 20
72.152808453
 30
0.0
 11
-326.0228323243
 21
47.1908247351
 31
0.0
  0
ARC
  5
2F2
  8
VIDITELNE
  6
SLD-PLNÁ
 62
     2
 10
-358.65
 20
-42.0306296884
 30
0.0
 40
122.0
 50
65.6211131219
 51
69.3788868781
  0
LINE
  5
2F3
  8
VIDITELNE
  6
SLD-PLNÁ
 62
     2
 10
-444.8099869647
 20
-2.0124257526
 30
0.0
 11
-469.7719706826
 21
8.3271664471
 31
0.0
  0
ARC
  5
2F4
  8
VIDITELNE
  6
SLD-PLNÁ
 62
     2
 10
-358.65
 20
-42.0306296884
 30
0.0
 40
122.0000000000001
 50
155.6211131219
 51
159.3788868781
  0
LINE
  5
2F5
  8
VIDITELNE
  6
SLD-PLNÁ
 62
     2
 10
-472.8334381415
 20
0.936130187
 30
0.0
 11
-447.8714544236
 21
-9.4034620127
 31
0.0
  0
CIRCLE
  5
2F6
  8
VIDITELNE
  6
SLD-PLNÁ
 62
     2
 10
-416.9863094479
 20
-100.3669391363
 30
0.0
 40
5.25
  0
CIRCLE
  5
2F7
  8
VIDITELNE
  6
SLD-PLNÁ
 62
     2
 10
-358.65
 20
-157.0306296884
 30
0.0
 40
7.000000000000512
  0
CIRCLE
  5
2F8
  8
VIDITELNE
  6
SLD-PLNÁ
 62
     2
 10
-358.65
 20
-157.0306296884
 30
0.0
 40
8.000000000000512
  0
CIRCLE
  5
2F9
  8
VIDITELNE
  6
SLD-PLNÁ
 62
     2
 10
-473.65
 20
-42.0306296884
 30
0.0
 40
7.000000000003183
  0
CIRCLE
  5
2FA
  8
VIDITELNE
  6
SLD-PLNÁ
 62
     2
 10
-473.65
 20
-42.0306296884
 30
0.0
 40
8.000000000003183
  0
CIRCLE
  5
2FB
  8
VIDITELNE
  6
SLD-PLNÁ
 62
     2
 10
-439.9672798365
 20
-123.3479095249
 30
0.0
 40
7.000000000000853
  0
CIRCLE
  5
2FC
  8
VIDITELNE
  6
SLD-PLNÁ
 62
     2
 10
-439.9672798365
 20
-123.3479095249
 30
0.0
 40
8.000000000000853
  0
CIRCLE
  5
2FD
  8
VIDITELNE
  6
SLD-PLNÁ
 62
     2
 10
-439.9672798365
 20
39.286650148
 30
0.0
 40
7.000000000001364
  0
CIRCLE
  5
2FE
  8
VIDITELNE
  6
SLD-PLNÁ
 62
     2
 10
-439.9672798365
 20
39.286650148
 30
0.0
 40
8.000000000001364
  0
CIRCLE
  5
2FF
  8
VIDITELNE
  6
SLD-PLNÁ
 62
     2
 10
-277.3327201635
 20
-123.3479095249
 30
0.0
 40
7.000000000000114
  0
CIRCLE
  5
300
  8
VIDITELNE
  6
SLD-PLNÁ
 62
     2
 10
-277.3327201635
 20
-123.3479095249
 30
0.0
 40
8.000000000000114
  0
CIRCLE
  5
301
  8
VIDITELNE
  6
SLD-PLNÁ
 62
     2
 10
-243.65
 20
-42.0306296884
 30
0.0
 40
7.0
  0
CIRCLE
  5
302
  8
VIDITELNE
  6
SLD-PLNÁ
 62
     2
 10
-243.65
 20
-42.0306296884
 30
0.0
 40
8.0
  0
CIRCLE
  5
303
  8
VIDITELNE
  6
SLD-PLNÁ
 62
     2
 10
-358.65
 20
72.9693703116
 30
0.0
 40
7.0
  0
CIRCLE
  5
304
  8
VIDITELNE
  6
SLD-PLNÁ
 62
     2
 10
-358.65
 20
72.9693703116
 30
0.0
 40
8.0
  0
CIRCLE
  5
305
  8
VIDITELNE
  6
SLD-PLNÁ
 62
     2
 10
-277.3327201635
 20
39.286650148
 30
0.0
 40
6.999999999999943
  0
CIRCLE
  5
306
  8
VIDITELNE
  6
SLD-PLNÁ
 62
     2
 10
-277.3327201635
 20
39.286650148
 30
0.0
 40
7.999999999999943
  0
CIRCLE
  5
307
  8
VIDITELNE
  6
SLD-PLNÁ
 62
     2
 10
-358.65
 20
-42.0306296884
 30
0.0
 40
124.6158715355908
  0
CIRCLE
  5
308
  8
VIDITELNE
  6
SLD-PLNÁ
 62
     2
 10
-358.65
 20
-42.0306296884
 30
0.0
 40
125.0
  0
LINE
  5
309
  8
VIDITELNE
  6
SLD-PLNÁ
 62
     2
 10
-496.65
 20
51.0914516051
 30
0.0
 11
-496.65
 21
25.6870349802
 31
0.0
  0
LINE
  5
30A
  8
VIDITELNE
  6
SLD-PLNÁ
 62
     2
 10
-496.65
 20
103.3737869364
 30
0.0
 11
-496.65
 21
52.5649536867
 31
0.0
  0
LINE
  5
30B
  8
VIDITELNE
  6
SLD-PLNÁ
 62
     2
 10
-496.65
 20
130.2517056429
 30
0.0
 11
-496.65
 21
104.8472890181
 31
0.0
  0
LINE
  5
30C
  8
VIDITELNE
  6
SLD-PLNÁ
 62
     2
 10
-501.95
 20
95.6958676197
 30
0.0
 11
-496.65
 21
95.6958676197
 31
0.0
  0
LINE
  5
30D
  8
VIDITELNE
  6
SLD-PLNÁ
 62
     2
 10
-501.95
 20
95.6958676197
 30
0.0
 11
-501.95
 21
98.5826189656
 31
0.0
  0
LINE
  5
30E
  8
VIDITELNE
  6
SLD-PLNÁ
 62
     2
 10
-501.95
 20
98.5826189656
 30
0.0
 11
-496.65
 21
98.5826189656
 31
0.0
  0
LINE
  5
30F
  8
VIDITELNE
  6
SLD-PLNÁ
 62
     2
 10
-501.95
 20
98.5826189656
 30
0.0
 11
-501.95
 21
104.3561216575
 31
0.0
  0
LINE
  5
310
  8
VIDITELNE
  6
SLD-PLNÁ
 62
     2
 10
-501.95
 20
104.3561216575
 30
0.0
 11
-496.65
 21
104.3561216575
 31
0.0
  0
LINE
  5
311
  8
VIDITELNE
  6
SLD-PLNÁ
 62
     2
 10
-496.65
 20
103.3737869364
 30
0.0
 11
-496.65
 21
104.3561216575
 31
0.0
  0
LINE
  5
312
  8
VIDITELNE
  6
SLD-PLNÁ
 62
     2
 10
-501.95
 20
107.2428730035
 30
0.0
 11
-496.65
 21
107.2428730035
 31
0.0
  0
LINE
  5
313
  8
VIDITELNE
  6
SLD-PLNÁ
 62
     2
 10
-496.65
 20
104.3561216575
 30
0.0
 11
-496.65
 21
104.8472890181
 31
0.0
  0
LINE
  5
314
  8
VIDITELNE
  6
SLD-PLNÁ
 62
     2
 10
-501.95
 20
104.3561216575
 30
0.0
 11
-501.95
 21
107.2428730035
 31
0.0
  0
LINE
  5
315
  8
VIDITELNE
  6
SLD-PLNÁ
 62
     2
 10
-501.95
 20
57.3561216575
 30
0.0
 11
-496.65
 21
57.3561216575
 31
0.0
  0
LINE
  5
316
  8
VIDITELNE
  6
SLD-PLNÁ
 62
     2
 10
-501.95
 20
60.2428730035
 30
0.0
 11
-496.65
 21
60.2428730035
 31
0.0
  0
LINE
  5
317
  8
VIDITELNE
  6
SLD-PLNÁ
 62
     2
 10
-501.95
 20
57.3561216575
 30
0.0
 11
-501.95
 21
60.2428730035
 31
0.0
  0
LINE
  5
318
  8
VIDITELNE
  6
SLD-PLNÁ
 62
     2
 10
-501.95
 20
51.5826189656
 30
0.0
 11
-496.65
 21
51.5826189656
 31
0.0
  0
LINE
  5
319
  8
VIDITELNE
  6
SLD-PLNÁ
 62
     2
 10
-496.65
 20
51.5826189656
 30
0.0
 11
-496.65
 21
52.5649536867
 31
0.0
  0
LINE
  5
31A
  8
VIDITELNE
  6
SLD-PLNÁ
 62
     2
 10
-501.95
 20
51.5826189656
 30
0.0
 11
-501.95
 21
57.3561216575
 31
0.0
  0
LINE
  5
31B
  8
VIDITELNE
  6
SLD-PLNÁ
 62
     2
 10
-501.95
 20
48.6958676197
 30
0.0
 11
-496.65
 21
48.6958676197
 31
0.0
  0
LINE
  5
31C
  8
VIDITELNE
  6
SLD-PLNÁ
 62
     2
 10
-496.65
 20
51.0914516051
 30
0.0
 11
-496.65
 21
51.5826189656
 31
0.0
  0
LINE
  5
31D
  8
VIDITELNE
  6
SLD-PLNÁ
 62
     2
 10
-501.95
 20
48.6958676197
 30
0.0
 11
-501.95
 21
51.5826189656
 31
0.0
  0
LINE
  5
31E
  8
VIDITELNE
  6
SLD-PLNÁ
 62
     2
 10
-501.95
 20
122.0826189656
 30
0.0
 11
-496.65
 21
122.0826189656
 31
0.0
  0
LINE
  5
31F
  8
VIDITELNE
  6
SLD-PLNÁ
 62
     2
 10
-501.95
 20
122.0826189656
 30
0.0
 11
-501.95
 21
127.8561216575
 31
0.0
  0
LINE
  5
320
  8
VIDITELNE
  6
SLD-PLNÁ
 62
     2
 10
-501.95
 20
127.8561216575
 30
0.0
 11
-496.65
 21
127.8561216575
 31
0.0
  0
LINE
  5
321
  8
VIDITELNE
  6
SLD-PLNÁ
 62
     2
 10
-501.95
 20
119.1958676197
 30
0.0
 11
-496.65
 21
119.1958676197
 31
0.0
  0
LINE
  5
322
  8
VIDITELNE
  6
SLD-PLNÁ
 62
     2
 10
-501.95
 20
119.1958676197
 30
0.0
 11
-501.95
 21
122.0826189656
 31
0.0
  0
LINE
  5
323
  8
VIDITELNE
  6
SLD-PLNÁ
 62
     2
 10
-501.95
 20
130.7428730035
 30
0.0
 11
-496.65
 21
130.7428730035
 31
0.0
  0
LINE
  5
324
  8
VIDITELNE
  6
SLD-PLNÁ
 62
     2
 10
-496.65
 20
130.2517056429
 30
0.0
 11
-496.65
 21
130.7428730035
 31
0.0
  0
LINE
  5
325
  8
VIDITELNE
  6
SLD-PLNÁ
 62
     2
 10
-501.95
 20
127.8561216575
 30
0.0
 11
-501.95
 21
130.7428730035
 31
0.0
  0
LINE
  5
326
  8
VIDITELNE
  6
SLD-PLNÁ
 62
     2
 10
-501.95
 20
25.1958676197
 30
0.0
 11
-496.65
 21
25.1958676197
 31
0.0
  0
LINE
  5
327
  8
VIDITELNE
  6
SLD-PLNÁ
 62
     2
 10
-501.95
 20
25.1958676197
 30
0.0
 11
-501.95
 21
28.0826189656
 31
0.0
  0
LINE
  5
328
  8
VIDITELNE
  6
SLD-PLNÁ
 62
     2
 10
-501.95
 20
28.0826189656
 30
0.0
 11
-496.65
 21
28.0826189656
 31
0.0
  0
LINE
  5
329
  8
VIDITELNE
  6
SLD-PLNÁ
 62
     2
 10
-496.65
 20
25.1958676197
 30
0.0
 11
-496.65
 21
25.6870349802
 31
0.0
  0
LINE
  5
32A
  8
VIDITELNE
  6
SLD-PLNÁ
 62
     2
 10
-501.95
 20
33.8561216575
 30
0.0
 11
-496.65
 21
33.8561216575
 31
0.0
  0
LINE
  5
32B
  8
VIDITELNE
  6
SLD-PLNÁ
 62
     2
 10
-501.95
 20
28.0826189656
 30
0.0
 11
-501.95
 21
33.8561216575
 31
0.0
  0
LINE
  5
32C
  8
VIDITELNE
  6
SLD-PLNÁ
 62
     2
 10
-501.95
 20
36.7428730035
 30
0.0
 11
-496.65
 21
36.7428730035
 31
0.0
  0
LINE
  5
32D
  8
VIDITELNE
  6
SLD-PLNÁ
 62
     2
 10
-501.95
 20
33.8561216575
 30
0.0
 11
-501.95
 21
36.7428730035
 31
0.0
  0
POLYLINE
  5
32E
  8
VIDITELNE
  6
SLD-PLNÁ
 62
     2
 66
     1
 10
0.0
 20
0.0
 30
0.0
  0
VERTEX
  5
81E
  8
VIDITELNE
  6
SLD-PLNÁ
 62
     2
 10
-367.1692554554
 20
138.1608097761
 30
0.0
  0
VERTEX
  5
81F
  8
VIDITELNE
  6
SLD-PLNÁ
 62
     2
 10
-367.6487081846
 20
136.5971459141
 30
0.0
  0
VERTEX
  5
820
  8
VIDITELNE
  6
SLD-PLNÁ
 62
     2
 10
-368.3041849041
 20
135.257389972
 30
0.0
  0
VERTEX
  5
821
  8
VIDITELNE
  6
SLD-PLNÁ
 62
     2
 10
-368.9889337185
 20
134.1939678722
 30
0.0
  0
VERTEX
  5
822
  8
VIDITELNE
  6
SLD-PLNÁ
 62
     2
 10
-369.5419378384
 20
133.4634448142
 30
0.0
  0
VERTEX
  5
823
  8
VIDITELNE
  6
SLD-PLNÁ
 62
     2
 10
-369.7563948069
 20
133.2012534347
 30
0.0
  0
VERTEX
  5
824
  8
VIDITELNE
  6
SLD-PLNÁ
 62
     2
 10
-369.752505923
 20
133.2059993208
 30
0.0
  0
SEQEND
  5
825
  8
VIDITELNE
  6
SLD-PLNÁ
 62
     2
  0
LINE
  5
32F
  8
VIDITELNE
  6
SLD-PLNÁ
 62
     2
 10
-350.1307445446
 20
138.1608097761
 30
0.0
 11
-367.1692554554
 21
138.1608097761
 31
0.0
  0
ARC
  5
330
  8
VIDITELNE
  6
SLD-PLNÁ
 62
     2
 10
-338.6802414125
 20
140.9798559713
 30
0.0
 40
11.79241465639959
 50
193.8308250074
 51
221.2409797489
  0
ARC
  5
331
  8
VIDITELNE
  6
SLD-PLNÁ
 62
     2
 10
-364.1692358746
 20
137.620060516
 30
0.0
 40
3.048364684108485
 50
102.6620759841
 51
169.7822314405
  0
LINE
  5
332
  8
VIDITELNE
  6
SLD-PLNÁ
 62
     2
 10
-352.4625612119
 20
140.5942885021
 30
0.0
 11
-364.8374387881
 21
140.5942885021
 31
0.0
  0
ARC
  5
333
  8
VIDITELNE
  6
SLD-PLNÁ
 62
     2
 10
-353.0964800131
 20
137.6529123604
 30
0.0
 40
3.00891120737941
 50
9.7179245609
 51
77.8377680145
  0
ARC
  5
334
  8
VIDITELNE
  6
SLD-PLNÁ
 62
     2
 10
-349.0577489244
 20
63.632729173
 30
0.0
 40
78.56258795746903
 50
97.0131380634
 51
101.5869624879
  0
ARC
  5
335
  8
VIDITELNE
  6
SLD-PLNÁ
 62
     2
 10
-362.6265383251
 20
97.9256543013
 30
0.0
 40
43.86249850749486
 50
76.6014300383
 51
84.7984694104
  0
LINE
  5
336
  8
VIDITELNE
  6
SLD-PLNÁ
 62
     2
 10
-358.65
 20
141.6075260363
 30
0.0
 11
-358.65
 21
141.9693703116
 31
0.0
  0
LINE
  5
337
  8
VIDITELNE
  6
SLD-PLNÁ
 62
     2
 10
-358.65
 20
165.9693749796
 30
0.0
 11
-358.65
 21
173.9693703116
 31
0.0
  0
LINE
  5
338
  8
VIDITELNE
  6
SLD-PLNÁ
 62
     2
 10
-220.65
 20
104.8472890181
 30
0.0
 11
-220.65
 21
130.2517056429
 31
0.0
  0
LINE
  5
339
  8
VIDITELNE
  6
SLD-PLNÁ
 62
     2
 10
-220.65
 20
52.5649536867
 30
0.0
 11
-220.65
 21
103.3737869364
 31
0.0
  0
LINE
  5
33A
  8
VIDITELNE
  6
SLD-PLNÁ
 62
     2
 10
-220.65
 20
25.6870349802
 30
0.0
 11
-220.65
 21
51.0914516051
 31
0.0
  0
LINE
  5
33B
  8
VIDITELNE
  6
SLD-PLNÁ
 62
     2
 10
-215.35
 20
51.5826189656
 30
0.0
 11
-220.65
 21
51.5826189656
 31
0.0
  0
LINE
  5
33C
  8
VIDITELNE
  6
SLD-PLNÁ
 62
     2
 10
-215.35
 20
48.6958676197
 30
0.0
 11
-220.65
 21
48.6958676197
 31
0.0
  0
LINE
  5
33D
  8
VIDITELNE
  6
SLD-PLNÁ
 62
     2
 10
-220.65
 20
51.5826189656
 30
0.0
 11
-220.65
 21
51.0914516051
 31
0.0
  0
LINE
  5
33E
  8
VIDITELNE
  6
SLD-PLNÁ
 62
     2
 10
-215.35
 20
51.5826189656
 30
0.0
 11
-215.35
 21
48.6958676197
 31
0.0
  0
LINE
  5
33F
  8
VIDITELNE
  6
SLD-PLNÁ
 62
     2
 10
-215.35
 20
57.3561216575
 30
0.0
 11
-220.65
 21
57.3561216575
 31
0.0
  0
LINE
  5
340
  8
VIDITELNE
  6
SLD-PLNÁ
 62
     2
 10
-220.65
 20
52.5649536867
 30
0.0
 11
-220.65
 21
51.5826189656
 31
0.0
  0
LINE
  5
341
  8
VIDITELNE
  6
SLD-PLNÁ
 62
     2
 10
-215.35
 20
57.3561216575
 30
0.0
 11
-215.35
 21
51.5826189656
 31
0.0
  0
LINE
  5
342
  8
VIDITELNE
  6
SLD-PLNÁ
 62
     2
 10
-215.35
 20
60.2428730035
 30
0.0
 11
-220.65
 21
60.2428730035
 31
0.0
  0
LINE
  5
343
  8
VIDITELNE
  6
SLD-PLNÁ
 62
     2
 10
-215.35
 20
60.2428730035
 30
0.0
 11
-215.35
 21
57.3561216575
 31
0.0
  0
LINE
  5
344
  8
VIDITELNE
  6
SLD-PLNÁ
 62
     2
 10
-215.35
 20
98.5826189656
 30
0.0
 11
-220.65
 21
98.5826189656
 31
0.0
  0
LINE
  5
345
  8
VIDITELNE
  6
SLD-PLNÁ
 62
     2
 10
-215.35
 20
98.5826189656
 30
0.0
 11
-215.35
 21
95.6958676197
 31
0.0
  0
LINE
  5
346
  8
VIDITELNE
  6
SLD-PLNÁ
 62
     2
 10
-215.35
 20
95.6958676197
 30
0.0
 11
-220.65
 21
95.6958676197
 31
0.0
  0
LINE
  5
347
  8
VIDITELNE
  6
SLD-PLNÁ
 62
     2
 10
-215.35
 20
104.3561216575
 30
0.0
 11
-220.65
 21
104.3561216575
 31
0.0
  0
LINE
  5
348
  8
VIDITELNE
  6
SLD-PLNÁ
 62
     2
 10
-215.35
 20
104.3561216575
 30
0.0
 11
-215.35
 21
98.5826189656
 31
0.0
  0
LINE
  5
349
  8
VIDITELNE
  6
SLD-PLNÁ
 62
     2
 10
-220.65
 20
104.3561216575
 30
0.0
 11
-220.65
 21
103.3737869364
 31
0.0
  0
LINE
  5
34A
  8
VIDITELNE
  6
SLD-PLNÁ
 62
     2
 10
-215.35
 20
107.2428730035
 30
0.0
 11
-220.65
 21
107.2428730035
 31
0.0
  0
LINE
  5
34B
  8
VIDITELNE
  6
SLD-PLNÁ
 62
     2
 10
-220.65
 20
104.8472890181
 30
0.0
 11
-220.65
 21
104.3561216575
 31
0.0
  0
LINE
  5
34C
  8
VIDITELNE
  6
SLD-PLNÁ
 62
     2
 10
-215.35
 20
107.2428730035
 30
0.0
 11
-215.35
 21
104.3561216575
 31
0.0
  0
LINE
  5
34D
  8
VIDITELNE
  6
SLD-PLNÁ
 62
     2
 10
-215.35
 20
28.0826189656
 30
0.0
 11
-220.65
 21
28.0826189656
 31
0.0
  0
LINE
  5
34E
  8
VIDITELNE
  6
SLD-PLNÁ
 62
     2
 10
-215.35
 20
25.1958676197
 30
0.0
 11
-220.65
 21
25.1958676197
 31
0.0
  0
LINE
  5
34F
  8
VIDITELNE
  6
SLD-PLNÁ
 62
     2
 10
-220.65
 20
25.6870349802
 30
0.0
 11
-220.65
 21
25.1958676197
 31
0.0
  0
LINE
  5
350
  8
VIDITELNE
  6
SLD-PLNÁ
 62
     2
 10
-215.35
 20
28.0826189656
 30
0.0
 11
-215.35
 21
25.1958676197
 31
0.0
  0
LINE
  5
351
  8
VIDITELNE
  6
SLD-PLNÁ
 62
     2
 10
-215.35
 20
33.8561216575
 30
0.0
 11
-220.65
 21
33.8561216575
 31
0.0
  0
LINE
  5
352
  8
VIDITELNE
  6
SLD-PLNÁ
 62
     2
 10
-215.35
 20
33.8561216575
 30
0.0
 11
-215.35
 21
28.0826189656
 31
0.0
  0
LINE
  5
353
  8
VIDITELNE
  6
SLD-PLNÁ
 62
     2
 10
-215.35
 20
36.7428730035
 30
0.0
 11
-220.65
 21
36.7428730035
 31
0.0
  0
LINE
  5
354
  8
VIDITELNE
  6
SLD-PLNÁ
 62
     2
 10
-215.35
 20
36.7428730035
 30
0.0
 11
-215.35
 21
33.8561216575
 31
0.0
  0
LINE
  5
355
  8
VIDITELNE
  6
SLD-PLNÁ
 62
     2
 10
-215.35
 20
130.7428730035
 30
0.0
 11
-220.65
 21
130.7428730035
 31
0.0
  0
LINE
  5
356
  8
VIDITELNE
  6
SLD-PLNÁ
 62
     2
 10
-215.35
 20
127.8561216575
 30
0.0
 11
-220.65
 21
127.8561216575
 31
0.0
  0
LINE
  5
357
  8
VIDITELNE
  6
SLD-PLNÁ
 62
     2
 10
-220.65
 20
130.7428730035
 30
0.0
 11
-220.65
 21
130.2517056429
 31
0.0
  0
LINE
  5
358
  8
VIDITELNE
  6
SLD-PLNÁ
 62
     2
 10
-215.35
 20
130.7428730035
 30
0.0
 11
-215.35
 21
127.8561216575
 31
0.0
  0
LINE
  5
359
  8
VIDITELNE
  6
SLD-PLNÁ
 62
     2
 10
-215.35
 20
122.0826189656
 30
0.0
 11
-220.65
 21
122.0826189656
 31
0.0
  0
LINE
  5
35A
  8
VIDITELNE
  6
SLD-PLNÁ
 62
     2
 10
-215.35
 20
127.8561216575
 30
0.0
 11
-215.35
 21
122.0826189656
 31
0.0
  0
LINE
  5
35B
  8
VIDITELNE
  6
SLD-PLNÁ
 62
     2
 10
-215.35
 20
119.1958676197
 30
0.0
 11
-220.65
 21
119.1958676197
 31
0.0
  0
LINE
  5
35C
  8
VIDITELNE
  6
SLD-PLNÁ
 62
     2
 10
-215.35
 20
122.0826189656
 30
0.0
 11
-215.35
 21
119.1958676197
 31
0.0
  0
ARC
  5
35D
  8
VIDITELNE
  6
SLD-PLNÁ
 62
     2
 10
-358.65
 20
-42.0306296884
 30
0.0
 40
23.65470053837925
 50
107.2129689444
 51
72.7870310556
  0
LINE
  5
35E
  8
VIDITELNE
  6
SLD-PLNÁ
 62
     2
 10
-365.65
 20
-19.4353899783
 30
0.0
 11
-365.65
 21
-20.6472249081
 31
0.0
  0
ARC
  5
35F
  8
VIDITELNE
  6
SLD-PLNÁ
 62
     2
 10
-358.65
 20
-42.0306296884
 30
0.0
 40
22.5
 50
108.1262039606
 51
71.8737960394
  0
LINE
  5
360
  8
VIDITELNE
  6
SLD-PLNÁ
 62
     2
 10
-351.65
 20
-20.6472249081
 30
0.0
 11
-351.65
 21
-19.4353899783
 31
0.0
  0
CIRCLE
  5
361
  8
VIDITELNE
  6
SLD-PLNÁ
 62
     2
 10
-358.65
 20
-42.0306296884
 30
0.0
 40
32.5
  0
CIRCLE
  5
362
  8
VIDITELNE
  6
SLD-PLNÁ
 62
     2
 10
-358.65
 20
-42.0306296884
 30
0.0
 40
30.5
  0
LINE
  5
363
  8
VIDITELNE
  6
SLD-PLNÁ
 62
     2
 10
-365.65
 20
-19.4353899783
 30
0.0
 11
-365.65
 21
-15.7306296884
 31
0.0
  0
LINE
  5
364
  8
VIDITELNE
  6
SLD-PLNÁ
 62
     2
 10
-351.65
 20
-15.7306296884
 30
0.0
 11
-351.65
 21
-19.4353899783
 31
0.0
  0
LINE
  5
365
  8
VIDITELNE
  6
SLD-PLNÁ
 62
     2
 10
-365.65
 20
-15.7306296884
 30
0.0
 11
-351.65
 21
-15.7306296884
 31
0.0
  0
ARC
  5
366
  8
VIDITELNE
  6
SLD-PLNÁ
 62
     2
 10
-358.65
 20
-46.6024538385
 30
0.0
 40
131.3283646897419
 50
71.54133344
 51
108.45866656
  0
LINE
  5
367
  8
VIDITELNE
  6
SLD-PLNÁ
 62
     2
 10
-317.0687542274
 20
77.9693703116
 30
0.0
 11
-317.7235769955
 21
76.079606532
 31
0.0
  0
LINE
  5
368
  8
VIDITELNE
  6
SLD-PLNÁ
 62
     2
 10
-400.2312457726
 20
77.9693703116
 30
0.0
 11
-399.5764230045
 21
76.079606532
 31
0.0
  0
ARC
  5
369
  8
VIDITELNE
  6
SLD-PLNÁ
 62
     2
 10
-482.8411611342
 20
-41.9162286737
 30
0.0
 40
249.1911873943785
 50
359.9736961182
 51
7.2640703418
  0
LINE
  5
36A
  8
VIDITELNE
  6
SLD-PLNÁ
 62
     2
 10
-235.65
 20
-10.4078530868
 30
0.0
 11
-237.587007874
 21
-10.9058495687
 31
0.0
  0
LINE
  5
36B
  8
VIDITELNE
  6
SLD-PLNÁ
 62
     2
 10
-481.65
 20
-10.4078530868
 30
0.0
 11
-479.712992126
 21
-10.9058495687
 31
0.0
  0
ARC
  5
36C
  8
VIDITELNE
  6
SLD-PLNÁ
 62
     2
 10
-234.4588388652
 20
-41.9162286737
 30
0.0
 40
249.1911873949217
 50
172.7359296582
 51
180.0263038818
  0
ARC
  5
36D
  8
VIDITELNE
  6
SLD-PLNÁ
 62
     2
 10
-358.65
 20
-42.0306296884
 30
0.0
 40
127.0
 50
14.4182411734
 51
70.8882678628
  0
ARC
  5
36E
  8
VIDITELNE
  6
SLD-PLNÁ
 62
     2
 10
-358.65
 20
-42.0306296884
 30
0.0
 40
127.0
 50
109.1117321372
 51
165.5817588266
  0
POLYLINE
  5
36F
  8
VIDITELNE
  6
SLD-PLNÁ
 62
     2
 66
     1
 10
0.0
 20
0.0
 30
0.0
  0
VERTEX
  5
826
  8
VIDITELNE
  6
SLD-PLNÁ
 62
     2
 10
-231.65
 20
57.7291995574
 30
0.0
  0
VERTEX
  5
827
  8
VIDITELNE
  6
SLD-PLNÁ
 62
     2
 10
-232.040180644
 20
57.7150574045
 30
0.0
  0
VERTEX
  5
828
  8
VIDITELNE
  6
SLD-PLNÁ
 62
     2
 10
-232.4153668647
 20
57.6731744207
 30
0.0
  0
VERTEX
  5
829
  8
VIDITELNE
  6
SLD-PLNÁ
 62
     2
 10
-232.761140466
 20
57.6051601456
 30
0.0
  0
VERTEX
  5
82A
  8
VIDITELNE
  6
SLD-PLNÁ
 62
     2
 10
-233.0642135624
 20
57.5136283297
 30
0.0
  0
VERTEX
  5
82B
  8
VIDITELNE
  6
SLD-PLNÁ
 62
     2
 10
-233.3129392246
 20
57.4020964893
 30
0.0
  0
VERTEX
  5
82C
  8
VIDITELNE
  6
SLD-PLNÁ
 62
     2
 10
-233.497759065
 20
57.2748507306
 30
0.0
  0
VERTEX
  5
82D
  8
VIDITELNE
  6
SLD-PLNÁ
 62
     2
 10
-233.6115705608
 20
57.1367810365
 30
0.0
  0
VERTEX
  5
82E
  8
VIDITELNE
  6
SLD-PLNÁ
 62
     2
 10
-233.65
 20
56.9931933482
 30
0.0
  0
SEQEND
  5
82F
  8
VIDITELNE
  6
SLD-PLNÁ
 62
     2
  0
ARC
  5
370
  8
VIDITELNE
  6
SLD-PLNÁ
 62
     2
 10
-462.3543326206
 20
45.7705255736
 30
0.0
 40
228.9795188033244
 50
2.8092871131
 51
8.0836600564
  0
POLYLINE
  5
371
  8
VIDITELNE
  6
SLD-PLNÁ
 62
     2
 66
     1
 10
0.0
 20
0.0
 30
0.0
  0
VERTEX
  5
830
  8
VIDITELNE
  6
SLD-PLNÁ
 62
     2
 10
-235.65
 20
77.9693703116
 30
0.0
  0
VERTEX
  5
831
  8
VIDITELNE
  6
SLD-PLNÁ
 62
     2
 10
-235.6375823126
 20
77.9241392816
 30
0.0
  0
VERTEX
  5
832
  8
VIDITELNE
  6
SLD-PLNÁ
 62
     2
 10
-234.5938625214
 20
74.0902550359
 30
0.0
  0
VERTEX
  5
833
  8
VIDITELNE
  6
SLD-PLNÁ
 62
     2
 10
-233.4394861858
 20
69.5898926129
 30
0.0
  0
VERTEX
  5
834
  8
VIDITELNE
  6
SLD-PLNÁ
 62
     2
 10
-232.4646588335
 20
65.1071333395
 30
0.0
  0
VERTEX
  5
835
  8
VIDITELNE
  6
SLD-PLNÁ
 62
     2
 10
-231.8812358839
 20
61.3925086415
 30
0.0
  0
VERTEX
  5
836
  8
VIDITELNE
  6
SLD-PLNÁ
 62
     2
 10
-231.65
 20
57.7291995574
 30
0.0
  0
SEQEND
  5
837
  8
VIDITELNE
  6
SLD-PLNÁ
 62
     2
  0
LINE
  5
372
  8
VIDITELNE
  6
SLD-PLNÁ
 62
     2
 10
-235.65
 20
77.9693703116
 30
0.0
 11
-317.0687542274
 21
77.9693703116
 31
0.0
  0
LINE
  5
373
  8
VIDITELNE
  6
SLD-PLNÁ
 62
     2
 10
-235.65
 20
-10.4078530868
 30
0.0
 11
-235.65
 21
77.9693703116
 31
0.0
  0
LINE
  5
374
  8
VIDITELNE
  6
SLD-PLNÁ
 62
     2
 10
-233.65
 20
56.9931933482
 30
0.0
 11
-233.65
 21
-42.0306296884
 31
0.0
  0
LINE
  5
375
  8
VIDITELNE
  6
SLD-PLNÁ
 62
     2
 10
-481.65
 20
77.9693703116
 30
0.0
 11
-400.2312457726
 21
77.9693703116
 31
0.0
  0
LINE
  5
376
  8
VIDITELNE
  6
SLD-PLNÁ
 62
     2
 10
-481.65
 20
77.9693703116
 30
0.0
 11
-481.65
 21
-10.4078530868
 31
0.0
  0
LINE
  5
377
  8
VIDITELNE
  6
SLD-PLNÁ
 62
     2
 10
-228.65
 20
25.4724665936
 30
0.0
 11
-228.65
 21
132.9693703116
 31
0.0
  0
LINE
  5
378
  8
VIDITELNE
  6
SLD-PLNÁ
 62
     2
 10
-231.65
 20
25.4724665936
 30
0.0
 11
-228.65
 21
25.4724665936
 31
0.0
  0
LINE
  5
379
  8
VIDITELNE
  6
SLD-PLNÁ
 62
     2
 10
-231.65
 20
57.7291995574
 30
0.0
 11
-231.65
 21
25.4724665936
 31
0.0
  0
POLYLINE
  5
37A
  8
VIDITELNE
  6
SLD-PLNÁ
 62
     2
 66
     1
 10
0.0
 20
0.0
 30
0.0
  0
VERTEX
  5
838
  8
VIDITELNE
  6
SLD-PLNÁ
 62
     2
 10
-485.65
 20
57.7291995574
 30
0.0
  0
VERTEX
  5
839
  8
VIDITELNE
  6
SLD-PLNÁ
 62
     2
 10
-485.4187641161
 20
61.3925086415
 30
0.0
  0
VERTEX
  5
83A
  8
VIDITELNE
  6
SLD-PLNÁ
 62
     2
 10
-484.8353411665
 20
65.1071333395
 30
0.0
  0
VERTEX
  5
83B
  8
VIDITELNE
  6
SLD-PLNÁ
 62
     2
 10
-483.8605138142
 20
69.5898926129
 30
0.0
  0
VERTEX
  5
83C
  8
VIDITELNE
  6
SLD-PLNÁ
 62
     2
 10
-482.7061374786
 20
74.0902550359
 30
0.0
  0
VERTEX
  5
83D
  8
VIDITELNE
  6
SLD-PLNÁ
 62
     2
 10
-481.6624176874
 20
77.9241392816
 30
0.0
  0
VERTEX
  5
83E
  8
VIDITELNE
  6
SLD-PLNÁ
 62
     2
 10
-481.65
 20
77.9693703116
 30
0.0
  0
SEQEND
  5
83F
  8
VIDITELNE
  6
SLD-PLNÁ
 62
     2
  0
LINE
  5
37B
  8
VIDITELNE
  6
SLD-PLNÁ
 62
     2
 10
-488.65
 20
77.9693703116
 30
0.0
 11
-488.65
 21
132.9693703116
 31
0.0
  0
LINE
  5
37C
  8
VIDITELNE
  6
SLD-PLNÁ
 62
     2
 10
-488.65
 20
22.9693703116
 30
0.0
 11
-488.65
 21
77.9693703116
 31
0.0
  0
ARC
  5
37D
  8
VIDITELNE
  6
SLD-PLNÁ
 62
     2
 10
-449.2046945436
 20
189.2948054274
 30
0.0
 40
58.43365669505202
 50
273.4876274061
 51
285.414954933
  0
ARC
  5
37E
  8
VIDITELNE
  6
SLD-PLNÁ
 62
     2
 10
-448.0566240479
 20
189.5296260242
 30
0.0
 40
58.6704005428859
 50
254.5867379966
 51
266.4886175874
  0
LINE
  5
37F
  8
VIDITELNE
  6
SLD-PLNÁ
 62
     2
 10
-451.65
 20
130.9693703116
 30
0.0
 11
-445.65
 21
130.9693703116
 31
0.0
  0
ARC
  5
380
  8
VIDITELNE
  6
SLD-PLNÁ
 62
     2
 10
-359.2046945436
 20
189.2948054275
 30
0.0
 40
58.43365669506743
 50
273.4876274061
 51
285.414954933
  0
ARC
  5
381
  8
VIDITELNE
  6
SLD-PLNÁ
 62
     2
 10
-358.0566240479
 20
189.5296260242
 30
0.0
 40
58.67040054289299
 50
254.5867379966
 51
266.4886175874
  0
LINE
  5
382
  8
VIDITELNE
  6
SLD-PLNÁ
 62
     2
 10
-361.65
 20
130.9693703116
 30
0.0
 11
-355.65
 21
130.9693703116
 31
0.0
  0
LINE
  5
383
  8
VIDITELNE
  6
SLD-PLNÁ
 62
     2
 10
-483.65
 20
-42.0306296884
 30
0.0
 11
-483.65
 21
56.9931933482
 31
0.0
  0
ARC
  5
384
  8
VIDITELNE
  6
SLD-PLNÁ
 62
     2
 10
-254.9456673794
 20
45.7705255736
 30
0.0
 40
228.9795188033086
 50
171.9163399436
 51
177.1907128869
  0
POLYLINE
  5
385
  8
VIDITELNE
  6
SLD-PLNÁ
 62
     2
 66
     1
 10
0.0
 20
0.0
 30
0.0
  0
VERTEX
  5
840
  8
VIDITELNE
  6
SLD-PLNÁ
 62
     2
 10
-485.65
 20
57.7291995574
 30
0.0
  0
VERTEX
  5
841
  8
VIDITELNE
  6
SLD-PLNÁ
 62
     2
 10
-485.259819356
 20
57.7150574045
 30
0.0
  0
VERTEX
  5
842
  8
VIDITELNE
  6
SLD-PLNÁ
 62
     2
 10
-484.8846331353
 20
57.6731744207
 30
0.0
  0
VERTEX
  5
843
  8
VIDITELNE
  6
SLD-PLNÁ
 62
     2
 10
-484.538859534
 20
57.6051601456
 30
0.0
  0
VERTEX
  5
844
  8
VIDITELNE
  6
SLD-PLNÁ
 62
     2
 10
-484.2357864376
 20
57.5136283297
 30
0.0
  0
VERTEX
  5
845
  8
VIDITELNE
  6
SLD-PLNÁ
 62
     2
 10
-483.9870607754
 20
57.4020964893
 30
0.0
  0
VERTEX
  5
846
  8
VIDITELNE
  6
SLD-PLNÁ
 62
     2
 10
-483.802240935
 20
57.2748507306
 30
0.0
  0
VERTEX
  5
847
  8
VIDITELNE
  6
SLD-PLNÁ
 62
     2
 10
-483.6884294392
 20
57.1367810365
 30
0.0
  0
VERTEX
  5
848
  8
VIDITELNE
  6
SLD-PLNÁ
 62
     2
 10
-483.65
 20
56.9931933482
 30
0.0
  0
SEQEND
  5
849
  8
VIDITELNE
  6
SLD-PLNÁ
 62
     2
  0
ARC
  5
386
  8
VIDITELNE
  6
SLD-PLNÁ
 62
     2
 10
-231.6944752231
 20
23.5168924376
 30
0.0
 40
1.956079836075905
 50
88.6971583966
 51
178.635026332
  0
LINE
  5
387
  8
VIDITELNE
  6
SLD-PLNÁ
 62
     2
 10
-504.65
 20
77.9693703116
 30
0.0
 11
-504.65
 21
97.4693703116
 31
0.0
  0
LINE
  5
388
  8
VIDITELNE
  6
SLD-PLNÁ
 62
     2
 10
-504.65
 20
58.4693703116
 30
0.0
 11
-504.65
 21
77.9693703116
 31
0.0
  0
LINE
  5
389
  8
VIDITELNE
  6
SLD-PLNÁ
 62
     2
 10
-584.65
 20
77.9693703116
 30
0.0
 11
-584.65
 21
95.4693703116
 31
0.0
  0
LINE
  5
38A
  8
VIDITELNE
  6
SLD-PLNÁ
 62
     2
 10
-584.65
 20
60.4693703116
 30
0.0
 11
-584.65
 21
77.9693703116
 31
0.0
  0
LINE
  5
38B
  8
VIDITELNE
  6
SLD-PLNÁ
 62
     2
 10
-583.15
 20
77.9693703116
 30
0.0
 11
-583.15
 21
58.9693703116
 31
0.0
  0
LINE
  5
38C
  8
VIDITELNE
  6
SLD-PLNÁ
 62
     2
 10
-583.15
 20
96.9693703116
 30
0.0
 11
-583.15
 21
77.9693703116
 31
0.0
  0
ARC
  5
38D
  8
VIDITELNE
  6
SLD-PLNÁ
 62
     2
 10
-570.5609209307
 20
115.955592455
 30
0.0
 40
19.65612121224378
 50
255.196867279
 51
269.7403418442
  0
LINE
  5
38E
  8
VIDITELNE
  6
SLD-PLNÁ
 62
     2
 10
-570.65
 20
96.2996730914
 30
0.0
 11
-517.65
 21
96.2996730914
 31
0.0
  0
ARC
  5
38F
  8
VIDITELNE
  6
SLD-PLNÁ
 62
     2
 10
-517.7631446966
 20
116.1444182476
 30
0.0
 40
19.8450677004943
 50
270.3266680068
 51
284.9308552837
  0
LINE
  5
390
  8
VIDITELNE
  6
SLD-PLNÁ
 62
     2
 10
-232.0811358957
 20
23.5634882766
 30
0.0
 11
-233.65
 21
23.5634882766
 31
0.0
  0
POLYLINE
  5
391
  8
VIDITELNE
  6
SLD-PLNÁ
 62
     2
 66
     1
 10
0.0
 20
0.0
 30
0.0
  0
VERTEX
  5
84A
  8
VIDITELNE
  6
SLD-PLNÁ
 62
     2
 10
-232.15
 20
22.5015288737
 30
0.0
  0
VERTEX
  5
84B
  8
VIDITELNE
  6
SLD-PLNÁ
 62
     2
 10
-232.1403303291
 20
22.9041435054
 30
0.0
  0
VERTEX
  5
84C
  8
VIDITELNE
  6
SLD-PLNÁ
 62
     2
 10
-232.0811358957
 20
23.5634882766
 30
0.0
  0
SEQEND
  5
84D
  8
VIDITELNE
  6
SLD-PLNÁ
 62
     2
  0
LINE
  5
392
  8
VIDITELNE
  6
SLD-PLNÁ
 62
     2
 10
-232.15
 20
-2.0306296884
 30
0.0
 11
-232.15
 21
22.5015288737
 31
0.0
  0
LINE
  5
393
  8
VIDITELNE
  6
SLD-PLNÁ
 62
     2
 10
-233.65
 20
-2.0306296884
 30
0.0
 11
-232.15
 21
-2.0306296884
 31
0.0
  0
LINE
  5
394
  8
VIDITELNE
  6
SLD-PLNÁ
 62
     2
 10
-231.65
 20
24.4271322336
 30
0.0
 11
-231.65
 21
25.4724665936
 31
0.0
  0
POLYLINE
  5
395
  8
VIDITELNE
  6
SLD-PLNÁ
 62
     2
 66
     1
 10
0.0
 20
0.0
 30
0.0
  0
VERTEX
  5
84E
  8
VIDITELNE
  6
SLD-PLNÁ
 62
     2
 10
-232.0811358957
 20
23.5634882766
 30
0.0
  0
VERTEX
  5
84F
  8
VIDITELNE
  6
SLD-PLNÁ
 62
     2
 10
-231.9448449443
 20
23.9386299698
 30
0.0
  0
VERTEX
  5
850
  8
VIDITELNE
  6
SLD-PLNÁ
 62
     2
 10
-231.65
 20
24.4271322336
 30
0.0
  0
SEQEND
  5
851
  8
VIDITELNE
  6
SLD-PLNÁ
 62
     2
  0
ARC
  5
396
  8
VIDITELNE
  6
SLD-PLNÁ
 62
     2
 10
-227.6181425786
 20
17.6836341038
 30
0.0
 40
7.856884961191708
 50
97.5465482488
 51
120.8747017252
  0
ARC
  5
397
  8
VIDITELNE
  6
SLD-PLNÁ
 62
     2
 10
-226.281837362
 20
21.5452642473
 30
0.0
 40
4.585969095988437
 50
121.0906149334
 51
147.509198373
  0
ARC
  5
398
  8
VIDITELNE
  6
SLD-PLNÁ
 62
     2
 10
-230.4214275267
 20
25.9334277537
 30
0.0
 40
1.943789215958877
 50
230.798450723
 51
278.0269198997
  0
POLYLINE
  5
399
  8
VIDITELNE
  6
SLD-PLNÁ
 62
     2
 66
     1
 10
0.0
 20
0.0
 30
0.0
  0
VERTEX
  5
852
  8
VIDITELNE
  6
SLD-PLNÁ
 62
     2
 10
-230.5811358957
 20
23.0576306325
 30
0.0
  0
VERTEX
  5
853
  8
VIDITELNE
  6
SLD-PLNÁ
 62
     2
 10
-230.6403303291
 20
22.7130629442
 30
0.0
  0
VERTEX
  5
854
  8
VIDITELNE
  6
SLD-PLNÁ
 62
     2
 10
-230.65
 20
22.5015288737
 30
0.0
  0
SEQEND
  5
855
  8
VIDITELNE
  6
SLD-PLNÁ
 62
     2
  0
POLYLINE
  5
39A
  8
VIDITELNE
  6
SLD-PLNÁ
 62
     2
 66
     1
 10
0.0
 20
0.0
 30
0.0
  0
VERTEX
  5
856
  8
VIDITELNE
  6
SLD-PLNÁ
 62
     2
 10
-230.15
 20
24.008682676
 30
0.0
  0
VERTEX
  5
857
  8
VIDITELNE
  6
SLD-PLNÁ
 62
     2
 10
-230.4448449443
 20
23.4566620438
 30
0.0
  0
VERTEX
  5
858
  8
VIDITELNE
  6
SLD-PLNÁ
 62
     2
 10
-230.5811358957
 20
23.0576306325
 30
0.0
  0
SEQEND
  5
859
  8
VIDITELNE
  6
SLD-PLNÁ
 62
     2
  0
LINE
  5
39B
  8
VIDITELNE
  6
SLD-PLNÁ
 62
     2
 10
-228.65
 20
22.9693703116
 30
0.0
 11
-228.65
 21
25.4724665936
 31
0.0
  0
ARC
  5
39C
  8
VIDITELNE
  6
SLD-PLNÁ
 62
     2
 10
-233.7537036547
 20
16.1270134891
 30
0.0
 40
7.622246399500356
 50
65.4035301721
 51
77.3243031631
  0
LINE
  5
39D
  8
VIDITELNE
  6
SLD-PLNÁ
 62
     2
 10
-232.15
 20
22.5015288737
 30
0.0
 11
-230.65
 21
22.5015288737
 31
0.0
  0
LINE
  5
39E
  8
VIDITELNE
  6
SLD-PLNÁ
 62
     2
 10
-230.65
 20
22.5015288737
 30
0.0
 11
-230.65
 21
-2.0306296884
 31
0.0
  0
LINE
  5
39F
  8
VIDITELNE
  6
SLD-PLNÁ
 62
     2
 10
-232.15
 20
-2.0306296884
 30
0.0
 11
-230.65
 21
-2.0306296884
 31
0.0
  0
LINE
  5
3A0
  8
VIDITELNE
  6
SLD-PLNÁ
 62
     2
 10
-230.65
 20
-2.0306296884
 30
0.0
 11
-230.65
 21
-15.1576463422
 31
0.0
  0
LINE
  5
3A1
  8
VIDITELNE
  6
SLD-PLNÁ
 62
     2
 10
-373.65
 20
-170.0306296884
 30
0.0
 11
-343.65
 21
-170.0306296884
 31
0.0
  0
LINE
  5
3A2
  8
VIDITELNE
  6
SLD-PLNÁ
 62
     2
 10
-226.65
 20
7.4693703116
 30
0.0
 11
-226.65
 21
-11.5306287546
 31
0.0
  0
LINE
  5
3A3
  8
VIDITELNE
  6
SLD-PLNÁ
 62
     2
 10
-349.15
 20
-174.0306296884
 30
0.0
 11
-368.1499990662
 21
-174.0306296884
 31
0.0
  0
LINE
  5
3A4
  8
VIDITELNE
  6
SLD-PLNÁ
 62
     2
 10
-458.15
 20
134.9693703116
 30
0.0
 11
-439.1500009338
 21
134.9693703116
 31
0.0
  0
LINE
  5
3A5
  8
VIDITELNE
  6
SLD-PLNÁ
 62
     2
 10
-575.65
 20
100.2693703116
 30
0.0
 11
-570.65
 21
100.2693703116
 31
0.0
  0
LINE
  5
3A6
  8
VIDITELNE
  6
SLD-PLNÁ
 62
     2
 10
-570.65
 20
100.2693703116
 30
0.0
 11
-570.65
 21
96.2996730914
 31
0.0
  0
LINE
  5
3A7
  8
VIDITELNE
  6
SLD-PLNÁ
 62
     2
 10
-517.65
 20
100.2693703116
 30
0.0
 11
-517.65
 21
96.2996730914
 31
0.0
  0
LINE
  5
3A8
  8
VIDITELNE
  6
SLD-PLNÁ
 62
     2
 10
-570.65
 20
100.2693703116
 30
0.0
 11
-517.65
 21
100.2693703116
 31
0.0
  0
LINE
  5
3A9
  8
VIDITELNE
  6
SLD-PLNÁ
 62
     2
 10
-517.65
 20
100.2693703116
 30
0.0
 11
-512.65
 21
100.2693703116
 31
0.0
  0
LINE
  5
3AA
  8
VIDITELNE
  6
SLD-PLNÁ
 62
     2
 10
-494.7197989934
 20
132.2574082601
 30
0.0
 11
-494.7197989934
 21
23.6813323631
 31
0.0
  0
LINE
  5
3AB
  8
VIDITELNE
  6
SLD-PLNÁ
 62
     2
 10
-222.5802010066
 20
77.9693703116
 30
0.0
 11
-222.5802010066
 21
132.2574082601
 31
0.0
  0
LINE
  5
3AC
  8
VIDITELNE
  6
SLD-PLNÁ
 62
     2
 10
-222.5802010066
 20
23.6813323631
 30
0.0
 11
-222.5802010066
 21
77.9693703116
 31
0.0
  0
LINE
  5
3AD
  8
VIDITELNE
  6
SLD-PLNÁ
 62
     2
 10
-485.65
 20
22.9693703116
 30
0.0
 11
-485.65
 21
57.7291995574
 31
0.0
  0
LINE
  5
3AE
  8
VIDITELNE
  6
SLD-PLNÁ
 62
     2
 10
-504.15
 20
77.9693703116
 30
0.0
 11
-504.15
 21
57.9693703116
 31
0.0
  0
LINE
  5
3AF
  8
VIDITELNE
  6
SLD-PLNÁ
 62
     2
 10
-504.15
 20
97.9693703116
 30
0.0
 11
-504.15
 21
77.9693703116
 31
0.0
  0
ARC
  5
3B0
  8
VIDITELNE
  6
SLD-PLNÁ
 62
     2
 10
-358.6495525654
 20
-69.9645489622
 30
0.0
 40
99.06540900643851
 50
261.2907949276
 51
278.6803601965
  0
LINE
  5
3B1
  8
VIDITELNE
  6
SLD-PLNÁ
 62
     2
 10
-232.15
 20
-17.0941380153
 30
0.0
 11
-232.15
 21
-2.0306296884
 31
0.0
  0
LINE
  5
3B2
  8
VIDITELNE
  6
SLD-PLNÁ
 62
     2
 10
-227.65
 20
-12.5306296884
 30
0.0
 11
-227.65
 21
8.4693703116
 31
0.0
  0
LINE
  5
3B3
  8
VIDITELNE
  6
SLD-PLNÁ
 62
     2
 10
-369.15
 20
-173.0306296884
 30
0.0
 11
-348.15
 21
-173.0306296884
 31
0.0
  0
LINE
  5
3B4
  8
VIDITELNE
  6
SLD-PLNÁ
 62
     2
 10
-438.15
 20
133.9693703116
 30
0.0
 11
-459.15
 21
133.9693703116
 31
0.0
  0
LINE
  5
3B5
  8
VIDITELNE
  6
SLD-PLNÁ
 62
     2
 10
488.65
 20
23.4693703116
 30
0.0
 11
494.7197989934
 21
23.6813323631
 31
0.0
  0
LINE
  5
3B6
  8
VIDITELNE
  6
SLD-PLNÁ
 62
     2
 10
494.7197989934
 20
132.2574082601
 30
0.0
 11
488.65
 21
132.4693703116
 31
0.0
  0
ARC
  5
3B7
  8
VIDITELNE
  6
SLD-PLNÁ
 62
     2
 10
494.65
 20
25.6801140171
 30
0.0
 40
2.000000000000022
 50
272.0
 51
0.0
  0
ARC
  5
3B8
  8
VIDITELNE
  6
SLD-PLNÁ
 62
     2
 10
494.65
 20
130.258626606
 30
0.0
 40
2.000000000000004
 50
0.0
 51
88.0
  0
LINE
  5
3B9
  8
VIDITELNE
  6
SLD-PLNÁ
 62
     2
 10
369.9535078104
 20
132.0837328943
 30
0.0
 11
369.7555279998
 21
133.2065321945
 31
0.0
  0
LINE
  5
3BA
  8
VIDITELNE
  6
SLD-PLNÁ
 62
     2
 10
347.5444667725
 20
133.2065025466
 30
0.0
 11
347.3459515414
 21
132.0806667258
 31
0.0
  0
POLYLINE
  5
3BB
  8
VIDITELNE
  6
SLD-PLNÁ
 62
     2
 66
     1
 10
0.0
 20
0.0
 30
0.0
  0
VERTEX
  5
85A
  8
VIDITELNE
  6
SLD-PLNÁ
 62
     2
 10
358.65
 20
141.969367316
 30
0.0
  0
VERTEX
  5
85B
  8
VIDITELNE
  6
SLD-PLNÁ
 62
     2
 10
356.5571808081
 20
142.0444870367
 30
0.0
  0
VERTEX
  5
85C
  8
VIDITELNE
  6
SLD-PLNÁ
 62
     2
 10
354.737942639
 20
142.4472908267
 30
0.0
  0
VERTEX
  5
85D
  8
VIDITELNE
  6
SLD-PLNÁ
 62
     2
 10
353.2266253041
 20
143.0348934578
 30
0.0
  0
VERTEX
  5
85E
  8
VIDITELNE
  6
SLD-PLNÁ
 62
     2
 10
352.0222162617
 20
143.699773228
 30
0.0
  0
VERTEX
  5
85F
  8
VIDITELNE
  6
SLD-PLNÁ
 62
     2
 10
350.3382754892
 20
145.0020426762
 30
0.0
  0
VERTEX
  5
860
  8
VIDITELNE
  6
SLD-PLNÁ
 62
     2
 10
349.0347317433
 20
146.4436662941
 30
0.0
  0
VERTEX
  5
861
  8
VIDITELNE
  6
SLD-PLNÁ
 62
     2
 10
347.2851959955
 20
149.7118429675
 30
0.0
  0
VERTEX
  5
862
  8
VIDITELNE
  6
SLD-PLNÁ
 62
     2
 10
346.8054055538
 20
151.5803132739
 30
0.0
  0
VERTEX
  5
863
  8
VIDITELNE
  6
SLD-PLNÁ
 62
     2
 10
346.633662094
 20
153.7241479769
 30
0.0
  0
VERTEX
  5
864
  8
VIDITELNE
  6
SLD-PLNÁ
 62
     2
 10
346.8620970784
 20
155.9440916712
 30
0.0
  0
VERTEX
  5
865
  8
VIDITELNE
  6
SLD-PLNÁ
 62
     2
 10
347.4127371346
 20
157.8772895207
 30
0.0
  0
VERTEX
  5
866
  8
VIDITELNE
  6
SLD-PLNÁ
 62
     2
 10
348.207252952
 20
159.5805099574
 30
0.0
  0
VERTEX
  5
867
  8
VIDITELNE
  6
SLD-PLNÁ
 62
     2
 10
349.3315750317
 20
161.2445803156
 30
0.0
  0
VERTEX
  5
868
  8
VIDITELNE
  6
SLD-PLNÁ
 62
     2
 10
350.8257636668
 20
162.8104183859
 30
0.0
  0
VERTEX
  5
869
  8
VIDITELNE
  6
SLD-PLNÁ
 62
     2
 10
352.7217008332
 20
164.1905655313
 30
0.0
  0
VERTEX
  5
86A
  8
VIDITELNE
  6
SLD-PLNÁ
 62
     2
 10
355.2733981945
 20
165.3484858181
 30
0.0
  0
VERTEX
  5
86B
  8
VIDITELNE
  6
SLD-PLNÁ
 62
     2
 10
358.65
 20
165.9693703116
 30
0.0
  0
SEQEND
  5
86C
  8
VIDITELNE
  6
SLD-PLNÁ
 62
     2
  0
POLYLINE
  5
3BC
  8
VIDITELNE
  6
SLD-PLNÁ
 62
     2
 66
     1
 10
0.0
 20
0.0
 30
0.0
  0
VERTEX
  5
86D
  8
VIDITELNE
  6
SLD-PLNÁ
 62
     2
 10
358.65
 20
173.9693703116
 30
0.0
  0
VERTEX
  5
86E
  8
VIDITELNE
  6
SLD-PLNÁ
 62
     2
 10
355.4991226135
 20
173.8313852467
 30
0.0
  0
VERTEX
  5
86F
  8
VIDITELNE
  6
SLD-PLNÁ
 62
     2
 10
352.6766767468
 20
173.2914107613
 30
0.0
  0
VERTEX
  5
870
  8
VIDITELNE
  6
SLD-PLNÁ
 62
     2
 10
350.2174352274
 20
172.4839093594
 30
0.0
  0
VERTEX
  5
871
  8
VIDITELNE
  6
SLD-PLNÁ
 62
     2
 10
348.1282147876
 20
171.5221266604
 30
0.0
  0
VERTEX
  5
872
  8
VIDITELNE
  6
SLD-PLNÁ
 62
     2
 10
344.6589229761
 20
169.2311183556
 30
0.0
  0
VERTEX
  5
873
  8
VIDITELNE
  6
SLD-PLNÁ
 62
     2
 10
341.9104395465
 20
166.5655818785
 30
0.0
  0
VERTEX
  5
874
  8
VIDITELNE
  6
SLD-PLNÁ
 62
     2
 10
339.8215370212
 20
163.696821071
 30
0.0
  0
VERTEX
  5
875
  8
VIDITELNE
  6
SLD-PLNÁ
 62
     2
 10
338.2863329183
 20
160.6664199398
 30
0.0
  0
VERTEX
  5
876
  8
VIDITELNE
  6
SLD-PLNÁ
 62
     2
 10
337.1579645079
 20
157.0706736296
 30
0.0
  0
VERTEX
  5
877
  8
VIDITELNE
  6
SLD-PLNÁ
 62
     2
 10
336.6513230676
 20
153.0101750625
 30
0.0
  0
VERTEX
  5
878
  8
VIDITELNE
  6
SLD-PLNÁ
 62
     2
 10
336.8617947717
 20
149.2208263874
 30
0.0
  0
VERTEX
  5
879
  8
VIDITELNE
  6
SLD-PLNÁ
 62
     2
 10
337.6148328989
 20
145.8494441459
 30
0.0
  0
VERTEX
  5
87A
  8
VIDITELNE
  6
SLD-PLNÁ
 62
     2
 10
338.8834735818
 20
142.6319872629
 30
0.0
  0
VERTEX
  5
87B
  8
VIDITELNE
  6
SLD-PLNÁ
 62
     2
 10
340.6501420062
 20
139.6266387049
 30
0.0
  0
VERTEX
  5
87C
  8
VIDITELNE
  6
SLD-PLNÁ
 62
     2
 10
342.0437448305
 20
137.8315704125
 30
0.0
  0
VERTEX
  5
87D
  8
VIDITELNE
  6
SLD-PLNÁ
 62
     2
 10
343.5803134642
 20
136.2164247467
 30
0.0
  0
VERTEX
  5
87E
  8
VIDITELNE
  6
SLD-PLNÁ
 62
     2
 10
345.6892034427
 20
134.4411761135
 30
0.0
  0
VERTEX
  5
87F
  8
VIDITELNE
  6
SLD-PLNÁ
 62
     2
 10
347.5558318611
 20
133.219791748
 30
0.0
  0
SEQEND
  5
880
  8
VIDITELNE
  6
SLD-PLNÁ
 62
     2
  0
POLYLINE
  5
3BD
  8
VIDITELNE
  6
SLD-PLNÁ
 62
     2
 66
     1
 10
0.0
 20
0.0
 30
0.0
  0
VERTEX
  5
881
  8
VIDITELNE
  6
SLD-PLNÁ
 62
     2
 10
369.7443251103
 20
133.2187829902
 30
0.0
  0
VERTEX
  5
882
  8
VIDITELNE
  6
SLD-PLNÁ
 62
     2
 10
370.6107212613
 20
133.7395395936
 30
0.0
  0
VERTEX
  5
883
  8
VIDITELNE
  6
SLD-PLNÁ
 62
     2
 10
372.2337081912
 20
134.9206617398
 30
0.0
  0
VERTEX
  5
884
  8
VIDITELNE
  6
SLD-PLNÁ
 62
     2
 10
374.0454240341
 20
136.5328347147
 30
0.0
  0
VERTEX
  5
885
  8
VIDITELNE
  6
SLD-PLNÁ
 62
     2
 10
375.9491748817
 20
138.6773634889
 30
0.0
  0
VERTEX
  5
886
  8
VIDITELNE
  6
SLD-PLNÁ
 62
     2
 10
377.5727056866
 20
141.0622319609
 30
0.0
  0
VERTEX
  5
887
  8
VIDITELNE
  6
SLD-PLNÁ
 62
     2
 10
378.6514491075
 20
143.1296139797
 30
0.0
  0
VERTEX
  5
888
  8
VIDITELNE
  6
SLD-PLNÁ
 62
     2
 10
379.3315501681
 20
144.7920096573
 30
0.0
  0
VERTEX
  5
889
  8
VIDITELNE
  6
SLD-PLNÁ
 62
     2
 10
379.9036935154
 20
146.6096279
 30
0.0
  0
VERTEX
  5
88A
  8
VIDITELNE
  6
SLD-PLNÁ
 62
     2
 10
380.3911404179
 20
148.9070599239
 30
0.0
  0
VERTEX
  5
88B
  8
VIDITELNE
  6
SLD-PLNÁ
 62
     2
 10
380.6479081086
 20
151.6347475503
 30
0.0
  0
VERTEX
  5
88C
  8
VIDITELNE
  6
SLD-PLNÁ
 62
     2
 10
380.3795021427
 20
155.826602678
 30
0.0
  0
VERTEX
  5
88D
  8
VIDITELNE
  6
SLD-PLNÁ
 62
     2
 10
379.3155725343
 20
159.8911897718
 30
0.0
  0
VERTEX
  5
88E
  8
VIDITELNE
  6
SLD-PLNÁ
 62
     2
 10
378.283015128
 20
162.2558323398
 30
0.0
  0
VERTEX
  5
88F
  8
VIDITELNE
  6
SLD-PLNÁ
 62
     2
 10
377.2243470378
 20
164.1038726326
 30
0.0
  0
VERTEX
  5
890
  8
VIDITELNE
  6
SLD-PLNÁ
 62
     2
 10
376.2270618559
 20
165.5317946101
 30
0.0
  0
VERTEX
  5
891
  8
VIDITELNE
  6
SLD-PLNÁ
 62
     2
 10
374.9643191231
 20
167.0442160452
 30
0.0
  0
VERTEX
  5
892
  8
VIDITELNE
  6
SLD-PLNÁ
 62
     2
 10
373.2773754862
 20
168.6948974146
 30
0.0
  0
VERTEX
  5
893
  8
VIDITELNE
  6
SLD-PLNÁ
 62
     2
 10
371.003871677
 20
170.4334901218
 30
0.0
  0
VERTEX
  5
894
  8
VIDITELNE
  6
SLD-PLNÁ
 62
     2
 10
368.7210386612
 20
171.7534397497
 30
0.0
  0
VERTEX
  5
895
  8
VIDITELNE
  6
SLD-PLNÁ
 62
     2
 10
365.8950948637
 20
172.9140940347
 30
0.0
  0
VERTEX
  5
896
  8
VIDITELNE
  6
SLD-PLNÁ
 62
     2
 10
362.5208407288
 20
173.7349295512
 30
0.0
  0
VERTEX
  5
897
  8
VIDITELNE
  6
SLD-PLNÁ
 62
     2
 10
358.65
 20
173.9693703116
 30
0.0
  0
SEQEND
  5
898
  8
VIDITELNE
  6
SLD-PLNÁ
 62
     2
  0
POLYLINE
  5
3BE
  8
VIDITELNE
  6
SLD-PLNÁ
 62
     2
 66
     1
 10
0.0
 20
0.0
 30
0.0
  0
VERTEX
  5
899
  8
VIDITELNE
  6
SLD-PLNÁ
 62
     2
 10
358.65
 20
165.9693703116
 30
0.0
  0
VERTEX
  5
89A
  8
VIDITELNE
  6
SLD-PLNÁ
 62
     2
 10
360.4387238306
 20
165.7571923654
 30
0.0
  0
VERTEX
  5
89B
  8
VIDITELNE
  6
SLD-PLNÁ
 62
     2
 10
362.0266018055
 20
165.3484858181
 30
0.0
  0
VERTEX
  5
89C
  8
VIDITELNE
  6
SLD-PLNÁ
 62
     2
 10
364.5782991668
 20
164.1905655313
 30
0.0
  0
VERTEX
  5
89D
  8
VIDITELNE
  6
SLD-PLNÁ
 62
     2
 10
366.4742363332
 20
162.8104183859
 30
0.0
  0
VERTEX
  5
89E
  8
VIDITELNE
  6
SLD-PLNÁ
 62
     2
 10
367.9684249683
 20
161.2445803156
 30
0.0
  0
VERTEX
  5
89F
  8
VIDITELNE
  6
SLD-PLNÁ
 62
     2
 10
369.092747048
 20
159.5805099574
 30
0.0
  0
VERTEX
  5
8A0
  8
VIDITELNE
  6
SLD-PLNÁ
 62
     2
 10
369.8872628654
 20
157.8772895207
 30
0.0
  0
VERTEX
  5
8A1
  8
VIDITELNE
  6
SLD-PLNÁ
 62
     2
 10
370.4379029216
 20
155.9440916712
 30
0.0
  0
VERTEX
  5
8A2
  8
VIDITELNE
  6
SLD-PLNÁ
 62
     2
 10
370.666337906
 20
153.7241479769
 30
0.0
  0
VERTEX
  5
8A3
  8
VIDITELNE
  6
SLD-PLNÁ
 62
     2
 10
370.4945944462
 20
151.5803132739
 30
0.0
  0
VERTEX
  5
8A4
  8
VIDITELNE
  6
SLD-PLNÁ
 62
     2
 10
370.0148040045
 20
149.7118429675
 30
0.0
  0
VERTEX
  5
8A5
  8
VIDITELNE
  6
SLD-PLNÁ
 62
     2
 10
368.2652682567
 20
146.4436662941
 30
0.0
  0
VERTEX
  5
8A6
  8
VIDITELNE
  6
SLD-PLNÁ
 62
     2
 10
366.9617245108
 20
145.0020426762
 30
0.0
  0
VERTEX
  5
8A7
  8
VIDITELNE
  6
SLD-PLNÁ
 62
     2
 10
365.2777837383
 20
143.699773228
 30
0.0
  0
VERTEX
  5
8A8
  8
VIDITELNE
  6
SLD-PLNÁ
 62
     2
 10
364.0733746959
 20
143.0348934578
 30
0.0
  0
VERTEX
  5
8A9
  8
VIDITELNE
  6
SLD-PLNÁ
 62
     2
 10
362.562057361
 20
142.4472908267
 30
0.0
  0
VERTEX
  5
8AA
  8
VIDITELNE
  6
SLD-PLNÁ
 62
     2
 10
360.7428191919
 20
142.0444870367
 30
0.0
  0
VERTEX
  5
8AB
  8
VIDITELNE
  6
SLD-PLNÁ
 62
     2
 10
358.65
 20
141.969367316
 30
0.0
  0
SEQEND
  5
8AC
  8
VIDITELNE
  6
SLD-PLNÁ
 62
     2
  0
LINE
  5
3BF
  8
VIDITELNE
  6
SLD-PLNÁ
 62
     2
 10
228.65
 20
132.4693703116
 30
0.0
 11
222.5802010066
 21
132.2574082601
 31
0.0
  0
LINE
  5
3C0
  8
VIDITELNE
  6
SLD-PLNÁ
 62
     2
 10
222.5802010066
 20
23.6813323631
 30
0.0
 11
228.65
 21
23.4693703116
 31
0.0
  0
ARC
  5
3C1
  8
VIDITELNE
  6
SLD-PLNÁ
 62
     2
 10
222.65
 20
130.258626606
 30
0.0
 40
2.000000000000004
 50
92.0
 51
180.0
  0
ARC
  5
3C2
  8
VIDITELNE
  6
SLD-PLNÁ
 62
     2
 10
222.65
 20
25.6801140171
 30
0.0
 40
2.000000000000008
 50
180.0
 51
268.0
  0
LINE
  5
3C3
  8
VIDITELNE
  6
SLD-PLNÁ
 62
     2
 10
485.65
 20
22.9693703116
 30
0.0
 11
488.65
 21
22.9693703116
 31
0.0
  0
LINE
  5
3C4
  8
VIDITELNE
  6
SLD-PLNÁ
 62
     2
 10
343.6725757509
 20
132.9693703116
 30
0.0
 11
228.65
 21
132.9693703116
 31
0.0
  0
LINE
  5
3C5
  8
VIDITELNE
  6
SLD-PLNÁ
 62
     2
 10
433.6725757509
 20
132.9693703116
 30
0.0
 11
373.65
 21
132.9693703116
 31
0.0
  0
LINE
  5
3C6
  8
VIDITELNE
  6
SLD-PLNÁ
 62
     2
 10
488.65
 20
132.9693703116
 30
0.0
 11
463.65
 21
132.9693703116
 31
0.0
  0
ARC
  5
3C7
  8
VIDITELNE
  6
SLD-PLNÁ
 62
     2
 10
485.65
 20
20.9693703116
 30
0.0
 40
2.000000000000004
 50
90.0
 51
180.0
  0
LINE
  5
3C8
  8
VIDITELNE
  6
SLD-PLNÁ
 62
     2
 10
501.95
 20
57.9693703116
 30
0.0
 11
504.15
 21
57.9693703116
 31
0.0
  0
LINE
  5
3C9
  8
VIDITELNE
  6
SLD-PLNÁ
 62
     2
 10
504.15
 20
97.9693703116
 30
0.0
 11
501.95
 21
97.9693703116
 31
0.0
  0
ARC
  5
3CA
  8
VIDITELNE
  6
SLD-PLNÁ
 62
     2
 10
504.15
 20
97.4693703116
 30
0.0
 40
0.5000000000000568
 50
0.0
 51
90.0
  0
ARC
  5
3CB
  8
VIDITELNE
  6
SLD-PLNÁ
 62
     2
 10
504.15
 20
58.4693703116
 30
0.0
 40
0.5000000000000568
 50
270.0
 51
0.0
  0
LINE
  5
3CC
  8
VIDITELNE
  6
SLD-PLNÁ
 62
     2
 10
583.15
 20
58.9693703116
 30
0.0
 11
584.65
 21
60.4693703116
 31
0.0
  0
LINE
  5
3CD
  8
VIDITELNE
  6
SLD-PLNÁ
 62
     2
 10
584.65
 20
95.4693703116
 30
0.0
 11
583.15
 21
96.9693703116
 31
0.0
  0
LINE
  5
3CE
  8
VIDITELNE
  6
SLD-PLNÁ
 62
     2
 10
504.65
 20
58.9693703116
 30
0.0
 11
583.15
 21
58.9693703116
 31
0.0
  0
LINE
  5
3CF
  8
VIDITELNE
  6
SLD-PLNÁ
 62
     2
 10
512.65
 20
96.9693703116
 30
0.0
 11
504.65
 21
96.9693703116
 31
0.0
  0
LINE
  5
3D0
  8
VIDITELNE
  6
SLD-PLNÁ
 62
     2
 10
583.15
 20
96.9693703116
 30
0.0
 11
575.5830327725
 21
96.9693703116
 31
0.0
  0
POLYLINE
  5
3D1
  8
VIDITELNE
  6
SLD-PLNÁ
 62
     2
 66
     1
 10
0.0
 20
0.0
 30
0.0
  0
VERTEX
  5
8AD
  8
VIDITELNE
  6
SLD-PLNÁ
 62
     2
 10
375.1141288893
 20
-165.9634943519
 30
0.0
  0
VERTEX
  5
8AE
  8
VIDITELNE
  6
SLD-PLNÁ
 62
     2
 10
375.1875553177
 20
-165.9419276074
 30
0.0
  0
VERTEX
  5
8AF
  8
VIDITELNE
  6
SLD-PLNÁ
 62
     2
 10
375.2993830525
 20
-165.9187842145
 30
0.0
  0
VERTEX
  5
8B0
  8
VIDITELNE
  6
SLD-PLNÁ
 62
     2
 10
375.3273354801
 20
-165.9140317476
 30
0.0
  0
VERTEX
  5
8B1
  8
VIDITELNE
  6
SLD-PLNÁ
 62
     2
 10
375.3414562487
 20
-165.911786068
 30
0.0
  0
VERTEX
  5
8B2
  8
VIDITELNE
  6
SLD-PLNÁ
 62
     2
 10
375.3520257855
 20
-165.9101733653
 30
0.0
  0
VERTEX
  5
8B3
  8
VIDITELNE
  6
SLD-PLNÁ
 62
     2
 10
375.3615264424
 20
-165.9087741511
 30
0.0
  0
VERTEX
  5
8B4
  8
VIDITELNE
  6
SLD-PLNÁ
 62
     2
 10
375.3694398601
 20
-165.9076470719
 30
0.0
  0
VERTEX
  5
8B5
  8
VIDITELNE
  6
SLD-PLNÁ
 62
     2
 10
375.3683546592
 20
-165.9077937245
 30
0.0
  0
SEQEND
  5
8B6
  8
VIDITELNE
  6
SLD-PLNÁ
 62
     2
  0
ARC
  5
3D2
  8
VIDITELNE
  6
SLD-PLNÁ
 62
     2
 10
375.5987725213
 20
-167.8302033231
 30
0.0
 40
1.928595818956417
 50
104.5540692358
 51
181.3057894832
  0
ARC
  5
3D3
  8
VIDITELNE
  6
SLD-PLNÁ
 62
     2
 10
341.7939306959
 20
-167.76461735
 30
0.0
 40
1.835779216542811
 50
356.1152580697
 51
73.7789946987
  0
ARC
  5
3D4
  8
VIDITELNE
  6
SLD-PLNÁ
 62
     2
 10
231.65
 20
-19.0306296884
 30
0.0
 40
2.000000000000001
 50
0.0
 51
75.5224878141
  0
ARC
  5
3D5
  8
VIDITELNE
  6
SLD-PLNÁ
 62
     2
 10
228.65
 20
20.9693703116
 30
0.0
 40
2.000000000000004
 50
0.0
 51
90.0
  0
ARC
  5
3D6
  8
VIDITELNE
  6
SLD-PLNÁ
 62
     2
 10
232.65
 20
-15.1576463422
 30
0.0
 40
2.000000000000001
 50
180.0
 51
255.5224878141
  0
LINE
  5
3D7
  8
VIDITELNE
  6
SLD-PLNÁ
 62
     2
 10
343.65
 20
-167.8951841183
 30
0.0
 11
343.65
 21
-170.0306296884
 31
0.0
  0
LINE
  5
3D8
  8
VIDITELNE
  6
SLD-PLNÁ
 62
     2
 10
373.65
 20
-170.0306296884
 30
0.0
 11
373.65
 21
-167.8876914689
 31
0.0
  0
LINE
  5
3D9
  8
VIDITELNE
  6
SLD-PLNÁ
 62
     2
 10
230.65
 20
8.4693703116
 30
0.0
 11
227.65
 21
8.4693703116
 31
0.0
  0
LINE
  5
3DA
  8
VIDITELNE
  6
SLD-PLNÁ
 62
     2
 10
227.65
 20
-12.5306296884
 30
0.0
 11
230.65
 21
-12.5306296884
 31
0.0
  0
ARC
  5
3DB
  8
VIDITELNE
  6
SLD-PLNÁ
 62
     2
 10
227.65
 20
-11.5306296884
 30
0.0
 40
1.000000000000002
 50
180.0
 51
270.0
  0
ARC
  5
3DC
  8
VIDITELNE
  6
SLD-PLNÁ
 62
     2
 10
227.65
 20
7.4693703116
 30
0.0
 40
1.0
 50
90.0
 51
180.0
  0
LINE
  5
3DD
  8
VIDITELNE
  6
SLD-PLNÁ
 62
     2
 10
348.15
 20
-170.0306296884
 30
0.0
 11
348.15
 21
-173.0306296884
 31
0.0
  0
LINE
  5
3DE
  8
VIDITELNE
  6
SLD-PLNÁ
 62
     2
 10
369.15
 20
-173.0306296884
 30
0.0
 11
369.15
 21
-170.0306296884
 31
0.0
  0
ARC
  5
3DF
  8
VIDITELNE
  6
SLD-PLNÁ
 62
     2
 10
368.15
 20
-173.0306296884
 30
0.0
 40
1.0
 50
270.0
 51
0.0
  0
ARC
  5
3E0
  8
VIDITELNE
  6
SLD-PLNÁ
 62
     2
 10
349.15
 20
-173.0306296884
 30
0.0
 40
1.0
 50
180.0
 51
270.0
  0
LINE
  5
3E1
  8
VIDITELNE
  6
SLD-PLNÁ
 62
     2
 10
459.15
 20
131.9197558321
 30
0.0
 11
459.15
 21
133.9693703116
 31
0.0
  0
LINE
  5
3E2
  8
VIDITELNE
  6
SLD-PLNÁ
 62
     2
 10
438.15
 20
133.9693703116
 30
0.0
 11
438.15
 21
131.9231907798
 31
0.0
  0
ARC
  5
3E3
  8
VIDITELNE
  6
SLD-PLNÁ
 62
     2
 10
439.15
 20
133.9693703116
 30
0.0
 40
1.0
 50
90.0
 51
180.0
  0
ARC
  5
3E4
  8
VIDITELNE
  6
SLD-PLNÁ
 62
     2
 10
458.15
 20
133.9693703116
 30
0.0
 40
1.0
 50
0.0
 51
90.0
  0
LINE
  5
3E5
  8
VIDITELNE
  6
SLD-PLNÁ
 62
     2
 10
575.65
 20
96.9518812034
 30
0.0
 11
575.65
 21
100.2693703116
 31
0.0
  0
LINE
  5
3E6
  8
VIDITELNE
  6
SLD-PLNÁ
 62
     2
 10
512.65
 20
100.2693703116
 30
0.0
 11
512.65
 21
96.9693703116
 31
0.0
  0
CIRCLE
  5
3E7
  8
VIDITELNE
  6
SLD-PLNÁ
 62
     2
 10
358.65
 20
-42.0306296884
 30
0.0
 40
42.5
  0
CIRCLE
  5
3E8
  8
VIDITELNE
  6
SLD-PLNÁ
 62
     2
 10
358.65
 20
-42.0306296884
 30
0.0
 40
65.0
  0
ARC
  5
3E9
  8
VIDITELNE
  6
SLD-PLNÁ
 62
     2
 10
358.65
 20
-42.0306296884
 30
0.0
 40
95.00000000000001
 50
69.9131672646
 51
110.0868327354
  0
ARC
  5
3EA
  8
VIDITELNE
  6
SLD-PLNÁ
 62
     2
 10
358.65
 20
-42.0306296884
 30
0.0
 40
95.00000000000004
 50
65.0868327354
 51
69.9131672646
  0
ARC
  5
3EB
  8
VIDITELNE
  6
SLD-PLNÁ
 62
     2
 10
358.65
 20
-42.0306296884
 30
0.0
 40
95.00000000000004
 50
24.9131672646
 51
65.0868327354
  0
ARC
  5
3EC
  8
VIDITELNE
  6
SLD-PLNÁ
 62
     2
 10
358.65
 20
-42.0306296884
 30
0.0
 40
95.0
 50
20.0868327354
 51
24.9131672646
  0
ARC
  5
3ED
  8
VIDITELNE
  6
SLD-PLNÁ
 62
     2
 10
358.65
 20
-42.0306296884
 30
0.0
 40
95.00000000000001
 50
339.9131672646
 51
20.0868327354
  0
ARC
  5
3EE
  8
VIDITELNE
  6
SLD-PLNÁ
 62
     2
 10
358.65
 20
-42.0306296884
 30
0.0
 40
95.00000000000004
 50
335.0868327354
 51
339.9131672646
  0
ARC
  5
3EF
  8
VIDITELNE
  6
SLD-PLNÁ
 62
     2
 10
358.65
 20
-42.0306296884
 30
0.0
 40
95.00000000000004
 50
294.9131672646
 51
335.0868327354
  0
ARC
  5
3F0
  8
VIDITELNE
  6
SLD-PLNÁ
 62
     2
 10
358.65
 20
-42.0306296884
 30
0.0
 40
95.00000000000004
 50
290.0868327354
 51
294.9131672646
  0
ARC
  5
3F1
  8
VIDITELNE
  6
SLD-PLNÁ
 62
     2
 10
358.65
 20
-42.0306296884
 30
0.0
 40
95.00000000000004
 50
249.9131672646
 51
290.0868327354
  0
ARC
  5
3F2
  8
VIDITELNE
  6
SLD-PLNÁ
 62
     2
 10
358.65
 20
-42.0306296884
 30
0.0
 40
95.00000000000001
 50
245.0868327354
 51
249.9131672646
  0
ARC
  5
3F3
  8
VIDITELNE
  6
SLD-PLNÁ
 62
     2
 10
358.65
 20
-42.0306296884
 30
0.0
 40
95.00000000000004
 50
204.9131672646
 51
245.0868327354
  0
ARC
  5
3F4
  8
VIDITELNE
  6
SLD-PLNÁ
 62
     2
 10
358.65
 20
-42.0306296884
 30
0.0
 40
95.00000000000004
 50
200.0868327354
 51
204.9131672646
  0
ARC
  5
3F5
  8
VIDITELNE
  6
SLD-PLNÁ
 62
     2
 10
358.65
 20
-42.0306296884
 30
0.0
 40
95.00000000000001
 50
159.9131672646
 51
200.0868327354
  0
ARC
  5
3F6
  8
VIDITELNE
  6
SLD-PLNÁ
 62
     2
 10
358.65
 20
-42.0306296884
 30
0.0
 40
95.00000000000004
 50
155.0868327354
 51
159.9131672646
  0
ARC
  5
3F7
  8
VIDITELNE
  6
SLD-PLNÁ
 62
     2
 10
358.65
 20
-42.0306296884
 30
0.0
 40
95.00000000000004
 50
114.9131672646
 51
155.0868327354
  0
ARC
  5
3F8
  8
VIDITELNE
  6
SLD-PLNÁ
 62
     2
 10
358.65
 20
-42.0306296884
 30
0.0
 40
95.00000000000001
 50
110.0868327354
 51
114.9131672646
  0
CIRCLE
  5
3F9
  8
VIDITELNE
  6
SLD-PLNÁ
 62
     2
 10
416.9863094479
 20
16.3056797595
 30
0.0
 40
6.0
  0
CIRCLE
  5
3FA
  8
VIDITELNE
  6
SLD-PLNÁ
 62
     2
 10
416.9863094479
 20
-100.3669391363
 30
0.0
 40
6.0
  0
CIRCLE
  5
3FB
  8
VIDITELNE
  6
SLD-PLNÁ
 62
     2
 10
300.3136905521
 20
-100.3669391363
 30
0.0
 40
6.0
  0
CIRCLE
  5
3FC
  8
VIDITELNE
  6
SLD-PLNÁ
 62
     2
 10
300.3136905521
 20
16.3056797595
 30
0.0
 40
6.0
  0
CIRCLE
  5
3FD
  8
VIDITELNE
  6
SLD-PLNÁ
 62
     2
 10
416.9863094479
 20
16.3056797595
 30
0.0
 40
5.250000000000057
  0
LINE
  5
3FE
  8
VIDITELNE
  6
SLD-PLNÁ
 62
     2
 10
398.6682039358
 20
44.1293572762
 30
0.0
 11
409.0077961355
 21
69.0913409941
 31
0.0
  0
LINE
  5
3FF
  8
VIDITELNE
  6
SLD-PLNÁ
 62
     2
 10
401.6167598754
 20
72.152808453
 30
0.0
 11
391.2771676757
 21
47.1908247351
 31
0.0
  0
ARC
  5
400
  8
VIDITELNE
  6
SLD-PLNÁ
 62
     2
 10
358.65
 20
-42.0306296884
 30
0.0
 40
122.0
 50
65.6211131219
 51
69.3788868781
  0
ARC
  5
401
  8
VIDITELNE
  6
SLD-PLNÁ
 62
     2
 10
358.65
 20
-42.0306296884
 30
0.0
 40
101.6395280956807
 50
204.7554445434
 51
245.2445554566
  0
CIRCLE
  5
402
  8
VIDITELNE
  6
SLD-PLNÁ
 62
     2
 10
300.3136905521
 20
16.3056797595
 30
0.0
 40
5.249999999999943
  0
ARC
  5
403
  8
VIDITELNE
  6
SLD-PLNÁ
 62
     2
 10
358.65
 20
-42.0306296884
 30
0.0
 40
101.6395280956807
 50
69.7554445434
 51
110.2445554566
  0
ARC
  5
404
  8
VIDITELNE
  6
SLD-PLNÁ
 62
     2
 10
358.65
 20
-42.0306296884
 30
0.0
 40
101.6395280956807
 50
339.7554445434
 51
20.2445554566
  0
ARC
  5
405
  8
VIDITELNE
  6
SLD-PLNÁ
 62
     2
 10
358.65
 20
-42.0306296884
 30
0.0
 40
101.6395280956807
 50
114.7554445434
 51
155.2445554566
  0
LINE
  5
406
  8
VIDITELNE
  6
SLD-PLNÁ
 62
     2
 10
308.2922038645
 20
69.0913409941
 30
0.0
 11
318.6317960642
 21
44.1293572762
 31
0.0
  0
ARC
  5
407
  8
VIDITELNE
  6
SLD-PLNÁ
 62
     2
 10
358.65
 20
-42.0306296884
 30
0.0
 40
122.0
 50
110.6211131219
 51
114.3788868781
  0
LINE
  5
408
  8
VIDITELNE
  6
SLD-PLNÁ
 62
     2
 10
326.0228323243
 20
47.1908247351
 30
0.0
 11
315.6832401246
 21
72.152808453
 31
0.0
  0
ARC
  5
409
  8
VIDITELNE
  6
SLD-PLNÁ
 62
     2
 10
358.65
 20
-42.0306296884
 30
0.0
 40
101.6395280956807
 50
249.7554445434
 51
290.2445554566
  0
LINE
  5
40A
  8
VIDITELNE
  6
SLD-PLNÁ
 62
     2
 10
444.8099869647
 20
-82.0488336243
 30
0.0
 11
469.7719706826
 21
-92.3884258239
 31
0.0
  0
LINE
  5
40B
  8
VIDITELNE
  6
SLD-PLNÁ
 62
     2
 10
472.8334381415
 20
-84.9973895639
 30
0.0
 11
447.8714544236
 21
-74.6577973642
 31
0.0
  0
ARC
  5
40C
  8
VIDITELNE
  6
SLD-PLNÁ
 62
     2
 10
358.65
 20
-42.0306296884
 30
0.0
 40
122.0
 50
335.6211131219
 51
339.3788868781
  0
ARC
  5
40D
  8
VIDITELNE
  6
SLD-PLNÁ
 62
     2
 10
358.65
 20
-42.0306296884
 30
0.0
 40
101.6395280956807
 50
24.7554445434
 51
65.2445554566
  0
ARC
  5
40E
  8
VIDITELNE
  6
SLD-PLNÁ
 62
     2
 10
358.65
 20
-42.0306296884
 30
0.0
 40
101.6395280956807
 50
159.7554445434
 51
200.2445554566
  0
LINE
  5
40F
  8
VIDITELNE
  6
SLD-PLNÁ
 62
     2
 10
469.7719706826
 20
8.3271664471
 30
0.0
 11
444.8099869647
 21
-2.0124257526
 31
0.0
  0
ARC
  5
410
  8
VIDITELNE
  6
SLD-PLNÁ
 62
     2
 10
358.65
 20
-42.0306296884
 30
0.0
 40
121.9999999999999
 50
20.6211131219
 51
24.3788868781
  0
LINE
  5
411
  8
VIDITELNE
  6
SLD-PLNÁ
 62
     2
 10
447.8714544236
 20
-9.4034620127
 30
0.0
 11
472.8334381415
 21
0.936130187
 31
0.0
  0
ARC
  5
412
  8
VIDITELNE
  6
SLD-PLNÁ
 62
     2
 10
358.65
 20
-42.0306296884
 30
0.0
 40
122.0000000000001
 50
155.6211131219
 51
159.3788868781
  0
LINE
  5
413
  8
VIDITELNE
  6
SLD-PLNÁ
 62
     2
 10
272.4900130353
 20
-2.0124257526
 30
0.0
 11
247.5280293174
 21
8.3271664471
 31
0.0
  0
LINE
  5
414
  8
VIDITELNE
  6
SLD-PLNÁ
 62
     2
 10
244.4665618585
 20
0.936130187
 30
0.0
 11
269.4285455764
 21
-9.4034620127
 31
0.0
  0
LINE
  5
415
  8
VIDITELNE
  6
SLD-PLNÁ
 62
     2
 10
391.2771676757
 20
-131.252084112
 30
0.0
 11
401.6167598754
 21
-156.2140678299
 31
0.0
  0
LINE
  5
416
  8
VIDITELNE
  6
SLD-PLNÁ
 62
     2
 10
409.0077961355
 20
-153.152600371
 30
0.0
 11
398.6682039358
 21
-128.1906166531
 31
0.0
  0
ARC
  5
417
  8
VIDITELNE
  6
SLD-PLNÁ
 62
     2
 10
358.65
 20
-42.0306296884
 30
0.0
 40
122.0
 50
290.6211131219
 51
294.3788868781
  0
ARC
  5
418
  8
VIDITELNE
  6
SLD-PLNÁ
 62
     2
 10
358.65
 20
-42.0306296884
 30
0.0
 40
122.0
 50
245.6211131219
 51
249.3788868781
  0
LINE
  5
419
  8
VIDITELNE
  6
SLD-PLNÁ
 62
     2
 10
318.6317960642
 20
-128.1906166531
 30
0.0
 11
308.2922038645
 21
-153.152600371
 31
0.0
  0
LINE
  5
41A
  8
VIDITELNE
  6
SLD-PLNÁ
 62
     2
 10
315.6832401246
 20
-156.2140678299
 30
0.0
 11
326.0228323243
 21
-131.252084112
 31
0.0
  0
ARC
  5
41B
  8
VIDITELNE
  6
SLD-PLNÁ
 62
     2
 10
358.65
 20
-42.0306296884
 30
0.0
 40
122.0
 50
200.6211131219
 51
204.3788868781
  0
LINE
  5
41C
  8
VIDITELNE
  6
SLD-PLNÁ
 62
     2
 10
247.5280293174
 20
-92.3884258239
 30
0.0
 11
272.4900130353
 21
-82.0488336243
 31
0.0
  0
LINE
  5
41D
  8
VIDITELNE
  6
SLD-PLNÁ
 62
     2
 10
269.4285455764
 20
-74.6577973642
 30
0.0
 11
244.4665618585
 21
-84.9973895639
 31
0.0
  0
ARC
  5
41E
  8
VIDITELNE
  6
SLD-PLNÁ
 62
     2
 10
358.65
 20
-42.0306296884
 30
0.0
 40
101.6395280956807
 50
294.7554445434
 51
335.2445554566
  0
CIRCLE
  5
41F
  8
VIDITELNE
  6
SLD-PLNÁ
 62
     2
 10
416.9863094479
 20
-100.3669391363
 30
0.0
 40
5.250000000000057
  0
CIRCLE
  5
420
  8
VIDITELNE
  6
SLD-PLNÁ
 62
     2
 10
300.3136905521
 20
-100.3669391363
 30
0.0
 40
5.249999999999943
  0
CIRCLE
  5
421
  8
VIDITELNE
  6
SLD-PLNÁ
 62
     2
 10
358.65
 20
72.9693703116
 30
0.0
 40
7.0
  0
CIRCLE
  5
422
  8
VIDITELNE
  6
SLD-PLNÁ
 62
     2
 10
358.65
 20
72.9693703116
 30
0.0
 40
8.0
  0
CIRCLE
  5
423
  8
VIDITELNE
  6
SLD-PLNÁ
 62
     2
 10
277.3327201635
 20
39.286650148
 30
0.0
 40
7.000000000001364
  0
CIRCLE
  5
424
  8
VIDITELNE
  6
SLD-PLNÁ
 62
     2
 10
243.65
 20
-42.0306296884
 30
0.0
 40
7.000000000003212
  0
CIRCLE
  5
425
  8
VIDITELNE
  6
SLD-PLNÁ
 62
     2
 10
277.3327201635
 20
39.286650148
 30
0.0
 40
8.000000000001364
  0
CIRCLE
  5
426
  8
VIDITELNE
  6
SLD-PLNÁ
 62
     2
 10
243.65
 20
-42.0306296884
 30
0.0
 40
8.000000000003212
  0
CIRCLE
  5
427
  8
VIDITELNE
  6
SLD-PLNÁ
 62
     2
 10
277.3327201635
 20
-123.3479095249
 30
0.0
 40
7.000000000000909
  0
CIRCLE
  5
428
  8
VIDITELNE
  6
SLD-PLNÁ
 62
     2
 10
358.65
 20
-157.0306296884
 30
0.0
 40
7.000000000000455
  0
CIRCLE
  5
429
  8
VIDITELNE
  6
SLD-PLNÁ
 62
     2
 10
473.65
 20
-42.0306296884
 30
0.0
 40
7.0
  0
CIRCLE
  5
42A
  8
VIDITELNE
  6
SLD-PLNÁ
 62
     2
 10
473.65
 20
-42.0306296884
 30
0.0
 40
8.0
  0
CIRCLE
  5
42B
  8
VIDITELNE
  6
SLD-PLNÁ
 62
     2
 10
439.9672798365
 20
-123.3479095249
 30
0.0
 40
7.000000000000171
  0
CIRCLE
  5
42C
  8
VIDITELNE
  6
SLD-PLNÁ
 62
     2
 10
439.9672798365
 20
-123.3479095249
 30
0.0
 40
8.00000000000017
  0
CIRCLE
  5
42D
  8
VIDITELNE
  6
SLD-PLNÁ
 62
     2
 10
358.65
 20
-157.0306296884
 30
0.0
 40
8.000000000000455
  0
CIRCLE
  5
42E
  8
VIDITELNE
  6
SLD-PLNÁ
 62
     2
 10
277.3327201635
 20
-123.3479095249
 30
0.0
 40
8.00000000000091
  0
CIRCLE
  5
42F
  8
VIDITELNE
  6
SLD-PLNÁ
 62
     2
 10
439.9672798365
 20
39.286650148
 30
0.0
 40
7.0
  0
CIRCLE
  5
430
  8
VIDITELNE
  6
SLD-PLNÁ
 62
     2
 10
439.9672798365
 20
39.286650148
 30
0.0
 40
8.0
  0
CIRCLE
  5
431
  8
VIDITELNE
  6
SLD-PLNÁ
 62
     2
 10
358.65
 20
-42.0306296884
 30
0.0
 40
124.6158715355907
  0
CIRCLE
  5
432
  8
VIDITELNE
  6
SLD-PLNÁ
 62
     2
 10
358.65
 20
-42.0306296884
 30
0.0
 40
125.0
  0
LINE
  5
433
  8
VIDITELNE
  6
SLD-PLNÁ
 62
     2
 10
496.65
 20
104.8472890181
 30
0.0
 11
496.65
 21
130.2517056429
 31
0.0
  0
LINE
  5
434
  8
VIDITELNE
  6
SLD-PLNÁ
 62
     2
 10
496.65
 20
52.5649536867
 30
0.0
 11
496.65
 21
103.3737869364
 31
0.0
  0
LINE
  5
435
  8
VIDITELNE
  6
SLD-PLNÁ
 62
     2
 10
496.65
 20
25.6870349802
 30
0.0
 11
496.65
 21
51.0914516051
 31
0.0
  0
LINE
  5
436
  8
VIDITELNE
  6
SLD-PLNÁ
 62
     2
 10
501.95
 20
57.3561216575
 30
0.0
 11
496.65
 21
57.3561216575
 31
0.0
  0
LINE
  5
437
  8
VIDITELNE
  6
SLD-PLNÁ
 62
     2
 10
501.95
 20
57.3561216575
 30
0.0
 11
501.95
 21
51.5826189656
 31
0.0
  0
LINE
  5
438
  8
VIDITELNE
  6
SLD-PLNÁ
 62
     2
 10
501.95
 20
51.5826189656
 30
0.0
 11
496.65
 21
51.5826189656
 31
0.0
  0
LINE
  5
439
  8
VIDITELNE
  6
SLD-PLNÁ
 62
     2
 10
496.65
 20
52.5649536867
 30
0.0
 11
496.65
 21
51.5826189656
 31
0.0
  0
LINE
  5
43A
  8
VIDITELNE
  6
SLD-PLNÁ
 62
     2
 10
501.95
 20
51.5826189656
 30
0.0
 11
501.95
 21
48.6958676197
 31
0.0
  0
LINE
  5
43B
  8
VIDITELNE
  6
SLD-PLNÁ
 62
     2
 10
501.95
 20
48.6958676197
 30
0.0
 11
496.65
 21
48.6958676197
 31
0.0
  0
LINE
  5
43C
  8
VIDITELNE
  6
SLD-PLNÁ
 62
     2
 10
496.65
 20
51.5826189656
 30
0.0
 11
496.65
 21
51.0914516051
 31
0.0
  0
LINE
  5
43D
  8
VIDITELNE
  6
SLD-PLNÁ
 62
     2
 10
501.95
 20
60.2428730035
 30
0.0
 11
496.65
 21
60.2428730035
 31
0.0
  0
LINE
  5
43E
  8
VIDITELNE
  6
SLD-PLNÁ
 62
     2
 10
501.95
 20
60.2428730035
 30
0.0
 11
501.95
 21
57.3561216575
 31
0.0
  0
LINE
  5
43F
  8
VIDITELNE
  6
SLD-PLNÁ
 62
     2
 10
501.95
 20
98.5826189656
 30
0.0
 11
496.65
 21
98.5826189656
 31
0.0
  0
LINE
  5
440
  8
VIDITELNE
  6
SLD-PLNÁ
 62
     2
 10
501.95
 20
98.5826189656
 30
0.0
 11
501.95
 21
95.6958676197
 31
0.0
  0
LINE
  5
441
  8
VIDITELNE
  6
SLD-PLNÁ
 62
     2
 10
501.95
 20
95.6958676197
 30
0.0
 11
496.65
 21
95.6958676197
 31
0.0
  0
LINE
  5
442
  8
VIDITELNE
  6
SLD-PLNÁ
 62
     2
 10
501.95
 20
104.3561216575
 30
0.0
 11
496.65
 21
104.3561216575
 31
0.0
  0
LINE
  5
443
  8
VIDITELNE
  6
SLD-PLNÁ
 62
     2
 10
496.65
 20
104.3561216575
 30
0.0
 11
496.65
 21
103.3737869364
 31
0.0
  0
LINE
  5
444
  8
VIDITELNE
  6
SLD-PLNÁ
 62
     2
 10
501.95
 20
104.3561216575
 30
0.0
 11
501.95
 21
98.5826189656
 31
0.0
  0
LINE
  5
445
  8
VIDITELNE
  6
SLD-PLNÁ
 62
     2
 10
501.95
 20
107.2428730035
 30
0.0
 11
496.65
 21
107.2428730035
 31
0.0
  0
LINE
  5
446
  8
VIDITELNE
  6
SLD-PLNÁ
 62
     2
 10
496.65
 20
104.8472890181
 30
0.0
 11
496.65
 21
104.3561216575
 31
0.0
  0
LINE
  5
447
  8
VIDITELNE
  6
SLD-PLNÁ
 62
     2
 10
501.95
 20
107.2428730035
 30
0.0
 11
501.95
 21
104.3561216575
 31
0.0
  0
LINE
  5
448
  8
VIDITELNE
  6
SLD-PLNÁ
 62
     2
 10
501.95
 20
33.8561216575
 30
0.0
 11
496.65
 21
33.8561216575
 31
0.0
  0
LINE
  5
449
  8
VIDITELNE
  6
SLD-PLNÁ
 62
     2
 10
501.95
 20
33.8561216575
 30
0.0
 11
501.95
 21
28.0826189656
 31
0.0
  0
LINE
  5
44A
  8
VIDITELNE
  6
SLD-PLNÁ
 62
     2
 10
501.95
 20
28.0826189656
 30
0.0
 11
496.65
 21
28.0826189656
 31
0.0
  0
LINE
  5
44B
  8
VIDITELNE
  6
SLD-PLNÁ
 62
     2
 10
501.95
 20
25.1958676197
 30
0.0
 11
496.65
 21
25.1958676197
 31
0.0
  0
LINE
  5
44C
  8
VIDITELNE
  6
SLD-PLNÁ
 62
     2
 10
496.65
 20
25.6870349802
 30
0.0
 11
496.65
 21
25.1958676197
 31
0.0
  0
LINE
  5
44D
  8
VIDITELNE
  6
SLD-PLNÁ
 62
     2
 10
501.95
 20
28.0826189656
 30
0.0
 11
501.95
 21
25.1958676197
 31
0.0
  0
LINE
  5
44E
  8
VIDITELNE
  6
SLD-PLNÁ
 62
     2
 10
501.95
 20
36.7428730035
 30
0.0
 11
496.65
 21
36.7428730035
 31
0.0
  0
LINE
  5
44F
  8
VIDITELNE
  6
SLD-PLNÁ
 62
     2
 10
501.95
 20
36.7428730035
 30
0.0
 11
501.95
 21
33.8561216575
 31
0.0
  0
LINE
  5
450
  8
VIDITELNE
  6
SLD-PLNÁ
 62
     2
 10
501.95
 20
127.8561216575
 30
0.0
 11
496.65
 21
127.8561216575
 31
0.0
  0
LINE
  5
451
  8
VIDITELNE
  6
SLD-PLNÁ
 62
     2
 10
501.95
 20
127.8561216575
 30
0.0
 11
501.95
 21
122.0826189656
 31
0.0
  0
LINE
  5
452
  8
VIDITELNE
  6
SLD-PLNÁ
 62
     2
 10
501.95
 20
122.0826189656
 30
0.0
 11
496.65
 21
122.0826189656
 31
0.0
  0
LINE
  5
453
  8
VIDITELNE
  6
SLD-PLNÁ
 62
     2
 10
501.95
 20
130.7428730035
 30
0.0
 11
496.65
 21
130.7428730035
 31
0.0
  0
LINE
  5
454
  8
VIDITELNE
  6
SLD-PLNÁ
 62
     2
 10
501.95
 20
130.7428730035
 30
0.0
 11
501.95
 21
127.8561216575
 31
0.0
  0
LINE
  5
455
  8
VIDITELNE
  6
SLD-PLNÁ
 62
     2
 10
496.65
 20
130.7428730035
 30
0.0
 11
496.65
 21
130.2517056429
 31
0.0
  0
LINE
  5
456
  8
VIDITELNE
  6
SLD-PLNÁ
 62
     2
 10
501.95
 20
122.0826189656
 30
0.0
 11
501.95
 21
119.1958676197
 31
0.0
  0
LINE
  5
457
  8
VIDITELNE
  6
SLD-PLNÁ
 62
     2
 10
501.95
 20
119.1958676197
 30
0.0
 11
496.65
 21
119.1958676197
 31
0.0
  0
ARC
  5
458
  8
VIDITELNE
  6
SLD-PLNÁ
 62
     2
 10
378.6210376872
 20
140.9805212299
 30
0.0
 40
11.79381391099938
 50
193.8324798594
 51
221.2391457448
  0
POLYLINE
  5
459
  8
VIDITELNE
  6
SLD-PLNÁ
 62
     2
 66
     1
 10
0.0
 20
0.0
 30
0.0
  0
VERTEX
  5
8B7
  8
VIDITELNE
  6
SLD-PLNÁ
 62
     2
 10
350.1307426933
 20
138.1608097761
 30
0.0
  0
VERTEX
  5
8B8
  8
VIDITELNE
  6
SLD-PLNÁ
 62
     2
 10
349.651268429
 20
136.5971315388
 30
0.0
  0
VERTEX
  5
8B9
  8
VIDITELNE
  6
SLD-PLNÁ
 62
     2
 10
348.9957775024
 20
135.2573719879
 30
0.0
  0
VERTEX
  5
8BA
  8
VIDITELNE
  6
SLD-PLNÁ
 62
     2
 10
348.3110239878
 20
134.1939493877
 30
0.0
  0
VERTEX
  5
8BB
  8
VIDITELNE
  6
SLD-PLNÁ
 62
     2
 10
347.7580299
 20
133.4634287573
 30
0.0
  0
VERTEX
  5
8BC
  8
VIDITELNE
  6
SLD-PLNÁ
 62
     2
 10
347.5436043883
 20
133.201252955
 30
0.0
  0
VERTEX
  5
8BD
  8
VIDITELNE
  6
SLD-PLNÁ
 62
     2
 10
347.5474721538
 20
133.2059726168
 30
0.0
  0
SEQEND
  5
8BE
  8
VIDITELNE
  6
SLD-PLNÁ
 62
     2
  0
LINE
  5
45A
  8
VIDITELNE
  6
SLD-PLNÁ
 62
     2
 10
367.1692573067
 20
138.1608097761
 30
0.0
 11
350.1307426933
 21
138.1608097761
 31
0.0
  0
ARC
  5
45B
  8
VIDITELNE
  6
SLD-PLNÁ
 62
     2
 10
364.2034729824
 20
137.6528628213
 30
0.0
 40
3.008967724450953
 50
9.7186973008
 51
77.8372519959
  0
ARC
  5
45C
  8
VIDITELNE
  6
SLD-PLNÁ
 62
     2
 10
353.1308160818
 20
137.6200060844
 30
0.0
 40
3.048427294392322
 50
102.6626466901
 51
169.7814040132
  0
LINE
  5
45D
  8
VIDITELNE
  6
SLD-PLNÁ
 62
     2
 10
364.8374301818
 20
140.5942885021
 30
0.0
 11
352.4625698182
 21
140.5942885021
 31
0.0
  0
ARC
  5
45E
  8
VIDITELNE
  6
SLD-PLNÁ
 62
     2
 10
368.1657628038
 20
64.0999460198
 30
0.0
 40
78.08953003926865
 50
96.999292596
 51
101.6008333747
  0
ARC
  5
45F
  8
VIDITELNE
  6
SLD-PLNÁ
 62
     2
 10
354.6757789155
 20
97.9398910796
 30
0.0
 40
43.84811028922906
 50
76.6000757132
 51
84.7997983161
  0
LINE
  5
460
  8
VIDITELNE
  6
SLD-PLNÁ
 62
     2
 10
358.65
 20
141.9693656052
 30
0.0
 11
358.65
 21
141.6075260363
 31
0.0
  0
LINE
  5
461
  8
VIDITELNE
  6
SLD-PLNÁ
 62
     2
 10
358.65
 20
173.9693703116
 30
0.0
 11
358.65
 21
165.9693749796
 31
0.0
  0
LINE
  5
462
  8
VIDITELNE
  6
SLD-PLNÁ
 62
     2
 10
220.65
 20
51.0914516051
 30
0.0
 11
220.65
 21
25.6870349802
 31
0.0
  0
LINE
  5
463
  8
VIDITELNE
  6
SLD-PLNÁ
 62
     2
 10
220.65
 20
103.3737869364
 30
0.0
 11
220.65
 21
52.5649536867
 31
0.0
  0
LINE
  5
464
  8
VIDITELNE
  6
SLD-PLNÁ
 62
     2
 10
220.65
 20
130.2517056429
 30
0.0
 11
220.65
 21
104.8472890181
 31
0.0
  0
LINE
  5
465
  8
VIDITELNE
  6
SLD-PLNÁ
 62
     2
 10
215.35
 20
104.3561216575
 30
0.0
 11
220.65
 21
104.3561216575
 31
0.0
  0
LINE
  5
466
  8
VIDITELNE
  6
SLD-PLNÁ
 62
     2
 10
215.35
 20
104.3561216575
 30
0.0
 11
215.35
 21
107.2428730035
 31
0.0
  0
LINE
  5
467
  8
VIDITELNE
  6
SLD-PLNÁ
 62
     2
 10
215.35
 20
107.2428730035
 30
0.0
 11
220.65
 21
107.2428730035
 31
0.0
  0
LINE
  5
468
  8
VIDITELNE
  6
SLD-PLNÁ
 62
     2
 10
220.65
 20
104.3561216575
 30
0.0
 11
220.65
 21
104.8472890181
 31
0.0
  0
LINE
  5
469
  8
VIDITELNE
  6
SLD-PLNÁ
 62
     2
 10
215.35
 20
95.6958676197
 30
0.0
 11
220.65
 21
95.6958676197
 31
0.0
  0
LINE
  5
46A
  8
VIDITELNE
  6
SLD-PLNÁ
 62
     2
 10
215.35
 20
95.6958676197
 30
0.0
 11
215.35
 21
98.5826189656
 31
0.0
  0
LINE
  5
46B
  8
VIDITELNE
  6
SLD-PLNÁ
 62
     2
 10
215.35
 20
98.5826189656
 30
0.0
 11
220.65
 21
98.5826189656
 31
0.0
  0
LINE
  5
46C
  8
VIDITELNE
  6
SLD-PLNÁ
 62
     2
 10
215.35
 20
98.5826189656
 30
0.0
 11
215.35
 21
104.3561216575
 31
0.0
  0
LINE
  5
46D
  8
VIDITELNE
  6
SLD-PLNÁ
 62
     2
 10
220.65
 20
103.3737869364
 30
0.0
 11
220.65
 21
104.3561216575
 31
0.0
  0
LINE
  5
46E
  8
VIDITELNE
  6
SLD-PLNÁ
 62
     2
 10
215.35
 20
51.5826189656
 30
0.0
 11
220.65
 21
51.5826189656
 31
0.0
  0
LINE
  5
46F
  8
VIDITELNE
  6
SLD-PLNÁ
 62
     2
 10
215.35
 20
57.3561216575
 30
0.0
 11
220.65
 21
57.3561216575
 31
0.0
  0
LINE
  5
470
  8
VIDITELNE
  6
SLD-PLNÁ
 62
     2
 10
220.65
 20
51.5826189656
 30
0.0
 11
220.65
 21
52.5649536867
 31
0.0
  0
LINE
  5
471
  8
VIDITELNE
  6
SLD-PLNÁ
 62
     2
 10
215.35
 20
51.5826189656
 30
0.0
 11
215.35
 21
57.3561216575
 31
0.0
  0
LINE
  5
472
  8
VIDITELNE
  6
SLD-PLNÁ
 62
     2
 10
215.35
 20
60.2428730035
 30
0.0
 11
220.65
 21
60.2428730035
 31
0.0
  0
LINE
  5
473
  8
VIDITELNE
  6
SLD-PLNÁ
 62
     2
 10
215.35
 20
57.3561216575
 30
0.0
 11
215.35
 21
60.2428730035
 31
0.0
  0
LINE
  5
474
  8
VIDITELNE
  6
SLD-PLNÁ
 62
     2
 10
215.35
 20
48.6958676197
 30
0.0
 11
220.65
 21
48.6958676197
 31
0.0
  0
LINE
  5
475
  8
VIDITELNE
  6
SLD-PLNÁ
 62
     2
 10
220.65
 20
51.0914516051
 30
0.0
 11
220.65
 21
51.5826189656
 31
0.0
  0
LINE
  5
476
  8
VIDITELNE
  6
SLD-PLNÁ
 62
     2
 10
215.35
 20
48.6958676197
 30
0.0
 11
215.35
 21
51.5826189656
 31
0.0
  0
LINE
  5
477
  8
VIDITELNE
  6
SLD-PLNÁ
 62
     2
 10
215.35
 20
119.1958676197
 30
0.0
 11
220.65
 21
119.1958676197
 31
0.0
  0
LINE
  5
478
  8
VIDITELNE
  6
SLD-PLNÁ
 62
     2
 10
215.35
 20
122.0826189656
 30
0.0
 11
220.65
 21
122.0826189656
 31
0.0
  0
LINE
  5
479
  8
VIDITELNE
  6
SLD-PLNÁ
 62
     2
 10
215.35
 20
119.1958676197
 30
0.0
 11
215.35
 21
122.0826189656
 31
0.0
  0
LINE
  5
47A
  8
VIDITELNE
  6
SLD-PLNÁ
 62
     2
 10
215.35
 20
127.8561216575
 30
0.0
 11
220.65
 21
127.8561216575
 31
0.0
  0
LINE
  5
47B
  8
VIDITELNE
  6
SLD-PLNÁ
 62
     2
 10
215.35
 20
122.0826189656
 30
0.0
 11
215.35
 21
127.8561216575
 31
0.0
  0
LINE
  5
47C
  8
VIDITELNE
  6
SLD-PLNÁ
 62
     2
 10
215.35
 20
130.7428730035
 30
0.0
 11
220.65
 21
130.7428730035
 31
0.0
  0
LINE
  5
47D
  8
VIDITELNE
  6
SLD-PLNÁ
 62
     2
 10
220.65
 20
130.2517056429
 30
0.0
 11
220.65
 21
130.7428730035
 31
0.0
  0
LINE
  5
47E
  8
VIDITELNE
  6
SLD-PLNÁ
 62
     2
 10
215.35
 20
127.8561216575
 30
0.0
 11
215.35
 21
130.7428730035
 31
0.0
  0
LINE
  5
47F
  8
VIDITELNE
  6
SLD-PLNÁ
 62
     2
 10
215.35
 20
28.0826189656
 30
0.0
 11
220.65
 21
28.0826189656
 31
0.0
  0
LINE
  5
480
  8
VIDITELNE
  6
SLD-PLNÁ
 62
     2
 10
215.35
 20
28.0826189656
 30
0.0
 11
215.35
 21
33.8561216575
 31
0.0
  0
LINE
  5
481
  8
VIDITELNE
  6
SLD-PLNÁ
 62
     2
 10
215.35
 20
33.8561216575
 30
0.0
 11
220.65
 21
33.8561216575
 31
0.0
  0
LINE
  5
482
  8
VIDITELNE
  6
SLD-PLNÁ
 62
     2
 10
215.35
 20
25.1958676197
 30
0.0
 11
220.65
 21
25.1958676197
 31
0.0
  0
LINE
  5
483
  8
VIDITELNE
  6
SLD-PLNÁ
 62
     2
 10
215.35
 20
25.1958676197
 30
0.0
 11
215.35
 21
28.0826189656
 31
0.0
  0
LINE
  5
484
  8
VIDITELNE
  6
SLD-PLNÁ
 62
     2
 10
220.65
 20
25.1958676197
 30
0.0
 11
220.65
 21
25.6870349802
 31
0.0
  0
LINE
  5
485
  8
VIDITELNE
  6
SLD-PLNÁ
 62
     2
 10
215.35
 20
36.7428730035
 30
0.0
 11
220.65
 21
36.7428730035
 31
0.0
  0
LINE
  5
486
  8
VIDITELNE
  6
SLD-PLNÁ
 62
     2
 10
215.35
 20
33.8561216575
 30
0.0
 11
215.35
 21
36.7428730035
 31
0.0
  0
CIRCLE
  5
487
  8
VIDITELNE
  6
SLD-PLNÁ
 62
     2
 10
358.65
 20
-42.0306296884
 30
0.0
 40
30.49999999999994
  0
CIRCLE
  5
488
  8
VIDITELNE
  6
SLD-PLNÁ
 62
     2
 10
358.65
 20
-42.0306296884
 30
0.0
 40
32.49999999999994
  0
ARC
  5
489
  8
VIDITELNE
  6
SLD-PLNÁ
 62
     2
 10
358.65
 20
-42.0306296884
 30
0.0
 40
22.5
 50
108.1262039606
 51
71.8737960394
  0
LINE
  5
48A
  8
VIDITELNE
  6
SLD-PLNÁ
 62
     2
 10
365.65
 20
-20.6472249081
 30
0.0
 11
365.65
 21
-19.4353899783
 31
0.0
  0
ARC
  5
48B
  8
VIDITELNE
  6
SLD-PLNÁ
 62
     2
 10
358.65
 20
-42.0306296884
 30
0.0
 40
23.65470053837924
 50
107.2129689444
 51
72.7870310556
  0
LINE
  5
48C
  8
VIDITELNE
  6
SLD-PLNÁ
 62
     2
 10
351.65
 20
-19.4353899783
 30
0.0
 11
351.65
 21
-20.6472249081
 31
0.0
  0
LINE
  5
48D
  8
VIDITELNE
  6
SLD-PLNÁ
 62
     2
 10
365.65
 20
-19.4353899783
 30
0.0
 11
365.65
 21
-15.7306296884
 31
0.0
  0
LINE
  5
48E
  8
VIDITELNE
  6
SLD-PLNÁ
 62
     2
 10
351.65
 20
-15.7306296884
 30
0.0
 11
351.65
 21
-19.4353899783
 31
0.0
  0
LINE
  5
48F
  8
VIDITELNE
  6
SLD-PLNÁ
 62
     2
 10
365.65
 20
-15.7306296884
 30
0.0
 11
351.65
 21
-15.7306296884
 31
0.0
  0
LINE
  5
490
  8
VIDITELNE
  6
SLD-PLNÁ
 62
     2
 10
317.7235769955
 20
76.079606532
 30
0.0
 11
317.0687542274
 21
77.9693703116
 31
0.0
  0
ARC
  5
491
  8
VIDITELNE
  6
SLD-PLNÁ
 62
     2
 10
358.65
 20
-46.6024538385
 30
0.0
 40
131.3283646897414
 50
71.54133344
 51
108.45866656
  0
LINE
  5
492
  8
VIDITELNE
  6
SLD-PLNÁ
 62
     2
 10
399.5764230045
 20
76.079606532
 30
0.0
 11
400.2312457726
 21
77.9693703116
 31
0.0
  0
ARC
  5
493
  8
VIDITELNE
  6
SLD-PLNÁ
 62
     2
 10
482.8428824538
 20
-41.9163375395
 30
0.0
 40
249.1929086637847
 50
172.7359548709
 51
180.0262786691
  0
LINE
  5
494
  8
VIDITELNE
  6
SLD-PLNÁ
 62
     2
 10
237.587007874
 20
-10.9058495687
 30
0.0
 11
235.65
 21
-10.4078530868
 31
0.0
  0
LINE
  5
495
  8
VIDITELNE
  6
SLD-PLNÁ
 62
     2
 10
479.712992126
 20
-10.9058495687
 30
0.0
 11
481.65
 21
-10.4078530868
 31
0.0
  0
ARC
  5
496
  8
VIDITELNE
  6
SLD-PLNÁ
 62
     2
 10
234.4571175457
 20
-41.9163375396
 30
0.0
 40
249.1929086643461
 50
359.9737213309
 51
7.2640451291
  0
ARC
  5
497
  8
VIDITELNE
  6
SLD-PLNÁ
 62
     2
 10
358.65
 20
-42.0306296884
 30
0.0
 40
127.0
 50
14.4182411734
 51
70.8882678628
  0
ARC
  5
498
  8
VIDITELNE
  6
SLD-PLNÁ
 62
     2
 10
358.65
 20
-42.0306296884
 30
0.0
 40
127.0
 50
109.1117321372
 51
165.5817588266
  0
LINE
  5
499
  8
VIDITELNE
  6
SLD-PLNÁ
 62
     2
 10
235.65
 20
77.9693703116
 30
0.0
 11
235.65
 21
-10.4078530868
 31
0.0
  0
LINE
  5
49A
  8
VIDITELNE
  6
SLD-PLNÁ
 62
     2
 10
235.65
 20
77.9693703116
 30
0.0
 11
317.0687542274
 21
77.9693703116
 31
0.0
  0
POLYLINE
  5
49B
  8
VIDITELNE
  6
SLD-PLNÁ
 62
     2
 66
     1
 10
0.0
 20
0.0
 30
0.0
  0
VERTEX
  5
8BF
  8
VIDITELNE
  6
SLD-PLNÁ
 62
     2
 10
233.65
 20
56.9931933482
 30
0.0
  0
VERTEX
  5
8C0
  8
VIDITELNE
  6
SLD-PLNÁ
 62
     2
 10
233.6115705608
 20
57.1367810365
 30
0.0
  0
VERTEX
  5
8C1
  8
VIDITELNE
  6
SLD-PLNÁ
 62
     2
 10
233.497759065
 20
57.2748507306
 30
0.0
  0
VERTEX
  5
8C2
  8
VIDITELNE
  6
SLD-PLNÁ
 62
     2
 10
233.3129392246
 20
57.4020964893
 30
0.0
  0
VERTEX
  5
8C3
  8
VIDITELNE
  6
SLD-PLNÁ
 62
     2
 10
233.0642135624
 20
57.5136283297
 30
0.0
  0
VERTEX
  5
8C4
  8
VIDITELNE
  6
SLD-PLNÁ
 62
     2
 10
232.761140466
 20
57.6051601456
 30
0.0
  0
VERTEX
  5
8C5
  8
VIDITELNE
  6
SLD-PLNÁ
 62
     2
 10
232.4153668647
 20
57.6731744207
 30
0.0
  0
VERTEX
  5
8C6
  8
VIDITELNE
  6
SLD-PLNÁ
 62
     2
 10
232.040180644
 20
57.7150574045
 30
0.0
  0
VERTEX
  5
8C7
  8
VIDITELNE
  6
SLD-PLNÁ
 62
     2
 10
231.65
 20
57.7291995574
 30
0.0
  0
SEQEND
  5
8C8
  8
VIDITELNE
  6
SLD-PLNÁ
 62
     2
  0
POLYLINE
  5
49C
  8
VIDITELNE
  6
SLD-PLNÁ
 62
     2
 66
     1
 10
0.0
 20
0.0
 30
0.0
  0
VERTEX
  5
8C9
  8
VIDITELNE
  6
SLD-PLNÁ
 62
     2
 10
231.65
 20
57.7291995574
 30
0.0
  0
VERTEX
  5
8CA
  8
VIDITELNE
  6
SLD-PLNÁ
 62
     2
 10
231.881607626
 20
61.3678949122
 30
0.0
  0
VERTEX
  5
8CB
  8
VIDITELNE
  6
SLD-PLNÁ
 62
     2
 10
232.4646588335
 20
65.1071333395
 30
0.0
  0
VERTEX
  5
8CC
  8
VIDITELNE
  6
SLD-PLNÁ
 62
     2
 10
233.4363665632
 20
69.5715118109
 30
0.0
  0
VERTEX
  5
8CD
  8
VIDITELNE
  6
SLD-PLNÁ
 62
     2
 10
234.5938625214
 20
74.0902550359
 30
0.0
  0
VERTEX
  5
8CE
  8
VIDITELNE
  6
SLD-PLNÁ
 62
     2
 10
235.6375823126
 20
77.9241392816
 30
0.0
  0
VERTEX
  5
8CF
  8
VIDITELNE
  6
SLD-PLNÁ
 62
     2
 10
235.65
 20
77.9693703116
 30
0.0
  0
SEQEND
  5
8D0
  8
VIDITELNE
  6
SLD-PLNÁ
 62
     2
  0
ARC
  5
49D
  8
VIDITELNE
  6
SLD-PLNÁ
 62
     2
 10
462.3543326206
 20
45.7705255736
 30
0.0
 40
228.979518803329
 50
171.9163399436
 51
177.1907128869
  0
LINE
  5
49E
  8
VIDITELNE
  6
SLD-PLNÁ
 62
     2
 10
483.65
 20
56.9931933482
 30
0.0
 11
483.65
 21
-42.0306296884
 31
0.0
  0
LINE
  5
49F
  8
VIDITELNE
  6
SLD-PLNÁ
 62
     2
 10
481.65
 20
-10.4078530868
 30
0.0
 11
481.65
 21
77.9693703116
 31
0.0
  0
ARC
  5
4A0
  8
VIDITELNE
  6
SLD-PLNÁ
 62
     2
 10
254.9456673794
 20
45.7705255736
 30
0.0
 40
228.9795188033086
 50
2.8092871131
 51
8.0836600564
  0
LINE
  5
4A1
  8
VIDITELNE
  6
SLD-PLNÁ
 62
     2
 10
481.65
 20
77.9693703116
 30
0.0
 11
400.2312457726
 21
77.9693703116
 31
0.0
  0
POLYLINE
  5
4A2
  8
VIDITELNE
  6
SLD-PLNÁ
 62
     2
 66
     1
 10
0.0
 20
0.0
 30
0.0
  0
VERTEX
  5
8D1
  8
VIDITELNE
  6
SLD-PLNÁ
 62
     2
 10
481.65
 20
77.9693703116
 30
0.0
  0
VERTEX
  5
8D2
  8
VIDITELNE
  6
SLD-PLNÁ
 62
     2
 10
481.6624176874
 20
77.9241392816
 30
0.0
  0
VERTEX
  5
8D3
  8
VIDITELNE
  6
SLD-PLNÁ
 62
     2
 10
482.7061374786
 20
74.0902550359
 30
0.0
  0
VERTEX
  5
8D4
  8
VIDITELNE
  6
SLD-PLNÁ
 62
     2
 10
483.8549140357
 20
69.6076710673
 30
0.0
  0
VERTEX
  5
8D5
  8
VIDITELNE
  6
SLD-PLNÁ
 62
     2
 10
484.8353411665
 20
65.1071333395
 30
0.0
  0
VERTEX
  5
8D6
  8
VIDITELNE
  6
SLD-PLNÁ
 62
     2
 10
485.4127286674
 20
61.4161442249
 30
0.0
  0
VERTEX
  5
8D7
  8
VIDITELNE
  6
SLD-PLNÁ
 62
     2
 10
485.65
 20
57.7291995574
 30
0.0
  0
SEQEND
  5
8D8
  8
VIDITELNE
  6
SLD-PLNÁ
 62
     2
  0
POLYLINE
  5
4A3
  8
VIDITELNE
  6
SLD-PLNÁ
 62
     2
 66
     1
 10
0.0
 20
0.0
 30
0.0
  0
VERTEX
  5
8D9
  8
VIDITELNE
  6
SLD-PLNÁ
 62
     2
 10
485.65
 20
57.7291995574
 30
0.0
  0
VERTEX
  5
8DA
  8
VIDITELNE
  6
SLD-PLNÁ
 62
     2
 10
485.259819356
 20
57.7150574045
 30
0.0
  0
VERTEX
  5
8DB
  8
VIDITELNE
  6
SLD-PLNÁ
 62
     2
 10
484.8846331353
 20
57.6731744207
 30
0.0
  0
VERTEX
  5
8DC
  8
VIDITELNE
  6
SLD-PLNÁ
 62
     2
 10
484.538859534
 20
57.6051601456
 30
0.0
  0
VERTEX
  5
8DD
  8
VIDITELNE
  6
SLD-PLNÁ
 62
     2
 10
484.2357864376
 20
57.5136283297
 30
0.0
  0
VERTEX
  5
8DE
  8
VIDITELNE
  6
SLD-PLNÁ
 62
     2
 10
483.9870607754
 20
57.4020964893
 30
0.0
  0
VERTEX
  5
8DF
  8
VIDITELNE
  6
SLD-PLNÁ
 62
     2
 10
483.802240935
 20
57.2748507306
 30
0.0
  0
VERTEX
  5
8E0
  8
VIDITELNE
  6
SLD-PLNÁ
 62
     2
 10
483.6884294392
 20
57.1367810365
 30
0.0
  0
VERTEX
  5
8E1
  8
VIDITELNE
  6
SLD-PLNÁ
 62
     2
 10
483.65
 20
56.9931933482
 30
0.0
  0
SEQEND
  5
8E2
  8
VIDITELNE
  6
SLD-PLNÁ
 62
     2
  0
LINE
  5
4A4
  8
VIDITELNE
  6
SLD-PLNÁ
 62
     2
 10
233.65
 20
-42.0306296884
 30
0.0
 11
233.65
 21
56.9931933482
 31
0.0
  0
LINE
  5
4A5
  8
VIDITELNE
  6
SLD-PLNÁ
 62
     2
 10
231.65
 20
25.4724665936
 30
0.0
 11
231.65
 21
57.7291995574
 31
0.0
  0
LINE
  5
4A6
  8
VIDITELNE
  6
SLD-PLNÁ
 62
     2
 10
228.65
 20
25.4724665936
 30
0.0
 11
231.65
 21
25.4724665936
 31
0.0
  0
POLYLINE
  5
4A7
  8
VIDITELNE
  6
SLD-PLNÁ
 62
     2
 66
     1
 10
0.0
 20
0.0
 30
0.0
  0
VERTEX
  5
8E3
  8
VIDITELNE
  6
SLD-PLNÁ
 62
     2
 10
445.65
 20
130.9693703116
 30
0.0
  0
VERTEX
  5
8E4
  8
VIDITELNE
  6
SLD-PLNÁ
 62
     2
 10
443.2707620186
 20
131.1571151525
 30
0.0
  0
VERTEX
  5
8E5
  8
VIDITELNE
  6
SLD-PLNÁ
 62
     2
 10
440.9816440011
 20
131.4371520472
 30
0.0
  0
VERTEX
  5
8E6
  8
VIDITELNE
  6
SLD-PLNÁ
 62
     2
 10
438.9747534306
 20
131.7616596863
 30
0.0
  0
VERTEX
  5
8E7
  8
VIDITELNE
  6
SLD-PLNÁ
 62
     2
 10
437.1857750952
 20
132.1120378915
 30
0.0
  0
VERTEX
  5
8E8
  8
VIDITELNE
  6
SLD-PLNÁ
 62
     2
 10
435.7326400132
 20
132.4382438911
 30
0.0
  0
VERTEX
  5
8E9
  8
VIDITELNE
  6
SLD-PLNÁ
 62
     2
 10
434.6126164061
 20
132.7146727417
 30
0.0
  0
VERTEX
  5
8EA
  8
VIDITELNE
  6
SLD-PLNÁ
 62
     2
 10
433.9301726762
 20
132.8936210251
 30
0.0
  0
VERTEX
  5
8EB
  8
VIDITELNE
  6
SLD-PLNÁ
 62
     2
 10
433.6534433167
 20
132.968431325
 30
0.0
  0
VERTEX
  5
8EC
  8
VIDITELNE
  6
SLD-PLNÁ
 62
     2
 10
433.6725757509
 20
132.9632377184
 30
0.0
  0
SEQEND
  5
8ED
  8
VIDITELNE
  6
SLD-PLNÁ
 62
     2
  0
LINE
  5
4A8
  8
VIDITELNE
  6
SLD-PLNÁ
 62
     2
 10
445.65
 20
130.9693703116
 30
0.0
 11
451.65
 21
130.9693703116
 31
0.0
  0
ARC
  5
4A9
  8
VIDITELNE
  6
SLD-PLNÁ
 62
     2
 10
448.034659165
 20
189.6614153218
 30
0.0
 40
58.80328933688492
 50
273.5248792676
 51
285.3997651485
  0
POLYLINE
  5
4AA
  8
VIDITELNE
  6
SLD-PLNÁ
 62
     2
 66
     1
 10
0.0
 20
0.0
 30
0.0
  0
VERTEX
  5
8EE
  8
VIDITELNE
  6
SLD-PLNÁ
 62
     2
 10
355.65
 20
130.9693703116
 30
0.0
  0
VERTEX
  5
8EF
  8
VIDITELNE
  6
SLD-PLNÁ
 62
     2
 10
353.2707620186
 20
131.1571151525
 30
0.0
  0
VERTEX
  5
8F0
  8
VIDITELNE
  6
SLD-PLNÁ
 62
     2
 10
350.9816440011
 20
131.4371520472
 30
0.0
  0
VERTEX
  5
8F1
  8
VIDITELNE
  6
SLD-PLNÁ
 62
     2
 10
348.9747534306
 20
131.7616596863
 30
0.0
  0
VERTEX
  5
8F2
  8
VIDITELNE
  6
SLD-PLNÁ
 62
     2
 10
347.1857750952
 20
132.1120378915
 30
0.0
  0
VERTEX
  5
8F3
  8
VIDITELNE
  6
SLD-PLNÁ
 62
     2
 10
345.7326400132
 20
132.4382438911
 30
0.0
  0
VERTEX
  5
8F4
  8
VIDITELNE
  6
SLD-PLNÁ
 62
     2
 10
344.6126164061
 20
132.7146727417
 30
0.0
  0
VERTEX
  5
8F5
  8
VIDITELNE
  6
SLD-PLNÁ
 62
     2
 10
343.9301726762
 20
132.8936210251
 30
0.0
  0
VERTEX
  5
8F6
  8
VIDITELNE
  6
SLD-PLNÁ
 62
     2
 10
343.6534433167
 20
132.968431325
 30
0.0
  0
VERTEX
  5
8F7
  8
VIDITELNE
  6
SLD-PLNÁ
 62
     2
 10
343.6725757509
 20
132.9632377184
 30
0.0
  0
SEQEND
  5
8F8
  8
VIDITELNE
  6
SLD-PLNÁ
 62
     2
  0
LINE
  5
4AB
  8
VIDITELNE
  6
SLD-PLNÁ
 62
     2
 10
355.65
 20
130.9693703116
 30
0.0
 11
361.65
 21
130.9693703116
 31
0.0
  0
ARC
  5
4AC
  8
VIDITELNE
  6
SLD-PLNÁ
 62
     2
 10
358.034659165
 20
189.6614153218
 30
0.0
 40
58.80328933688191
 50
273.5248792676
 51
285.3997651485
  0
LINE
  5
4AD
  8
VIDITELNE
  6
SLD-PLNÁ
 62
     2
 10
488.65
 20
132.9693703116
 30
0.0
 11
488.65
 21
22.9693703116
 31
0.0
  0
LINE
  5
4AE
  8
VIDITELNE
  6
SLD-PLNÁ
 62
     2
 10
228.65
 20
132.9693703116
 30
0.0
 11
228.65
 21
25.4724665936
 31
0.0
  0
ARC
  5
4AF
  8
VIDITELNE
  6
SLD-PLNÁ
 62
     2
 10
231.6944752231
 20
23.5168924376
 30
0.0
 40
1.956079836075904
 50
1.364973668
 51
91.3028416034
  0
LINE
  5
4B0
  8
VIDITELNE
  6
SLD-PLNÁ
 62
     2
 10
504.65
 20
97.4693703116
 30
0.0
 11
504.65
 21
58.4693703116
 31
0.0
  0
LINE
  5
4B1
  8
VIDITELNE
  6
SLD-PLNÁ
 62
     2
 10
584.65
 20
95.4693703116
 30
0.0
 11
584.65
 21
60.4693703116
 31
0.0
  0
LINE
  5
4B2
  8
VIDITELNE
  6
SLD-PLNÁ
 62
     2
 10
583.15
 20
58.9693703116
 30
0.0
 11
583.15
 21
96.9693703116
 31
0.0
  0
LINE
  5
4B3
  8
VIDITELNE
  6
SLD-PLNÁ
 62
     2
 10
517.65
 20
96.2996730914
 30
0.0
 11
570.65
 21
96.2996730914
 31
0.0
  0
POLYLINE
  5
4B4
  8
VIDITELNE
  6
SLD-PLNÁ
 62
     2
 66
     1
 10
0.0
 20
0.0
 30
0.0
  0
VERTEX
  5
8F9
  8
VIDITELNE
  6
SLD-PLNÁ
 62
     2
 10
570.65
 20
96.2996730914
 30
0.0
  0
VERTEX
  5
8FA
  8
VIDITELNE
  6
SLD-PLNÁ
 62
     2
 10
571.1492265014
 20
96.3064700577
 30
0.0
  0
VERTEX
  5
8FB
  8
VIDITELNE
  6
SLD-PLNÁ
 62
     2
 10
572.7141862046
 20
96.4155315569
 30
0.0
  0
VERTEX
  5
8FC
  8
VIDITELNE
  6
SLD-PLNÁ
 62
     2
 10
574.069522338
 20
96.6159017054
 30
0.0
  0
VERTEX
  5
8FD
  8
VIDITELNE
  6
SLD-PLNÁ
 62
     2
 10
575.0853182457
 20
96.8286398611
 30
0.0
  0
VERTEX
  5
8FE
  8
VIDITELNE
  6
SLD-PLNÁ
 62
     2
 10
575.6018033691
 20
96.9567439216
 30
0.0
  0
VERTEX
  5
8FF
  8
VIDITELNE
  6
SLD-PLNÁ
 62
     2
 10
575.5830327725
 20
96.9518692999
 30
0.0
  0
SEQEND
  5
900
  8
VIDITELNE
  6
SLD-PLNÁ
 62
     2
  0
ARC
  5
4B5
  8
VIDITELNE
  6
SLD-PLNÁ
 62
     2
 10
517.7406382602
 20
115.9763838307
 30
0.0
 40
19.67691949500755
 50
255.0064005488
 51
269.7360761608
  0
LINE
  5
4B6
  8
VIDITELNE
  6
SLD-PLNÁ
 62
     2
 10
233.65
 20
-2.0306296884
 30
0.0
 11
232.15
 21
-2.0306296884
 31
0.0
  0
LINE
  5
4B7
  8
VIDITELNE
  6
SLD-PLNÁ
 62
     2
 10
232.15
 20
22.5015288737
 30
0.0
 11
232.15
 21
-2.0306296884
 31
0.0
  0
LINE
  5
4B8
  8
VIDITELNE
  6
SLD-PLNÁ
 62
     2
 10
232.0811358957
 20
23.5634882766
 30
0.0
 11
232.15
 21
22.5015288737
 31
0.0
  0
LINE
  5
4B9
  8
VIDITELNE
  6
SLD-PLNÁ
 62
     2
 10
233.65
 20
23.5634882766
 30
0.0
 11
232.0811358957
 21
23.5634882766
 31
0.0
  0
POLYLINE
  5
4BA
  8
VIDITELNE
  6
SLD-PLNÁ
 62
     2
 66
     1
 10
0.0
 20
0.0
 30
0.0
  0
VERTEX
  5
901
  8
VIDITELNE
  6
SLD-PLNÁ
 62
     2
 10
231.65
 20
24.4271322336
 30
0.0
  0
VERTEX
  5
902
  8
VIDITELNE
  6
SLD-PLNÁ
 62
     2
 10
231.8601812454
 20
24.1048238227
 30
0.0
  0
VERTEX
  5
903
  8
VIDITELNE
  6
SLD-PLNÁ
 62
     2
 10
232.0811358957
 20
23.5634882766
 30
0.0
  0
SEQEND
  5
904
  8
VIDITELNE
  6
SLD-PLNÁ
 62
     2
  0
LINE
  5
4BB
  8
VIDITELNE
  6
SLD-PLNÁ
 62
     2
 10
231.65
 20
25.4724665936
 30
0.0
 11
231.65
 21
24.4271322336
 31
0.0
  0
ARC
  5
4BC
  8
VIDITELNE
  6
SLD-PLNÁ
 62
     2
 10
230.4214275267
 20
25.9334277537
 30
0.0
 40
1.943789215958877
 50
261.9730801003
 51
309.201549277
  0
ARC
  5
4BD
  8
VIDITELNE
  6
SLD-PLNÁ
 62
     2
 10
226.281837362
 20
21.5452642473
 30
0.0
 40
4.585969095988435
 50
32.490801627
 51
58.9093850666
  0
ARC
  5
4BE
  8
VIDITELNE
  6
SLD-PLNÁ
 62
     2
 10
227.6181425786
 20
17.6836341038
 30
0.0
 40
7.856884961191711
 50
59.1252982748
 51
82.4534517512
  0
LINE
  5
4BF
  8
VIDITELNE
  6
SLD-PLNÁ
 62
     2
 10
230.65
 20
22.5015288737
 30
0.0
 11
230.5811358957
 21
23.0576306325
 31
0.0
  0
ARC
  5
4C0
  8
VIDITELNE
  6
SLD-PLNÁ
 62
     2
 10
227.3448018361
 20
22.1637671322
 30
0.0
 40
3.357506530477196
 50
15.4399556874
 51
33.3320171732
  0
LINE
  5
4C1
  8
VIDITELNE
  6
SLD-PLNÁ
 62
     2
 10
228.65
 20
25.4724665936
 30
0.0
 11
228.65
 21
22.9693703116
 31
0.0
  0
ARC
  5
4C2
  8
VIDITELNE
  6
SLD-PLNÁ
 62
     2
 10
233.7537036547
 20
16.1270134891
 30
0.0
 40
7.622246399500356
 50
102.6756968369
 51
114.5964698279
  0
LINE
  5
4C3
  8
VIDITELNE
  6
SLD-PLNÁ
 62
     2
 10
232.15
 20
22.5015288737
 30
0.0
 11
230.65
 21
22.5015288737
 31
0.0
  0
LINE
  5
4C4
  8
VIDITELNE
  6
SLD-PLNÁ
 62
     2
 10
232.15
 20
-2.0306296884
 30
0.0
 11
230.65
 21
-2.0306296884
 31
0.0
  0
LINE
  5
4C5
  8
VIDITELNE
  6
SLD-PLNÁ
 62
     2
 10
230.65
 20
-2.0306296884
 30
0.0
 11
230.65
 21
22.5015288737
 31
0.0
  0
LINE
  5
4C6
  8
VIDITELNE
  6
SLD-PLNÁ
 62
     2
 10
230.65
 20
-15.1576463422
 30
0.0
 11
230.65
 21
-2.0306296884
 31
0.0
  0
LINE
  5
4C7
  8
VIDITELNE
  6
SLD-PLNÁ
 62
     2
 10
343.65
 20
-170.0306296884
 30
0.0
 11
373.65
 21
-170.0306296884
 31
0.0
  0
LINE
  5
4C8
  8
VIDITELNE
  6
SLD-PLNÁ
 62
     2
 10
226.65
 20
7.4693703116
 30
0.0
 11
226.65
 21
-11.5306296884
 31
0.0
  0
LINE
  5
4C9
  8
VIDITELNE
  6
SLD-PLNÁ
 62
     2
 10
349.15
 20
-174.0306296884
 30
0.0
 11
368.15
 21
-174.0306296884
 31
0.0
  0
LINE
  5
4CA
  8
VIDITELNE
  6
SLD-PLNÁ
 62
     2
 10
458.15
 20
134.9693703116
 30
0.0
 11
439.15
 21
134.9693703116
 31
0.0
  0
LINE
  5
4CB
  8
VIDITELNE
  6
SLD-PLNÁ
 62
     2
 10
570.65
 20
100.2693703116
 30
0.0
 11
575.65
 21
100.2693703116
 31
0.0
  0
LINE
  5
4CC
  8
VIDITELNE
  6
SLD-PLNÁ
 62
     2
 10
570.65
 20
100.2693703116
 30
0.0
 11
570.65
 21
96.2996730914
 31
0.0
  0
LINE
  5
4CD
  8
VIDITELNE
  6
SLD-PLNÁ
 62
     2
 10
517.65
 20
100.2693703116
 30
0.0
 11
570.65
 21
100.2693703116
 31
0.0
  0
LINE
  5
4CE
  8
VIDITELNE
  6
SLD-PLNÁ
 62
     2
 10
517.65
 20
100.2693703116
 30
0.0
 11
517.65
 21
96.2996730914
 31
0.0
  0
LINE
  5
4CF
  8
VIDITELNE
  6
SLD-PLNÁ
 62
     2
 10
512.65
 20
100.2693703116
 30
0.0
 11
517.65
 21
100.2693703116
 31
0.0
  0
LINE
  5
4D0
  8
VIDITELNE
  6
SLD-PLNÁ
 62
     2
 10
494.7197989934
 20
77.9693703116
 30
0.0
 11
494.7197989934
 21
132.2574082601
 31
0.0
  0
LINE
  5
4D1
  8
VIDITELNE
  6
SLD-PLNÁ
 62
     2
 10
494.7197989934
 20
23.6813323631
 30
0.0
 11
494.7197989934
 21
77.9693703116
 31
0.0
  0
LINE
  5
4D2
  8
VIDITELNE
  6
SLD-PLNÁ
 62
     2
 10
222.5802010066
 20
132.2574082601
 30
0.0
 11
222.5802010066
 21
23.6813323631
 31
0.0
  0
LINE
  5
4D3
  8
VIDITELNE
  6
SLD-PLNÁ
 62
     2
 10
485.65
 20
57.7291995574
 30
0.0
 11
485.65
 21
22.9693703116
 31
0.0
  0
LINE
  5
4D4
  8
VIDITELNE
  6
SLD-PLNÁ
 62
     2
 10
504.15
 20
57.9693703116
 30
0.0
 11
504.15
 21
97.9693703116
 31
0.0
  0
POLYLINE
  5
4D5
  8
VIDITELNE
  6
SLD-PLNÁ
 62
     2
 66
     1
 10
0.0
 20
0.0
 30
0.0
  0
VERTEX
  5
905
  8
VIDITELNE
  6
SLD-PLNÁ
 62
     2
 10
373.65
 20
-167.8876914689
 30
0.0
  0
VERTEX
  5
906
  8
VIDITELNE
  6
SLD-PLNÁ
 62
     2
 10
373.2660171155
 20
-167.9457072539
 30
0.0
  0
VERTEX
  5
907
  8
VIDITELNE
  6
SLD-PLNÁ
 62
     2
 10
372.4898591322
 20
-168.0584287115
 30
0.0
  0
VERTEX
  5
908
  8
VIDITELNE
  6
SLD-PLNÁ
 62
     2
 10
371.3238798069
 20
-168.2157446887
 30
0.0
  0
VERTEX
  5
909
  8
VIDITELNE
  6
SLD-PLNÁ
 62
     2
 10
371.317531557
 20
-168.2165634562
 30
0.0
  0
VERTEX
  5
90A
  8
VIDITELNE
  6
SLD-PLNÁ
 62
     2
 10
369.7910093215
 20
-168.401319482
 30
0.0
  0
VERTEX
  5
90B
  8
VIDITELNE
  6
SLD-PLNÁ
 62
     2
 10
367.9518247486
 20
-168.5923332218
 30
0.0
  0
VERTEX
  5
90C
  8
VIDITELNE
  6
SLD-PLNÁ
 62
     2
 10
365.8640693802
 20
-168.766896485
 30
0.0
  0
VERTEX
  5
90D
  8
VIDITELNE
  6
SLD-PLNÁ
 62
     2
 10
363.5747750034
 20
-168.9079241259
 30
0.0
  0
VERTEX
  5
90E
  8
VIDITELNE
  6
SLD-PLNÁ
 62
     2
 10
361.1446946624
 20
-168.9987261978
 30
0.0
  0
VERTEX
  5
90F
  8
VIDITELNE
  6
SLD-PLNÁ
 62
     2
 10
358.643989353
 20
-169.0306295057
 30
0.0
  0
VERTEX
  5
910
  8
VIDITELNE
  6
SLD-PLNÁ
 62
     2
 10
356.1238900176
 20
-168.9979152915
 30
0.0
  0
VERTEX
  5
911
  8
VIDITELNE
  6
SLD-PLNÁ
 62
     2
 10
353.6764231561
 20
-168.9054789805
 30
0.0
  0
VERTEX
  5
912
  8
VIDITELNE
  6
SLD-PLNÁ
 62
     2
 10
351.3655414012
 20
-168.7617147529
 30
0.0
  0
VERTEX
  5
913
  8
VIDITELNE
  6
SLD-PLNÁ
 62
     2
 10
349.2627698547
 20
-168.5842335099
 30
0.0
  0
VERTEX
  5
914
  8
VIDITELNE
  6
SLD-PLNÁ
 62
     2
 10
347.440794193
 20
-168.3935784683
 30
0.0
  0
VERTEX
  5
915
  8
VIDITELNE
  6
SLD-PLNÁ
 62
     2
 10
345.9316554315
 20
-168.2099981834
 30
0.0
  0
VERTEX
  5
916
  8
VIDITELNE
  6
SLD-PLNÁ
 62
     2
 10
344.7866971456
 20
-168.0551168245
 30
0.0
  0
VERTEX
  5
917
  8
VIDITELNE
  6
SLD-PLNÁ
 62
     2
 10
344.0253793931
 20
-167.9444241218
 30
0.0
  0
VERTEX
  5
918
  8
VIDITELNE
  6
SLD-PLNÁ
 62
     2
 10
343.6756297536
 20
-167.8918347629
 30
0.0
  0
VERTEX
  5
919
  8
VIDITELNE
  6
SLD-PLNÁ
 62
     2
 10
343.6984027485
 20
-167.8952304799
 30
0.0
  0
SEQEND
  5
91A
  8
VIDITELNE
  6
SLD-PLNÁ
 62
     2
  0
LINE
  5
4D6
  8
VIDITELNE
  6
SLD-PLNÁ
 62
     2
 10
232.15
 20
-2.0306296884
 30
0.0
 11
232.15
 21
-17.0941380153
 31
0.0
  0
LINE
  5
4D7
  8
VIDITELNE
  6
SLD-PLNÁ
 62
     2
 10
227.65
 20
8.4693703116
 30
0.0
 11
227.65
 21
-12.5306296884
 31
0.0
  0
LINE
  5
4D8
  8
VIDITELNE
  6
SLD-PLNÁ
 62
     2
 10
348.15
 20
-173.0306296884
 30
0.0
 11
369.15
 21
-173.0306296884
 31
0.0
  0
LINE
  5
4D9
  8
VIDITELNE
  6
SLD-PLNÁ
 62
     2
 10
459.15
 20
133.9693703116
 30
0.0
 11
438.15
 21
133.9693703116
 31
0.0
  0
LINE
  5
4DA
  8
VIDITELNE
  6
SLD-PLNÁ
 62
     2
 10
-58.0
 20
483.65
 30
0.0
 11
-69.0
 21
483.2658715356
 31
0.0
  0
LINE
  5
4DB
  8
VIDITELNE
  6
SLD-PLNÁ
 62
     2
 10
-69.0
 20
234.0341284644
 30
0.0
 11
-58.0
 21
233.65
 31
0.0
  0
ARC
  5
4DC
  8
VIDITELNE
  6
SLD-PLNÁ
 62
     2
 10
-78.0
 20
351.65
 30
0.0
 40
1.0
 50
180.0
 51
270.0
  0
ARC
  5
4DD
  8
VIDITELNE
  6
SLD-PLNÁ
 62
     2
 10
-78.0
 20
365.65
 30
0.0
 40
1.0
 50
90.0
 51
180.0
  0
LINE
  5
4DE
  8
VIDITELNE
  6
SLD-PLNÁ
 62
     2
 10
-69.0
 20
366.65
 30
0.0
 11
-78.0
 21
366.65
 31
0.0
  0
LINE
  5
4DF
  8
VIDITELNE
  6
SLD-PLNÁ
 62
     2
 10
-78.0
 20
350.65
 30
0.0
 11
-69.0
 21
350.65
 31
0.0
  0
ARC
  5
4E0
  8
VIDITELNE
  6
SLD-PLNÁ
 62
     2
 10
-78.0
 20
270.3327201635
 30
0.0
 40
1.0
 50
180.0
 51
270.0
  0
ARC
  5
4E1
  8
VIDITELNE
  6
SLD-PLNÁ
 62
     2
 10
-78.0
 20
284.3327201635
 30
0.0
 40
1.0
 50
90.0
 51
180.0
  0
LINE
  5
4E2
  8
VIDITELNE
  6
SLD-PLNÁ
 62
     2
 10
-69.0
 20
285.3327201635
 30
0.0
 11
-78.0
 21
285.3327201635
 31
0.0
  0
LINE
  5
4E3
  8
VIDITELNE
  6
SLD-PLNÁ
 62
     2
 10
-78.0
 20
269.3327201635
 30
0.0
 11
-69.0
 21
269.3327201635
 31
0.0
  0
LINE
  5
4E4
  8
VIDITELNE
  6
SLD-PLNÁ
 62
     2
 10
-69.0
 20
447.9672798365
 30
0.0
 11
-78.0
 21
447.9672798365
 31
0.0
  0
LINE
  5
4E5
  8
VIDITELNE
  6
SLD-PLNÁ
 62
     2
 10
-78.0
 20
431.9672798365
 30
0.0
 11
-69.0
 21
431.9672798365
 31
0.0
  0
ARC
  5
4E6
  8
VIDITELNE
  6
SLD-PLNÁ
 62
     2
 10
-78.0
 20
432.9672798365
 30
0.0
 40
1.0
 50
180.0
 51
270.0
  0
ARC
  5
4E7
  8
VIDITELNE
  6
SLD-PLNÁ
 62
     2
 10
-78.0
 20
446.9672798365
 30
0.0
 40
1.0
 50
90.0
 51
180.0
  0
LINE
  5
4E8
  8
VIDITELNE
  6
SLD-PLNÁ
 62
     2
 10
-84.0
 20
293.65
 30
0.0
 11
-80.5
 21
293.65
 31
0.0
  0
LINE
  5
4E9
  8
VIDITELNE
  6
SLD-PLNÁ
 62
     2
 10
-80.5
 20
423.65
 30
0.0
 11
-84.0
 21
423.65
 31
0.0
  0
LINE
  5
4EA
  8
VIDITELNE
  6
SLD-PLNÁ
 62
     2
 10
-80.5
 20
263.65
 30
0.0
 11
-76.8731240234
 21
261.5560221786
 31
0.0
  0
LINE
  5
4EB
  8
VIDITELNE
  6
SLD-PLNÁ
 62
     2
 10
-76.8731240234
 20
455.7439778214
 30
0.0
 11
-80.5
 21
453.65
 31
0.0
  0
LINE
  5
4EC
  8
VIDITELNE
  6
SLD-PLNÁ
 62
     2
 10
-72.3094140097
 20
251.65
 30
0.0
 11
-78.0
 21
251.65
 31
0.0
  0
LINE
  5
4ED
  8
VIDITELNE
  6
SLD-PLNÁ
 62
     2
 10
-78.0
 20
235.65
 30
0.0
 11
-69.0
 21
235.65
 31
0.0
  0
ARC
  5
4EE
  8
VIDITELNE
  6
SLD-PLNÁ
 62
     2
 10
-78.0
 20
236.65
 30
0.0
 40
1.0
 50
180.0
 51
270.0
  0
ARC
  5
4EF
  8
VIDITELNE
  6
SLD-PLNÁ
 62
     2
 10
-78.0
 20
250.65
 30
0.0
 40
1.0
 50
90.0
 51
180.0
  0
LINE
  5
4F0
  8
VIDITELNE
  6
SLD-PLNÁ
 62
     2
 10
-69.0
 20
481.65
 30
0.0
 11
-78.0
 21
481.65
 31
0.0
  0
LINE
  5
4F1
  8
VIDITELNE
  6
SLD-PLNÁ
 62
     2
 10
-78.0
 20
465.65
 30
0.0
 11
-72.3094140097
 21
465.65
 31
0.0
  0
ARC
  5
4F2
  8
VIDITELNE
  6
SLD-PLNÁ
 62
     2
 10
-78.0
 20
466.65
 30
0.0
 40
1.0
 50
180.0
 51
270.0
  0
ARC
  5
4F3
  8
VIDITELNE
  6
SLD-PLNÁ
 62
     2
 10
-78.0
 20
480.65
 30
0.0
 40
1.0
 50
90.0
 51
180.0
  0
LINE
  5
4F4
  8
VIDITELNE
  6
SLD-PLNÁ
 62
     2
 10
58.0
 20
233.65
 30
0.0
 11
69.0
 21
234.0341284644
 31
0.0
  0
LINE
  5
4F5
  8
VIDITELNE
  6
SLD-PLNÁ
 62
     2
 10
69.0
 20
483.2658715356
 30
0.0
 11
58.0
 21
483.65
 31
0.0
  0
LINE
  5
4F6
  8
VIDITELNE
  6
SLD-PLNÁ
 62
     2
 10
69.0
 20
350.65
 30
0.0
 11
78.0
 21
350.65
 31
0.0
  0
LINE
  5
4F7
  8
VIDITELNE
  6
SLD-PLNÁ
 62
     2
 10
78.0
 20
366.65
 30
0.0
 11
69.0
 21
366.65
 31
0.0
  0
ARC
  5
4F8
  8
VIDITELNE
  6
SLD-PLNÁ
 62
     2
 10
78.0
 20
365.65
 30
0.0
 40
1.0
 50
0.0
 51
90.0
  0
ARC
  5
4F9
  8
VIDITELNE
  6
SLD-PLNÁ
 62
     2
 10
78.0
 20
351.65
 30
0.0
 40
1.0
 50
270.0
 51
0.0
  0
LINE
  5
4FA
  8
VIDITELNE
  6
SLD-PLNÁ
 62
     2
 10
69.0
 20
431.9672798365
 30
0.0
 11
78.0
 21
431.9672798365
 31
0.0
  0
LINE
  5
4FB
  8
VIDITELNE
  6
SLD-PLNÁ
 62
     2
 10
78.0
 20
447.9672798365
 30
0.0
 11
69.0
 21
447.9672798365
 31
0.0
  0
ARC
  5
4FC
  8
VIDITELNE
  6
SLD-PLNÁ
 62
     2
 10
78.0
 20
446.9672798365
 30
0.0
 40
1.0
 50
0.0
 51
90.0
  0
ARC
  5
4FD
  8
VIDITELNE
  6
SLD-PLNÁ
 62
     2
 10
78.0
 20
432.9672798365
 30
0.0
 40
1.0
 50
270.0
 51
0.0
  0
ARC
  5
4FE
  8
VIDITELNE
  6
SLD-PLNÁ
 62
     2
 10
78.0
 20
284.3327201635
 30
0.0
 40
1.0
 50
0.0
 51
90.0
  0
ARC
  5
4FF
  8
VIDITELNE
  6
SLD-PLNÁ
 62
     2
 10
78.0
 20
270.3327201635
 30
0.0
 40
1.0
 50
270.0
 51
0.0
  0
LINE
  5
500
  8
VIDITELNE
  6
SLD-PLNÁ
 62
     2
 10
69.0
 20
269.3327201635
 30
0.0
 11
78.0
 21
269.3327201635
 31
0.0
  0
LINE
  5
501
  8
VIDITELNE
  6
SLD-PLNÁ
 62
     2
 10
78.0
 20
285.3327201635
 30
0.0
 11
69.0
 21
285.3327201635
 31
0.0
  0
LINE
  5
502
  8
VIDITELNE
  6
SLD-PLNÁ
 62
     2
 10
84.0
 20
423.65
 30
0.0
 11
80.5
 21
423.65
 31
0.0
  0
LINE
  5
503
  8
VIDITELNE
  6
SLD-PLNÁ
 62
     2
 10
80.5
 20
293.65
 30
0.0
 11
84.0
 21
293.65
 31
0.0
  0
LINE
  5
504
  8
VIDITELNE
  6
SLD-PLNÁ
 62
     2
 10
80.5
 20
453.65
 30
0.0
 11
76.8731240234
 21
455.7439778214
 31
0.0
  0
LINE
  5
505
  8
VIDITELNE
  6
SLD-PLNÁ
 62
     2
 10
76.8731240234
 20
261.5560221786
 30
0.0
 11
80.5
 21
263.65
 31
0.0
  0
LINE
  5
506
  8
VIDITELNE
  6
SLD-PLNÁ
 62
     2
 10
72.3094140097
 20
465.65
 30
0.0
 11
78.0
 21
465.65
 31
0.0
  0
LINE
  5
507
  8
VIDITELNE
  6
SLD-PLNÁ
 62
     2
 10
78.0
 20
481.65
 30
0.0
 11
69.0
 21
481.65
 31
0.0
  0
ARC
  5
508
  8
VIDITELNE
  6
SLD-PLNÁ
 62
     2
 10
78.0
 20
480.65
 30
0.0
 40
1.0
 50
0.0
 51
90.0
  0
ARC
  5
509
  8
VIDITELNE
  6
SLD-PLNÁ
 62
     2
 10
78.0
 20
466.65
 30
0.0
 40
1.0
 50
270.0
 51
0.0
  0
LINE
  5
50A
  8
VIDITELNE
  6
SLD-PLNÁ
 62
     2
 10
69.0
 20
235.65
 30
0.0
 11
78.0
 21
235.65
 31
0.0
  0
LINE
  5
50B
  8
VIDITELNE
  6
SLD-PLNÁ
 62
     2
 10
78.0
 20
251.65
 30
0.0
 11
72.3094140097
 21
251.65
 31
0.0
  0
ARC
  5
50C
  8
VIDITELNE
  6
SLD-PLNÁ
 62
     2
 10
78.0
 20
250.65
 30
0.0
 40
1.0
 50
0.0
 51
90.0
  0
ARC
  5
50D
  8
VIDITELNE
  6
SLD-PLNÁ
 62
     2
 10
78.0
 20
236.65
 30
0.0
 40
1.0
 50
270.0
 51
0.0
  0
LINE
  5
50E
  8
VIDITELNE
  6
SLD-PLNÁ
 62
     2
 10
54.5
 20
488.65
 30
0.0
 11
54.2880379485
 21
494.7197989934
 31
0.0
  0
LINE
  5
50F
  8
VIDITELNE
  6
SLD-PLNÁ
 62
     2
 10
-54.2880379485
 20
494.7197989934
 30
0.0
 11
-54.5
 21
488.65
 31
0.0
  0
ARC
  5
510
  8
VIDITELNE
  6
SLD-PLNÁ
 62
     2
 10
52.2892562945
 20
494.65
 30
0.0
 40
2.000000000000047
 50
2.0
 51
90.0
  0
ARC
  5
511
  8
VIDITELNE
  6
SLD-PLNÁ
 62
     2
 10
-52.2892562945
 20
494.65
 30
0.0
 40
2.000000000000047
 50
90.0
 51
178.0
  0
LINE
  5
512
  8
VIDITELNE
  6
SLD-PLNÁ
 62
     2
 10
-54.5
 20
228.65
 30
0.0
 11
-54.2880379485
 21
222.5802010066
 31
0.0
  0
LINE
  5
513
  8
VIDITELNE
  6
SLD-PLNÁ
 62
     2
 10
54.2880379485
 20
222.5802010066
 30
0.0
 11
54.5
 21
228.65
 31
0.0
  0
ARC
  5
514
  8
VIDITELNE
  6
SLD-PLNÁ
 62
     2
 10
-52.2892562945
 20
222.65
 30
0.0
 40
2.000000000000011
 50
182.0
 51
270.0
  0
ARC
  5
515
  8
VIDITELNE
  6
SLD-PLNÁ
 62
     2
 10
52.2892562945
 20
222.65
 30
0.0
 40
2.000000000000004
 50
270.0
 51
358.0
  0
LINE
  5
516
  8
VIDITELNE
  6
SLD-PLNÁ
 62
     2
 10
53.0
 20
233.65
 30
0.0
 11
58.0
 21
233.65
 31
0.0
  0
LINE
  5
517
  8
VIDITELNE
  6
SLD-PLNÁ
 62
     2
 10
-58.0
 20
233.65
 30
0.0
 11
-53.0
 21
233.65
 31
0.0
  0
LINE
  5
518
  8
VIDITELNE
  6
SLD-PLNÁ
 62
     2
 10
-53.0
 20
483.65
 30
0.0
 11
-58.0
 21
483.65
 31
0.0
  0
LINE
  5
519
  8
VIDITELNE
  6
SLD-PLNÁ
 62
     2
 10
58.0
 20
483.65
 30
0.0
 11
53.0
 21
483.65
 31
0.0
  0
ARC
  5
51A
  8
VIDITELNE
  6
SLD-PLNÁ
 62
     2
 10
-84.0
 20
328.15
 30
0.0
 40
2.0
 50
180.0
 51
270.0
  0
ARC
  5
51B
  8
VIDITELNE
  6
SLD-PLNÁ
 62
     2
 10
-84.0
 20
389.15
 30
0.0
 40
2.0
 50
90.0
 51
180.0
  0
ARC
  5
51C
  8
VIDITELNE
  6
SLD-PLNÁ
 62
     2
 10
84.0
 20
389.15
 30
0.0
 40
2.0
 50
0.0
 51
90.0
  0
ARC
  5
51D
  8
VIDITELNE
  6
SLD-PLNÁ
 62
     2
 10
84.0
 20
328.15
 30
0.0
 40
2.0
 50
270.0
 51
0.0
  0
LINE
  5
51E
  8
VIDITELNE
  6
SLD-PLNÁ
 62
     2
 10
-10.5
 20
230.65
 30
0.0
 11
-10.5
 21
227.65
 31
0.0
  0
LINE
  5
51F
  8
VIDITELNE
  6
SLD-PLNÁ
 62
     2
 10
10.5
 20
227.65
 30
0.0
 11
10.5
 21
230.65
 31
0.0
  0
ARC
  5
520
  8
VIDITELNE
  6
SLD-PLNÁ
 62
     2
 10
9.5
 20
227.65
 30
0.0
 40
1.0
 50
270.0
 51
0.0
  0
ARC
  5
521
  8
VIDITELNE
  6
SLD-PLNÁ
 62
     2
 10
-9.5
 20
227.65
 30
0.0
 40
1.0
 50
180.0
 51
270.0
  0
LINE
  5
522
  8
VIDITELNE
  6
SLD-PLNÁ
 62
     2
 10
55.0
 20
483.65
 30
0.0
 11
55.0
 21
488.65
 31
0.0
  0
LINE
  5
523
  8
VIDITELNE
  6
SLD-PLNÁ
 62
     2
 10
55.0
 20
228.65
 30
0.0
 11
55.0
 21
233.65
 31
0.0
  0
LINE
  5
524
  8
VIDITELNE
  6
SLD-PLNÁ
 62
     2
 10
-55.0
 20
233.65
 30
0.0
 11
-55.0
 21
228.65
 31
0.0
  0
LINE
  5
525
  8
VIDITELNE
  6
SLD-PLNÁ
 62
     2
 10
-55.0
 20
488.65
 30
0.0
 11
-55.0
 21
483.65
 31
0.0
  0
ARC
  5
526
  8
VIDITELNE
  6
SLD-PLNÁ
 62
     2
 10
-19.5
 20
504.15
 30
0.0
 40
0.5000000000000568
 50
90.0
 51
180.0
  0
ARC
  5
527
  8
VIDITELNE
  6
SLD-PLNÁ
 62
     2
 10
19.5
 20
504.15
 30
0.0
 40
0.5000000000000568
 50
0.0
 51
90.0
  0
LINE
  5
528
  8
VIDITELNE
  6
SLD-PLNÁ
 62
     2
 10
20.0
 20
496.65
 30
0.0
 11
20.0
 21
504.15
 31
0.0
  0
LINE
  5
529
  8
VIDITELNE
  6
SLD-PLNÁ
 62
     2
 10
-20.0
 20
504.15
 30
0.0
 11
-20.0
 21
496.65
 31
0.0
  0
LINE
  5
52A
  8
VIDITELNE
  6
SLD-PLNÁ
 62
     2
 10
19.0
 20
583.15
 30
0.0
 11
17.5
 21
584.65
 31
0.0
  0
LINE
  5
52B
  8
VIDITELNE
  6
SLD-PLNÁ
 62
     2
 10
-17.5
 20
584.65
 30
0.0
 11
-19.0
 21
583.15
 31
0.0
  0
LINE
  5
52C
  8
VIDITELNE
  6
SLD-PLNÁ
 62
     2
 10
19.0
 20
504.65
 30
0.0
 11
19.0
 21
583.15
 31
0.0
  0
LINE
  5
52D
  8
VIDITELNE
  6
SLD-PLNÁ
 62
     2
 10
-19.0
 20
583.15
 30
0.0
 11
-19.0
 21
504.65
 31
0.0
  0
LINE
  5
52E
  8
VIDITELNE
  6
SLD-PLNÁ
 62
     2
 10
-69.0
 20
234.0341284644
 30
0.0
 11
-69.0
 21
483.2658715356
 31
0.0
  0
LINE
  5
52F
  8
VIDITELNE
  6
SLD-PLNÁ
 62
     2
 10
-58.0
 20
233.65
 30
0.0
 11
-58.0
 21
483.65
 31
0.0
  0
LINE
  5
530
  8
VIDITELNE
  6
SLD-PLNÁ
 62
     2
 10
-79.0
 20
351.6500008432
 30
0.0
 11
-79.0
 21
365.65
 31
0.0
  0
LINE
  5
531
  8
VIDITELNE
  6
SLD-PLNÁ
 62
     2
 10
-80.5
 20
391.2771676757
 30
0.0
 11
-69.0
 21
401.6167598754
 31
0.0
  0
LINE
  5
532
  8
VIDITELNE
  6
SLD-PLNÁ
 62
     2
 10
-69.0
 20
393.8201128387
 30
0.0
 11
-80.5
 21
391.2771676757
 31
0.0
  0
LINE
  5
533
  8
VIDITELNE
  6
SLD-PLNÁ
 62
     2
 10
-80.5
 20
391.2771676757
 30
0.0
 11
-80.5
 21
398.6682039358
 31
0.0
  0
LINE
  5
534
  8
VIDITELNE
  6
SLD-PLNÁ
 62
     2
 10
-69.0
 20
409.0077961355
 30
0.0
 11
-80.5
 21
398.6682039358
 31
0.0
  0
LINE
  5
535
  8
VIDITELNE
  6
SLD-PLNÁ
 62
     2
 10
-69.0
 20
315.6832401246
 30
0.0
 11
-80.5
 21
326.0228323243
 31
0.0
  0
LINE
  5
536
  8
VIDITELNE
  6
SLD-PLNÁ
 62
     2
 10
-80.5
 20
326.0228323243
 30
0.0
 11
-69.0
 21
323.4798871613
 31
0.0
  0
LINE
  5
537
  8
VIDITELNE
  6
SLD-PLNÁ
 62
     2
 10
-80.5
 20
318.6317960642
 30
0.0
 11
-69.0
 21
308.2922038645
 31
0.0
  0
LINE
  5
538
  8
VIDITELNE
  6
SLD-PLNÁ
 62
     2
 10
-80.5
 20
318.6317960642
 30
0.0
 11
-80.5
 21
326.0228323243
 31
0.0
  0
LINE
  5
539
  8
VIDITELNE
  6
SLD-PLNÁ
 62
     2
 10
-80.5
 20
326.0228323243
 30
0.0
 11
-80.5
 21
391.2771676757
 31
0.0
  0
LINE
  5
53A
  8
VIDITELNE
  6
SLD-PLNÁ
 62
     2
 10
-69.0
 20
450.9491996655
 30
0.0
 11
-74.5857452259
 21
447.9672798365
 31
0.0
  0
LINE
  5
53B
  8
VIDITELNE
  6
SLD-PLNÁ
 62
     2
 10
-79.0
 20
445.6107538387
 30
0.0
 11
-80.5
 21
444.8099869647
 31
0.0
  0
LINE
  5
53C
  8
VIDITELNE
  6
SLD-PLNÁ
 62
     2
 10
-80.5
 20
398.6682039358
 30
0.0
 11
-80.5
 21
444.8099869647
 31
0.0
  0
LINE
  5
53D
  8
VIDITELNE
  6
SLD-PLNÁ
 62
     2
 10
-80.5
 20
272.4900130353
 30
0.0
 11
-79.0
 21
271.6892461613
 31
0.0
  0
LINE
  5
53E
  8
VIDITELNE
  6
SLD-PLNÁ
 62
     2
 10
-74.5857452259
 20
269.3327201635
 30
0.0
 11
-69.0
 21
266.3508003345
 31
0.0
  0
LINE
  5
53F
  8
VIDITELNE
  6
SLD-PLNÁ
 62
     2
 10
-80.5
 20
272.4900130353
 30
0.0
 11
-80.5
 21
318.6317960642
 31
0.0
  0
LINE
  5
540
  8
VIDITELNE
  6
SLD-PLNÁ
 62
     2
 10
-79.0
 20
270.3327210067
 30
0.0
 11
-79.0
 21
284.3327201635
 31
0.0
  0
LINE
  5
541
  8
VIDITELNE
  6
SLD-PLNÁ
 62
     2
 10
-79.0
 20
432.9672806796
 30
0.0
 11
-79.0
 21
446.9672798365
 31
0.0
  0
LINE
  5
542
  8
VIDITELNE
  6
SLD-PLNÁ
 62
     2
 10
-84.0
 20
293.65
 30
0.0
 11
-84.0
 21
423.65
 31
0.0
  0
LINE
  5
543
  8
VIDITELNE
  6
SLD-PLNÁ
 62
     2
 10
-80.5
 20
269.4285455764
 30
0.0
 11
-69.0
 21
244.4665618585
 31
0.0
  0
LINE
  5
544
  8
VIDITELNE
  6
SLD-PLNÁ
 62
     2
 10
-69.0
 20
247.5280293174
 30
0.0
 11
-80.5
 21
272.4900130353
 31
0.0
  0
LINE
  5
545
  8
VIDITELNE
  6
SLD-PLNÁ
 62
     2
 10
-80.5
 20
269.4285455764
 30
0.0
 11
-80.5
 21
272.4900130353
 31
0.0
  0
LINE
  5
546
  8
VIDITELNE
  6
SLD-PLNÁ
 62
     2
 10
-80.5
 20
444.8099869647
 30
0.0
 11
-69.0
 21
469.7719706826
 31
0.0
  0
LINE
  5
547
  8
VIDITELNE
  6
SLD-PLNÁ
 62
     2
 10
-69.0
 20
472.8334381415
 30
0.0
 11
-80.5
 21
447.8714544236
 31
0.0
  0
LINE
  5
548
  8
VIDITELNE
  6
SLD-PLNÁ
 62
     2
 10
-80.5
 20
444.8099869647
 30
0.0
 11
-80.5
 21
447.8714544236
 31
0.0
  0
LINE
  5
549
  8
VIDITELNE
  6
SLD-PLNÁ
 62
     2
 10
-80.5
 20
263.65
 30
0.0
 11
-80.5
 21
269.4285455764
 31
0.0
  0
LINE
  5
54A
  8
VIDITELNE
  6
SLD-PLNÁ
 62
     2
 10
-80.5
 20
447.8714544236
 30
0.0
 11
-80.5
 21
453.65
 31
0.0
  0
LINE
  5
54B
  8
VIDITELNE
  6
SLD-PLNÁ
 62
     2
 10
-79.0
 20
236.6500008432
 30
0.0
 11
-79.0
 21
250.65
 31
0.0
  0
LINE
  5
54C
  8
VIDITELNE
  6
SLD-PLNÁ
 62
     2
 10
-79.0
 20
466.6500008432
 30
0.0
 11
-79.0
 21
480.65
 31
0.0
  0
LINE
  5
54D
  8
VIDITELNE
  6
SLD-PLNÁ
 62
     2
 10
69.0
 20
483.2658715356
 30
0.0
 11
69.0
 21
234.0341284644
 31
0.0
  0
LINE
  5
54E
  8
VIDITELNE
  6
SLD-PLNÁ
 62
     2
 10
58.0
 20
483.65
 30
0.0
 11
58.0
 21
233.65
 31
0.0
  0
LINE
  5
54F
  8
VIDITELNE
  6
SLD-PLNÁ
 62
     2
 10
79.0
 20
365.6499991568
 30
0.0
 11
79.0
 21
351.65
 31
0.0
  0
LINE
  5
550
  8
VIDITELNE
  6
SLD-PLNÁ
 62
     2
 10
80.5
 20
326.0228323243
 30
0.0
 11
69.0
 21
315.6832401246
 31
0.0
  0
LINE
  5
551
  8
VIDITELNE
  6
SLD-PLNÁ
 62
     2
 10
69.0
 20
323.4798871613
 30
0.0
 11
80.5
 21
326.0228323243
 31
0.0
  0
LINE
  5
552
  8
VIDITELNE
  6
SLD-PLNÁ
 62
     2
 10
80.5
 20
326.0228323243
 30
0.0
 11
80.5
 21
318.6317960642
 31
0.0
  0
LINE
  5
553
  8
VIDITELNE
  6
SLD-PLNÁ
 62
     2
 10
69.0
 20
308.2922038645
 30
0.0
 11
80.5
 21
318.6317960642
 31
0.0
  0
LINE
  5
554
  8
VIDITELNE
  6
SLD-PLNÁ
 62
     2
 10
69.0
 20
401.6167598754
 30
0.0
 11
80.5
 21
391.2771676757
 31
0.0
  0
LINE
  5
555
  8
VIDITELNE
  6
SLD-PLNÁ
 62
     2
 10
80.5
 20
391.2771676757
 30
0.0
 11
69.0
 21
393.8201128387
 31
0.0
  0
LINE
  5
556
  8
VIDITELNE
  6
SLD-PLNÁ
 62
     2
 10
80.5
 20
398.6682039358
 30
0.0
 11
69.0
 21
409.0077961355
 31
0.0
  0
LINE
  5
557
  8
VIDITELNE
  6
SLD-PLNÁ
 62
     2
 10
80.5
 20
398.6682039358
 30
0.0
 11
80.5
 21
391.2771676757
 31
0.0
  0
LINE
  5
558
  8
VIDITELNE
  6
SLD-PLNÁ
 62
     2
 10
80.5
 20
391.2771676757
 30
0.0
 11
80.5
 21
326.0228323243
 31
0.0
  0
LINE
  5
559
  8
VIDITELNE
  6
SLD-PLNÁ
 62
     2
 10
69.0
 20
266.3508003345
 30
0.0
 11
74.5857452259
 21
269.3327201635
 31
0.0
  0
LINE
  5
55A
  8
VIDITELNE
  6
SLD-PLNÁ
 62
     2
 10
79.0
 20
271.6892461613
 30
0.0
 11
80.5
 21
272.4900130353
 31
0.0
  0
LINE
  5
55B
  8
VIDITELNE
  6
SLD-PLNÁ
 62
     2
 10
80.5
 20
318.6317960642
 30
0.0
 11
80.5
 21
272.4900130353
 31
0.0
  0
LINE
  5
55C
  8
VIDITELNE
  6
SLD-PLNÁ
 62
     2
 10
80.5
 20
444.8099869647
 30
0.0
 11
79.0
 21
445.6107538387
 31
0.0
  0
LINE
  5
55D
  8
VIDITELNE
  6
SLD-PLNÁ
 62
     2
 10
74.5857452259
 20
447.9672798365
 30
0.0
 11
69.0
 21
450.9491996655
 31
0.0
  0
LINE
  5
55E
  8
VIDITELNE
  6
SLD-PLNÁ
 62
     2
 10
80.5
 20
444.8099869647
 30
0.0
 11
80.5
 21
398.6682039358
 31
0.0
  0
LINE
  5
55F
  8
VIDITELNE
  6
SLD-PLNÁ
 62
     2
 10
79.0
 20
446.9672789933
 30
0.0
 11
79.0
 21
432.9672798365
 31
0.0
  0
LINE
  5
560
  8
VIDITELNE
  6
SLD-PLNÁ
 62
     2
 10
79.0
 20
284.3327193204
 30
0.0
 11
79.0
 21
270.3327201635
 31
0.0
  0
LINE
  5
561
  8
VIDITELNE
  6
SLD-PLNÁ
 62
     2
 10
84.0
 20
423.65
 30
0.0
 11
84.0
 21
293.65
 31
0.0
  0
LINE
  5
562
  8
VIDITELNE
  6
SLD-PLNÁ
 62
     2
 10
69.0
 20
469.7719706826
 30
0.0
 11
80.5
 21
444.8099869647
 31
0.0
  0
LINE
  5
563
  8
VIDITELNE
  6
SLD-PLNÁ
 62
     2
 10
80.5
 20
447.8714544236
 30
0.0
 11
69.0
 21
472.8334381415
 31
0.0
  0
LINE
  5
564
  8
VIDITELNE
  6
SLD-PLNÁ
 62
     2
 10
80.5
 20
447.8714544236
 30
0.0
 11
80.5
 21
444.8099869647
 31
0.0
  0
LINE
  5
565
  8
VIDITELNE
  6
SLD-PLNÁ
 62
     2
 10
80.5
 20
272.4900130353
 30
0.0
 11
69.0
 21
247.5280293174
 31
0.0
  0
LINE
  5
566
  8
VIDITELNE
  6
SLD-PLNÁ
 62
     2
 10
69.0
 20
244.4665618585
 30
0.0
 11
80.5
 21
269.4285455764
 31
0.0
  0
LINE
  5
567
  8
VIDITELNE
  6
SLD-PLNÁ
 62
     2
 10
80.5
 20
272.4900130353
 30
0.0
 11
80.5
 21
269.4285455764
 31
0.0
  0
LINE
  5
568
  8
VIDITELNE
  6
SLD-PLNÁ
 62
     2
 10
80.5
 20
453.65
 30
0.0
 11
80.5
 21
447.8714544236
 31
0.0
  0
LINE
  5
569
  8
VIDITELNE
  6
SLD-PLNÁ
 62
     2
 10
80.5
 20
269.4285455764
 30
0.0
 11
80.5
 21
263.65
 31
0.0
  0
LINE
  5
56A
  8
VIDITELNE
  6
SLD-PLNÁ
 62
     2
 10
79.0
 20
480.6499991568
 30
0.0
 11
79.0
 21
466.65
 31
0.0
  0
LINE
  5
56B
  8
VIDITELNE
  6
SLD-PLNÁ
 62
     2
 10
79.0
 20
250.6499991568
 30
0.0
 11
79.0
 21
236.65
 31
0.0
  0
LINE
  5
56C
  8
VIDITELNE
  6
SLD-PLNÁ
 62
     2
 10
-45.7031939779
 20
496.65
 30
0.0
 11
-52.2892562945
 21
496.65
 31
0.0
  0
LINE
  5
56D
  8
VIDITELNE
  6
SLD-PLNÁ
 62
     2
 10
-0.8507268235
 20
496.65
 30
0.0
 11
-44.8524671544
 21
496.65
 31
0.0
  0
LINE
  5
56E
  8
VIDITELNE
  6
SLD-PLNÁ
 62
     2
 10
44.8524671544
 20
496.65
 30
0.0
 11
0.8507268235
 21
496.65
 31
0.0
  0
LINE
  5
56F
  8
VIDITELNE
  6
SLD-PLNÁ
 62
     2
 10
52.2892562945
 20
496.65
 30
0.0
 11
45.7031939779
 21
496.65
 31
0.0
  0
LINE
  5
570
  8
VIDITELNE
  6
SLD-PLNÁ
 62
     2
 10
0.0
 20
501.95
 30
0.0
 11
0.0
 21
496.65
 31
0.0
  0
LINE
  5
571
  8
VIDITELNE
  6
SLD-PLNÁ
 62
     2
 10
0.0
 20
501.95
 30
0.0
 11
5.0
 21
501.95
 31
0.0
  0
LINE
  5
572
  8
VIDITELNE
  6
SLD-PLNÁ
 62
     2
 10
5.0
 20
501.95
 30
0.0
 11
5.0
 21
496.65
 31
0.0
  0
LINE
  5
573
  8
VIDITELNE
  6
SLD-PLNÁ
 62
     2
 10
0.0
 20
496.65
 30
0.0
 11
0.8507268235
 21
496.65
 31
0.0
  0
LINE
  5
574
  8
VIDITELNE
  6
SLD-PLNÁ
 62
     2
 10
-5.0
 20
501.95
 30
0.0
 11
-5.0
 21
496.65
 31
0.0
  0
LINE
  5
575
  8
VIDITELNE
  6
SLD-PLNÁ
 62
     2
 10
-5.0
 20
501.95
 30
0.0
 11
0.0
 21
501.95
 31
0.0
  0
LINE
  5
576
  8
VIDITELNE
  6
SLD-PLNÁ
 62
     2
 10
-0.8507268235
 20
496.65
 30
0.0
 11
0.0
 21
496.65
 31
0.0
  0
LINE
  5
577
  8
VIDITELNE
  6
SLD-PLNÁ
 62
     2
 10
35.7031939779
 20
501.95
 30
0.0
 11
35.7031939779
 21
496.65
 31
0.0
  0
LINE
  5
578
  8
VIDITELNE
  6
SLD-PLNÁ
 62
     2
 10
35.7031939779
 20
501.95
 30
0.0
 11
40.7031939779
 21
501.95
 31
0.0
  0
LINE
  5
579
  8
VIDITELNE
  6
SLD-PLNÁ
 62
     2
 10
40.7031939779
 20
501.95
 30
0.0
 11
40.7031939779
 21
496.65
 31
0.0
  0
LINE
  5
57A
  8
VIDITELNE
  6
SLD-PLNÁ
 62
     2
 10
45.7031939779
 20
501.95
 30
0.0
 11
45.7031939779
 21
496.65
 31
0.0
  0
LINE
  5
57B
  8
VIDITELNE
  6
SLD-PLNÁ
 62
     2
 10
44.8524671544
 20
496.65
 30
0.0
 11
45.7031939779
 21
496.65
 31
0.0
  0
LINE
  5
57C
  8
VIDITELNE
  6
SLD-PLNÁ
 62
     2
 10
40.7031939779
 20
501.95
 30
0.0
 11
45.7031939779
 21
501.95
 31
0.0
  0
LINE
  5
57D
  8
VIDITELNE
  6
SLD-PLNÁ
 62
     2
 10
-40.7031939779
 20
501.95
 30
0.0
 11
-40.7031939779
 21
496.65
 31
0.0
  0
LINE
  5
57E
  8
VIDITELNE
  6
SLD-PLNÁ
 62
     2
 10
-40.7031939779
 20
501.95
 30
0.0
 11
-35.7031939779
 21
501.95
 31
0.0
  0
LINE
  5
57F
  8
VIDITELNE
  6
SLD-PLNÁ
 62
     2
 10
-35.7031939779
 20
501.95
 30
0.0
 11
-35.7031939779
 21
496.65
 31
0.0
  0
LINE
  5
580
  8
VIDITELNE
  6
SLD-PLNÁ
 62
     2
 10
-45.7031939779
 20
501.95
 30
0.0
 11
-45.7031939779
 21
496.65
 31
0.0
  0
LINE
  5
581
  8
VIDITELNE
  6
SLD-PLNÁ
 62
     2
 10
-45.7031939779
 20
501.95
 30
0.0
 11
-40.7031939779
 21
501.95
 31
0.0
  0
LINE
  5
582
  8
VIDITELNE
  6
SLD-PLNÁ
 62
     2
 10
-45.7031939779
 20
496.65
 30
0.0
 11
-44.8524671544
 21
496.65
 31
0.0
  0
LINE
  5
583
  8
VIDITELNE
  6
SLD-PLNÁ
 62
     2
 10
45.7031939779
 20
220.65
 30
0.0
 11
52.2892562945
 21
220.65
 31
0.0
  0
LINE
  5
584
  8
VIDITELNE
  6
SLD-PLNÁ
 62
     2
 10
0.8507268235
 20
220.65
 30
0.0
 11
44.8524671544
 21
220.65
 31
0.0
  0
LINE
  5
585
  8
VIDITELNE
  6
SLD-PLNÁ
 62
     2
 10
-44.8524671544
 20
220.65
 30
0.0
 11
-0.8507268235
 21
220.65
 31
0.0
  0
LINE
  5
586
  8
VIDITELNE
  6
SLD-PLNÁ
 62
     2
 10
-52.2892562945
 20
220.65
 30
0.0
 11
-45.7031939779
 21
220.65
 31
0.0
  0
LINE
  5
587
  8
VIDITELNE
  6
SLD-PLNÁ
 62
     2
 10
0.0
 20
215.35
 30
0.0
 11
0.0
 21
220.65
 31
0.0
  0
LINE
  5
588
  8
VIDITELNE
  6
SLD-PLNÁ
 62
     2
 10
0.0
 20
215.35
 30
0.0
 11
-5.0
 21
215.35
 31
0.0
  0
LINE
  5
589
  8
VIDITELNE
  6
SLD-PLNÁ
 62
     2
 10
-5.0
 20
215.35
 30
0.0
 11
-5.0
 21
220.65
 31
0.0
  0
LINE
  5
58A
  8
VIDITELNE
  6
SLD-PLNÁ
 62
     2
 10
0.0
 20
220.65
 30
0.0
 11
-0.8507268235
 21
220.65
 31
0.0
  0
LINE
  5
58B
  8
VIDITELNE
  6
SLD-PLNÁ
 62
     2
 10
5.0
 20
215.35
 30
0.0
 11
5.0
 21
220.65
 31
0.0
  0
LINE
  5
58C
  8
VIDITELNE
  6
SLD-PLNÁ
 62
     2
 10
5.0
 20
215.35
 30
0.0
 11
0.0
 21
215.35
 31
0.0
  0
LINE
  5
58D
  8
VIDITELNE
  6
SLD-PLNÁ
 62
     2
 10
0.8507268235
 20
220.65
 30
0.0
 11
0.0
 21
220.65
 31
0.0
  0
LINE
  5
58E
  8
VIDITELNE
  6
SLD-PLNÁ
 62
     2
 10
-35.7031939779
 20
215.35
 30
0.0
 11
-35.7031939779
 21
220.65
 31
0.0
  0
LINE
  5
58F
  8
VIDITELNE
  6
SLD-PLNÁ
 62
     2
 10
-40.7031939779
 20
215.35
 30
0.0
 11
-40.7031939779
 21
220.65
 31
0.0
  0
LINE
  5
590
  8
VIDITELNE
  6
SLD-PLNÁ
 62
     2
 10
-35.7031939779
 20
215.35
 30
0.0
 11
-40.7031939779
 21
215.35
 31
0.0
  0
LINE
  5
591
  8
VIDITELNE
  6
SLD-PLNÁ
 62
     2
 10
-45.7031939779
 20
215.35
 30
0.0
 11
-45.7031939779
 21
220.65
 31
0.0
  0
LINE
  5
592
  8
VIDITELNE
  6
SLD-PLNÁ
 62
     2
 10
-44.8524671544
 20
220.65
 30
0.0
 11
-45.7031939779
 21
220.65
 31
0.0
  0
LINE
  5
593
  8
VIDITELNE
  6
SLD-PLNÁ
 62
     2
 10
-40.7031939779
 20
215.35
 30
0.0
 11
-45.7031939779
 21
215.35
 31
0.0
  0
LINE
  5
594
  8
VIDITELNE
  6
SLD-PLNÁ
 62
     2
 10
45.7031939779
 20
215.35
 30
0.0
 11
45.7031939779
 21
220.65
 31
0.0
  0
LINE
  5
595
  8
VIDITELNE
  6
SLD-PLNÁ
 62
     2
 10
45.7031939779
 20
215.35
 30
0.0
 11
40.7031939779
 21
215.35
 31
0.0
  0
LINE
  5
596
  8
VIDITELNE
  6
SLD-PLNÁ
 62
     2
 10
40.7031939779
 20
215.35
 30
0.0
 11
40.7031939779
 21
220.65
 31
0.0
  0
LINE
  5
597
  8
VIDITELNE
  6
SLD-PLNÁ
 62
     2
 10
45.7031939779
 20
220.65
 30
0.0
 11
44.8524671544
 21
220.65
 31
0.0
  0
LINE
  5
598
  8
VIDITELNE
  6
SLD-PLNÁ
 62
     2
 10
40.7031939779
 20
215.35
 30
0.0
 11
35.7031939779
 21
215.35
 31
0.0
  0
LINE
  5
599
  8
VIDITELNE
  6
SLD-PLNÁ
 62
     2
 10
35.7031939779
 20
215.35
 30
0.0
 11
35.7031939779
 21
220.65
 31
0.0
  0
CIRCLE
  5
59A
  8
VIDITELNE
  6
SLD-PLNÁ
 62
     2
 10
0.0
 20
358.65
 30
0.0
 40
9.5
  0
CIRCLE
  5
59B
  8
VIDITELNE
  6
SLD-PLNÁ
 62
     2
 10
0.0
 20
358.65
 30
0.0
 40
10.5
  0
CIRCLE
  5
59C
  8
VIDITELNE
  6
SLD-PLNÁ
 62
     2
 10
0.0
 20
358.65
 30
0.0
 40
15.0
  0
POLYLINE
  5
59D
  8
VIDITELNE
  6
SLD-PLNÁ
 62
     2
 66
     1
 10
0.0
 20
0.0
 30
0.0
  0
VERTEX
  5
91B
  8
VIDITELNE
  6
SLD-PLNÁ
 62
     2
 10
0.0
 20
375.3822834646
 30
0.0
  0
VERTEX
  5
91C
  8
VIDITELNE
  6
SLD-PLNÁ
 62
     2
 10
1.8657836043
 20
375.2812038237
 30
0.0
  0
VERTEX
  5
91D
  8
VIDITELNE
  6
SLD-PLNÁ
 62
     2
 10
4.6122414471
 20
374.7546971923
 30
0.0
  0
VERTEX
  5
91E
  8
VIDITELNE
  6
SLD-PLNÁ
 62
     2
 10
7.306772763
 20
373.7579013199
 30
0.0
  0
VERTEX
  5
91F
  8
VIDITELNE
  6
SLD-PLNÁ
 62
     2
 10
9.7282675314
 20
372.371786038
 30
0.0
  0
VERTEX
  5
920
  8
VIDITELNE
  6
SLD-PLNÁ
 62
     2
 10
11.9462296926
 20
370.5544694206
 30
0.0
  0
VERTEX
  5
921
  8
VIDITELNE
  6
SLD-PLNÁ
 62
     2
 10
13.7817328465
 20
368.4463404746
 30
0.0
  0
VERTEX
  5
922
  8
VIDITELNE
  6
SLD-PLNÁ
 62
     2
 10
15.2780433489
 20
365.98788666
 30
0.0
  0
VERTEX
  5
923
  8
VIDITELNE
  6
SLD-PLNÁ
 62
     2
 10
16.3018276398
 20
363.3959335397
 30
0.0
  0
VERTEX
  5
924
  8
VIDITELNE
  6
SLD-PLNÁ
 62
     2
 10
16.8861593759
 20
360.5831524342
 30
0.0
  0
VERTEX
  5
925
  8
VIDITELNE
  6
SLD-PLNÁ
 62
     2
 10
16.9790631037
 20
357.819827882
 30
0.0
  0
VERTEX
  5
926
  8
VIDITELNE
  6
SLD-PLNÁ
 62
     2
 10
16.5902768437
 20
354.9986090193
 30
0.0
  0
VERTEX
  5
927
  8
VIDITELNE
  6
SLD-PLNÁ
 62
     2
 10
15.7564330389
 20
352.3681265729
 30
0.0
  0
VERTEX
  5
928
  8
VIDITELNE
  6
SLD-PLNÁ
 62
     2
 10
14.4558852249
 20
349.8450762798
 30
0.0
  0
VERTEX
  5
929
  8
VIDITELNE
  6
SLD-PLNÁ
 62
     2
 10
12.7819557024
 20
347.6184009976
 30
0.0
  0
VERTEX
  5
92A
  8
VIDITELNE
  6
SLD-PLNÁ
 62
     2
 10
10.7009629574
 20
345.6485794482
 30
0.0
  0
VERTEX
  5
92B
  8
VIDITELNE
  6
SLD-PLNÁ
 62
     2
 10
8.3589573015
 20
344.080150563
 30
0.0
  0
VERTEX
  5
92C
  8
VIDITELNE
  6
SLD-PLNÁ
 62
     2
 10
5.7124277974
 20
342.8906484872
 30
0.0
  0
VERTEX
  5
92D
  8
VIDITELNE
  6
SLD-PLNÁ
 62
     2
 10
1.8804076526
 20
342.0203918251
 30
0.0
  0
VERTEX
  5
92E
  8
VIDITELNE
  6
SLD-PLNÁ
 62
     2
 10
-0.9231638833
 20
341.9424056499
 30
0.0
  0
VERTEX
  5
92F
  8
VIDITELNE
  6
SLD-PLNÁ
 62
     2
 10
-3.7793688117
 20
342.3364468296
 30
0.0
  0
VERTEX
  5
930
  8
VIDITELNE
  6
SLD-PLNÁ
 62
     2
 10
-6.4487797876
 20
343.1683316504
 30
0.0
  0
VERTEX
  5
931
  8
VIDITELNE
  6
SLD-PLNÁ
 62
     2
 10
-9.0129370241
 20
344.4628702319
 30
0.0
  0
VERTEX
  5
932
  8
VIDITELNE
  6
SLD-PLNÁ
 62
     2
 10
-11.2624373119
 20
346.1164291632
 30
0.0
  0
VERTEX
  5
933
  8
VIDITELNE
  6
SLD-PLNÁ
 62
     2
 10
-13.2595113112
 20
348.1786802841
 30
0.0
  0
VERTEX
  5
934
  8
VIDITELNE
  6
SLD-PLNÁ
 62
     2
 10
-14.8383776052
 20
350.484708903
 30
0.0
  0
VERTEX
  5
935
  8
VIDITELNE
  6
SLD-PLNÁ
 62
     2
 10
-16.0383098509
 20
353.1020468277
 30
0.0
  0
VERTEX
  5
936
  8
VIDITELNE
  6
SLD-PLNÁ
 62
     2
 10
-16.7496606398
 20
355.7890809726
 30
0.0
  0
VERTEX
  5
937
  8
VIDITELNE
  6
SLD-PLNÁ
 62
     2
 10
-16.9999986352
 20
358.64329521
 30
0.0
  0
VERTEX
  5
938
  8
VIDITELNE
  6
SLD-PLNÁ
 62
     2
 10
-16.7699590051
 20
361.3933055199
 30
0.0
  0
VERTEX
  5
939
  8
VIDITELNE
  6
SLD-PLNÁ
 62
     2
 10
-16.0576412889
 20
364.1435154238
 30
0.0
  0
VERTEX
  5
93A
  8
VIDITELNE
  6
SLD-PLNÁ
 62
     2
 10
-14.9225908835
 20
366.6652371156
 30
0.0
  0
VERTEX
  5
93B
  8
VIDITELNE
  6
SLD-PLNÁ
 62
     2
 10
-13.3365963148
 20
369.0260512288
 30
0.0
  0
VERTEX
  5
93C
  8
VIDITELNE
  6
SLD-PLNÁ
 62
     2
 10
-11.4089458599
 20
371.054541045
 30
0.0
  0
VERTEX
  5
93D
  8
VIDITELNE
  6
SLD-PLNÁ
 62
     2
 10
-9.1043879992
 20
372.7804485872
 30
0.0
  0
VERTEX
  5
93E
  8
VIDITELNE
  6
SLD-PLNÁ
 62
     2
 10
-6.5928928377
 20
374.0727529847
 30
0.0
  0
VERTEX
  5
93F
  8
VIDITELNE
  6
SLD-PLNÁ
 62
     2
 10
-3.8218788999
 20
374.9539561
 30
0.0
  0
VERTEX
  5
940
  8
VIDITELNE
  6
SLD-PLNÁ
 62
     2
 10
0.0
 20
375.3822834646
 30
0.0
  0
SEQEND
  5
941
  8
VIDITELNE
  6
SLD-PLNÁ
 62
     2
  0
LINE
  5
59E
  8
VIDITELNE
  6
SLD-PLNÁ
 62
     2
 10
53.0
 20
483.65
 30
0.0
 11
-53.0
 21
483.65
 31
0.0
  0
LINE
  5
59F
  8
VIDITELNE
  6
SLD-PLNÁ
 62
     2
 10
53.0
 20
233.65
 30
0.0
 11
-53.0
 21
233.65
 31
0.0
  0
LINE
  5
5A0
  8
VIDITELNE
  6
SLD-PLNÁ
 62
     2
 10
-86.0
 20
328.1500000513
 30
0.0
 11
-86.0
 21
389.15
 31
0.0
  0
LINE
  5
5A1
  8
VIDITELNE
  6
SLD-PLNÁ
 62
     2
 10
86.0
 20
389.1499999487
 30
0.0
 11
86.0
 21
328.15
 31
0.0
  0
ARC
  5
5A2
  8
VIDITELNE
  6
SLD-PLNÁ
 62
     2
 10
17.0
 20
231.65
 30
0.0
 40
2.000000000000001
 50
90.0
 51
165.5224878141
  0
LINE
  5
5A3
  8
VIDITELNE
  6
SLD-PLNÁ
 62
     2
 10
-15.0635083269
 20
232.15
 30
0.0
 11
15.0635083269
 21
232.15
 31
0.0
  0
ARC
  5
5A4
  8
VIDITELNE
  6
SLD-PLNÁ
 62
     2
 10
-17.0
 20
231.65
 30
0.0
 40
2.000000000000001
 50
14.4775121859
 51
90.0
  0
ARC
  5
5A5
  8
VIDITELNE
  6
SLD-PLNÁ
 62
     2
 10
13.1270166538
 20
232.65
 30
0.0
 40
2.0
 50
270.0
 51
345.5224878141
  0
LINE
  5
5A6
  8
VIDITELNE
  6
SLD-PLNÁ
 62
     2
 10
13.1270166538
 20
230.65
 30
0.0
 11
-13.1270166538
 21
230.65
 31
0.0
  0
ARC
  5
5A7
  8
VIDITELNE
  6
SLD-PLNÁ
 62
     2
 10
-13.1270166538
 20
232.65
 30
0.0
 40
2.000000000000001
 50
194.4775121859
 51
270.0
  0
LINE
  5
5A8
  8
VIDITELNE
  6
SLD-PLNÁ
 62
     2
 10
9.5
 20
226.65
 30
0.0
 11
-9.5
 21
226.65
 31
0.0
  0
POLYLINE
  5
5A9
  8
VIDITELNE
  6
SLD-PLNÁ
 62
     2
 66
     1
 10
0.0
 20
0.0
 30
0.0
  0
VERTEX
  5
942
  8
VIDITELNE
  6
SLD-PLNÁ
 62
     2
 10
13.7181035559
 20
230.15
 30
0.0
  0
VERTEX
  5
943
  8
VIDITELNE
  6
SLD-PLNÁ
 62
     2
 10
13.325010629
 20
230.4448449443
 30
0.0
  0
VERTEX
  5
944
  8
VIDITELNE
  6
SLD-PLNÁ
 62
     2
 10
13.2157910714
 20
230.5811358957
 30
0.0
  0
SEQEND
  5
945
  8
VIDITELNE
  6
SLD-PLNÁ
 62
     2
  0
ARC
  5
5AA
  8
VIDITELNE
  6
SLD-PLNÁ
 62
     2
 10
39.4346120062
 20
273.0356968956
 30
0.0
 40
50.00521777868821
 50
239.0508924142
 51
242.575847044
  0
LINE
  5
5AB
  8
VIDITELNE
  6
SLD-PLNÁ
 62
     2
 10
-16.4035087719
 20
228.65
 30
0.0
 11
-10.5
 21
228.65
 31
0.0
  0
LINE
  5
5AC
  8
VIDITELNE
  6
SLD-PLNÁ
 62
     2
 10
10.5
 20
228.65
 30
0.0
 11
16.4035087719
 21
228.65
 31
0.0
  0
POLYLINE
  5
5AD
  8
VIDITELNE
  6
SLD-PLNÁ
 62
     2
 66
     1
 10
0.0
 20
0.0
 30
0.0
  0
VERTEX
  5
946
  8
VIDITELNE
  6
SLD-PLNÁ
 62
     2
 10
-13.7181035559
 20
230.15
 30
0.0
  0
VERTEX
  5
947
  8
VIDITELNE
  6
SLD-PLNÁ
 62
     2
 10
-14.6991091165
 20
229.5729198154
 30
0.0
  0
VERTEX
  5
948
  8
VIDITELNE
  6
SLD-PLNÁ
 62
     2
 10
-16.39259117
 20
228.6557163898
 30
0.0
  0
VERTEX
  5
949
  8
VIDITELNE
  6
SLD-PLNÁ
 62
     2
 10
-16.4035087719
 20
228.65
 30
0.0
  0
SEQEND
  5
94A
  8
VIDITELNE
  6
SLD-PLNÁ
 62
     2
  0
ARC
  5
5AE
  8
VIDITELNE
  6
SLD-PLNÁ
 62
     2
 10
-14.4517462998
 20
231.5129482294
 30
0.0
 40
1.547856437721828
 50
298.2925277769
 51
322.9866003528
  0
LINE
  5
5AF
  8
VIDITELNE
  6
SLD-PLNÁ
 62
     2
 10
-51.1403508772
 20
485.65
 30
0.0
 11
51.1403508772
 21
485.65
 31
0.0
  0
ARC
  5
5B0
  8
VIDITELNE
  6
SLD-PLNÁ
 62
     2
 10
53.0728235684
 20
485.5822868575
 30
0.0
 40
1.933658649233212
 50
177.9931976903
 51
267.8416717502
  0
ARC
  5
5B1
  8
VIDITELNE
  6
SLD-PLNÁ
 62
     2
 10
-53.0728235684
 20
485.5822868575
 30
0.0
 40
1.933658649233212
 50
272.1583282498
 51
2.0068023097
  0
ARC
  5
5B2
  8
VIDITELNE
  6
SLD-PLNÁ
 62
     2
 10
13.1555350578
 20
232.5225003143
 30
0.0
 40
1.942299305736765
 50
271.7777740477
 51
346.8654780684
  0
ARC
  5
5B3
  8
VIDITELNE
  6
SLD-PLNÁ
 62
     2
 10
-13.1555350578
 20
232.5225003143
 30
0.0
 40
1.942299305736765
 50
193.1345219316
 51
268.2222259523
  0
LINE
  5
5B4
  8
VIDITELNE
  6
SLD-PLNÁ
 62
     2
 10
-16.4035087719
 20
231.65
 30
0.0
 11
-51.1403508772
 21
231.65
 31
0.0
  0
LINE
  5
5B5
  8
VIDITELNE
  6
SLD-PLNÁ
 62
     2
 10
-16.4035087719
 20
228.65
 30
0.0
 11
-16.4035087719
 21
231.65
 31
0.0
  0
LINE
  5
5B6
  8
VIDITELNE
  6
SLD-PLNÁ
 62
     2
 10
16.4035087719
 20
231.65
 30
0.0
 11
16.4035087719
 21
228.65
 31
0.0
  0
LINE
  5
5B7
  8
VIDITELNE
  6
SLD-PLNÁ
 62
     2
 10
51.1403508772
 20
231.65
 30
0.0
 11
16.4035087719
 21
231.65
 31
0.0
  0
LINE
  5
5B8
  8
VIDITELNE
  6
SLD-PLNÁ
 62
     2
 10
16.4035087719
 20
228.65
 30
0.0
 11
55.0
 21
228.65
 31
0.0
  0
LINE
  5
5B9
  8
VIDITELNE
  6
SLD-PLNÁ
 62
     2
 10
-55.0
 20
228.65
 30
0.0
 11
-16.4035087719
 21
228.65
 31
0.0
  0
LINE
  5
5BA
  8
VIDITELNE
  6
SLD-PLNÁ
 62
     2
 10
-55.0
 20
488.65
 30
0.0
 11
55.0
 21
488.65
 31
0.0
  0
POLYLINE
  5
5BB
  8
VIDITELNE
  6
SLD-PLNÁ
 62
     2
 66
     1
 10
0.0
 20
0.0
 30
0.0
  0
VERTEX
  5
94B
  8
VIDITELNE
  6
SLD-PLNÁ
 62
     2
 10
-15.1960822869
 20
231.65
 30
0.0
  0
VERTEX
  5
94C
  8
VIDITELNE
  6
SLD-PLNÁ
 62
     2
 10
-15.0861610124
 20
231.8601812454
 30
0.0
  0
VERTEX
  5
94D
  8
VIDITELNE
  6
SLD-PLNÁ
 62
     2
 10
-15.0470223147
 20
232.0811358957
 30
0.0
  0
SEQEND
  5
94E
  8
VIDITELNE
  6
SLD-PLNÁ
 62
     2
  0
ARC
  5
5BC
  8
VIDITELNE
  6
SLD-PLNÁ
 62
     2
 10
-12.8940542318
 20
232.4400919593
 30
0.0
 40
2.433840272163287
 50
198.943020578
 51
250.209624293
  0
POLYLINE
  5
5BD
  8
VIDITELNE
  6
SLD-PLNÁ
 62
     2
 66
     1
 10
0.0
 20
0.0
 30
0.0
  0
VERTEX
  5
94F
  8
VIDITELNE
  6
SLD-PLNÁ
 62
     2
 10
15.0470223147
 20
232.0811358957
 30
0.0
  0
VERTEX
  5
950
  8
VIDITELNE
  6
SLD-PLNÁ
 62
     2
 10
15.0577499726
 20
231.9448449443
 30
0.0
  0
VERTEX
  5
951
  8
VIDITELNE
  6
SLD-PLNÁ
 62
     2
 10
15.1960822869
 20
231.65
 30
0.0
  0
SEQEND
  5
952
  8
VIDITELNE
  6
SLD-PLNÁ
 62
     2
  0
ARC
  5
5BE
  8
VIDITELNE
  6
SLD-PLNÁ
 62
     2
 10
12.8940542318
 20
232.4400919593
 30
0.0
 40
2.433840272163287
 50
289.790375707
 51
341.056979422
  0
POLYLINE
  5
5BF
  8
VIDITELNE
  6
SLD-PLNÁ
 62
     2
 66
     1
 10
0.0
 20
0.0
 30
0.0
  0
VERTEX
  5
953
  8
VIDITELNE
  6
SLD-PLNÁ
 62
     2
 10
-17.0
 20
233.65
 30
0.0
  0
VERTEX
  5
954
  8
VIDITELNE
  6
SLD-PLNÁ
 62
     2
 10
-16.8836303342
 20
233.6115705608
 30
0.0
  0
VERTEX
  5
955
  8
VIDITELNE
  6
SLD-PLNÁ
 62
     2
 10
-16.7717326895
 20
233.497759065
 30
0.0
  0
VERTEX
  5
956
  8
VIDITELNE
  6
SLD-PLNÁ
 62
     2
 10
-16.6686072294
 20
233.3129392246
 30
0.0
  0
VERTEX
  5
957
  8
VIDITELNE
  6
SLD-PLNÁ
 62
     2
 10
-16.5782170077
 20
233.0642135624
 30
0.0
  0
VERTEX
  5
958
  8
VIDITELNE
  6
SLD-PLNÁ
 62
     2
 10
-16.5040356699
 20
232.761140466
 30
0.0
  0
VERTEX
  5
959
  8
VIDITELNE
  6
SLD-PLNÁ
 62
     2
 10
-16.4489139631
 20
232.4153668647
 30
0.0
  0
VERTEX
  5
95A
  8
VIDITELNE
  6
SLD-PLNÁ
 62
     2
 10
-16.4149701836
 20
232.040180644
 30
0.0
  0
VERTEX
  5
95B
  8
VIDITELNE
  6
SLD-PLNÁ
 62
     2
 10
-16.4035087719
 20
231.65
 30
0.0
  0
SEQEND
  5
95C
  8
VIDITELNE
  6
SLD-PLNÁ
 62
     2
  0
ARC
  5
5C0
  8
VIDITELNE
  6
SLD-PLNÁ
 62
     2
 10
-53.0728235684
 20
231.7177131425
 30
0.0
 40
1.933658649233212
 50
357.9931976903
 51
87.8416717502
  0
POLYLINE
  5
5C1
  8
VIDITELNE
  6
SLD-PLNÁ
 62
     2
 66
     1
 10
0.0
 20
0.0
 30
0.0
  0
VERTEX
  5
95D
  8
VIDITELNE
  6
SLD-PLNÁ
 62
     2
 10
16.4035087719
 20
231.65
 30
0.0
  0
VERTEX
  5
95E
  8
VIDITELNE
  6
SLD-PLNÁ
 62
     2
 10
16.4149701836
 20
232.040180644
 30
0.0
  0
VERTEX
  5
95F
  8
VIDITELNE
  6
SLD-PLNÁ
 62
     2
 10
16.4489139631
 20
232.4153668647
 30
0.0
  0
VERTEX
  5
960
  8
VIDITELNE
  6
SLD-PLNÁ
 62
     2
 10
16.5040356699
 20
232.761140466
 30
0.0
  0
VERTEX
  5
961
  8
VIDITELNE
  6
SLD-PLNÁ
 62
     2
 10
16.5782170077
 20
233.0642135624
 30
0.0
  0
VERTEX
  5
962
  8
VIDITELNE
  6
SLD-PLNÁ
 62
     2
 10
16.6686072294
 20
233.3129392246
 30
0.0
  0
VERTEX
  5
963
  8
VIDITELNE
  6
SLD-PLNÁ
 62
     2
 10
16.7717326895
 20
233.497759065
 30
0.0
  0
VERTEX
  5
964
  8
VIDITELNE
  6
SLD-PLNÁ
 62
     2
 10
16.8836303342
 20
233.6115705608
 30
0.0
  0
VERTEX
  5
965
  8
VIDITELNE
  6
SLD-PLNÁ
 62
     2
 10
17.0
 20
233.65
 30
0.0
  0
SEQEND
  5
966
  8
VIDITELNE
  6
SLD-PLNÁ
 62
     2
  0
LINE
  5
5C2
  8
VIDITELNE
  6
SLD-PLNÁ
 62
     2
 10
15.1960822869
 20
231.65
 30
0.0
 11
16.4035087719
 21
231.65
 31
0.0
  0
ARC
  5
5C3
  8
VIDITELNE
  6
SLD-PLNÁ
 62
     2
 10
53.0728235684
 20
231.7177131425
 30
0.0
 40
1.933658649233182
 50
92.1583282498
 51
182.0068023097
  0
LINE
  5
5C4
  8
VIDITELNE
  6
SLD-PLNÁ
 62
     2
 10
-16.4035087719
 20
231.65
 30
0.0
 11
-15.1960822869
 21
231.65
 31
0.0
  0
ARC
  5
5C5
  8
VIDITELNE
  6
SLD-PLNÁ
 62
     2
 10
44.2281742886
 20
241.5917258133
 30
0.0
 40
30.68713538502361
 50
198.9032131713
 51
204.9439406828
  0
ARC
  5
5C6
  8
VIDITELNE
  6
SLD-PLNÁ
 62
     2
 10
-44.2281742885
 20
241.5917258133
 30
0.0
 40
30.68713538501815
 50
335.0560593172
 51
341.0967868287
  0
LINE
  5
5C7
  8
VIDITELNE
  6
SLD-PLNÁ
 62
     2
 10
-19.4999998051
 20
504.65
 30
0.0
 11
19.5
 21
504.65
 31
0.0
  0
LINE
  5
5C8
  8
VIDITELNE
  6
SLD-PLNÁ
 62
     2
 10
-17.5
 20
584.65
 30
0.0
 11
17.5
 21
584.65
 31
0.0
  0
LINE
  5
5C9
  8
VIDITELNE
  6
SLD-PLNÁ
 62
     2
 10
19.0
 20
583.15
 30
0.0
 11
-19.0
 21
583.15
 31
0.0
  0
LINE
  5
5CA
  8
VIDITELNE
  6
SLD-PLNÁ
 62
     2
 10
-78.0
 20
366.65
 30
0.0
 11
-78.0
 21
350.65
 31
0.0
  0
LINE
  5
5CB
  8
VIDITELNE
  6
SLD-PLNÁ
 62
     2
 10
-78.0
 20
285.3327201635
 30
0.0
 11
-78.0
 21
269.3327201635
 31
0.0
  0
LINE
  5
5CC
  8
VIDITELNE
  6
SLD-PLNÁ
 62
     2
 10
-78.0
 20
447.9672798365
 30
0.0
 11
-78.0
 21
431.9672798365
 31
0.0
  0
LINE
  5
5CD
  8
VIDITELNE
  6
SLD-PLNÁ
 62
     2
 10
-78.0
 20
251.65
 30
0.0
 11
-78.0
 21
235.65
 31
0.0
  0
LINE
  5
5CE
  8
VIDITELNE
  6
SLD-PLNÁ
 62
     2
 10
-78.0
 20
481.65
 30
0.0
 11
-78.0
 21
465.65
 31
0.0
  0
LINE
  5
5CF
  8
VIDITELNE
  6
SLD-PLNÁ
 62
     2
 10
78.0
 20
350.65
 30
0.0
 11
78.0
 21
366.65
 31
0.0
  0
LINE
  5
5D0
  8
VIDITELNE
  6
SLD-PLNÁ
 62
     2
 10
78.0
 20
431.9672798365
 30
0.0
 11
78.0
 21
447.9672798365
 31
0.0
  0
LINE
  5
5D1
  8
VIDITELNE
  6
SLD-PLNÁ
 62
     2
 10
78.0
 20
269.3327201635
 30
0.0
 11
78.0
 21
285.3327201635
 31
0.0
  0
LINE
  5
5D2
  8
VIDITELNE
  6
SLD-PLNÁ
 62
     2
 10
78.0
 20
465.65
 30
0.0
 11
78.0
 21
481.65
 31
0.0
  0
LINE
  5
5D3
  8
VIDITELNE
  6
SLD-PLNÁ
 62
     2
 10
78.0
 20
235.65
 30
0.0
 11
78.0
 21
251.65
 31
0.0
  0
LINE
  5
5D4
  8
VIDITELNE
  6
SLD-PLNÁ
 62
     2
 10
54.2880379485
 20
494.7197989934
 30
0.0
 11
-54.2880379485
 21
494.7197989934
 31
0.0
  0
LINE
  5
5D5
  8
VIDITELNE
  6
SLD-PLNÁ
 62
     2
 10
-54.2880379485
 20
222.5802010066
 30
0.0
 11
54.2880379485
 21
222.5802010066
 31
0.0
  0
LINE
  5
5D6
  8
VIDITELNE
  6
SLD-PLNÁ
 62
     2
 10
-10.5
 20
227.65
 30
0.0
 11
10.5
 21
227.65
 31
0.0
  0
ARC
  5
5D7
  8
VIDITELNE
  6
SLD-PLNÁ
 62
     2
 10
-51.2573344869
 20
235.1930054716
 30
0.0
 40
3.544936238730584
 50
205.8024949382
 51
271.8911156085
  0
ARC
  5
5D8
  8
VIDITELNE
  6
SLD-PLNÁ
 62
     2
 10
51.2566761971
 20
235.1963872092
 30
0.0
 40
3.548294494215262
 50
268.1213102984
 51
334.1630639129
  0
ARC
  5
5D9
  8
VIDITELNE
  6
SLD-PLNÁ
 62
     2
 10
51.2573344869
 20
482.1069945284
 30
0.0
 40
3.544936238730453
 50
25.8024949382
 51
91.8911156085
  0
ARC
  5
5DA
  8
VIDITELNE
  6
SLD-PLNÁ
 62
     2
 10
-51.2566761971
 20
482.1036127908
 30
0.0
 40
3.548294494215313
 50
88.1213102984
 51
154.1630639129
  0
LINE
  5
5DB
  8
VIDITELNE
  6
SLD-PLNÁ
 62
     2
 10
20.0
 20
504.15
 30
0.0
 11
-20.0
 21
504.15
 31
0.0
  0
LINE
  5
5DC
  8
VIDITELNE
  6
SLD-PLNÁ
 62
     2
 10
-58.0
 20
-233.65
 30
0.0
 11
-69.0
 21
-234.0341284644
 31
0.0
  0
LINE
  5
5DD
  8
VIDITELNE
  6
SLD-PLNÁ
 62
     2
 10
-69.0
 20
-483.2658715356
 30
0.0
 11
-58.0
 21
-483.65
 31
0.0
  0
ARC
  5
5DE
  8
VIDITELNE
  6
SLD-PLNÁ
 62
     2
 10
-78.0
 20
-365.65
 30
0.0
 40
1.0
 50
180.0
 51
270.0
  0
ARC
  5
5DF
  8
VIDITELNE
  6
SLD-PLNÁ
 62
     2
 10
-78.0
 20
-351.65
 30
0.0
 40
1.0
 50
90.0
 51
180.0
  0
LINE
  5
5E0
  8
VIDITELNE
  6
SLD-PLNÁ
 62
     2
 10
-69.0
 20
-350.65
 30
0.0
 11
-78.0
 21
-350.65
 31
0.0
  0
LINE
  5
5E1
  8
VIDITELNE
  6
SLD-PLNÁ
 62
     2
 10
-78.0
 20
-366.65
 30
0.0
 11
-69.0
 21
-366.65
 31
0.0
  0
LINE
  5
5E2
  8
VIDITELNE
  6
SLD-PLNÁ
 62
     2
 10
-69.0
 20
-269.3327201635
 30
0.0
 11
-78.0
 21
-269.3327201635
 31
0.0
  0
LINE
  5
5E3
  8
VIDITELNE
  6
SLD-PLNÁ
 62
     2
 10
-78.0
 20
-285.3327201635
 30
0.0
 11
-69.0
 21
-285.3327201635
 31
0.0
  0
ARC
  5
5E4
  8
VIDITELNE
  6
SLD-PLNÁ
 62
     2
 10
-78.0
 20
-284.3327201635
 30
0.0
 40
1.0
 50
180.0
 51
270.0
  0
ARC
  5
5E5
  8
VIDITELNE
  6
SLD-PLNÁ
 62
     2
 10
-78.0
 20
-270.3327201635
 30
0.0
 40
1.0
 50
90.0
 51
180.0
  0
ARC
  5
5E6
  8
VIDITELNE
  6
SLD-PLNÁ
 62
     2
 10
-78.0
 20
-446.9672798365
 30
0.0
 40
1.0
 50
180.0
 51
270.0
  0
ARC
  5
5E7
  8
VIDITELNE
  6
SLD-PLNÁ
 62
     2
 10
-78.0
 20
-432.9672798365
 30
0.0
 40
1.0
 50
90.0
 51
180.0
  0
LINE
  5
5E8
  8
VIDITELNE
  6
SLD-PLNÁ
 62
     2
 10
-69.0
 20
-431.9672798365
 30
0.0
 11
-78.0
 21
-431.9672798365
 31
0.0
  0
LINE
  5
5E9
  8
VIDITELNE
  6
SLD-PLNÁ
 62
     2
 10
-78.0
 20
-447.9672798365
 30
0.0
 11
-69.0
 21
-447.9672798365
 31
0.0
  0
LINE
  5
5EA
  8
VIDITELNE
  6
SLD-PLNÁ
 62
     2
 10
-84.0
 20
-423.65
 30
0.0
 11
-80.5
 21
-423.65
 31
0.0
  0
LINE
  5
5EB
  8
VIDITELNE
  6
SLD-PLNÁ
 62
     2
 10
-80.5
 20
-293.65
 30
0.0
 11
-84.0
 21
-293.65
 31
0.0
  0
LINE
  5
5EC
  8
VIDITELNE
  6
SLD-PLNÁ
 62
     2
 10
-80.5
 20
-453.65
 30
0.0
 11
-76.8731240234
 21
-455.7439778214
 31
0.0
  0
LINE
  5
5ED
  8
VIDITELNE
  6
SLD-PLNÁ
 62
     2
 10
-76.8731240234
 20
-261.5560221786
 30
0.0
 11
-80.5
 21
-263.65
 31
0.0
  0
ARC
  5
5EE
  8
VIDITELNE
  6
SLD-PLNÁ
 62
     2
 10
-78.0
 20
-250.65
 30
0.0
 40
1.0
 50
180.0
 51
270.0
  0
ARC
  5
5EF
  8
VIDITELNE
  6
SLD-PLNÁ
 62
     2
 10
-78.0
 20
-236.65
 30
0.0
 40
1.0
 50
90.0
 51
180.0
  0
LINE
  5
5F0
  8
VIDITELNE
  6
SLD-PLNÁ
 62
     2
 10
-69.0
 20
-235.65
 30
0.0
 11
-78.0
 21
-235.65
 31
0.0
  0
LINE
  5
5F1
  8
VIDITELNE
  6
SLD-PLNÁ
 62
     2
 10
-78.0
 20
-251.65
 30
0.0
 11
-72.3094140097
 21
-251.65
 31
0.0
  0
ARC
  5
5F2
  8
VIDITELNE
  6
SLD-PLNÁ
 62
     2
 10
-78.0
 20
-480.65
 30
0.0
 40
1.0
 50
180.0
 51
270.0
  0
ARC
  5
5F3
  8
VIDITELNE
  6
SLD-PLNÁ
 62
     2
 10
-78.0
 20
-466.65
 30
0.0
 40
1.0
 50
90.0
 51
180.0
  0
LINE
  5
5F4
  8
VIDITELNE
  6
SLD-PLNÁ
 62
     2
 10
-72.3094140097
 20
-465.65
 30
0.0
 11
-78.0
 21
-465.65
 31
0.0
  0
LINE
  5
5F5
  8
VIDITELNE
  6
SLD-PLNÁ
 62
     2
 10
-78.0
 20
-481.65
 30
0.0
 11
-69.0
 21
-481.65
 31
0.0
  0
LINE
  5
5F6
  8
VIDITELNE
  6
SLD-PLNÁ
 62
     2
 10
58.0
 20
-483.65
 30
0.0
 11
69.0
 21
-483.2658715356
 31
0.0
  0
LINE
  5
5F7
  8
VIDITELNE
  6
SLD-PLNÁ
 62
     2
 10
69.0
 20
-234.0341284644
 30
0.0
 11
58.0
 21
-233.65
 31
0.0
  0
ARC
  5
5F8
  8
VIDITELNE
  6
SLD-PLNÁ
 62
     2
 10
78.0
 20
-351.65
 30
0.0
 40
1.0
 50
0.0
 51
90.0
  0
ARC
  5
5F9
  8
VIDITELNE
  6
SLD-PLNÁ
 62
     2
 10
78.0
 20
-365.65
 30
0.0
 40
1.0
 50
270.0
 51
0.0
  0
LINE
  5
5FA
  8
VIDITELNE
  6
SLD-PLNÁ
 62
     2
 10
69.0
 20
-366.65
 30
0.0
 11
78.0
 21
-366.65
 31
0.0
  0
LINE
  5
5FB
  8
VIDITELNE
  6
SLD-PLNÁ
 62
     2
 10
78.0
 20
-350.65
 30
0.0
 11
69.0
 21
-350.65
 31
0.0
  0
ARC
  5
5FC
  8
VIDITELNE
  6
SLD-PLNÁ
 62
     2
 10
78.0
 20
-432.9672798365
 30
0.0
 40
1.0
 50
0.0
 51
90.0
  0
ARC
  5
5FD
  8
VIDITELNE
  6
SLD-PLNÁ
 62
     2
 10
78.0
 20
-446.9672798365
 30
0.0
 40
1.0
 50
270.0
 51
0.0
  0
LINE
  5
5FE
  8
VIDITELNE
  6
SLD-PLNÁ
 62
     2
 10
69.0
 20
-447.9672798365
 30
0.0
 11
78.0
 21
-447.9672798365
 31
0.0
  0
LINE
  5
5FF
  8
VIDITELNE
  6
SLD-PLNÁ
 62
     2
 10
78.0
 20
-431.9672798365
 30
0.0
 11
69.0
 21
-431.9672798365
 31
0.0
  0
ARC
  5
600
  8
VIDITELNE
  6
SLD-PLNÁ
 62
     2
 10
78.0
 20
-270.3327201635
 30
0.0
 40
1.0
 50
0.0
 51
90.0
  0
ARC
  5
601
  8
VIDITELNE
  6
SLD-PLNÁ
 62
     2
 10
78.0
 20
-284.3327201635
 30
0.0
 40
1.0
 50
270.0
 51
0.0
  0
LINE
  5
602
  8
VIDITELNE
  6
SLD-PLNÁ
 62
     2
 10
69.0
 20
-285.3327201635
 30
0.0
 11
78.0
 21
-285.3327201635
 31
0.0
  0
LINE
  5
603
  8
VIDITELNE
  6
SLD-PLNÁ
 62
     2
 10
78.0
 20
-269.3327201635
 30
0.0
 11
69.0
 21
-269.3327201635
 31
0.0
  0
LINE
  5
604
  8
VIDITELNE
  6
SLD-PLNÁ
 62
     2
 10
84.0
 20
-293.65
 30
0.0
 11
80.5
 21
-293.65
 31
0.0
  0
LINE
  5
605
  8
VIDITELNE
  6
SLD-PLNÁ
 62
     2
 10
80.5
 20
-423.65
 30
0.0
 11
84.0
 21
-423.65
 31
0.0
  0
LINE
  5
606
  8
VIDITELNE
  6
SLD-PLNÁ
 62
     2
 10
80.5
 20
-263.65
 30
0.0
 11
76.8731240234
 21
-261.5560221786
 31
0.0
  0
LINE
  5
607
  8
VIDITELNE
  6
SLD-PLNÁ
 62
     2
 10
76.8731240234
 20
-455.7439778214
 30
0.0
 11
80.5
 21
-453.65
 31
0.0
  0
ARC
  5
608
  8
VIDITELNE
  6
SLD-PLNÁ
 62
     2
 10
78.0
 20
-466.65
 30
0.0
 40
1.0
 50
0.0
 51
90.0
  0
ARC
  5
609
  8
VIDITELNE
  6
SLD-PLNÁ
 62
     2
 10
78.0
 20
-480.65
 30
0.0
 40
1.0
 50
270.0
 51
0.0
  0
LINE
  5
60A
  8
VIDITELNE
  6
SLD-PLNÁ
 62
     2
 10
69.0
 20
-481.65
 30
0.0
 11
78.0
 21
-481.65
 31
0.0
  0
LINE
  5
60B
  8
VIDITELNE
  6
SLD-PLNÁ
 62
     2
 10
78.0
 20
-465.65
 30
0.0
 11
72.3094140097
 21
-465.65
 31
0.0
  0
ARC
  5
60C
  8
VIDITELNE
  6
SLD-PLNÁ
 62
     2
 10
78.0
 20
-236.65
 30
0.0
 40
1.0
 50
0.0
 51
90.0
  0
ARC
  5
60D
  8
VIDITELNE
  6
SLD-PLNÁ
 62
     2
 10
78.0
 20
-250.65
 30
0.0
 40
1.0
 50
270.0
 51
0.0
  0
LINE
  5
60E
  8
VIDITELNE
  6
SLD-PLNÁ
 62
     2
 10
72.3094140097
 20
-251.65
 30
0.0
 11
78.0
 21
-251.65
 31
0.0
  0
LINE
  5
60F
  8
VIDITELNE
  6
SLD-PLNÁ
 62
     2
 10
78.0
 20
-235.65
 30
0.0
 11
69.0
 21
-235.65
 31
0.0
  0
LINE
  5
610
  8
VIDITELNE
  6
SLD-PLNÁ
 62
     2
 10
-54.5
 20
-488.65
 30
0.0
 11
-54.2880379485
 21
-494.7197989934
 31
0.0
  0
LINE
  5
611
  8
VIDITELNE
  6
SLD-PLNÁ
 62
     2
 10
54.2880379485
 20
-494.7197989934
 30
0.0
 11
54.5
 21
-488.65
 31
0.0
  0
ARC
  5
612
  8
VIDITELNE
  6
SLD-PLNÁ
 62
     2
 10
-52.2892562945
 20
-494.65
 30
0.0
 40
2.000000000000061
 50
182.0
 51
270.0
  0
ARC
  5
613
  8
VIDITELNE
  6
SLD-PLNÁ
 62
     2
 10
52.2892562945
 20
-494.65
 30
0.0
 40
2.000000000000061
 50
270.0
 51
358.0
  0
POLYLINE
  5
614
  8
VIDITELNE
  6
SLD-PLNÁ
 62
     2
 66
     1
 10
0.0
 20
0.0
 30
0.0
  0
VERTEX
  5
967
  8
VIDITELNE
  6
SLD-PLNÁ
 62
     2
 10
5.6666846725
 20
-350.1306102589
 30
0.0
  0
VERTEX
  5
968
  8
VIDITELNE
  6
SLD-PLNÁ
 62
     2
 10
5.6469290453
 20
-349.6636939954
 30
0.0
  0
VERTEX
  5
969
  8
VIDITELNE
  6
SLD-PLNÁ
 62
     2
 10
5.5695338792
 20
-347.9596062025
 30
0.0
  0
VERTEX
  5
96A
  8
VIDITELNE
  6
SLD-PLNÁ
 62
     2
 10
5.4848058498
 20
-346.2711937163
 30
0.0
  0
VERTEX
  5
96B
  8
VIDITELNE
  6
SLD-PLNÁ
 62
     2
 10
5.3922397945
 20
-344.666711847
 30
0.0
  0
VERTEX
  5
96C
  8
VIDITELNE
  6
SLD-PLNÁ
 62
     2
 10
5.2941389348
 20
-343.2671891699
 30
0.0
  0
VERTEX
  5
96D
  8
VIDITELNE
  6
SLD-PLNÁ
 62
     2
 10
5.1840504156
 20
-342.0908963203
 30
0.0
  0
VERTEX
  5
96E
  8
VIDITELNE
  6
SLD-PLNÁ
 62
     2
 10
5.0568832559
 20
-341.1855286419
 30
0.0
  0
VERTEX
  5
96F
  8
VIDITELNE
  6
SLD-PLNÁ
 62
     2
 10
4.9253837934
 20
-340.5716119229
 30
0.0
  0
VERTEX
  5
970
  8
VIDITELNE
  6
SLD-PLNÁ
 62
     2
 10
4.7345654673
 20
-339.9633048764
 30
0.0
  0
VERTEX
  5
971
  8
VIDITELNE
  6
SLD-PLNÁ
 62
     2
 10
4.2882497035
 20
-339.0496659084
 30
0.0
  0
VERTEX
  5
972
  8
VIDITELNE
  6
SLD-PLNÁ
 62
     2
 10
3.396082496
 20
-337.9661860828
 30
0.0
  0
VERTEX
  5
973
  8
VIDITELNE
  6
SLD-PLNÁ
 62
     2
 10
1.9181534028
 20
-337.0229568418
 30
0.0
  0
VERTEX
  5
974
  8
VIDITELNE
  6
SLD-PLNÁ
 62
     2
 10
0.0257601348
 20
-336.6412475265
 30
0.0
  0
VERTEX
  5
975
  8
VIDITELNE
  6
SLD-PLNÁ
 62
     2
 10
-1.835044558
 20
-336.9883008487
 30
0.0
  0
VERTEX
  5
976
  8
VIDITELNE
  6
SLD-PLNÁ
 62
     2
 10
-2.5621207621
 20
-337.3438944204
 30
0.0
  0
VERTEX
  5
977
  8
VIDITELNE
  6
SLD-PLNÁ
 62
     2
 10
-3.1265307852
 20
-337.7337320124
 30
0.0
  0
VERTEX
  5
978
  8
VIDITELNE
  6
SLD-PLNÁ
 62
     2
 10
-3.9607825056
 20
-338.5822648389
 30
0.0
  0
VERTEX
  5
979
  8
VIDITELNE
  6
SLD-PLNÁ
 62
     2
 10
-4.555558835
 20
-339.5671640636
 30
0.0
  0
VERTEX
  5
97A
  8
VIDITELNE
  6
SLD-PLNÁ
 62
     2
 10
-4.9785910573
 20
-340.8551908071
 30
0.0
  0
VERTEX
  5
97B
  8
VIDITELNE
  6
SLD-PLNÁ
 62
     2
 10
-5.1727795124
 20
-342.0743777347
 30
0.0
  0
VERTEX
  5
97C
  8
VIDITELNE
  6
SLD-PLNÁ
 62
     2
 10
-5.307184418
 20
-343.4600382301
 30
0.0
  0
VERTEX
  5
97D
  8
VIDITELNE
  6
SLD-PLNÁ
 62
     2
 10
-5.4622563474
 20
-345.856176907
 30
0.0
  0
VERTEX
  5
97E
  8
VIDITELNE
  6
SLD-PLNÁ
 62
     2
 10
-5.6013826799
 20
-348.6466833756
 30
0.0
  0
VERTEX
  5
97F
  8
VIDITELNE
  6
SLD-PLNÁ
 62
     2
 10
-5.6658456659
 20
-350.1062559607
 30
0.0
  0
SEQEND
  5
980
  8
VIDITELNE
  6
SLD-PLNÁ
 62
     2
  0
POLYLINE
  5
615
  8
VIDITELNE
  6
SLD-PLNÁ
 62
     2
 66
     1
 10
0.0
 20
0.0
 30
0.0
  0
VERTEX
  5
981
  8
VIDITELNE
  6
SLD-PLNÁ
 62
     2
 10
4.0
 20
-358.65
 30
0.0
  0
VERTEX
  5
982
  8
VIDITELNE
  6
SLD-PLNÁ
 62
     2
 10
4.1124347247
 20
-355.6704624991
 30
0.0
  0
VERTEX
  5
983
  8
VIDITELNE
  6
SLD-PLNÁ
 62
     2
 10
4.2051998722
 20
-353.2705819662
 30
0.0
  0
VERTEX
  5
984
  8
VIDITELNE
  6
SLD-PLNÁ
 62
     2
 10
4.2792266692
 20
-351.4457101775
 30
0.0
  0
VERTEX
  5
985
  8
VIDITELNE
  6
SLD-PLNÁ
 62
     2
 10
4.3546746922
 20
-349.6884231237
 30
0.0
  0
VERTEX
  5
986
  8
VIDITELNE
  6
SLD-PLNÁ
 62
     2
 10
4.3967270427
 20
-348.763251282
 30
0.0
  0
VERTEX
  5
987
  8
VIDITELNE
  6
SLD-PLNÁ
 62
     2
 10
4.5030677015
 20
-346.6321543056
 30
0.0
  0
VERTEX
  5
988
  8
VIDITELNE
  6
SLD-PLNÁ
 62
     2
 10
4.5712849343
 20
-345.4452404232
 30
0.0
  0
VERTEX
  5
989
  8
VIDITELNE
  6
SLD-PLNÁ
 62
     2
 10
4.6398456345
 20
-344.4150340634
 30
0.0
  0
VERTEX
  5
98A
  8
VIDITELNE
  6
SLD-PLNÁ
 62
     2
 10
4.7617259821
 20
-343.047183796
 30
0.0
  0
VERTEX
  5
98B
  8
VIDITELNE
  6
SLD-PLNÁ
 62
     2
 10
4.7859590723
 20
-342.862323065
 30
0.0
  0
VERTEX
  5
98C
  8
VIDITELNE
  6
SLD-PLNÁ
 62
     2
 10
4.7868066783
 20
-342.8661541402
 30
0.0
  0
SEQEND
  5
98D
  8
VIDITELNE
  6
SLD-PLNÁ
 62
     2
  0
POLYLINE
  5
616
  8
VIDITELNE
  6
SLD-PLNÁ
 62
     2
 66
     1
 10
0.0
 20
0.0
 30
0.0
  0
VERTEX
  5
98E
  8
VIDITELNE
  6
SLD-PLNÁ
 62
     2
 10
-4.5609406031
 20
-343.9052247045
 30
0.0
  0
VERTEX
  5
98F
  8
VIDITELNE
  6
SLD-PLNÁ
 62
     2
 10
-4.6083093105
 20
-344.0825876396
 30
0.0
  0
VERTEX
  5
990
  8
VIDITELNE
  6
SLD-PLNÁ
 62
     2
 10
-4.5872829293
 20
-344.7992030088
 30
0.0
  0
VERTEX
  5
991
  8
VIDITELNE
  6
SLD-PLNÁ
 62
     2
 10
-4.5334301933
 20
-345.9024763961
 30
0.0
  0
VERTEX
  5
992
  8
VIDITELNE
  6
SLD-PLNÁ
 62
     2
 10
-4.4772049396
 20
-347.0617190805
 30
0.0
  0
VERTEX
  5
993
  8
VIDITELNE
  6
SLD-PLNÁ
 62
     2
 10
-4.4253123188
 20
-348.1495109281
 30
0.0
  0
VERTEX
  5
994
  8
VIDITELNE
  6
SLD-PLNÁ
 62
     2
 10
-4.3825684312
 20
-349.0696092096
 30
0.0
  0
VERTEX
  5
995
  8
VIDITELNE
  6
SLD-PLNÁ
 62
     2
 10
-4.359869123
 20
-349.5718730035
 30
0.0
  0
VERTEX
  5
996
  8
VIDITELNE
  6
SLD-PLNÁ
 62
     2
 10
-4.3254665392
 20
-350.355087054
 30
0.0
  0
VERTEX
  5
997
  8
VIDITELNE
  6
SLD-PLNÁ
 62
     2
 10
-4.2723584433
 20
-351.6117743898
 30
0.0
  0
VERTEX
  5
998
  8
VIDITELNE
  6
SLD-PLNÁ
 62
     2
 10
-4.200442606
 20
-353.3922920468
 30
0.0
  0
VERTEX
  5
999
  8
VIDITELNE
  6
SLD-PLNÁ
 62
     2
 10
-4.1098831469
 20
-355.7361780941
 30
0.0
  0
VERTEX
  5
99A
  8
VIDITELNE
  6
SLD-PLNÁ
 62
     2
 10
-4.0
 20
-358.65
 30
0.0
  0
SEQEND
  5
99B
  8
VIDITELNE
  6
SLD-PLNÁ
 62
     2
  0
POLYLINE
  5
617
  8
VIDITELNE
  6
SLD-PLNÁ
 62
     2
 66
     1
 10
0.0
 20
0.0
 30
0.0
  0
VERTEX
  5
99C
  8
VIDITELNE
  6
SLD-PLNÁ
 62
     2
 10
-5.664560242
 20
-367.2228486391
 30
0.0
  0
VERTEX
  5
99D
  8
VIDITELNE
  6
SLD-PLNÁ
 62
     2
 10
-5.6013826799
 20
-368.6533166244
 30
0.0
  0
VERTEX
  5
99E
  8
VIDITELNE
  6
SLD-PLNÁ
 62
     2
 10
-5.4622563474
 20
-371.443823093
 30
0.0
  0
VERTEX
  5
99F
  8
VIDITELNE
  6
SLD-PLNÁ
 62
     2
 10
-5.307184418
 20
-373.8399617699
 30
0.0
  0
VERTEX
  5
9A0
  8
VIDITELNE
  6
SLD-PLNÁ
 62
     2
 10
-5.1727795124
 20
-375.2256222653
 30
0.0
  0
VERTEX
  5
9A1
  8
VIDITELNE
  6
SLD-PLNÁ
 62
     2
 10
-4.9785910573
 20
-376.4448091929
 30
0.0
  0
VERTEX
  5
9A2
  8
VIDITELNE
  6
SLD-PLNÁ
 62
     2
 10
-4.555558835
 20
-377.7328359364
 30
0.0
  0
VERTEX
  5
9A3
  8
VIDITELNE
  6
SLD-PLNÁ
 62
     2
 10
-3.9607825056
 20
-378.7177351611
 30
0.0
  0
VERTEX
  5
9A4
  8
VIDITELNE
  6
SLD-PLNÁ
 62
     2
 10
-3.1265307852
 20
-379.5662679876
 30
0.0
  0
VERTEX
  5
9A5
  8
VIDITELNE
  6
SLD-PLNÁ
 62
     2
 10
-2.5621207621
 20
-379.9561055796
 30
0.0
  0
VERTEX
  5
9A6
  8
VIDITELNE
  6
SLD-PLNÁ
 62
     2
 10
-1.835044558
 20
-380.3116991513
 30
0.0
  0
VERTEX
  5
9A7
  8
VIDITELNE
  6
SLD-PLNÁ
 62
     2
 10
0.0257601348
 20
-380.6587524735
 30
0.0
  0
VERTEX
  5
9A8
  8
VIDITELNE
  6
SLD-PLNÁ
 62
     2
 10
1.9181534028
 20
-380.2770431582
 30
0.0
  0
VERTEX
  5
9A9
  8
VIDITELNE
  6
SLD-PLNÁ
 62
     2
 10
3.396082496
 20
-379.3338139172
 30
0.0
  0
VERTEX
  5
9AA
  8
VIDITELNE
  6
SLD-PLNÁ
 62
     2
 10
4.2882497035
 20
-378.2503340916
 30
0.0
  0
VERTEX
  5
9AB
  8
VIDITELNE
  6
SLD-PLNÁ
 62
     2
 10
4.7345654673
 20
-377.3366951236
 30
0.0
  0
VERTEX
  5
9AC
  8
VIDITELNE
  6
SLD-PLNÁ
 62
     2
 10
4.9652466052
 20
-376.5657153042
 30
0.0
  0
VERTEX
  5
9AD
  8
VIDITELNE
  6
SLD-PLNÁ
 62
     2
 10
5.115144877
 20
-375.7497748113
 30
0.0
  0
VERTEX
  5
9AE
  8
VIDITELNE
  6
SLD-PLNÁ
 62
     2
 10
5.2941389348
 20
-374.0328108301
 30
0.0
  0
VERTEX
  5
9AF
  8
VIDITELNE
  6
SLD-PLNÁ
 62
     2
 10
5.3922397945
 20
-372.633288153
 30
0.0
  0
VERTEX
  5
9B0
  8
VIDITELNE
  6
SLD-PLNÁ
 62
     2
 10
5.4848058498
 20
-371.0288062837
 30
0.0
  0
VERTEX
  5
9B1
  8
VIDITELNE
  6
SLD-PLNÁ
 62
     2
 10
5.5695338792
 20
-369.3403937975
 30
0.0
  0
VERTEX
  5
9B2
  8
VIDITELNE
  6
SLD-PLNÁ
 62
     2
 10
5.6469290453
 20
-367.6363060046
 30
0.0
  0
VERTEX
  5
9B3
  8
VIDITELNE
  6
SLD-PLNÁ
 62
     2
 10
5.6666858978
 20
-367.1693607805
 30
0.0
  0
SEQEND
  5
9B4
  8
VIDITELNE
  6
SLD-PLNÁ
 62
     2
  0
POLYLINE
  5
618
  8
VIDITELNE
  6
SLD-PLNÁ
 62
     2
 66
     1
 10
0.0
 20
0.0
 30
0.0
  0
VERTEX
  5
9B5
  8
VIDITELNE
  6
SLD-PLNÁ
 62
     2
 10
-4.0
 20
-358.65
 30
0.0
  0
VERTEX
  5
9B6
  8
VIDITELNE
  6
SLD-PLNÁ
 62
     2
 10
-4.1098831469
 20
-361.5638219059
 30
0.0
  0
VERTEX
  5
9B7
  8
VIDITELNE
  6
SLD-PLNÁ
 62
     2
 10
-4.200442606
 20
-363.9077079532
 30
0.0
  0
VERTEX
  5
9B8
  8
VIDITELNE
  6
SLD-PLNÁ
 62
     2
 10
-4.2723584433
 20
-365.6882256102
 30
0.0
  0
VERTEX
  5
9B9
  8
VIDITELNE
  6
SLD-PLNÁ
 62
     2
 10
-4.3449951295
 20
-367.3927147306
 30
0.0
  0
VERTEX
  5
9BA
  8
VIDITELNE
  6
SLD-PLNÁ
 62
     2
 10
-4.3825684312
 20
-368.2303907904
 30
0.0
  0
VERTEX
  5
9BB
  8
VIDITELNE
  6
SLD-PLNÁ
 62
     2
 10
-4.4253123188
 20
-369.1504890719
 30
0.0
  0
VERTEX
  5
9BC
  8
VIDITELNE
  6
SLD-PLNÁ
 62
     2
 10
-4.4772049396
 20
-370.2382809195
 30
0.0
  0
VERTEX
  5
9BD
  8
VIDITELNE
  6
SLD-PLNÁ
 62
     2
 10
-4.5334301933
 20
-371.3975236039
 30
0.0
  0
VERTEX
  5
9BE
  8
VIDITELNE
  6
SLD-PLNÁ
 62
     2
 10
-4.5872829293
 20
-372.5007969912
 30
0.0
  0
VERTEX
  5
9BF
  8
VIDITELNE
  6
SLD-PLNÁ
 62
     2
 10
-4.6083093105
 20
-373.2174123604
 30
0.0
  0
VERTEX
  5
9C0
  8
VIDITELNE
  6
SLD-PLNÁ
 62
     2
 10
-4.5609406031
 20
-373.3947752955
 30
0.0
  0
SEQEND
  5
9C1
  8
VIDITELNE
  6
SLD-PLNÁ
 62
     2
  0
POLYLINE
  5
619
  8
VIDITELNE
  6
SLD-PLNÁ
 62
     2
 66
     1
 10
0.0
 20
0.0
 30
0.0
  0
VERTEX
  5
9C2
  8
VIDITELNE
  6
SLD-PLNÁ
 62
     2
 10
4.7868066783
 20
-374.4338458598
 30
0.0
  0
VERTEX
  5
9C3
  8
VIDITELNE
  6
SLD-PLNÁ
 62
     2
 10
4.7859590723
 20
-374.437676935
 30
0.0
  0
VERTEX
  5
9C4
  8
VIDITELNE
  6
SLD-PLNÁ
 62
     2
 10
4.7617259821
 20
-374.252816204
 30
0.0
  0
VERTEX
  5
9C5
  8
VIDITELNE
  6
SLD-PLNÁ
 62
     2
 10
4.6398456345
 20
-372.8849659366
 30
0.0
  0
VERTEX
  5
9C6
  8
VIDITELNE
  6
SLD-PLNÁ
 62
     2
 10
4.5712849343
 20
-371.8547595768
 30
0.0
  0
VERTEX
  5
9C7
  8
VIDITELNE
  6
SLD-PLNÁ
 62
     2
 10
4.5030677015
 20
-370.6678456944
 30
0.0
  0
VERTEX
  5
9C8
  8
VIDITELNE
  6
SLD-PLNÁ
 62
     2
 10
4.3967270427
 20
-368.536748718
 30
0.0
  0
VERTEX
  5
9C9
  8
VIDITELNE
  6
SLD-PLNÁ
 62
     2
 10
4.370339666
 20
-367.9611526733
 30
0.0
  0
VERTEX
  5
9CA
  8
VIDITELNE
  6
SLD-PLNÁ
 62
     2
 10
4.3342702199
 20
-367.1478962046
 30
0.0
  0
VERTEX
  5
9CB
  8
VIDITELNE
  6
SLD-PLNÁ
 62
     2
 10
4.2792266692
 20
-365.8542898225
 30
0.0
  0
VERTEX
  5
9CC
  8
VIDITELNE
  6
SLD-PLNÁ
 62
     2
 10
4.2051998722
 20
-364.0294180338
 30
0.0
  0
VERTEX
  5
9CD
  8
VIDITELNE
  6
SLD-PLNÁ
 62
     2
 10
4.1124347247
 20
-361.6295375009
 30
0.0
  0
VERTEX
  5
9CE
  8
VIDITELNE
  6
SLD-PLNÁ
 62
     2
 10
4.0
 20
-358.65
 30
0.0
  0
SEQEND
  5
9CF
  8
VIDITELNE
  6
SLD-PLNÁ
 62
     2
  0
LINE
  5
61A
  8
VIDITELNE
  6
SLD-PLNÁ
 62
     2
 10
54.5
 20
-228.65
 30
0.0
 11
54.2880379485
 21
-222.5802010066
 31
0.0
  0
LINE
  5
61B
  8
VIDITELNE
  6
SLD-PLNÁ
 62
     2
 10
-54.2880379485
 20
-222.5802010066
 30
0.0
 11
-54.5
 21
-228.65
 31
0.0
  0
ARC
  5
61C
  8
VIDITELNE
  6
SLD-PLNÁ
 62
     2
 10
52.2892562945
 20
-222.65
 30
0.0
 40
2.000000000000004
 50
2.0
 51
90.0
  0
ARC
  5
61D
  8
VIDITELNE
  6
SLD-PLNÁ
 62
     2
 10
-52.2892562945
 20
-222.65
 30
0.0
 40
2.000000000000011
 50
90.0
 51
178.0
  0
LINE
  5
61E
  8
VIDITELNE
  6
SLD-PLNÁ
 62
     2
 10
-55.0
 20
-481.65
 30
0.0
 11
-55.0
 21
-488.65
 31
0.0
  0
LINE
  5
61F
  8
VIDITELNE
  6
SLD-PLNÁ
 62
     2
 10
-55.0
 20
-228.65
 30
0.0
 11
-55.0
 21
-235.65
 31
0.0
  0
LINE
  5
620
  8
VIDITELNE
  6
SLD-PLNÁ
 62
     2
 10
55.0
 20
-235.65
 30
0.0
 11
55.0
 21
-228.65
 31
0.0
  0
LINE
  5
621
  8
VIDITELNE
  6
SLD-PLNÁ
 62
     2
 10
55.0
 20
-488.65
 30
0.0
 11
55.0
 21
-481.65
 31
0.0
  0
ARC
  5
622
  8
VIDITELNE
  6
SLD-PLNÁ
 62
     2
 10
19.5
 20
-504.15
 30
0.0
 40
0.5000000000000568
 50
270.0
 51
0.0
  0
ARC
  5
623
  8
VIDITELNE
  6
SLD-PLNÁ
 62
     2
 10
-19.5
 20
-504.15
 30
0.0
 40
0.5000000000000568
 50
180.0
 51
270.0
  0
LINE
  5
624
  8
VIDITELNE
  6
SLD-PLNÁ
 62
     2
 10
-20.0
 20
-496.65
 30
0.0
 11
-20.0
 21
-504.15
 31
0.0
  0
LINE
  5
625
  8
VIDITELNE
  6
SLD-PLNÁ
 62
     2
 10
20.0
 20
-504.15
 30
0.0
 11
20.0
 21
-496.65
 31
0.0
  0
LINE
  5
626
  8
VIDITELNE
  6
SLD-PLNÁ
 62
     2
 10
-19.0
 20
-504.65
 30
0.0
 11
-19.0
 21
-583.15
 31
0.0
  0
LINE
  5
627
  8
VIDITELNE
  6
SLD-PLNÁ
 62
     2
 10
19.0
 20
-583.15
 30
0.0
 11
19.0
 21
-504.65
 31
0.0
  0
LINE
  5
628
  8
VIDITELNE
  6
SLD-PLNÁ
 62
     2
 10
-19.0
 20
-583.15
 30
0.0
 11
-17.5
 21
-584.65
 31
0.0
  0
LINE
  5
629
  8
VIDITELNE
  6
SLD-PLNÁ
 62
     2
 10
17.5
 20
-584.65
 30
0.0
 11
19.0
 21
-583.15
 31
0.0
  0
LINE
  5
62A
  8
VIDITELNE
  6
SLD-PLNÁ
 62
     2
 10
55.0
 20
-483.65
 30
0.0
 11
58.0
 21
-483.65
 31
0.0
  0
LINE
  5
62B
  8
VIDITELNE
  6
SLD-PLNÁ
 62
     2
 10
-58.0
 20
-483.65
 30
0.0
 11
-55.0
 21
-483.65
 31
0.0
  0
LINE
  5
62C
  8
VIDITELNE
  6
SLD-PLNÁ
 62
     2
 10
-55.0
 20
-233.65
 30
0.0
 11
-58.0
 21
-233.65
 31
0.0
  0
LINE
  5
62D
  8
VIDITELNE
  6
SLD-PLNÁ
 62
     2
 10
58.0
 20
-233.65
 30
0.0
 11
55.0
 21
-233.65
 31
0.0
  0
ARC
  5
62E
  8
VIDITELNE
  6
SLD-PLNÁ
 62
     2
 10
-84.0
 20
-389.15
 30
0.0
 40
2.0
 50
180.0
 51
270.0
  0
ARC
  5
62F
  8
VIDITELNE
  6
SLD-PLNÁ
 62
     2
 10
-84.0
 20
-328.15
 30
0.0
 40
2.0
 50
90.0
 51
180.0
  0
ARC
  5
630
  8
VIDITELNE
  6
SLD-PLNÁ
 62
     2
 10
84.0
 20
-328.15
 30
0.0
 40
2.0
 50
0.0
 51
90.0
  0
ARC
  5
631
  8
VIDITELNE
  6
SLD-PLNÁ
 62
     2
 10
84.0
 20
-389.15
 30
0.0
 40
2.0
 50
270.0
 51
0.0
  0
LINE
  5
632
  8
VIDITELNE
  6
SLD-PLNÁ
 62
     2
 10
-69.0
 20
-483.2658715356
 30
0.0
 11
-69.0
 21
-234.0341284644
 31
0.0
  0
LINE
  5
633
  8
VIDITELNE
  6
SLD-PLNÁ
 62
     2
 10
-58.0
 20
-483.65
 30
0.0
 11
-58.0
 21
-233.65
 31
0.0
  0
LINE
  5
634
  8
VIDITELNE
  6
SLD-PLNÁ
 62
     2
 10
-79.0
 20
-365.65
 30
0.0
 11
-79.0
 21
-351.65
 31
0.0
  0
LINE
  5
635
  8
VIDITELNE
  6
SLD-PLNÁ
 62
     2
 10
-80.5
 20
-326.0228323243
 30
0.0
 11
-69.0
 21
-315.6832401246
 31
0.0
  0
LINE
  5
636
  8
VIDITELNE
  6
SLD-PLNÁ
 62
     2
 10
-69.0
 20
-323.4798871613
 30
0.0
 11
-80.5
 21
-326.0228323243
 31
0.0
  0
LINE
  5
637
  8
VIDITELNE
  6
SLD-PLNÁ
 62
     2
 10
-69.0
 20
-401.6167598754
 30
0.0
 11
-80.5
 21
-391.2771676757
 31
0.0
  0
LINE
  5
638
  8
VIDITELNE
  6
SLD-PLNÁ
 62
     2
 10
-80.5
 20
-391.2771676757
 30
0.0
 11
-69.0
 21
-393.8201128387
 31
0.0
  0
LINE
  5
639
  8
VIDITELNE
  6
SLD-PLNÁ
 62
     2
 10
-80.5
 20
-398.6682039358
 30
0.0
 11
-69.0
 21
-409.0077961355
 31
0.0
  0
LINE
  5
63A
  8
VIDITELNE
  6
SLD-PLNÁ
 62
     2
 10
-80.5
 20
-398.6682039358
 30
0.0
 11
-80.5
 21
-391.2771676757
 31
0.0
  0
LINE
  5
63B
  8
VIDITELNE
  6
SLD-PLNÁ
 62
     2
 10
-80.5
 20
-326.0228323243
 30
0.0
 11
-80.5
 21
-318.6317960642
 31
0.0
  0
LINE
  5
63C
  8
VIDITELNE
  6
SLD-PLNÁ
 62
     2
 10
-69.0
 20
-308.2922038645
 30
0.0
 11
-80.5
 21
-318.6317960642
 31
0.0
  0
LINE
  5
63D
  8
VIDITELNE
  6
SLD-PLNÁ
 62
     2
 10
-80.5
 20
-391.2771676757
 30
0.0
 11
-80.5
 21
-326.0228323243
 31
0.0
  0
LINE
  5
63E
  8
VIDITELNE
  6
SLD-PLNÁ
 62
     2
 10
-69.0
 20
-266.3508003345
 30
0.0
 11
-74.5857452259
 21
-269.3327201635
 31
0.0
  0
LINE
  5
63F
  8
VIDITELNE
  6
SLD-PLNÁ
 62
     2
 10
-79.0
 20
-271.6892461613
 30
0.0
 11
-80.5
 21
-272.4900130353
 31
0.0
  0
LINE
  5
640
  8
VIDITELNE
  6
SLD-PLNÁ
 62
     2
 10
-80.5
 20
-318.6317960642
 30
0.0
 11
-80.5
 21
-272.4900130353
 31
0.0
  0
LINE
  5
641
  8
VIDITELNE
  6
SLD-PLNÁ
 62
     2
 10
-80.5
 20
-444.8099869647
 30
0.0
 11
-79.0
 21
-445.6107538387
 31
0.0
  0
LINE
  5
642
  8
VIDITELNE
  6
SLD-PLNÁ
 62
     2
 10
-74.5857452259
 20
-447.9672798365
 30
0.0
 11
-69.0
 21
-450.9491996655
 31
0.0
  0
LINE
  5
643
  8
VIDITELNE
  6
SLD-PLNÁ
 62
     2
 10
-80.5
 20
-444.8099869647
 30
0.0
 11
-80.5
 21
-398.6682039358
 31
0.0
  0
LINE
  5
644
  8
VIDITELNE
  6
SLD-PLNÁ
 62
     2
 10
-79.0
 20
-284.3327201635
 30
0.0
 11
-79.0
 21
-270.3327201635
 31
0.0
  0
LINE
  5
645
  8
VIDITELNE
  6
SLD-PLNÁ
 62
     2
 10
-79.0
 20
-446.9672798365
 30
0.0
 11
-79.0
 21
-432.9672798365
 31
0.0
  0
LINE
  5
646
  8
VIDITELNE
  6
SLD-PLNÁ
 62
     2
 10
-84.0
 20
-423.65
 30
0.0
 11
-84.0
 21
-293.65
 31
0.0
  0
LINE
  5
647
  8
VIDITELNE
  6
SLD-PLNÁ
 62
     2
 10
-69.0
 20
-469.7719706826
 30
0.0
 11
-80.5
 21
-444.8099869647
 31
0.0
  0
LINE
  5
648
  8
VIDITELNE
  6
SLD-PLNÁ
 62
     2
 10
-80.5
 20
-447.8714544236
 30
0.0
 11
-69.0
 21
-472.8334381415
 31
0.0
  0
LINE
  5
649
  8
VIDITELNE
  6
SLD-PLNÁ
 62
     2
 10
-80.5
 20
-447.8714544236
 30
0.0
 11
-80.5
 21
-444.8099869647
 31
0.0
  0
LINE
  5
64A
  8
VIDITELNE
  6
SLD-PLNÁ
 62
     2
 10
-80.5
 20
-272.4900130353
 30
0.0
 11
-69.0
 21
-247.5280293174
 31
0.0
  0
LINE
  5
64B
  8
VIDITELNE
  6
SLD-PLNÁ
 62
     2
 10
-69.0
 20
-244.4665618585
 30
0.0
 11
-80.5
 21
-269.4285455764
 31
0.0
  0
LINE
  5
64C
  8
VIDITELNE
  6
SLD-PLNÁ
 62
     2
 10
-80.5
 20
-272.4900130353
 30
0.0
 11
-80.5
 21
-269.4285455764
 31
0.0
  0
LINE
  5
64D
  8
VIDITELNE
  6
SLD-PLNÁ
 62
     2
 10
-80.5
 20
-453.65
 30
0.0
 11
-80.5
 21
-447.8714544236
 31
0.0
  0
LINE
  5
64E
  8
VIDITELNE
  6
SLD-PLNÁ
 62
     2
 10
-80.5
 20
-269.4285455764
 30
0.0
 11
-80.5
 21
-263.65
 31
0.0
  0
LINE
  5
64F
  8
VIDITELNE
  6
SLD-PLNÁ
 62
     2
 10
-79.0
 20
-250.65
 30
0.0
 11
-79.0
 21
-236.65
 31
0.0
  0
LINE
  5
650
  8
VIDITELNE
  6
SLD-PLNÁ
 62
     2
 10
-79.0
 20
-480.65
 30
0.0
 11
-79.0
 21
-466.65
 31
0.0
  0
LINE
  5
651
  8
VIDITELNE
  6
SLD-PLNÁ
 62
     2
 10
69.0
 20
-234.0341284644
 30
0.0
 11
69.0
 21
-483.2658715356
 31
0.0
  0
LINE
  5
652
  8
VIDITELNE
  6
SLD-PLNÁ
 62
     2
 10
58.0
 20
-233.65
 30
0.0
 11
58.0
 21
-483.65
 31
0.0
  0
LINE
  5
653
  8
VIDITELNE
  6
SLD-PLNÁ
 62
     2
 10
79.0
 20
-351.65
 30
0.0
 11
79.0
 21
-365.65
 31
0.0
  0
LINE
  5
654
  8
VIDITELNE
  6
SLD-PLNÁ
 62
     2
 10
80.5
 20
-318.6317960642
 30
0.0
 11
69.0
 21
-308.2922038645
 31
0.0
  0
LINE
  5
655
  8
VIDITELNE
  6
SLD-PLNÁ
 62
     2
 10
80.5
 20
-318.6317960642
 30
0.0
 11
80.5
 21
-326.0228323243
 31
0.0
  0
LINE
  5
656
  8
VIDITELNE
  6
SLD-PLNÁ
 62
     2
 10
69.0
 20
-315.6832401246
 30
0.0
 11
80.5
 21
-326.0228323243
 31
0.0
  0
LINE
  5
657
  8
VIDITELNE
  6
SLD-PLNÁ
 62
     2
 10
80.5
 20
-391.2771676757
 30
0.0
 11
69.0
 21
-401.6167598754
 31
0.0
  0
LINE
  5
658
  8
VIDITELNE
  6
SLD-PLNÁ
 62
     2
 10
69.0
 20
-393.8201128387
 30
0.0
 11
80.5
 21
-391.2771676757
 31
0.0
  0
LINE
  5
659
  8
VIDITELNE
  6
SLD-PLNÁ
 62
     2
 10
80.5
 20
-391.2771676757
 30
0.0
 11
80.5
 21
-398.6682039358
 31
0.0
  0
LINE
  5
65A
  8
VIDITELNE
  6
SLD-PLNÁ
 62
     2
 10
69.0
 20
-409.0077961355
 30
0.0
 11
80.5
 21
-398.6682039358
 31
0.0
  0
LINE
  5
65B
  8
VIDITELNE
  6
SLD-PLNÁ
 62
     2
 10
80.5
 20
-326.0228323243
 30
0.0
 11
69.0
 21
-323.4798871613
 31
0.0
  0
LINE
  5
65C
  8
VIDITELNE
  6
SLD-PLNÁ
 62
     2
 10
80.5
 20
-326.0228323243
 30
0.0
 11
80.5
 21
-391.2771676757
 31
0.0
  0
LINE
  5
65D
  8
VIDITELNE
  6
SLD-PLNÁ
 62
     2
 10
69.0
 20
-450.9491996655
 30
0.0
 11
74.5857452259
 21
-447.9672798365
 31
0.0
  0
LINE
  5
65E
  8
VIDITELNE
  6
SLD-PLNÁ
 62
     2
 10
79.0
 20
-445.6107538387
 30
0.0
 11
80.5
 21
-444.8099869647
 31
0.0
  0
LINE
  5
65F
  8
VIDITELNE
  6
SLD-PLNÁ
 62
     2
 10
80.5
 20
-398.6682039358
 30
0.0
 11
80.5
 21
-444.8099869647
 31
0.0
  0
LINE
  5
660
  8
VIDITELNE
  6
SLD-PLNÁ
 62
     2
 10
80.5
 20
-272.4900130353
 30
0.0
 11
79.0
 21
-271.6892461613
 31
0.0
  0
LINE
  5
661
  8
VIDITELNE
  6
SLD-PLNÁ
 62
     2
 10
74.5857452259
 20
-269.3327201635
 30
0.0
 11
69.0
 21
-266.3508003345
 31
0.0
  0
LINE
  5
662
  8
VIDITELNE
  6
SLD-PLNÁ
 62
     2
 10
80.5
 20
-272.4900130353
 30
0.0
 11
80.5
 21
-318.6317960642
 31
0.0
  0
LINE
  5
663
  8
VIDITELNE
  6
SLD-PLNÁ
 62
     2
 10
79.0
 20
-432.9672798365
 30
0.0
 11
79.0
 21
-446.9672798365
 31
0.0
  0
LINE
  5
664
  8
VIDITELNE
  6
SLD-PLNÁ
 62
     2
 10
79.0
 20
-270.3327201635
 30
0.0
 11
79.0
 21
-284.3327201635
 31
0.0
  0
LINE
  5
665
  8
VIDITELNE
  6
SLD-PLNÁ
 62
     2
 10
84.0
 20
-293.65
 30
0.0
 11
84.0
 21
-423.65
 31
0.0
  0
LINE
  5
666
  8
VIDITELNE
  6
SLD-PLNÁ
 62
     2
 10
69.0
 20
-247.5280293174
 30
0.0
 11
80.5
 21
-272.4900130353
 31
0.0
  0
LINE
  5
667
  8
VIDITELNE
  6
SLD-PLNÁ
 62
     2
 10
80.5
 20
-269.4285455764
 30
0.0
 11
69.0
 21
-244.4665618585
 31
0.0
  0
LINE
  5
668
  8
VIDITELNE
  6
SLD-PLNÁ
 62
     2
 10
80.5
 20
-269.4285455764
 30
0.0
 11
80.5
 21
-272.4900130353
 31
0.0
  0
LINE
  5
669
  8
VIDITELNE
  6
SLD-PLNÁ
 62
     2
 10
80.5
 20
-444.8099869647
 30
0.0
 11
69.0
 21
-469.7719706826
 31
0.0
  0
LINE
  5
66A
  8
VIDITELNE
  6
SLD-PLNÁ
 62
     2
 10
69.0
 20
-472.8334381415
 30
0.0
 11
80.5
 21
-447.8714544236
 31
0.0
  0
LINE
  5
66B
  8
VIDITELNE
  6
SLD-PLNÁ
 62
     2
 10
80.5
 20
-444.8099869647
 30
0.0
 11
80.5
 21
-447.8714544236
 31
0.0
  0
LINE
  5
66C
  8
VIDITELNE
  6
SLD-PLNÁ
 62
     2
 10
80.5
 20
-263.65
 30
0.0
 11
80.5
 21
-269.4285455764
 31
0.0
  0
LINE
  5
66D
  8
VIDITELNE
  6
SLD-PLNÁ
 62
     2
 10
80.5
 20
-447.8714544236
 30
0.0
 11
80.5
 21
-453.65
 31
0.0
  0
LINE
  5
66E
  8
VIDITELNE
  6
SLD-PLNÁ
 62
     2
 10
79.0
 20
-466.65
 30
0.0
 11
79.0
 21
-480.65
 31
0.0
  0
LINE
  5
66F
  8
VIDITELNE
  6
SLD-PLNÁ
 62
     2
 10
79.0
 20
-236.65
 30
0.0
 11
79.0
 21
-250.65
 31
0.0
  0
LINE
  5
670
  8
VIDITELNE
  6
SLD-PLNÁ
 62
     2
 10
-44.8524671544
 20
-496.65
 30
0.0
 11
-0.8507268235
 21
-496.65
 31
0.0
  0
LINE
  5
671
  8
VIDITELNE
  6
SLD-PLNÁ
 62
     2
 10
-52.2892562945
 20
-496.65
 30
0.0
 11
-45.7031939779
 21
-496.65
 31
0.0
  0
LINE
  5
672
  8
VIDITELNE
  6
SLD-PLNÁ
 62
     2
 10
45.7031939779
 20
-496.65
 30
0.0
 11
52.2892562945
 21
-496.65
 31
0.0
  0
LINE
  5
673
  8
VIDITELNE
  6
SLD-PLNÁ
 62
     2
 10
0.8507268235
 20
-496.65
 30
0.0
 11
44.8524671544
 21
-496.65
 31
0.0
  0
LINE
  5
674
  8
VIDITELNE
  6
SLD-PLNÁ
 62
     2
 10
5.0
 20
-501.95
 30
0.0
 11
5.0
 21
-496.65
 31
0.0
  0
LINE
  5
675
  8
VIDITELNE
  6
SLD-PLNÁ
 62
     2
 10
5.0
 20
-501.95
 30
0.0
 11
0.0
 21
-501.95
 31
0.0
  0
LINE
  5
676
  8
VIDITELNE
  6
SLD-PLNÁ
 62
     2
 10
0.0
 20
-501.95
 30
0.0
 11
0.0
 21
-496.65
 31
0.0
  0
LINE
  5
677
  8
VIDITELNE
  6
SLD-PLNÁ
 62
     2
 10
0.8507268235
 20
-496.65
 30
0.0
 11
0.0
 21
-496.65
 31
0.0
  0
LINE
  5
678
  8
VIDITELNE
  6
SLD-PLNÁ
 62
     2
 10
-5.0
 20
-501.95
 30
0.0
 11
-5.0
 21
-496.65
 31
0.0
  0
LINE
  5
679
  8
VIDITELNE
  6
SLD-PLNÁ
 62
     2
 10
0.0
 20
-501.95
 30
0.0
 11
-5.0
 21
-501.95
 31
0.0
  0
LINE
  5
67A
  8
VIDITELNE
  6
SLD-PLNÁ
 62
     2
 10
0.0
 20
-496.65
 30
0.0
 11
-0.8507268235
 21
-496.65
 31
0.0
  0
LINE
  5
67B
  8
VIDITELNE
  6
SLD-PLNÁ
 62
     2
 10
-35.7031939779
 20
-501.95
 30
0.0
 11
-35.7031939779
 21
-496.65
 31
0.0
  0
LINE
  5
67C
  8
VIDITELNE
  6
SLD-PLNÁ
 62
     2
 10
-35.7031939779
 20
-501.95
 30
0.0
 11
-40.7031939779
 21
-501.95
 31
0.0
  0
LINE
  5
67D
  8
VIDITELNE
  6
SLD-PLNÁ
 62
     2
 10
-40.7031939779
 20
-501.95
 30
0.0
 11
-40.7031939779
 21
-496.65
 31
0.0
  0
LINE
  5
67E
  8
VIDITELNE
  6
SLD-PLNÁ
 62
     2
 10
-45.7031939779
 20
-501.95
 30
0.0
 11
-45.7031939779
 21
-496.65
 31
0.0
  0
LINE
  5
67F
  8
VIDITELNE
  6
SLD-PLNÁ
 62
     2
 10
-44.8524671544
 20
-496.65
 30
0.0
 11
-45.7031939779
 21
-496.65
 31
0.0
  0
LINE
  5
680
  8
VIDITELNE
  6
SLD-PLNÁ
 62
     2
 10
-40.7031939779
 20
-501.95
 30
0.0
 11
-45.7031939779
 21
-501.95
 31
0.0
  0
LINE
  5
681
  8
VIDITELNE
  6
SLD-PLNÁ
 62
     2
 10
40.7031939779
 20
-501.95
 30
0.0
 11
40.7031939779
 21
-496.65
 31
0.0
  0
LINE
  5
682
  8
VIDITELNE
  6
SLD-PLNÁ
 62
     2
 10
40.7031939779
 20
-501.95
 30
0.0
 11
35.7031939779
 21
-501.95
 31
0.0
  0
LINE
  5
683
  8
VIDITELNE
  6
SLD-PLNÁ
 62
     2
 10
35.7031939779
 20
-501.95
 30
0.0
 11
35.7031939779
 21
-496.65
 31
0.0
  0
LINE
  5
684
  8
VIDITELNE
  6
SLD-PLNÁ
 62
     2
 10
45.7031939779
 20
-501.95
 30
0.0
 11
45.7031939779
 21
-496.65
 31
0.0
  0
LINE
  5
685
  8
VIDITELNE
  6
SLD-PLNÁ
 62
     2
 10
45.7031939779
 20
-501.95
 30
0.0
 11
40.7031939779
 21
-501.95
 31
0.0
  0
LINE
  5
686
  8
VIDITELNE
  6
SLD-PLNÁ
 62
     2
 10
45.7031939779
 20
-496.65
 30
0.0
 11
44.8524671544
 21
-496.65
 31
0.0
  0
POLYLINE
  5
687
  8
VIDITELNE
  6
SLD-PLNÁ
 62
     2
 66
     1
 10
0.0
 20
0.0
 30
0.0
  0
VERTEX
  5
9D0
  8
VIDITELNE
  6
SLD-PLNÁ
 62
     2
 10
-4.1831571891
 20
-353.8396781935
 30
0.0
  0
VERTEX
  5
9D1
  8
VIDITELNE
  6
SLD-PLNÁ
 62
     2
 10
-4.2160692673
 20
-353.7744250205
 30
0.0
  0
VERTEX
  5
9D2
  8
VIDITELNE
  6
SLD-PLNÁ
 62
     2
 10
-4.7467823776
 20
-352.4625698182
 30
0.0
  0
SEQEND
  5
9D3
  8
VIDITELNE
  6
SLD-PLNÁ
 62
     2
  0
ARC
  5
688
  8
VIDITELNE
  6
SLD-PLNÁ
 62
     2
 10
12.4820932479
 20
-344.3157989783
 30
0.0
 40
19.05791254142888
 50
197.7653628289
 51
205.3073893692
  0
ARC
  5
689
  8
VIDITELNE
  6
SLD-PLNÁ
 62
     2
 10
-58.6403476544
 20
-326.0992202628
 30
0.0
 40
68.65094738966745
 50
337.4170821323
 51
339.509394849
  0
LINE
  5
68A
  8
VIDITELNE
  6
SLD-PLNÁ
 62
     2
 10
4.7467711593
 20
-352.4625612119
 30
0.0
 11
4.1897357826
 21
-353.6706456602
 31
0.0
  0
LINE
  5
68B
  8
VIDITELNE
  6
SLD-PLNÁ
 62
     2
 10
0.0
 20
-358.65
 30
0.0
 11
-3.9999770851
 21
-358.65
 31
0.0
  0
LINE
  5
68C
  8
VIDITELNE
  6
SLD-PLNÁ
 62
     2
 10
3.999987549
 20
-358.65
 30
0.0
 11
0.0
 21
-358.65
 31
0.0
  0
POLYLINE
  5
68D
  8
VIDITELNE
  6
SLD-PLNÁ
 62
     2
 66
     1
 10
0.0
 20
0.0
 30
0.0
  0
VERTEX
  5
9D4
  8
VIDITELNE
  6
SLD-PLNÁ
 62
     2
 10
4.1832844796
 20
-363.4624559199
 30
0.0
  0
VERTEX
  5
9D5
  8
VIDITELNE
  6
SLD-PLNÁ
 62
     2
 10
4.2254278412
 20
-363.5461436434
 30
0.0
  0
VERTEX
  5
9D6
  8
VIDITELNE
  6
SLD-PLNÁ
 62
     2
 10
4.7467711593
 20
-364.8374387881
 30
0.0
  0
SEQEND
  5
9D7
  8
VIDITELNE
  6
SLD-PLNÁ
 62
     2
  0
ARC
  5
68E
  8
VIDITELNE
  6
SLD-PLNÁ
 62
     2
 10
-12.5053747431
 20
-372.9935283395
 30
0.0
 40
19.08293308194
 50
17.7707066335
 51
25.3028163851
  0
ARC
  5
68F
  8
VIDITELNE
  6
SLD-PLNÁ
 62
     2
 10
58.1767469412
 20
-391.0173243893
 30
0.0
 40
68.15245705504569
 50
157.4098128093
 51
159.5174349926
  0
LINE
  5
690
  8
VIDITELNE
  6
SLD-PLNÁ
 62
     2
 10
-4.7467823776
 20
-364.8374301818
 30
0.0
 11
-4.1896777165
 21
-363.6290879777
 31
0.0
  0
ARC
  5
691
  8
VIDITELNE
  6
SLD-PLNÁ
 62
     2
 10
0.0
 20
-358.65
 30
0.0
 40
7.798476466232862
 50
307.494068554
 51
52.505931446
  0
ARC
  5
692
  8
VIDITELNE
  6
SLD-PLNÁ
 62
     2
 10
0.0
 20
-358.65
 30
0.0
 40
7.798476466232835
 50
127.4941724357
 51
232.5058275643
  0
ARC
  5
693
  8
VIDITELNE
  6
SLD-PLNÁ
 62
     2
 10
0.0
 20
-358.65
 30
0.0
 40
10.23195519226868
 50
303.6319354642
 51
56.3680645358
  0
ARC
  5
694
  8
VIDITELNE
  6
SLD-PLNÁ
 62
     2
 10
0.0
 20
-358.65
 30
0.0
 40
10.23195519226872
 50
123.6319167472
 51
236.3680832528
  0
ARC
  5
695
  8
VIDITELNE
  6
SLD-PLNÁ
 62
     2
 10
0.0
 20
-358.65
 30
0.0
 40
11.49999999999998
 50
119.6876819111
 51
240.3112313773
  0
ARC
  5
696
  8
VIDITELNE
  6
SLD-PLNÁ
 62
     2
 10
0.0
 20
-358.65
 30
0.0
 40
11.50000000000003
 50
299.6837589263
 51
60.313000748
  0
LINE
  5
697
  8
VIDITELNE
  6
SLD-PLNÁ
 62
     2
 10
44.8524671544
 20
-220.65
 30
0.0
 11
0.8507268235
 21
-220.65
 31
0.0
  0
LINE
  5
698
  8
VIDITELNE
  6
SLD-PLNÁ
 62
     2
 10
52.2892562945
 20
-220.65
 30
0.0
 11
45.7031939779
 21
-220.65
 31
0.0
  0
LINE
  5
699
  8
VIDITELNE
  6
SLD-PLNÁ
 62
     2
 10
-45.7031939779
 20
-220.65
 30
0.0
 11
-52.2892562945
 21
-220.65
 31
0.0
  0
LINE
  5
69A
  8
VIDITELNE
  6
SLD-PLNÁ
 62
     2
 10
-0.8507268235
 20
-220.65
 30
0.0
 11
-44.8524671544
 21
-220.65
 31
0.0
  0
LINE
  5
69B
  8
VIDITELNE
  6
SLD-PLNÁ
 62
     2
 10
-5.0
 20
-215.35
 30
0.0
 11
-5.0
 21
-220.65
 31
0.0
  0
LINE
  5
69C
  8
VIDITELNE
  6
SLD-PLNÁ
 62
     2
 10
0.0
 20
-215.35
 30
0.0
 11
0.0
 21
-220.65
 31
0.0
  0
LINE
  5
69D
  8
VIDITELNE
  6
SLD-PLNÁ
 62
     2
 10
-0.8507268235
 20
-220.65
 30
0.0
 11
0.0
 21
-220.65
 31
0.0
  0
LINE
  5
69E
  8
VIDITELNE
  6
SLD-PLNÁ
 62
     2
 10
-5.0
 20
-215.35
 30
0.0
 11
0.0
 21
-215.35
 31
0.0
  0
LINE
  5
69F
  8
VIDITELNE
  6
SLD-PLNÁ
 62
     2
 10
5.0
 20
-215.35
 30
0.0
 11
5.0
 21
-220.65
 31
0.0
  0
LINE
  5
6A0
  8
VIDITELNE
  6
SLD-PLNÁ
 62
     2
 10
0.0
 20
-220.65
 30
0.0
 11
0.8507268235
 21
-220.65
 31
0.0
  0
LINE
  5
6A1
  8
VIDITELNE
  6
SLD-PLNÁ
 62
     2
 10
0.0
 20
-215.35
 30
0.0
 11
5.0
 21
-215.35
 31
0.0
  0
LINE
  5
6A2
  8
VIDITELNE
  6
SLD-PLNÁ
 62
     2
 10
40.7031939779
 20
-215.35
 30
0.0
 11
40.7031939779
 21
-220.65
 31
0.0
  0
LINE
  5
6A3
  8
VIDITELNE
  6
SLD-PLNÁ
 62
     2
 10
45.7031939779
 20
-215.35
 30
0.0
 11
45.7031939779
 21
-220.65
 31
0.0
  0
LINE
  5
6A4
  8
VIDITELNE
  6
SLD-PLNÁ
 62
     2
 10
44.8524671544
 20
-220.65
 30
0.0
 11
45.7031939779
 21
-220.65
 31
0.0
  0
LINE
  5
6A5
  8
VIDITELNE
  6
SLD-PLNÁ
 62
     2
 10
40.7031939779
 20
-215.35
 30
0.0
 11
45.7031939779
 21
-215.35
 31
0.0
  0
LINE
  5
6A6
  8
VIDITELNE
  6
SLD-PLNÁ
 62
     2
 10
35.7031939779
 20
-215.35
 30
0.0
 11
35.7031939779
 21
-220.65
 31
0.0
  0
LINE
  5
6A7
  8
VIDITELNE
  6
SLD-PLNÁ
 62
     2
 10
35.7031939779
 20
-215.35
 30
0.0
 11
40.7031939779
 21
-215.35
 31
0.0
  0
LINE
  5
6A8
  8
VIDITELNE
  6
SLD-PLNÁ
 62
     2
 10
-45.7031939779
 20
-215.35
 30
0.0
 11
-45.7031939779
 21
-220.65
 31
0.0
  0
LINE
  5
6A9
  8
VIDITELNE
  6
SLD-PLNÁ
 62
     2
 10
-45.7031939779
 20
-215.35
 30
0.0
 11
-40.7031939779
 21
-215.35
 31
0.0
  0
LINE
  5
6AA
  8
VIDITELNE
  6
SLD-PLNÁ
 62
     2
 10
-40.7031939779
 20
-215.35
 30
0.0
 11
-40.7031939779
 21
-220.65
 31
0.0
  0
LINE
  5
6AB
  8
VIDITELNE
  6
SLD-PLNÁ
 62
     2
 10
-45.7031939779
 20
-220.65
 30
0.0
 11
-44.8524671544
 21
-220.65
 31
0.0
  0
LINE
  5
6AC
  8
VIDITELNE
  6
SLD-PLNÁ
 62
     2
 10
-40.7031939779
 20
-215.35
 30
0.0
 11
-35.7031939779
 21
-215.35
 31
0.0
  0
LINE
  5
6AD
  8
VIDITELNE
  6
SLD-PLNÁ
 62
     2
 10
-35.7031939779
 20
-215.35
 30
0.0
 11
-35.7031939779
 21
-220.65
 31
0.0
  0
CIRCLE
  5
6AE
  8
VIDITELNE
  6
SLD-PLNÁ
 62
     2
 10
0.0
 20
-448.65
 30
0.0
 40
9.5
  0
CIRCLE
  5
6AF
  8
VIDITELNE
  6
SLD-PLNÁ
 62
     2
 10
0.0
 20
-448.65
 30
0.0
 40
10.5
  0
LINE
  5
6B0
  8
VIDITELNE
  6
SLD-PLNÁ
 62
     2
 10
55.0
 20
-235.65
 30
0.0
 11
55.0
 21
-317.0687542274
 31
0.0
  0
POLYLINE
  5
6B1
  8
VIDITELNE
  6
SLD-PLNÁ
 62
     2
 66
     1
 10
0.0
 20
0.0
 30
0.0
  0
VERTEX
  5
9D8
  8
VIDITELNE
  6
SLD-PLNÁ
 62
     2
 10
55.0
 20
-400.2312457726
 30
0.0
  0
VERTEX
  5
9D9
  8
VIDITELNE
  6
SLD-PLNÁ
 62
     2
 10
54.9244562995
 20
-390.3253482867
 30
0.0
  0
VERTEX
  5
9DA
  8
VIDITELNE
  6
SLD-PLNÁ
 62
     2
 10
54.7737032823
 20
-380.1589070791
 30
0.0
  0
VERTEX
  5
9DB
  8
VIDITELNE
  6
SLD-PLNÁ
 62
     2
 10
54.6387595913
 20
-369.6563376722
 30
0.0
  0
VERTEX
  5
9DC
  8
VIDITELNE
  6
SLD-PLNÁ
 62
     2
 10
54.5837429017
 20
-359.0118447351
 30
0.0
  0
VERTEX
  5
9DD
  8
VIDITELNE
  6
SLD-PLNÁ
 62
     2
 10
54.6304935584
 20
-348.5296635596
 30
0.0
  0
VERTEX
  5
9DE
  8
VIDITELNE
  6
SLD-PLNÁ
 62
     2
 10
54.7601596688
 20
-338.0451319364
 30
0.0
  0
VERTEX
  5
9DF
  8
VIDITELNE
  6
SLD-PLNÁ
 62
     2
 10
54.9176842556
 20
-327.4872838873
 30
0.0
  0
VERTEX
  5
9E0
  8
VIDITELNE
  6
SLD-PLNÁ
 62
     2
 10
55.0
 20
-317.0687542274
 30
0.0
  0
SEQEND
  5
9E1
  8
VIDITELNE
  6
SLD-PLNÁ
 62
     2
  0
LINE
  5
6B2
  8
VIDITELNE
  6
SLD-PLNÁ
 62
     2
 10
55.0
 20
-481.65
 30
0.0
 11
55.0
 21
-400.2312457726
 31
0.0
  0
LINE
  5
6B3
  8
VIDITELNE
  6
SLD-PLNÁ
 62
     2
 10
-55.0
 20
-481.65
 30
0.0
 11
-55.0
 21
-400.2312457726
 31
0.0
  0
POLYLINE
  5
6B4
  8
VIDITELNE
  6
SLD-PLNÁ
 62
     2
 66
     1
 10
0.0
 20
0.0
 30
0.0
  0
VERTEX
  5
9E2
  8
VIDITELNE
  6
SLD-PLNÁ
 62
     2
 10
-55.0
 20
-317.0687542274
 30
0.0
  0
VERTEX
  5
9E3
  8
VIDITELNE
  6
SLD-PLNÁ
 62
     2
 10
-54.9244562995
 20
-326.9746517133
 30
0.0
  0
VERTEX
  5
9E4
  8
VIDITELNE
  6
SLD-PLNÁ
 62
     2
 10
-54.7737032823
 20
-337.1410929209
 30
0.0
  0
VERTEX
  5
9E5
  8
VIDITELNE
  6
SLD-PLNÁ
 62
     2
 10
-54.6387595913
 20
-347.6436623278
 30
0.0
  0
VERTEX
  5
9E6
  8
VIDITELNE
  6
SLD-PLNÁ
 62
     2
 10
-54.5837429017
 20
-358.2881552649
 30
0.0
  0
VERTEX
  5
9E7
  8
VIDITELNE
  6
SLD-PLNÁ
 62
     2
 10
-54.6304935584
 20
-368.7703364404
 30
0.0
  0
VERTEX
  5
9E8
  8
VIDITELNE
  6
SLD-PLNÁ
 62
     2
 10
-54.7601596688
 20
-379.2548680636
 30
0.0
  0
VERTEX
  5
9E9
  8
VIDITELNE
  6
SLD-PLNÁ
 62
     2
 10
-54.9176842556
 20
-389.8127161127
 30
0.0
  0
VERTEX
  5
9EA
  8
VIDITELNE
  6
SLD-PLNÁ
 62
     2
 10
-55.0
 20
-400.2312457726
 30
0.0
  0
SEQEND
  5
9EB
  8
VIDITELNE
  6
SLD-PLNÁ
 62
     2
  0
LINE
  5
6B5
  8
VIDITELNE
  6
SLD-PLNÁ
 62
     2
 10
-55.0
 20
-235.65
 30
0.0
 11
-55.0
 21
-317.0687542274
 31
0.0
  0
LINE
  5
6B6
  8
VIDITELNE
  6
SLD-PLNÁ
 62
     2
 10
55.0
 20
-488.65
 30
0.0
 11
-55.0
 21
-488.65
 31
0.0
  0
LINE
  5
6B7
  8
VIDITELNE
  6
SLD-PLNÁ
 62
     2
 10
-14.6969384567
 20
-445.65
 30
0.0
 11
-14.6969384567
 21
-451.65
 31
0.0
  0
LINE
  5
6B8
  8
VIDITELNE
  6
SLD-PLNÁ
 62
     2
 10
14.6969384567
 20
-451.65
 30
0.0
 11
14.6969384567
 21
-445.65
 31
0.0
  0
ARC
  5
6B9
  8
VIDITELNE
  6
SLD-PLNÁ
 62
     2
 10
-0.0490832506
 20
-358.6206744422
 30
0.0
 40
14.94605529163437
 50
110.9160083024
 51
168.5355571455
  0
ARC
  5
6BA
  8
VIDITELNE
  6
SLD-PLNÁ
 62
     2
 10
0.1840675937
 20
-358.5563880321
 30
0.0
 40
14.80103077756513
 50
11.3244094782
 51
69.3891184066
  0
LINE
  5
6BB
  8
VIDITELNE
  6
SLD-PLNÁ
 62
     2
 10
-14.6969384567
 20
-355.65
 30
0.0
 11
-14.6969384567
 21
-361.65
 31
0.0
  0
LINE
  5
6BC
  8
VIDITELNE
  6
SLD-PLNÁ
 62
     2
 10
14.6969384567
 20
-361.65
 30
0.0
 11
14.6969384567
 21
-355.65
 31
0.0
  0
ARC
  5
6BD
  8
VIDITELNE
  6
SLD-PLNÁ
 62
     2
 10
0.0
 20
-448.65
 30
0.0
 40
15.0
 50
11.5369590328
 51
168.4630409672
  0
ARC
  5
6BE
  8
VIDITELNE
  6
SLD-PLNÁ
 62
     2
 10
0.0
 20
-448.65
 30
0.0
 40
15.00000000000002
 50
191.5369590328
 51
348.4630409672
  0
ARC
  5
6BF
  8
VIDITELNE
  6
SLD-PLNÁ
 62
     2
 10
0.0526373742
 20
-358.681456797
 30
0.0
 40
14.94214853839118
 50
290.9365547945
 51
348.5408575868
  0
ARC
  5
6C0
  8
VIDITELNE
  6
SLD-PLNÁ
 62
     2
 10
-0.2314185869
 20
-358.7982008779
 30
0.0
 40
14.74394870236868
 50
191.1525364468
 51
249.5338957352
  0
LINE
  5
6C1
  8
VIDITELNE
  6
SLD-PLNÁ
 62
     2
 10
55.0
 20
-228.65
 30
0.0
 11
-55.0
 21
-228.65
 31
0.0
  0
LINE
  5
6C2
  8
VIDITELNE
  6
SLD-PLNÁ
 62
     2
 10
5.0
 20
-570.65
 30
0.0
 11
5.0
 21
-517.65
 31
0.0
  0
LINE
  5
6C3
  8
VIDITELNE
  6
SLD-PLNÁ
 62
     2
 10
-5.0
 20
-517.65
 30
0.0
 11
-5.0
 21
-570.65
 31
0.0
  0
ARC
  5
6C4
  8
VIDITELNE
  6
SLD-PLNÁ
 62
     2
 10
0.0
 20
-517.65
 30
0.0
 40
4.999999999999997
 50
0.0
 51
180.0
  0
ARC
  5
6C5
  8
VIDITELNE
  6
SLD-PLNÁ
 62
     2
 10
0.0
 20
-570.65
 30
0.0
 40
4.999999999999997
 50
180.0
 51
0.0
  0
LINE
  5
6C6
  8
VIDITELNE
  6
SLD-PLNÁ
 62
     2
 10
19.5
 20
-504.65
 30
0.0
 11
-19.5
 21
-504.65
 31
0.0
  0
LINE
  5
6C7
  8
VIDITELNE
  6
SLD-PLNÁ
 62
     2
 10
-19.0
 20
-583.15
 30
0.0
 11
19.0
 21
-583.15
 31
0.0
  0
LINE
  5
6C8
  8
VIDITELNE
  6
SLD-PLNÁ
 62
     2
 10
17.5
 20
-584.65
 30
0.0
 11
-17.5
 21
-584.65
 31
0.0
  0
POLYLINE
  5
6C9
  8
VIDITELNE
  6
SLD-PLNÁ
 62
     2
 66
     1
 10
0.0
 20
0.0
 30
0.0
  0
VERTEX
  5
9EC
  8
VIDITELNE
  6
SLD-PLNÁ
 62
     2
 10
-57.0
 20
-399.5764230045
 30
0.0
  0
VERTEX
  5
9ED
  8
VIDITELNE
  6
SLD-PLNÁ
 62
     2
 10
-56.9198240852
 20
-389.6897091363
 30
0.0
  0
VERTEX
  5
9EE
  8
VIDITELNE
  6
SLD-PLNÁ
 62
     2
 10
-56.7607301576
 20
-379.5208943088
 30
0.0
  0
VERTEX
  5
9EF
  8
VIDITELNE
  6
SLD-PLNÁ
 62
     2
 10
-56.6206470441
 20
-368.984221409
 30
0.0
  0
VERTEX
  5
9F0
  8
VIDITELNE
  6
SLD-PLNÁ
 62
     2
 10
-56.5686062799
 20
-358.2938536072
 30
0.0
  0
VERTEX
  5
9F1
  8
VIDITELNE
  6
SLD-PLNÁ
 62
     2
 10
-56.6223021314
 20
-348.1476157112
 30
0.0
  0
VERTEX
  5
9F2
  8
VIDITELNE
  6
SLD-PLNÁ
 62
     2
 10
-56.7571835531
 20
-338.0037814026
 30
0.0
  0
VERTEX
  5
9F3
  8
VIDITELNE
  6
SLD-PLNÁ
 62
     2
 10
-56.9173060719
 20
-327.7915306635
 30
0.0
  0
VERTEX
  5
9F4
  8
VIDITELNE
  6
SLD-PLNÁ
 62
     2
 10
-57.0
 20
-317.7235769955
 30
0.0
  0
SEQEND
  5
9F5
  8
VIDITELNE
  6
SLD-PLNÁ
 62
     2
  0
POLYLINE
  5
6CA
  8
VIDITELNE
  6
SLD-PLNÁ
 62
     2
 66
     1
 10
0.0
 20
0.0
 30
0.0
  0
VERTEX
  5
9F6
  8
VIDITELNE
  6
SLD-PLNÁ
 62
     2
 10
-57.0
 20
-317.7235769955
 30
0.0
  0
VERTEX
  5
9F7
  8
VIDITELNE
  6
SLD-PLNÁ
 62
     2
 10
-56.609819356
 20
-317.7109947596
 30
0.0
  0
VERTEX
  5
9F8
  8
VIDITELNE
  6
SLD-PLNÁ
 62
     2
 10
-56.2346331353
 20
-317.6737315803
 30
0.0
  0
VERTEX
  5
9F9
  8
VIDITELNE
  6
SLD-PLNÁ
 62
     2
 10
-55.888859534
 20
-317.6132194605
 30
0.0
  0
VERTEX
  5
9FA
  8
VIDITELNE
  6
SLD-PLNÁ
 62
     2
 10
-55.5857864376
 20
-317.5317838472
 30
0.0
  0
VERTEX
  5
9FB
  8
VIDITELNE
  6
SLD-PLNÁ
 62
     2
 10
-55.3370607754
 20
-317.4325542653
 30
0.0
  0
VERTEX
  5
9FC
  8
VIDITELNE
  6
SLD-PLNÁ
 62
     2
 10
-55.152240935
 20
-317.3193440519
 30
0.0
  0
VERTEX
  5
9FD
  8
VIDITELNE
  6
SLD-PLNÁ
 62
     2
 10
-55.0384294392
 20
-317.1965038121
 30
0.0
  0
VERTEX
  5
9FE
  8
VIDITELNE
  6
SLD-PLNÁ
 62
     2
 10
-55.0
 20
-317.0687542274
 30
0.0
  0
SEQEND
  5
9FF
  8
VIDITELNE
  6
SLD-PLNÁ
 62
     2
  0
POLYLINE
  5
6CB
  8
VIDITELNE
  6
SLD-PLNÁ
 62
     2
 66
     1
 10
0.0
 20
0.0
 30
0.0
  0
VERTEX
  5
A00
  8
VIDITELNE
  6
SLD-PLNÁ
 62
     2
 10
-57.0
 20
-399.5764230045
 30
0.0
  0
VERTEX
  5
A01
  8
VIDITELNE
  6
SLD-PLNÁ
 62
     2
 10
-56.609819356
 20
-399.5890052404
 30
0.0
  0
VERTEX
  5
A02
  8
VIDITELNE
  6
SLD-PLNÁ
 62
     2
 10
-56.2346331353
 20
-399.6262684197
 30
0.0
  0
VERTEX
  5
A03
  8
VIDITELNE
  6
SLD-PLNÁ
 62
     2
 10
-55.888859534
 20
-399.6867805395
 30
0.0
  0
VERTEX
  5
A04
  8
VIDITELNE
  6
SLD-PLNÁ
 62
     2
 10
-55.5857864376
 20
-399.7682161528
 30
0.0
  0
VERTEX
  5
A05
  8
VIDITELNE
  6
SLD-PLNÁ
 62
     2
 10
-55.3370607754
 20
-399.8674457347
 30
0.0
  0
VERTEX
  5
A06
  8
VIDITELNE
  6
SLD-PLNÁ
 62
     2
 10
-55.152240935
 20
-399.9806559481
 30
0.0
  0
VERTEX
  5
A07
  8
VIDITELNE
  6
SLD-PLNÁ
 62
     2
 10
-55.0384294392
 20
-400.1034961879
 30
0.0
  0
VERTEX
  5
A08
  8
VIDITELNE
  6
SLD-PLNÁ
 62
     2
 10
-55.0
 20
-400.2312457726
 30
0.0
  0
SEQEND
  5
A09
  8
VIDITELNE
  6
SLD-PLNÁ
 62
     2
  0
POLYLINE
  5
6CC
  8
VIDITELNE
  6
SLD-PLNÁ
 62
     2
 66
     1
 10
0.0
 20
0.0
 30
0.0
  0
VERTEX
  5
A0A
  8
VIDITELNE
  6
SLD-PLNÁ
 62
     2
 10
55.0
 20
-317.0687542274
 30
0.0
  0
VERTEX
  5
A0B
  8
VIDITELNE
  6
SLD-PLNÁ
 62
     2
 10
55.0384294392
 20
-317.1965038121
 30
0.0
  0
VERTEX
  5
A0C
  8
VIDITELNE
  6
SLD-PLNÁ
 62
     2
 10
55.152240935
 20
-317.3193440519
 30
0.0
  0
VERTEX
  5
A0D
  8
VIDITELNE
  6
SLD-PLNÁ
 62
     2
 10
55.3370607754
 20
-317.4325542653
 30
0.0
  0
VERTEX
  5
A0E
  8
VIDITELNE
  6
SLD-PLNÁ
 62
     2
 10
55.5857864376
 20
-317.5317838472
 30
0.0
  0
VERTEX
  5
A0F
  8
VIDITELNE
  6
SLD-PLNÁ
 62
     2
 10
55.888859534
 20
-317.6132194605
 30
0.0
  0
VERTEX
  5
A10
  8
VIDITELNE
  6
SLD-PLNÁ
 62
     2
 10
56.2346331353
 20
-317.6737315803
 30
0.0
  0
VERTEX
  5
A11
  8
VIDITELNE
  6
SLD-PLNÁ
 62
     2
 10
56.609819356
 20
-317.7109947596
 30
0.0
  0
VERTEX
  5
A12
  8
VIDITELNE
  6
SLD-PLNÁ
 62
     2
 10
57.0
 20
-317.7235769955
 30
0.0
  0
SEQEND
  5
A13
  8
VIDITELNE
  6
SLD-PLNÁ
 62
     2
  0
POLYLINE
  5
6CD
  8
VIDITELNE
  6
SLD-PLNÁ
 62
     2
 66
     1
 10
0.0
 20
0.0
 30
0.0
  0
VERTEX
  5
A14
  8
VIDITELNE
  6
SLD-PLNÁ
 62
     2
 10
57.0
 20
-317.7235769955
 30
0.0
  0
VERTEX
  5
A15
  8
VIDITELNE
  6
SLD-PLNÁ
 62
     2
 10
56.9198240852
 20
-327.6102908637
 30
0.0
  0
VERTEX
  5
A16
  8
VIDITELNE
  6
SLD-PLNÁ
 62
     2
 10
56.7607301576
 20
-337.7791056912
 30
0.0
  0
VERTEX
  5
A17
  8
VIDITELNE
  6
SLD-PLNÁ
 62
     2
 10
56.6206470441
 20
-348.315778591
 30
0.0
  0
VERTEX
  5
A18
  8
VIDITELNE
  6
SLD-PLNÁ
 62
     2
 10
56.5686062799
 20
-359.0061463928
 30
0.0
  0
VERTEX
  5
A19
  8
VIDITELNE
  6
SLD-PLNÁ
 62
     2
 10
56.6223021314
 20
-369.1523842888
 30
0.0
  0
VERTEX
  5
A1A
  8
VIDITELNE
  6
SLD-PLNÁ
 62
     2
 10
56.7571835531
 20
-379.2962185974
 30
0.0
  0
VERTEX
  5
A1B
  8
VIDITELNE
  6
SLD-PLNÁ
 62
     2
 10
56.9173060719
 20
-389.5084693365
 30
0.0
  0
VERTEX
  5
A1C
  8
VIDITELNE
  6
SLD-PLNÁ
 62
     2
 10
57.0
 20
-399.5764230045
 30
0.0
  0
SEQEND
  5
A1D
  8
VIDITELNE
  6
SLD-PLNÁ
 62
     2
  0
POLYLINE
  5
6CE
  8
VIDITELNE
  6
SLD-PLNÁ
 62
     2
 66
     1
 10
0.0
 20
0.0
 30
0.0
  0
VERTEX
  5
A1E
  8
VIDITELNE
  6
SLD-PLNÁ
 62
     2
 10
55.0
 20
-400.2312457726
 30
0.0
  0
VERTEX
  5
A1F
  8
VIDITELNE
  6
SLD-PLNÁ
 62
     2
 10
55.0384294392
 20
-400.1034961879
 30
0.0
  0
VERTEX
  5
A20
  8
VIDITELNE
  6
SLD-PLNÁ
 62
     2
 10
55.152240935
 20
-399.9806559481
 30
0.0
  0
VERTEX
  5
A21
  8
VIDITELNE
  6
SLD-PLNÁ
 62
     2
 10
55.3370607754
 20
-399.8674457347
 30
0.0
  0
VERTEX
  5
A22
  8
VIDITELNE
  6
SLD-PLNÁ
 62
     2
 10
55.5857864376
 20
-399.7682161528
 30
0.0
  0
VERTEX
  5
A23
  8
VIDITELNE
  6
SLD-PLNÁ
 62
     2
 10
55.888859534
 20
-399.6867805395
 30
0.0
  0
VERTEX
  5
A24
  8
VIDITELNE
  6
SLD-PLNÁ
 62
     2
 10
56.2346331353
 20
-399.6262684197
 30
0.0
  0
VERTEX
  5
A25
  8
VIDITELNE
  6
SLD-PLNÁ
 62
     2
 10
56.609819356
 20
-399.5890052404
 30
0.0
  0
VERTEX
  5
A26
  8
VIDITELNE
  6
SLD-PLNÁ
 62
     2
 10
57.0
 20
-399.5764230045
 30
0.0
  0
SEQEND
  5
A27
  8
VIDITELNE
  6
SLD-PLNÁ
 62
     2
  0
LINE
  5
6CF
  8
VIDITELNE
  6
SLD-PLNÁ
 62
     2
 10
-57.0
 20
-317.7235769955
 30
0.0
 11
-57.0
 21
-237.587007874
 31
0.0
  0
LINE
  5
6D0
  8
VIDITELNE
  6
SLD-PLNÁ
 62
     2
 10
-57.0
 20
-479.712992126
 30
0.0
 11
-57.0
 21
-399.5764230045
 31
0.0
  0
LINE
  5
6D1
  8
VIDITELNE
  6
SLD-PLNÁ
 62
     2
 10
57.0
 20
-399.5764230045
 30
0.0
 11
57.0
 21
-479.712992126
 31
0.0
  0
LINE
  5
6D2
  8
VIDITELNE
  6
SLD-PLNÁ
 62
     2
 10
57.0
 20
-237.587007874
 30
0.0
 11
57.0
 21
-317.7235769955
 31
0.0
  0
ARC
  5
6D3
  8
VIDITELNE
  6
SLD-PLNÁ
 62
     2
 10
56.968999938
 20
-235.6179918059
 30
0.0
 40
1.969260084481706
 50
180.9313219756
 51
270.9019865372
  0
ARC
  5
6D4
  8
VIDITELNE
  6
SLD-PLNÁ
 62
     2
 10
-56.968999938
 20
-481.6820081941
 30
0.0
 40
1.969260084481762
 50
0.9313219756
 51
90.9019865371
  0
ARC
  5
6D5
  8
VIDITELNE
  6
SLD-PLNÁ
 62
     2
 10
56.968999938
 20
-481.6820081941
 30
0.0
 40
1.969260084481706
 50
89.0980134628
 51
179.0686780244
  0
ARC
  5
6D6
  8
VIDITELNE
  6
SLD-PLNÁ
 62
     2
 10
-56.968999938
 20
-235.6179918059
 30
0.0
 40
1.969260084481706
 50
269.0980134629
 51
359.0686780244
  0
LINE
  5
6D7
  8
VIDITELNE
  6
SLD-PLNÁ
 62
     2
 10
-86.0
 20
-389.15
 30
0.0
 11
-86.0
 21
-328.15
 31
0.0
  0
LINE
  5
6D8
  8
VIDITELNE
  6
SLD-PLNÁ
 62
     2
 10
86.0
 20
-328.15
 30
0.0
 11
86.0
 21
-389.15
 31
0.0
  0
LINE
  5
6D9
  8
VIDITELNE
  6
SLD-PLNÁ
 62
     2
 10
-78.0
 20
-350.65
 30
0.0
 11
-78.0
 21
-366.65
 31
0.0
  0
LINE
  5
6DA
  8
VIDITELNE
  6
SLD-PLNÁ
 62
     2
 10
-78.0
 20
-269.3327201635
 30
0.0
 11
-78.0
 21
-285.3327201635
 31
0.0
  0
LINE
  5
6DB
  8
VIDITELNE
  6
SLD-PLNÁ
 62
     2
 10
-78.0
 20
-431.9672798365
 30
0.0
 11
-78.0
 21
-447.9672798365
 31
0.0
  0
LINE
  5
6DC
  8
VIDITELNE
  6
SLD-PLNÁ
 62
     2
 10
-78.0
 20
-235.65
 30
0.0
 11
-78.0
 21
-251.65
 31
0.0
  0
LINE
  5
6DD
  8
VIDITELNE
  6
SLD-PLNÁ
 62
     2
 10
-78.0
 20
-465.65
 30
0.0
 11
-78.0
 21
-481.65
 31
0.0
  0
LINE
  5
6DE
  8
VIDITELNE
  6
SLD-PLNÁ
 62
     2
 10
78.0
 20
-366.65
 30
0.0
 11
78.0
 21
-350.65
 31
0.0
  0
LINE
  5
6DF
  8
VIDITELNE
  6
SLD-PLNÁ
 62
     2
 10
78.0
 20
-447.9672798365
 30
0.0
 11
78.0
 21
-431.9672798365
 31
0.0
  0
LINE
  5
6E0
  8
VIDITELNE
  6
SLD-PLNÁ
 62
     2
 10
78.0
 20
-285.3327201635
 30
0.0
 11
78.0
 21
-269.3327201635
 31
0.0
  0
LINE
  5
6E1
  8
VIDITELNE
  6
SLD-PLNÁ
 62
     2
 10
78.0
 20
-481.65
 30
0.0
 11
78.0
 21
-465.65
 31
0.0
  0
LINE
  5
6E2
  8
VIDITELNE
  6
SLD-PLNÁ
 62
     2
 10
78.0
 20
-251.65
 30
0.0
 11
78.0
 21
-235.65
 31
0.0
  0
LINE
  5
6E3
  8
VIDITELNE
  6
SLD-PLNÁ
 62
     2
 10
-54.2880379485
 20
-494.7197989934
 30
0.0
 11
54.2880379485
 21
-494.7197989934
 31
0.0
  0
LINE
  5
6E4
  8
VIDITELNE
  6
SLD-PLNÁ
 62
     2
 10
54.2880379485
 20
-222.5802010066
 30
0.0
 11
-54.2880379485
 21
-222.5802010066
 31
0.0
  0
LINE
  5
6E5
  8
VIDITELNE
  6
SLD-PLNÁ
 62
     2
 10
-20.0
 20
-504.15
 30
0.0
 11
20.0
 21
-504.15
 31
0.0
  0
ARC
  5
6E6
  8
VIDITELNE
  6
SLD-PLNÁ
 62
     2
 10
-53.5249692744
 20
-237.3506492686
 30
0.0
 40
3.483059565159974
 50
115.0549380399
 51
183.8910519421
  0
ARC
  5
6E7
  8
VIDITELNE
  6
SLD-PLNÁ
 62
     2
 10
-53.507792309
 20
-479.9448599116
 30
0.0
 40
3.499896745188359
 50
176.2013785398
 51
244.7633725658
  0
ARC
  5
6E8
  8
VIDITELNE
  6
SLD-PLNÁ
 62
     2
 10
53.5249692744
 20
-479.9493507314
 30
0.0
 40
3.483059565161779
 50
295.0549380399
 51
3.8910519421
  0
ARC
  5
6E9
  8
VIDITELNE
  6
SLD-PLNÁ
 62
     2
 10
53.507792309
 20
-237.3551400884
 30
0.0
 40
3.499896745189679
 50
356.2013785398
 51
64.7633725658
  0
ENDSEC
  0
EOF
