  0
SECTION
  2
HEADER
  9
$ACADVER
  1
AC1009
  9
$DWGCODEPAGE
  3
ansi_1250
  9
$INSBASE
 10
0.0
 20
0.0
 30
0.0
  9
$EXTMIN
 10
0.0
 20
0.0
 30
0.0
  9
$EXTMAX
 10
279.4
 20
215.9
 30
0.0
  9
$LIMMIN
 10
0.0
 20
0.0
  9
$LIMMAX
 10
279.4
 20
215.9
  9
$ORTHOMODE
 70
     0
  9
$REGENMODE
 70
     1
  9
$FILLMODE
 70
     1
  9
$QTEXTMODE
 70
     0
  9
$MIRRTEXT
 70
     1
  9
$DRAGMODE
 70
     2
  9
$LTSCALE
 40
1.0
  9
$OSMODE
 70
    37
  9
$ATTMODE
 70
     1
  9
$TEXTSIZE
 40
3.5
  9
$TRACEWID
 40
1.0
  9
$TEXTSTYLE
  7
STANDARD
  9
$CLAYER
  8
0
  9
$CELTYPE
  6
BYLAYER
  9
$CECOLOR
 62
   256
  9
$DIMSCALE
 40
1.0
  9
$DIMASZ
 40
6.0
  9
$DIMEXO
 40
1.0
  9
$DIMDLI
 40
3.75
  9
$DIMRND
 40
0.0
  9
$DIMDLE
 40
0.0
  9
$DIMEXE
 40
1.0
  9
$DIMTP
 40
0.0
  9
$DIMTM
 40
0.0
  9
$DIMTXT
 40
3.5
  9
$DIMCEN
 40
2.5
  9
$DIMTSZ
 40
0.0
  9
$DIMTOL
 70
     0
  9
$DIMLIM
 70
     0
  9
$DIMTIH
 70
     1
  9
$DIMTOH
 70
     1
  9
$DIMSE1
 70
     0
  9
$DIMSE2
 70
     0
  9
$DIMTAD
 70
     1
  9
$DIMZIN
 70
     0
  9
$DIMBLK
  1

  9
$DIMASO
 70
     1
  9
$DIMSHO
 70
     1
  9
$DIMPOST
  1

  9
$DIMAPOST
  1

  9
$DIMALT
 70
     0
  9
$DIMALTD
 70
     3
  9
$DIMALTF
 40
0.0393700787
  9
$DIMLFAC
 40
1.0
  9
$DIMTOFL
 70
     1
  9
$DIMTVP
 40
0.0
  9
$DIMTIX
 70
     0
  9
$DIMSOXD
 70
     0
  9
$DIMSAH
 70
     0
  9
$DIMBLK1
  1

  9
$DIMBLK2
  1

  9
$DIMSTYLE
  2
ISO-25
  9
$DIMCLRD
 70
     0
  9
$DIMCLRE
 70
     0
  9
$DIMCLRT
 70
     0
  9
$DIMTFAC
 40
1.0
  9
$DIMGAP
 40
1.524
  9
$LUNITS
 70
     2
  9
$LUPREC
 70
     2
  9
$SKETCHINC
 40
1.0
  9
$FILLETRAD
 40
10.0
  9
$AUNITS
 70
     0
  9
$AUPREC
 70
     2
  9
$MENU
  1
.
  9
$ELEVATION
 40
0.0
  9
$PELEVATION
 40
0.0
  9
$THICKNESS
 40
0.0
  9
$LIMCHECK
 70
     0
  9
$CHAMFERA
 40
10.0
  9
$CHAMFERB
 40
10.0
  9
$SKPOLY
 70
     0
  9
$TDCREATE
 40
2456001.369338102
  9
$TDUPDATE
 40
2456001.369338113
  9
$TDINDWG
 40
0.0000000116
  9
$TDUSRTIMER
 40
0.0000000116
  9
$USRTIMER
 70
     1
  9
$ANGBASE
 50
0.0
  9
$ANGDIR
 70
     0
  9
$PDMODE
 70
     0
  9
$PDSIZE
 40
-1.0
  9
$PLINEWID
 40
0.0
  9
$COORDS
 70
     1
  9
$SPLFRAME
 70
     0
  9
$SPLINETYPE
 70
     6
  9
$SPLINESEGS
 70
     8
  9
$ATTDIA
 70
     0
  9
$ATTREQ
 70
     1
  9
$HANDLING
 70
     1
  9
$HANDSEED
  5
191
  9
$SURFTAB1
 70
     6
  9
$SURFTAB2
 70
     6
  9
$SURFTYPE
 70
     6
  9
$SURFU
 70
     6
  9
$SURFV
 70
     6
  9
$UCSNAME
  2

  9
$UCSORG
 10
0.0
 20
0.0
 30
0.0
  9
$UCSXDIR
 10
1.0
 20
0.0
 30
0.0
  9
$UCSYDIR
 10
0.0
 20
1.0
 30
0.0
  9
$PUCSNAME
  2

  9
$PUCSORG
 10
0.0
 20
0.0
 30
0.0
  9
$PUCSXDIR
 10
1.0
 20
0.0
 30
0.0
  9
$PUCSYDIR
 10
0.0
 20
1.0
 30
0.0
  9
$USERI1
 70
     0
  9
$USERI2
 70
     0
  9
$USERI3
 70
     0
  9
$USERI4
 70
     0
  9
$USERI5
 70
     0
  9
$USERR1
 40
0.0
  9
$USERR2
 40
0.0
  9
$USERR3
 40
0.0
  9
$USERR4
 40
0.0
  9
$USERR5
 40
0.0
  9
$WORLDVIEW
 70
     1
  9
$SHADEDGE
 70
     3
  9
$SHADEDIF
 70
    70
  9
$TILEMODE
 70
     1
  9
$MAXACTVP
 70
    64
  9
$PLIMCHECK
 70
     0
  9
$PEXTMIN
 10
1.0000000000E+20
 20
1.0000000000E+20
 30
1.0000000000E+20
  9
$PEXTMAX
 10
-1.0000000000E+20
 20
-1.0000000000E+20
 30
-1.0000000000E+20
  9
$PLIMMIN
 10
0.0
 20
0.0
  9
$PLIMMAX
 10
420.0
 20
297.0
  9
$UNITMODE
 70
     0
  9
$VISRETAIN
 70
     1
  9
$PLINEGEN
 70
     0
  9
$PSLTSCALE
 70
     1
  0
ENDSEC
  0
SECTION
  2
TABLES
  0
TABLE
  2
VPORT
 70
     1
  0
VPORT
  2
*ACTIVE
 70
     0
 10
0.0
 20
0.0
 11
1.0
 21
1.0
 12
139.7
 22
107.95
 13
0.0
 23
0.0
 14
10.0
 24
10.0
 15
10.0
 25
10.0
 16
0.0
 26
0.0
 36
1.0
 17
0.0
 27
0.0
 37
0.0
 40
215.9
 41
1.2941176471
 42
50.0
 43
0.0
 44
0.0
 50
0.0
 51
0.0
 71
     0
 72
  2000
 73
     1
 74
     3
 75
     0
 76
     0
 77
     0
 78
     0
  0
ENDTAB
  0
TABLE
  2
LTYPE
 70
    10
  0
LTYPE
  2
CONTINUOUS
 70
     0
  3
Solid line
 72
    65
 73
     0
 40
0.0
  0
LTYPE
  2
SLD-PLNÁ
 70
     0
  3
SolidWorks Line Style
 72
    65
 73
     0
 40
0.0
  0
LTYPE
  2
SLD-ČÁRKOVANÁ
 70
     0
  3
SolidWorks Line Style
 72
    65
 73
     2
 40
1.905
 49
1.27
 49
-0.635
  0
LTYPE
  2
SLD-DVOJITĚ-ČERCHOVANÁ
 70
     0
  3
SolidWorks Line Style
 72
    65
 73
     6
 40
12.7
 49
6.35
 49
-1.27
 49
1.27
 49
-1.27
 49
1.27
 49
-1.27
  0
LTYPE
  2
SLD-ČERCHOVANÁ
 70
     0
  3
SolidWorks Line Style
 72
    65
 73
     4
 40
10.16
 49
6.35
 49
-1.27
 49
1.27
 49
-1.27
  0
LTYPE
  2
SLD-OSA
 70
     0
  3
SolidWorks Line Style
 72
    65
 73
     4
 40
19.05
 49
15.24
 49
-1.27
 49
1.27
 49
-1.27
  0
LTYPE
  2
SLD-TEČKOVANÁ
 70
     0
  3
SolidWorks Line Style
 72
    65
 73
     2
 40
0.635
 49
0.0
 49
-0.635
  0
LTYPE
  2
SLD-HRUBÁ-TENKÁ-ČERCHOVANÁ
 70
     0
  3
SolidWorks Line Style
 72
    65
 73
     4
 40
10.16
 49
6.35
 49
-1.27
 49
1.27
 49
-1.27
  0
LTYPE
  2
SLD-ŘEZ-1
 70
     0
  3
SolidWorks Line Style
 72
    65
 73
     4
 40
8.128
 49
5.08
 49
-1.016
 49
1.016
 49
-1.016
  0
LTYPE
  2
SLD-ŘEZ-2
 70
     0
  3
SolidWorks Line Style
 72
    65
 73
     2
 40
5080.0
 49
0.0
 49
-5080.0
  0
ENDTAB
  0
TABLE
  2
LAYER
 70
    15
  0
LAYER
  2
0
 70
     0
 62
     7
  6
CONTINUOUS
  0
LAYER
  2
DEFPOINTS
 70
     0
 62
     7
  6
CONTINUOUS
  0
LAYER
  2
VIDITELNE
 70
     0
 62
     2
  6
SLD-PLNÁ
  0
LAYER
  2
SKRYTE
 70
     0
 62
     4
  6
SLD-ČÁRKOVANÁ
  0
LAYER
  2
SKICA
 70
     0
 62
     6
  6
SLD-PLNÁ
  0
LAYER
  2
DETAIL
 70
     0
 62
     7
  6
SLD-PLNÁ
  0
LAYER
  2
REZY
 70
     0
 62
     1
  6
SLD-HRUBÁ-TENKÁ-ČERCHOVANÁ
  0
LAYER
  2
KOTY
 70
     0
 62
     3
  6
SLD-PLNÁ
  0
LAYER
  2
OSY
 70
     0
 62
     7
  6
SLD-OSA
  0
LAYER
  2
SRAF
 70
     0
 62
     7
  6
SLD-PLNÁ
  0
LAYER
  2
TECNE
 70
     0
 62
     7
  6
SLD-DVOJITĚ-ČERCHOVANÁ
  0
LAYER
  2
HRANICE
 70
     0
 62
     4
  6
SLD-PLNÁ
  0
LAYER
  2
UZ-1
 70
     0
 62
    11
  6
SLD-DVOJITĚ-ČERCHOVANÁ
  0
LAYER
  2
UZ-2
 70
     0
 62
    11
  6
SLD-DVOJITĚ-ČERCHOVANÁ
  0
LAYER
  2
UZ-3
 70
     0
 62
    11
  6
SLD-ČÁRKOVANÁ
  0
ENDTAB
  0
TABLE
  2
STYLE
 70
     1
  0
STYLE
  2
STANDARD
 70
     0
 40
0.0
 41
1.0
 50
0.0
 71
     0
 42
2.5
  3
txt
  4

  0
ENDTAB
  0
TABLE
  2
VIEW
 70
     0
  0
ENDTAB
  0
TABLE
  2
UCS
 70
     0
  0
ENDTAB
  0
TABLE
  2
APPID
 70
     1
  0
APPID
  2
ACAD
 70
     0
  0
ENDTAB
  0
TABLE
  2
DIMSTYLE
 70
     1
  0
DIMSTYLE
  2
ISO-25
 70
     0
  3

  4

  5

  6

  7

 40
1.0
 41
2.5
 42
0.625
 43
3.75
 44
1.25
 45
0.0
 46
0.0
 47
0.0
 48
0.0
140
2.5
141
2.5
142
0.0
143
0.0393700787
144
1.0
145
0.0
146
1.0
147
0.625
 71
     0
 72
     0
 73
     0
 74
     0
 75
     0
 76
     0
 77
     1
 78
     8
170
     0
171
     3
172
     1
173
     0
174
     0
175
     0
176
     0
177
     0
178
     0
  0
ENDTAB
  0
ENDSEC
  0
SECTION
  2
BLOCKS
  0
BLOCK
  8
0
  2
$MODEL_SPACE
 70
     0
 10
0.0
 20
0.0
 30
0.0
  3
$MODEL_SPACE
  1

  0
ENDBLK
  5
21
  8
0
  0
BLOCK
 67
     1
  8
0
  2
$PAPER_SPACE
 70
     0
 10
0.0
 20
0.0
 30
0.0
  3
$PAPER_SPACE
  1

  0
ENDBLK
  5
1D
 67
     1
  8
0
  0
BLOCK
  8
0
  2
SW_CENTERMARKSYMBOL_0
 70
     0
 10
0.0
 20
0.0
 30
0.0
  3
SW_CENTERMARKSYMBOL_0
  1

  0
LINE
  5
67
  8
0
  6
SLD-PLNÁ
 62
     0
 10
0.0
 20
0.0
 30
0.0
 11
0.0
 21
2.5
 31
0.0
  0
LINE
  5
68
  8
0
  6
SLD-PLNÁ
 62
     0
 10
0.0
 20
0.0
 30
0.0
 11
-2.5
 21
0.0
 31
0.0
  0
LINE
  5
69
  8
0
  6
SLD-PLNÁ
 62
     0
 10
0.0
 20
0.0
 30
0.0
 11
0.0
 21
-2.5
 31
0.0
  0
LINE
  5
6A
  8
0
  6
SLD-PLNÁ
 62
     0
 10
0.0
 20
0.0
 30
0.0
 11
2.5
 21
0.0
 31
0.0
  0
LINE
  5
6B
  8
0
  6
SLD-PLNÁ
 62
     0
 10
0.0
 20
5.0
 30
0.0
 11
0.0
 21
23.5
 31
0.0
  0
LINE
  5
6C
  8
0
  6
SLD-PLNÁ
 62
     0
 10
-5.0
 20
0.0
 30
0.0
 11
-23.5
 21
0.0
 31
0.0
  0
LINE
  5
6D
  8
0
  6
SLD-PLNÁ
 62
     0
 10
0.0
 20
-5.0
 30
0.0
 11
0.0
 21
-23.5
 31
0.0
  0
LINE
  5
6E
  8
0
  6
SLD-PLNÁ
 62
     0
 10
5.0
 20
0.0
 30
0.0
 11
23.5
 21
0.0
 31
0.0
  0
ENDBLK
  5
66
  8
0
  0
BLOCK
  8
0
  2
SW_CENTERMARKSYMBOL_1
 70
     0
 10
0.0
 20
0.0
 30
0.0
  3
SW_CENTERMARKSYMBOL_1
  1

  0
LINE
  5
73
  8
0
  6
SLD-PLNÁ
 62
     0
 10
0.0
 20
0.0
 30
0.0
 11
0.0
 21
2.5
 31
0.0
  0
LINE
  5
74
  8
0
  6
SLD-PLNÁ
 62
     0
 10
0.0
 20
0.0
 30
0.0
 11
-2.5
 21
0.0
 31
0.0
  0
LINE
  5
75
  8
0
  6
SLD-PLNÁ
 62
     0
 10
0.0
 20
0.0
 30
0.0
 11
0.0
 21
-2.5
 31
0.0
  0
LINE
  5
76
  8
0
  6
SLD-PLNÁ
 62
     0
 10
0.0
 20
0.0
 30
0.0
 11
2.5
 21
0.0
 31
0.0
  0
LINE
  5
77
  8
0
  6
SLD-PLNÁ
 62
     0
 10
0.0
 20
5.0
 30
0.0
 11
0.0
 21
6.5
 31
0.0
  0
LINE
  5
78
  8
0
  6
SLD-PLNÁ
 62
     0
 10
-5.0
 20
0.0
 30
0.0
 11
-6.5
 21
0.0
 31
0.0
  0
LINE
  5
79
  8
0
  6
SLD-PLNÁ
 62
     0
 10
0.0
 20
-5.0
 30
0.0
 11
0.0
 21
-6.5
 31
0.0
  0
LINE
  5
7A
  8
0
  6
SLD-PLNÁ
 62
     0
 10
5.0
 20
0.0
 30
0.0
 11
6.5
 21
0.0
 31
0.0
  0
ENDBLK
  5
72
  8
0
  0
BLOCK
  8
0
  2
SW_CENTERMARKSYMBOL_2
 70
     0
 10
0.0
 20
0.0
 30
0.0
  3
SW_CENTERMARKSYMBOL_2
  1

  0
LINE
  5
7F
  8
0
  6
SLD-PLNÁ
 62
     0
 10
0.0
 20
0.0
 30
0.0
 11
0.0
 21
2.5
 31
0.0
  0
LINE
  5
80
  8
0
  6
SLD-PLNÁ
 62
     0
 10
0.0
 20
0.0
 30
0.0
 11
-2.5
 21
0.0
 31
0.0
  0
LINE
  5
81
  8
0
  6
SLD-PLNÁ
 62
     0
 10
0.0
 20
0.0
 30
0.0
 11
0.0
 21
-2.5
 31
0.0
  0
LINE
  5
82
  8
0
  6
SLD-PLNÁ
 62
     0
 10
0.0
 20
0.0
 30
0.0
 11
2.5
 21
0.0
 31
0.0
  0
LINE
  5
83
  8
0
  6
SLD-PLNÁ
 62
     0
 10
0.0
 20
5.0
 30
0.0
 11
0.0
 21
5.7
 31
0.0
  0
LINE
  5
84
  8
0
  6
SLD-PLNÁ
 62
     0
 10
-5.0
 20
0.0
 30
0.0
 11
-5.7
 21
0.0
 31
0.0
  0
LINE
  5
85
  8
0
  6
SLD-PLNÁ
 62
     0
 10
0.0
 20
-5.0
 30
0.0
 11
0.0
 21
-5.7
 31
0.0
  0
LINE
  5
86
  8
0
  6
SLD-PLNÁ
 62
     0
 10
5.0
 20
0.0
 30
0.0
 11
5.7
 21
0.0
 31
0.0
  0
ENDBLK
  5
7E
  8
0
  0
BLOCK
  8
0
  2
SW_CENTERMARKSYMBOL_3
 70
     0
 10
0.0
 20
0.0
 30
0.0
  3
SW_CENTERMARKSYMBOL_3
  1

  0
LINE
  5
8B
  8
0
  6
SLD-PLNÁ
 62
     0
 10
0.0
 20
0.0
 30
0.0
 11
0.0
 21
2.5
 31
0.0
  0
LINE
  5
8C
  8
0
  6
SLD-PLNÁ
 62
     0
 10
0.0
 20
0.0
 30
0.0
 11
-2.5
 21
0.0
 31
0.0
  0
LINE
  5
8D
  8
0
  6
SLD-PLNÁ
 62
     0
 10
0.0
 20
0.0
 30
0.0
 11
0.0
 21
-2.5
 31
0.0
  0
LINE
  5
8E
  8
0
  6
SLD-PLNÁ
 62
     0
 10
0.0
 20
0.0
 30
0.0
 11
2.5
 21
0.0
 31
0.0
  0
LINE
  5
8F
  8
0
  6
SLD-PLNÁ
 62
     0
 10
0.0
 20
5.0
 30
0.0
 11
0.0
 21
5.7
 31
0.0
  0
LINE
  5
90
  8
0
  6
SLD-PLNÁ
 62
     0
 10
-5.0
 20
0.0
 30
0.0
 11
-5.7
 21
0.0
 31
0.0
  0
LINE
  5
91
  8
0
  6
SLD-PLNÁ
 62
     0
 10
0.0
 20
-5.0
 30
0.0
 11
0.0
 21
-5.7
 31
0.0
  0
LINE
  5
92
  8
0
  6
SLD-PLNÁ
 62
     0
 10
5.0
 20
0.0
 30
0.0
 11
5.7
 21
0.0
 31
0.0
  0
ENDBLK
  5
8A
  8
0
  0
BLOCK
  8
0
  2
SW_CENTERMARKSYMBOL_4
 70
     0
 10
0.0
 20
0.0
 30
0.0
  3
SW_CENTERMARKSYMBOL_4
  1

  0
LINE
  5
97
  8
0
  6
SLD-PLNÁ
 62
     0
 10
0.0
 20
0.0
 30
0.0
 11
0.0
 21
2.5
 31
0.0
  0
LINE
  5
98
  8
0
  6
SLD-PLNÁ
 62
     0
 10
0.0
 20
0.0
 30
0.0
 11
-2.5
 21
0.0
 31
0.0
  0
LINE
  5
99
  8
0
  6
SLD-PLNÁ
 62
     0
 10
0.0
 20
0.0
 30
0.0
 11
0.0
 21
-2.5
 31
0.0
  0
LINE
  5
9A
  8
0
  6
SLD-PLNÁ
 62
     0
 10
0.0
 20
0.0
 30
0.0
 11
2.5
 21
0.0
 31
0.0
  0
LINE
  5
9B
  8
0
  6
SLD-PLNÁ
 62
     0
 10
0.0
 20
5.0
 30
0.0
 11
0.0
 21
5.7
 31
0.0
  0
LINE
  5
9C
  8
0
  6
SLD-PLNÁ
 62
     0
 10
-5.0
 20
0.0
 30
0.0
 11
-5.7
 21
0.0
 31
0.0
  0
LINE
  5
9D
  8
0
  6
SLD-PLNÁ
 62
     0
 10
0.0
 20
-5.0
 30
0.0
 11
0.0
 21
-5.7
 31
0.0
  0
LINE
  5
9E
  8
0
  6
SLD-PLNÁ
 62
     0
 10
5.0
 20
0.0
 30
0.0
 11
5.7
 21
0.0
 31
0.0
  0
ENDBLK
  5
96
  8
0
  0
BLOCK
  8
0
  2
SW_CENTERMARKSYMBOL_5
 70
     0
 10
0.0
 20
0.0
 30
0.0
  3
SW_CENTERMARKSYMBOL_5
  1

  0
LINE
  5
A3
  8
0
  6
SLD-PLNÁ
 62
     0
 10
0.0
 20
0.0
 30
0.0
 11
0.0
 21
2.5
 31
0.0
  0
LINE
  5
A4
  8
0
  6
SLD-PLNÁ
 62
     0
 10
0.0
 20
0.0
 30
0.0
 11
-2.5
 21
0.0
 31
0.0
  0
LINE
  5
A5
  8
0
  6
SLD-PLNÁ
 62
     0
 10
0.0
 20
0.0
 30
0.0
 11
0.0
 21
-2.5
 31
0.0
  0
LINE
  5
A6
  8
0
  6
SLD-PLNÁ
 62
     0
 10
0.0
 20
0.0
 30
0.0
 11
2.5
 21
0.0
 31
0.0
  0
LINE
  5
A7
  8
0
  6
SLD-PLNÁ
 62
     0
 10
0.0
 20
5.0
 30
0.0
 11
0.0
 21
5.7
 31
0.0
  0
LINE
  5
A8
  8
0
  6
SLD-PLNÁ
 62
     0
 10
-5.0
 20
0.0
 30
0.0
 11
-5.7
 21
0.0
 31
0.0
  0
LINE
  5
A9
  8
0
  6
SLD-PLNÁ
 62
     0
 10
0.0
 20
-5.0
 30
0.0
 11
0.0
 21
-5.7
 31
0.0
  0
LINE
  5
AA
  8
0
  6
SLD-PLNÁ
 62
     0
 10
5.0
 20
0.0
 30
0.0
 11
5.7
 21
0.0
 31
0.0
  0
ENDBLK
  5
A2
  8
0
  0
BLOCK
  8
0
  2
SW_CENTERMARKSYMBOL_6
 70
     0
 10
0.0
 20
0.0
 30
0.0
  3
SW_CENTERMARKSYMBOL_6
  1

  0
LINE
  5
AF
  8
0
  6
SLD-PLNÁ
 62
     0
 10
0.0
 20
0.0
 30
0.0
 11
0.0
 21
2.5
 31
0.0
  0
LINE
  5
B0
  8
0
  6
SLD-PLNÁ
 62
     0
 10
0.0
 20
0.0
 30
0.0
 11
-2.5
 21
0.0
 31
0.0
  0
LINE
  5
B1
  8
0
  6
SLD-PLNÁ
 62
     0
 10
0.0
 20
0.0
 30
0.0
 11
0.0
 21
-2.5
 31
0.0
  0
LINE
  5
B2
  8
0
  6
SLD-PLNÁ
 62
     0
 10
0.0
 20
0.0
 30
0.0
 11
2.5
 21
0.0
 31
0.0
  0
LINE
  5
B3
  8
0
  6
SLD-PLNÁ
 62
     0
 10
0.0
 20
5.0
 30
0.0
 11
0.0
 21
5.7
 31
0.0
  0
LINE
  5
B4
  8
0
  6
SLD-PLNÁ
 62
     0
 10
-5.0
 20
0.0
 30
0.0
 11
-5.7
 21
0.0
 31
0.0
  0
LINE
  5
B5
  8
0
  6
SLD-PLNÁ
 62
     0
 10
0.0
 20
-5.0
 30
0.0
 11
0.0
 21
-5.7
 31
0.0
  0
LINE
  5
B6
  8
0
  6
SLD-PLNÁ
 62
     0
 10
5.0
 20
0.0
 30
0.0
 11
5.7
 21
0.0
 31
0.0
  0
ENDBLK
  5
AE
  8
0
  0
BLOCK
  8
0
  2
SW_CENTERMARKSYMBOL_7
 70
     0
 10
0.0
 20
0.0
 30
0.0
  3
SW_CENTERMARKSYMBOL_7
  1

  0
LINE
  5
BB
  8
0
  6
SLD-PLNÁ
 62
     0
 10
0.0
 20
0.0
 30
0.0
 11
0.0
 21
2.5
 31
0.0
  0
LINE
  5
BC
  8
0
  6
SLD-PLNÁ
 62
     0
 10
0.0
 20
0.0
 30
0.0
 11
-2.5
 21
0.0
 31
0.0
  0
LINE
  5
BD
  8
0
  6
SLD-PLNÁ
 62
     0
 10
0.0
 20
0.0
 30
0.0
 11
0.0
 21
-2.5
 31
0.0
  0
LINE
  5
BE
  8
0
  6
SLD-PLNÁ
 62
     0
 10
0.0
 20
0.0
 30
0.0
 11
2.5
 21
0.0
 31
0.0
  0
LINE
  5
BF
  8
0
  6
SLD-PLNÁ
 62
     0
 10
0.0
 20
5.0
 30
0.0
 11
0.0
 21
5.7
 31
0.0
  0
LINE
  5
C0
  8
0
  6
SLD-PLNÁ
 62
     0
 10
-5.0
 20
0.0
 30
0.0
 11
-5.7
 21
0.0
 31
0.0
  0
LINE
  5
C1
  8
0
  6
SLD-PLNÁ
 62
     0
 10
0.0
 20
-5.0
 30
0.0
 11
0.0
 21
-5.7
 31
0.0
  0
LINE
  5
C2
  8
0
  6
SLD-PLNÁ
 62
     0
 10
5.0
 20
0.0
 30
0.0
 11
5.7
 21
0.0
 31
0.0
  0
ENDBLK
  5
BA
  8
0
  0
BLOCK
  8
0
  2
SW_CENTERMARKSYMBOL_8
 70
     0
 10
0.0
 20
0.0
 30
0.0
  3
SW_CENTERMARKSYMBOL_8
  1

  0
LINE
  5
C7
  8
0
  6
SLD-PLNÁ
 62
     0
 10
0.0
 20
0.0
 30
0.0
 11
0.0
 21
2.5
 31
0.0
  0
LINE
  5
C8
  8
0
  6
SLD-PLNÁ
 62
     0
 10
0.0
 20
0.0
 30
0.0
 11
-2.5
 21
0.0
 31
0.0
  0
LINE
  5
C9
  8
0
  6
SLD-PLNÁ
 62
     0
 10
0.0
 20
0.0
 30
0.0
 11
0.0
 21
-2.5
 31
0.0
  0
LINE
  5
CA
  8
0
  6
SLD-PLNÁ
 62
     0
 10
0.0
 20
0.0
 30
0.0
 11
2.5
 21
0.0
 31
0.0
  0
LINE
  5
CB
  8
0
  6
SLD-PLNÁ
 62
     0
 10
0.0
 20
5.0
 30
0.0
 11
0.0
 21
5.7
 31
0.0
  0
LINE
  5
CC
  8
0
  6
SLD-PLNÁ
 62
     0
 10
-5.0
 20
0.0
 30
0.0
 11
-5.7
 21
0.0
 31
0.0
  0
LINE
  5
CD
  8
0
  6
SLD-PLNÁ
 62
     0
 10
0.0
 20
-5.0
 30
0.0
 11
0.0
 21
-5.7
 31
0.0
  0
LINE
  5
CE
  8
0
  6
SLD-PLNÁ
 62
     0
 10
5.0
 20
0.0
 30
0.0
 11
5.7
 21
0.0
 31
0.0
  0
ENDBLK
  5
C6
  8
0
  0
BLOCK
  8
0
  2
SW_CENTERMARKSYMBOL_9
 70
     0
 10
0.0
 20
0.0
 30
0.0
  3
SW_CENTERMARKSYMBOL_9
  1

  0
LINE
  5
D3
  8
0
  6
SLD-PLNÁ
 62
     0
 10
0.0
 20
0.0
 30
0.0
 11
0.0
 21
2.5
 31
0.0
  0
LINE
  5
D4
  8
0
  6
SLD-PLNÁ
 62
     0
 10
0.0
 20
0.0
 30
0.0
 11
-2.5
 21
0.0
 31
0.0
  0
LINE
  5
D5
  8
0
  6
SLD-PLNÁ
 62
     0
 10
0.0
 20
0.0
 30
0.0
 11
0.0
 21
-2.5
 31
0.0
  0
LINE
  5
D6
  8
0
  6
SLD-PLNÁ
 62
     0
 10
0.0
 20
0.0
 30
0.0
 11
2.5
 21
0.0
 31
0.0
  0
LINE
  5
D7
  8
0
  6
SLD-PLNÁ
 62
     0
 10
0.0
 20
5.0
 30
0.0
 11
0.0
 21
5.7
 31
0.0
  0
LINE
  5
D8
  8
0
  6
SLD-PLNÁ
 62
     0
 10
-5.0
 20
0.0
 30
0.0
 11
-5.7
 21
0.0
 31
0.0
  0
LINE
  5
D9
  8
0
  6
SLD-PLNÁ
 62
     0
 10
0.0
 20
-5.0
 30
0.0
 11
0.0
 21
-5.7
 31
0.0
  0
LINE
  5
DA
  8
0
  6
SLD-PLNÁ
 62
     0
 10
5.0
 20
0.0
 30
0.0
 11
5.7
 21
0.0
 31
0.0
  0
ENDBLK
  5
D2
  8
0
  0
BLOCK
  8
0
  2
SW_CENTERMARKSYMBOL_10
 70
     0
 10
0.0
 20
0.0
 30
0.0
  3
SW_CENTERMARKSYMBOL_10
  1

  0
LINE
  5
ED
  8
0
  6
SLD-PLNÁ
 62
     0
 10
0.0
 20
0.0
 30
0.0
 11
0.0
 21
2.5
 31
0.0
  0
LINE
  5
EE
  8
0
  6
SLD-PLNÁ
 62
     0
 10
0.0
 20
0.0
 30
0.0
 11
-2.5
 21
0.0
 31
0.0
  0
LINE
  5
EF
  8
0
  6
SLD-PLNÁ
 62
     0
 10
0.0
 20
0.0
 30
0.0
 11
0.0
 21
-2.5
 31
0.0
  0
LINE
  5
F0
  8
0
  6
SLD-PLNÁ
 62
     0
 10
0.0
 20
0.0
 30
0.0
 11
2.5
 21
0.0
 31
0.0
  0
LINE
  5
F1
  8
0
  6
SLD-PLNÁ
 62
     0
 10
0.0
 20
5.0
 30
0.0
 11
0.0
 21
23.5
 31
0.0
  0
LINE
  5
F2
  8
0
  6
SLD-PLNÁ
 62
     0
 10
-5.0
 20
0.0
 30
0.0
 11
-23.5
 21
0.0
 31
0.0
  0
LINE
  5
F3
  8
0
  6
SLD-PLNÁ
 62
     0
 10
0.0
 20
-5.0
 30
0.0
 11
0.0
 21
-23.5
 31
0.0
  0
LINE
  5
F4
  8
0
  6
SLD-PLNÁ
 62
     0
 10
5.0
 20
0.0
 30
0.0
 11
23.5
 21
0.0
 31
0.0
  0
ENDBLK
  5
EC
  8
0
  0
BLOCK
  8
0
  2
SW_CENTERMARKSYMBOL_11
 70
     0
 10
0.0
 20
0.0
 30
0.0
  3
SW_CENTERMARKSYMBOL_11
  1

  0
LINE
  5
F9
  8
0
  6
SLD-PLNÁ
 62
     0
 10
0.0
 20
0.0
 30
0.0
 11
0.0
 21
2.5
 31
0.0
  0
LINE
  5
FA
  8
0
  6
SLD-PLNÁ
 62
     0
 10
0.0
 20
0.0
 30
0.0
 11
-2.5
 21
0.0
 31
0.0
  0
LINE
  5
FB
  8
0
  6
SLD-PLNÁ
 62
     0
 10
0.0
 20
0.0
 30
0.0
 11
0.0
 21
-2.5
 31
0.0
  0
LINE
  5
FC
  8
0
  6
SLD-PLNÁ
 62
     0
 10
0.0
 20
0.0
 30
0.0
 11
2.5
 21
0.0
 31
0.0
  0
LINE
  5
FD
  8
0
  6
SLD-PLNÁ
 62
     0
 10
0.0
 20
5.0
 30
0.0
 11
0.0
 21
6.5
 31
0.0
  0
LINE
  5
FE
  8
0
  6
SLD-PLNÁ
 62
     0
 10
-5.0
 20
0.0
 30
0.0
 11
-6.5
 21
0.0
 31
0.0
  0
LINE
  5
FF
  8
0
  6
SLD-PLNÁ
 62
     0
 10
0.0
 20
-5.0
 30
0.0
 11
0.0
 21
-6.5
 31
0.0
  0
LINE
  5
100
  8
0
  6
SLD-PLNÁ
 62
     0
 10
5.0
 20
0.0
 30
0.0
 11
6.5
 21
0.0
 31
0.0
  0
ENDBLK
  5
F8
  8
0
  0
BLOCK
  8
0
  2
SW_CENTERMARKSYMBOL_12
 70
     0
 10
0.0
 20
0.0
 30
0.0
  3
SW_CENTERMARKSYMBOL_12
  1

  0
LINE
  5
105
  8
0
  6
SLD-PLNÁ
 62
     0
 10
0.0
 20
0.0
 30
0.0
 11
0.0
 21
2.5
 31
0.0
  0
LINE
  5
106
  8
0
  6
SLD-PLNÁ
 62
     0
 10
0.0
 20
0.0
 30
0.0
 11
-2.5
 21
0.0
 31
0.0
  0
LINE
  5
107
  8
0
  6
SLD-PLNÁ
 62
     0
 10
0.0
 20
0.0
 30
0.0
 11
0.0
 21
-2.5
 31
0.0
  0
LINE
  5
108
  8
0
  6
SLD-PLNÁ
 62
     0
 10
0.0
 20
0.0
 30
0.0
 11
2.5
 21
0.0
 31
0.0
  0
LINE
  5
109
  8
0
  6
SLD-PLNÁ
 62
     0
 10
0.0
 20
5.0
 30
0.0
 11
0.0
 21
5.7
 31
0.0
  0
LINE
  5
10A
  8
0
  6
SLD-PLNÁ
 62
     0
 10
-5.0
 20
0.0
 30
0.0
 11
-5.7
 21
0.0
 31
0.0
  0
LINE
  5
10B
  8
0
  6
SLD-PLNÁ
 62
     0
 10
0.0
 20
-5.0
 30
0.0
 11
0.0
 21
-5.7
 31
0.0
  0
LINE
  5
10C
  8
0
  6
SLD-PLNÁ
 62
     0
 10
5.0
 20
0.0
 30
0.0
 11
5.7
 21
0.0
 31
0.0
  0
ENDBLK
  5
104
  8
0
  0
BLOCK
  8
0
  2
SW_CENTERMARKSYMBOL_13
 70
     0
 10
0.0
 20
0.0
 30
0.0
  3
SW_CENTERMARKSYMBOL_13
  1

  0
LINE
  5
111
  8
0
  6
SLD-PLNÁ
 62
     0
 10
0.0
 20
0.0
 30
0.0
 11
0.0
 21
2.5
 31
0.0
  0
LINE
  5
112
  8
0
  6
SLD-PLNÁ
 62
     0
 10
0.0
 20
0.0
 30
0.0
 11
-2.5
 21
0.0
 31
0.0
  0
LINE
  5
113
  8
0
  6
SLD-PLNÁ
 62
     0
 10
0.0
 20
0.0
 30
0.0
 11
0.0
 21
-2.5
 31
0.0
  0
LINE
  5
114
  8
0
  6
SLD-PLNÁ
 62
     0
 10
0.0
 20
0.0
 30
0.0
 11
2.5
 21
0.0
 31
0.0
  0
LINE
  5
115
  8
0
  6
SLD-PLNÁ
 62
     0
 10
0.0
 20
5.0
 30
0.0
 11
0.0
 21
5.7
 31
0.0
  0
LINE
  5
116
  8
0
  6
SLD-PLNÁ
 62
     0
 10
-5.0
 20
0.0
 30
0.0
 11
-5.7
 21
0.0
 31
0.0
  0
LINE
  5
117
  8
0
  6
SLD-PLNÁ
 62
     0
 10
0.0
 20
-5.0
 30
0.0
 11
0.0
 21
-5.7
 31
0.0
  0
LINE
  5
118
  8
0
  6
SLD-PLNÁ
 62
     0
 10
5.0
 20
0.0
 30
0.0
 11
5.7
 21
0.0
 31
0.0
  0
ENDBLK
  5
110
  8
0
  0
BLOCK
  8
0
  2
SW_CENTERMARKSYMBOL_14
 70
     0
 10
0.0
 20
0.0
 30
0.0
  3
SW_CENTERMARKSYMBOL_14
  1

  0
LINE
  5
11D
  8
0
  6
SLD-PLNÁ
 62
     0
 10
0.0
 20
0.0
 30
0.0
 11
0.0
 21
2.5
 31
0.0
  0
LINE
  5
11E
  8
0
  6
SLD-PLNÁ
 62
     0
 10
0.0
 20
0.0
 30
0.0
 11
-2.5
 21
0.0
 31
0.0
  0
LINE
  5
11F
  8
0
  6
SLD-PLNÁ
 62
     0
 10
0.0
 20
0.0
 30
0.0
 11
0.0
 21
-2.5
 31
0.0
  0
LINE
  5
120
  8
0
  6
SLD-PLNÁ
 62
     0
 10
0.0
 20
0.0
 30
0.0
 11
2.5
 21
0.0
 31
0.0
  0
LINE
  5
121
  8
0
  6
SLD-PLNÁ
 62
     0
 10
0.0
 20
5.0
 30
0.0
 11
0.0
 21
5.7
 31
0.0
  0
LINE
  5
122
  8
0
  6
SLD-PLNÁ
 62
     0
 10
-5.0
 20
0.0
 30
0.0
 11
-5.7
 21
0.0
 31
0.0
  0
LINE
  5
123
  8
0
  6
SLD-PLNÁ
 62
     0
 10
0.0
 20
-5.0
 30
0.0
 11
0.0
 21
-5.7
 31
0.0
  0
LINE
  5
124
  8
0
  6
SLD-PLNÁ
 62
     0
 10
5.0
 20
0.0
 30
0.0
 11
5.7
 21
0.0
 31
0.0
  0
ENDBLK
  5
11C
  8
0
  0
BLOCK
  8
0
  2
SW_CENTERMARKSYMBOL_15
 70
     0
 10
0.0
 20
0.0
 30
0.0
  3
SW_CENTERMARKSYMBOL_15
  1

  0
LINE
  5
129
  8
0
  6
SLD-PLNÁ
 62
     0
 10
0.0
 20
0.0
 30
0.0
 11
0.0
 21
2.5
 31
0.0
  0
LINE
  5
12A
  8
0
  6
SLD-PLNÁ
 62
     0
 10
0.0
 20
0.0
 30
0.0
 11
-2.5
 21
0.0
 31
0.0
  0
LINE
  5
12B
  8
0
  6
SLD-PLNÁ
 62
     0
 10
0.0
 20
0.0
 30
0.0
 11
0.0
 21
-2.5
 31
0.0
  0
LINE
  5
12C
  8
0
  6
SLD-PLNÁ
 62
     0
 10
0.0
 20
0.0
 30
0.0
 11
2.5
 21
0.0
 31
0.0
  0
LINE
  5
12D
  8
0
  6
SLD-PLNÁ
 62
     0
 10
0.0
 20
5.0
 30
0.0
 11
0.0
 21
5.7
 31
0.0
  0
LINE
  5
12E
  8
0
  6
SLD-PLNÁ
 62
     0
 10
-5.0
 20
0.0
 30
0.0
 11
-5.7
 21
0.0
 31
0.0
  0
LINE
  5
12F
  8
0
  6
SLD-PLNÁ
 62
     0
 10
0.0
 20
-5.0
 30
0.0
 11
0.0
 21
-5.7
 31
0.0
  0
LINE
  5
130
  8
0
  6
SLD-PLNÁ
 62
     0
 10
5.0
 20
0.0
 30
0.0
 11
5.7
 21
0.0
 31
0.0
  0
ENDBLK
  5
128
  8
0
  0
BLOCK
  8
0
  2
SW_CENTERMARKSYMBOL_16
 70
     0
 10
0.0
 20
0.0
 30
0.0
  3
SW_CENTERMARKSYMBOL_16
  1

  0
LINE
  5
135
  8
0
  6
SLD-PLNÁ
 62
     0
 10
0.0
 20
0.0
 30
0.0
 11
0.0
 21
2.5
 31
0.0
  0
LINE
  5
136
  8
0
  6
SLD-PLNÁ
 62
     0
 10
0.0
 20
0.0
 30
0.0
 11
-2.5
 21
0.0
 31
0.0
  0
LINE
  5
137
  8
0
  6
SLD-PLNÁ
 62
     0
 10
0.0
 20
0.0
 30
0.0
 11
0.0
 21
-2.5
 31
0.0
  0
LINE
  5
138
  8
0
  6
SLD-PLNÁ
 62
     0
 10
0.0
 20
0.0
 30
0.0
 11
2.5
 21
0.0
 31
0.0
  0
LINE
  5
139
  8
0
  6
SLD-PLNÁ
 62
     0
 10
0.0
 20
5.0
 30
0.0
 11
0.0
 21
5.7
 31
0.0
  0
LINE
  5
13A
  8
0
  6
SLD-PLNÁ
 62
     0
 10
-5.0
 20
0.0
 30
0.0
 11
-5.7
 21
0.0
 31
0.0
  0
LINE
  5
13B
  8
0
  6
SLD-PLNÁ
 62
     0
 10
0.0
 20
-5.0
 30
0.0
 11
0.0
 21
-5.7
 31
0.0
  0
LINE
  5
13C
  8
0
  6
SLD-PLNÁ
 62
     0
 10
5.0
 20
0.0
 30
0.0
 11
5.7
 21
0.0
 31
0.0
  0
ENDBLK
  5
134
  8
0
  0
BLOCK
  8
0
  2
SW_CENTERMARKSYMBOL_17
 70
     0
 10
0.0
 20
0.0
 30
0.0
  3
SW_CENTERMARKSYMBOL_17
  1

  0
LINE
  5
141
  8
0
  6
SLD-PLNÁ
 62
     0
 10
0.0
 20
0.0
 30
0.0
 11
0.0
 21
2.5
 31
0.0
  0
LINE
  5
142
  8
0
  6
SLD-PLNÁ
 62
     0
 10
0.0
 20
0.0
 30
0.0
 11
-2.5
 21
0.0
 31
0.0
  0
LINE
  5
143
  8
0
  6
SLD-PLNÁ
 62
     0
 10
0.0
 20
0.0
 30
0.0
 11
0.0
 21
-2.5
 31
0.0
  0
LINE
  5
144
  8
0
  6
SLD-PLNÁ
 62
     0
 10
0.0
 20
0.0
 30
0.0
 11
2.5
 21
0.0
 31
0.0
  0
LINE
  5
145
  8
0
  6
SLD-PLNÁ
 62
     0
 10
0.0
 20
5.0
 30
0.0
 11
0.0
 21
5.7
 31
0.0
  0
LINE
  5
146
  8
0
  6
SLD-PLNÁ
 62
     0
 10
-5.0
 20
0.0
 30
0.0
 11
-5.7
 21
0.0
 31
0.0
  0
LINE
  5
147
  8
0
  6
SLD-PLNÁ
 62
     0
 10
0.0
 20
-5.0
 30
0.0
 11
0.0
 21
-5.7
 31
0.0
  0
LINE
  5
148
  8
0
  6
SLD-PLNÁ
 62
     0
 10
5.0
 20
0.0
 30
0.0
 11
5.7
 21
0.0
 31
0.0
  0
ENDBLK
  5
140
  8
0
  0
BLOCK
  8
0
  2
SW_CENTERMARKSYMBOL_18
 70
     0
 10
0.0
 20
0.0
 30
0.0
  3
SW_CENTERMARKSYMBOL_18
  1

  0
LINE
  5
14D
  8
0
  6
SLD-PLNÁ
 62
     0
 10
0.0
 20
0.0
 30
0.0
 11
0.0
 21
2.5
 31
0.0
  0
LINE
  5
14E
  8
0
  6
SLD-PLNÁ
 62
     0
 10
0.0
 20
0.0
 30
0.0
 11
-2.5
 21
0.0
 31
0.0
  0
LINE
  5
14F
  8
0
  6
SLD-PLNÁ
 62
     0
 10
0.0
 20
0.0
 30
0.0
 11
0.0
 21
-2.5
 31
0.0
  0
LINE
  5
150
  8
0
  6
SLD-PLNÁ
 62
     0
 10
0.0
 20
0.0
 30
0.0
 11
2.5
 21
0.0
 31
0.0
  0
LINE
  5
151
  8
0
  6
SLD-PLNÁ
 62
     0
 10
0.0
 20
5.0
 30
0.0
 11
0.0
 21
5.7
 31
0.0
  0
LINE
  5
152
  8
0
  6
SLD-PLNÁ
 62
     0
 10
-5.0
 20
0.0
 30
0.0
 11
-5.7
 21
0.0
 31
0.0
  0
LINE
  5
153
  8
0
  6
SLD-PLNÁ
 62
     0
 10
0.0
 20
-5.0
 30
0.0
 11
0.0
 21
-5.7
 31
0.0
  0
LINE
  5
154
  8
0
  6
SLD-PLNÁ
 62
     0
 10
5.0
 20
0.0
 30
0.0
 11
5.7
 21
0.0
 31
0.0
  0
ENDBLK
  5
14C
  8
0
  0
BLOCK
  8
0
  2
SW_CENTERMARKSYMBOL_19
 70
     0
 10
0.0
 20
0.0
 30
0.0
  3
SW_CENTERMARKSYMBOL_19
  1

  0
LINE
  5
159
  8
0
  6
SLD-PLNÁ
 62
     0
 10
0.0
 20
0.0
 30
0.0
 11
0.0
 21
2.5
 31
0.0
  0
LINE
  5
15A
  8
0
  6
SLD-PLNÁ
 62
     0
 10
0.0
 20
0.0
 30
0.0
 11
-2.5
 21
0.0
 31
0.0
  0
LINE
  5
15B
  8
0
  6
SLD-PLNÁ
 62
     0
 10
0.0
 20
0.0
 30
0.0
 11
0.0
 21
-2.5
 31
0.0
  0
LINE
  5
15C
  8
0
  6
SLD-PLNÁ
 62
     0
 10
0.0
 20
0.0
 30
0.0
 11
2.5
 21
0.0
 31
0.0
  0
LINE
  5
15D
  8
0
  6
SLD-PLNÁ
 62
     0
 10
0.0
 20
5.0
 30
0.0
 11
0.0
 21
5.7
 31
0.0
  0
LINE
  5
15E
  8
0
  6
SLD-PLNÁ
 62
     0
 10
-5.0
 20
0.0
 30
0.0
 11
-5.7
 21
0.0
 31
0.0
  0
LINE
  5
15F
  8
0
  6
SLD-PLNÁ
 62
     0
 10
0.0
 20
-5.0
 30
0.0
 11
0.0
 21
-5.7
 31
0.0
  0
LINE
  5
160
  8
0
  6
SLD-PLNÁ
 62
     0
 10
5.0
 20
0.0
 30
0.0
 11
5.7
 21
0.0
 31
0.0
  0
ENDBLK
  5
158
  8
0
  0
ENDSEC
  0
SECTION
  2
ENTITIES
  0
CIRCLE
  5
56
  8
VIDITELNE
  6
SLD-PLNÁ
 62
     2
 10
-12.908116908
 20
19.091883092
 30
0.0
 40
3.200000000000005
  0
CIRCLE
  5
57
  8
VIDITELNE
  6
SLD-PLNÁ
 62
     2
 10
-51.091883092
 20
19.091883092
 30
0.0
 40
3.200000000000003
  0
CIRCLE
  5
58
  8
VIDITELNE
  6
SLD-PLNÁ
 62
     2
 10
-51.091883092
 20
-19.091883092
 30
0.0
 40
3.20000000000001
  0
CIRCLE
  5
59
  8
VIDITELNE
  6
SLD-PLNÁ
 62
     2
 10
-12.908116908
 20
-19.091883092
 30
0.0
 40
3.200000000000005
  0
CIRCLE
  5
5A
  8
VIDITELNE
  6
SLD-PLNÁ
 62
     2
 10
-5.0
 20
0.0
 30
0.0
 40
3.200000000000005
  0
LINE
  5
5B
  8
VIDITELNE
  6
SLD-PLNÁ
 62
     2
 10
51.6
 20
17.636326148
 30
0.0
 11
-25.2
 21
33.3130605019
 31
0.0
  0
ARC
  5
5C
  8
VIDITELNE
  6
SLD-PLNÁ
 62
     2
 10
48.0
 20
0.0
 30
0.0
 40
18.00000000000003
 50
281.5369590328
 51
78.4630409672
  0
LINE
  5
5D
  8
VIDITELNE
  6
SLD-PLNÁ
 62
     2
 10
-25.2
 20
-33.3130605019
 30
0.0
 11
51.6
 21
-17.636326148
 31
0.0
  0
ARC
  5
5E
  8
VIDITELNE
  6
SLD-PLNÁ
 62
     2
 10
-32.0
 20
0.0
 30
0.0
 40
34.00000000000006
 50
78.4630409672
 51
281.5369590328
  0
CIRCLE
  5
5F
  8
VIDITELNE
  6
SLD-PLNÁ
 62
     2
 10
-32.0
 20
0.0
 30
0.0
 40
21.0
  0
CIRCLE
  5
60
  8
VIDITELNE
  6
SLD-PLNÁ
 62
     2
 10
48.0
 20
0.0
 30
0.0
 40
4.000000000000007
  0
CIRCLE
  5
61
  8
VIDITELNE
  6
SLD-PLNÁ
 62
     2
 10
-32.0
 20
-27.0
 30
0.0
 40
3.199999999999996
  0
CIRCLE
  5
62
  8
VIDITELNE
  6
SLD-PLNÁ
 62
     2
 10
-59.0
 20
0.0
 30
0.0
 40
3.20000000000001
  0
CIRCLE
  5
63
  8
VIDITELNE
  6
SLD-PLNÁ
 62
     2
 10
-32.0
 20
27.0
 30
0.0
 40
3.200000000000003
  0
INSERT
  5
6F
  8
0
  6
SLD-PLNÁ
 62
     7
  2
SW_CENTERMARKSYMBOL_0
 10
-32.0
 20
0.0
 30
0.0
  0
INSERT
  5
7B
  8
0
  6
SLD-PLNÁ
 62
     7
  2
SW_CENTERMARKSYMBOL_1
 10
48.0
 20
0.0
 30
0.0
  0
INSERT
  5
87
  8
0
  6
SLD-PLNÁ
 62
     7
  2
SW_CENTERMARKSYMBOL_2
 10
-5.0
 20
0.0
 30
0.0
  0
INSERT
  5
93
  8
0
  6
SLD-PLNÁ
 62
     7
  2
SW_CENTERMARKSYMBOL_3
 10
-12.908116908
 20
-19.091883092
 30
0.0
  0
INSERT
  5
9F
  8
0
  6
SLD-PLNÁ
 62
     7
  2
SW_CENTERMARKSYMBOL_4
 10
-32.0
 20
-27.0
 30
0.0
  0
INSERT
  5
AB
  8
0
  6
SLD-PLNÁ
 62
     7
  2
SW_CENTERMARKSYMBOL_5
 10
-51.091883092
 20
-19.091883092
 30
0.0
  0
INSERT
  5
B7
  8
0
  6
SLD-PLNÁ
 62
     7
  2
SW_CENTERMARKSYMBOL_6
 10
-59.0
 20
0.0
 30
0.0
  0
INSERT
  5
C3
  8
0
  6
SLD-PLNÁ
 62
     7
  2
SW_CENTERMARKSYMBOL_7
 10
-51.091883092
 20
19.091883092
 30
0.0
  0
INSERT
  5
CF
  8
0
  6
SLD-PLNÁ
 62
     7
  2
SW_CENTERMARKSYMBOL_8
 10
-32.0
 20
27.0
 30
0.0
  0
INSERT
  5
DB
  8
0
  6
SLD-PLNÁ
 62
     7
  2
SW_CENTERMARKSYMBOL_9
 10
-12.908116908
 20
19.091883092
 30
0.0
  0
CIRCLE
  5
DC
  8
VIDITELNE
  6
SLD-PLNÁ
 62
     2
 10
712.908116908
 20
19.091883092
 30
0.0
 40
3.199999999999932
  0
CIRCLE
  5
DD
  8
VIDITELNE
  6
SLD-PLNÁ
 62
     2
 10
751.091883092
 20
19.091883092
 30
0.0
 40
3.200000000000159
  0
CIRCLE
  5
DE
  8
VIDITELNE
  6
SLD-PLNÁ
 62
     2
 10
751.091883092
 20
-19.091883092
 30
0.0
 40
3.200000000000159
  0
CIRCLE
  5
DF
  8
VIDITELNE
  6
SLD-PLNÁ
 62
     2
 10
712.908116908
 20
-19.091883092
 30
0.0
 40
3.199999999999932
  0
CIRCLE
  5
E0
  8
VIDITELNE
  6
SLD-PLNÁ
 62
     2
 10
705.0
 20
0.0
 30
0.0
 40
3.200000000000045
  0
LINE
  5
E1
  8
VIDITELNE
  6
SLD-PLNÁ
 62
     2
 10
725.2
 20
-33.3130605019
 30
0.0
 11
648.4
 21
-17.636326148
 31
0.0
  0
ARC
  5
E2
  8
VIDITELNE
  6
SLD-PLNÁ
 62
     2
 10
652.0
 20
0.0
 30
0.0
 40
18.00000000000003
 50
101.5369590328
 51
258.4630409672
  0
LINE
  5
E3
  8
VIDITELNE
  6
SLD-PLNÁ
 62
     2
 10
648.4
 20
17.636326148
 30
0.0
 11
725.2
 21
33.3130605019
 31
0.0
  0
ARC
  5
E4
  8
VIDITELNE
  6
SLD-PLNÁ
 62
     2
 10
732.0
 20
0.0
 30
0.0
 40
34.00000000000006
 50
258.4630409672
 51
101.5369590328
  0
CIRCLE
  5
E5
  8
VIDITELNE
  6
SLD-PLNÁ
 62
     2
 10
732.0
 20
0.0
 30
0.0
 40
21.0
  0
CIRCLE
  5
E6
  8
VIDITELNE
  6
SLD-PLNÁ
 62
     2
 10
732.0
 20
-27.0
 30
0.0
 40
3.200000000000045
  0
CIRCLE
  5
E7
  8
VIDITELNE
  6
SLD-PLNÁ
 62
     2
 10
759.0
 20
0.0
 30
0.0
 40
3.199999999999932
  0
CIRCLE
  5
E8
  8
VIDITELNE
  6
SLD-PLNÁ
 62
     2
 10
732.0
 20
27.0
 30
0.0
 40
3.200000000000045
  0
CIRCLE
  5
E9
  8
VIDITELNE
  6
SLD-PLNÁ
 62
     2
 10
652.0
 20
0.0
 30
0.0
 40
4.0
  0
INSERT
  5
F5
  8
0
  6
SLD-PLNÁ
 62
     7
  2
SW_CENTERMARKSYMBOL_10
 10
732.0
 20
0.0
 30
0.0
  0
INSERT
  5
101
  8
0
  6
SLD-PLNÁ
 62
     7
  2
SW_CENTERMARKSYMBOL_11
 10
652.0
 20
0.0
 30
0.0
  0
INSERT
  5
10D
  8
0
  6
SLD-PLNÁ
 62
     7
  2
SW_CENTERMARKSYMBOL_12
 10
705.0
 20
0.0
 30
0.0
  0
INSERT
  5
119
  8
0
  6
SLD-PLNÁ
 62
     7
  2
SW_CENTERMARKSYMBOL_13
 10
712.908116908
 20
-19.091883092
 30
0.0
  0
INSERT
  5
125
  8
0
  6
SLD-PLNÁ
 62
     7
  2
SW_CENTERMARKSYMBOL_14
 10
732.0
 20
-27.0
 30
0.0
  0
INSERT
  5
131
  8
0
  6
SLD-PLNÁ
 62
     7
  2
SW_CENTERMARKSYMBOL_15
 10
751.091883092
 20
-19.091883092
 30
0.0
  0
INSERT
  5
13D
  8
0
  6
SLD-PLNÁ
 62
     7
  2
SW_CENTERMARKSYMBOL_16
 10
759.0
 20
0.0
 30
0.0
  0
INSERT
  5
149
  8
0
  6
SLD-PLNÁ
 62
     7
  2
SW_CENTERMARKSYMBOL_17
 10
751.091883092
 20
19.091883092
 30
0.0
  0
INSERT
  5
155
  8
0
  6
SLD-PLNÁ
 62
     7
  2
SW_CENTERMARKSYMBOL_18
 10
732.0
 20
27.0
 30
0.0
  0
INSERT
  5
161
  8
0
  6
SLD-PLNÁ
 62
     7
  2
SW_CENTERMARKSYMBOL_19
 10
712.908116908
 20
19.091883092
 30
0.0
  0
LINE
  5
162
  8
VIDITELNE
  6
SLD-PLNÁ
 62
     2
 10
-348.5
 20
34.0
 30
0.0
 11
-351.5
 21
34.0
 31
0.0
  0
LINE
  5
163
  8
VIDITELNE
  6
SLD-PLNÁ
 62
     2
 10
-351.5
 20
-34.0
 30
0.0
 11
-348.5
 21
-34.0
 31
0.0
  0
LINE
  5
164
  8
VIDITELNE
  6
SLD-PLNÁ
 62
     2
 10
-351.5
 20
-17.636326148
 30
0.0
 11
-348.5
 21
-17.636326148
 31
0.0
  0
LINE
  5
165
  8
VIDITELNE
  6
SLD-PLNÁ
 62
     2
 10
-351.5
 20
17.636326148
 30
0.0
 11
-348.5
 21
17.636326148
 31
0.0
  0
LINE
  5
166
  8
VIDITELNE
  6
SLD-PLNÁ
 62
     2
 10
-348.5
 20
-17.636326148
 30
0.0
 11
-348.5
 21
17.636326148
 31
0.0
  0
LINE
  5
167
  8
VIDITELNE
  6
SLD-PLNÁ
 62
     2
 10
-351.5
 20
-17.636326148
 30
0.0
 11
-351.5
 21
17.636326148
 31
0.0
  0
LINE
  5
168
  8
VIDITELNE
  6
SLD-PLNÁ
 62
     2
 10
-351.5
 20
-33.3130605019
 30
0.0
 11
-348.5
 21
-33.3130605019
 31
0.0
  0
LINE
  5
169
  8
VIDITELNE
  6
SLD-PLNÁ
 62
     2
 10
-348.5
 20
-33.3130605019
 30
0.0
 11
-348.5
 21
-17.636326148
 31
0.0
  0
LINE
  5
16A
  8
VIDITELNE
  6
SLD-PLNÁ
 62
     2
 10
-351.5
 20
-33.3130605019
 30
0.0
 11
-351.5
 21
-17.636326148
 31
0.0
  0
LINE
  5
16B
  8
VIDITELNE
  6
SLD-PLNÁ
 62
     2
 10
-351.5
 20
33.3130605019
 30
0.0
 11
-348.5
 21
33.3130605019
 31
0.0
  0
LINE
  5
16C
  8
VIDITELNE
  6
SLD-PLNÁ
 62
     2
 10
-348.5
 20
17.636326148
 30
0.0
 11
-348.5
 21
33.3130605019
 31
0.0
  0
LINE
  5
16D
  8
VIDITELNE
  6
SLD-PLNÁ
 62
     2
 10
-351.5
 20
17.636326148
 30
0.0
 11
-351.5
 21
33.3130605019
 31
0.0
  0
LINE
  5
16E
  8
VIDITELNE
  6
SLD-PLNÁ
 62
     2
 10
-348.5
 20
33.3130605019
 30
0.0
 11
-348.5
 21
34.0
 31
0.0
  0
LINE
  5
16F
  8
VIDITELNE
  6
SLD-PLNÁ
 62
     2
 10
-348.5
 20
-34.0
 30
0.0
 11
-348.5
 21
-33.3130605019
 31
0.0
  0
LINE
  5
170
  8
VIDITELNE
  6
SLD-PLNÁ
 62
     2
 10
-351.5
 20
33.3130605019
 30
0.0
 11
-351.5
 21
34.0
 31
0.0
  0
LINE
  5
171
  8
VIDITELNE
  6
SLD-PLNÁ
 62
     2
 10
-351.5
 20
-34.0
 30
0.0
 11
-351.5
 21
-33.3130605019
 31
0.0
  0
LINE
  5
172
  8
VIDITELNE
  6
SLD-PLNÁ
 62
     2
 10
348.5
 20
-34.0
 30
0.0
 11
351.5
 21
-34.0
 31
0.0
  0
LINE
  5
173
  8
VIDITELNE
  6
SLD-PLNÁ
 62
     2
 10
351.5
 20
34.0
 30
0.0
 11
348.5
 21
34.0
 31
0.0
  0
LINE
  5
174
  8
VIDITELNE
  6
SLD-PLNÁ
 62
     2
 10
348.5
 20
34.0
 30
0.0
 11
348.5
 21
-34.0
 31
0.0
  0
LINE
  5
175
  8
VIDITELNE
  6
SLD-PLNÁ
 62
     2
 10
351.5
 20
34.0
 30
0.0
 11
351.5
 21
-34.0
 31
0.0
  0
LINE
  5
176
  8
VIDITELNE
  6
SLD-PLNÁ
 62
     2
 10
-66.0
 20
351.5
 30
0.0
 11
-66.0
 21
348.5
 31
0.0
  0
LINE
  5
177
  8
VIDITELNE
  6
SLD-PLNÁ
 62
     2
 10
66.0
 20
348.5
 30
0.0
 11
66.0
 21
351.5
 31
0.0
  0
LINE
  5
178
  8
VIDITELNE
  6
SLD-PLNÁ
 62
     2
 10
-25.2
 20
351.5
 30
0.0
 11
-25.2
 21
348.5
 31
0.0
  0
LINE
  5
179
  8
VIDITELNE
  6
SLD-PLNÁ
 62
     2
 10
-66.0
 20
348.5
 30
0.0
 11
-25.2
 21
348.5
 31
0.0
  0
LINE
  5
17A
  8
VIDITELNE
  6
SLD-PLNÁ
 62
     2
 10
-66.0
 20
351.5
 30
0.0
 11
-25.2
 21
351.5
 31
0.0
  0
LINE
  5
17B
  8
VIDITELNE
  6
SLD-PLNÁ
 62
     2
 10
51.6
 20
351.5
 30
0.0
 11
51.6
 21
348.5
 31
0.0
  0
LINE
  5
17C
  8
VIDITELNE
  6
SLD-PLNÁ
 62
     2
 10
-25.2
 20
348.5
 30
0.0
 11
51.6
 21
348.5
 31
0.0
  0
LINE
  5
17D
  8
VIDITELNE
  6
SLD-PLNÁ
 62
     2
 10
-25.2
 20
351.5
 30
0.0
 11
51.6
 21
351.5
 31
0.0
  0
LINE
  5
17E
  8
VIDITELNE
  6
SLD-PLNÁ
 62
     2
 10
51.6
 20
348.5
 30
0.0
 11
66.0
 21
348.5
 31
0.0
  0
LINE
  5
17F
  8
VIDITELNE
  6
SLD-PLNÁ
 62
     2
 10
51.6
 20
351.5
 30
0.0
 11
66.0
 21
351.5
 31
0.0
  0
LINE
  5
180
  8
VIDITELNE
  6
SLD-PLNÁ
 62
     2
 10
-66.0
 20
-348.5
 30
0.0
 11
-66.0
 21
-351.5
 31
0.0
  0
LINE
  5
181
  8
VIDITELNE
  6
SLD-PLNÁ
 62
     2
 10
66.0
 20
-351.5
 30
0.0
 11
66.0
 21
-348.5
 31
0.0
  0
LINE
  5
182
  8
VIDITELNE
  6
SLD-PLNÁ
 62
     2
 10
-25.2
 20
-351.5
 30
0.0
 11
-25.2
 21
-348.5
 31
0.0
  0
LINE
  5
183
  8
VIDITELNE
  6
SLD-PLNÁ
 62
     2
 10
-25.2
 20
-348.5
 30
0.0
 11
-66.0
 21
-348.5
 31
0.0
  0
LINE
  5
184
  8
VIDITELNE
  6
SLD-PLNÁ
 62
     2
 10
-25.2
 20
-351.5
 30
0.0
 11
-66.0
 21
-351.5
 31
0.0
  0
LINE
  5
185
  8
VIDITELNE
  6
SLD-PLNÁ
 62
     2
 10
51.6
 20
-351.5
 30
0.0
 11
51.6
 21
-348.5
 31
0.0
  0
LINE
  5
186
  8
VIDITELNE
  6
SLD-PLNÁ
 62
     2
 10
51.6
 20
-348.5
 30
0.0
 11
-25.2
 21
-348.5
 31
0.0
  0
LINE
  5
187
  8
VIDITELNE
  6
SLD-PLNÁ
 62
     2
 10
51.6
 20
-351.5
 30
0.0
 11
-25.2
 21
-351.5
 31
0.0
  0
LINE
  5
188
  8
VIDITELNE
  6
SLD-PLNÁ
 62
     2
 10
66.0
 20
-348.5
 30
0.0
 11
51.6
 21
-348.5
 31
0.0
  0
LINE
  5
189
  8
VIDITELNE
  6
SLD-PLNÁ
 62
     2
 10
66.0
 20
-351.5
 30
0.0
 11
51.6
 21
-351.5
 31
0.0
  0
ENDSEC
  0
EOF
