  0
SECTION
  2
HEADER
  9
$ACADVER
  1
AC1009
  9
$DWGCODEPAGE
  3
ansi_1250
  9
$INSBASE
 10
0.0
 20
0.0
 30
0.0
  9
$EXTMIN
 10
0.0
 20
0.0
 30
0.0
  9
$EXTMAX
 10
279.4
 20
215.9
 30
0.0
  9
$LIMMIN
 10
0.0
 20
0.0
  9
$LIMMAX
 10
279.4
 20
215.9
  9
$ORTHOMODE
 70
     0
  9
$REGENMODE
 70
     1
  9
$FILLMODE
 70
     1
  9
$QTEXTMODE
 70
     0
  9
$MIRRTEXT
 70
     1
  9
$DRAGMODE
 70
     2
  9
$LTSCALE
 40
1.0
  9
$OSMODE
 70
    37
  9
$ATTMODE
 70
     1
  9
$TEXTSIZE
 40
3.5
  9
$TRACEWID
 40
1.0
  9
$TEXTSTYLE
  7
STANDARD
  9
$CLAYER
  8
0
  9
$CELTYPE
  6
BYLAYER
  9
$CECOLOR
 62
   256
  9
$DIMSCALE
 40
1.0
  9
$DIMASZ
 40
6.0
  9
$DIMEXO
 40
1.0
  9
$DIMDLI
 40
3.75
  9
$DIMRND
 40
0.0
  9
$DIMDLE
 40
0.0
  9
$DIMEXE
 40
1.0
  9
$DIMTP
 40
0.0
  9
$DIMTM
 40
0.0
  9
$DIMTXT
 40
3.5
  9
$DIMCEN
 40
2.5
  9
$DIMTSZ
 40
0.0
  9
$DIMTOL
 70
     0
  9
$DIMLIM
 70
     0
  9
$DIMTIH
 70
     1
  9
$DIMTOH
 70
     1
  9
$DIMSE1
 70
     0
  9
$DIMSE2
 70
     0
  9
$DIMTAD
 70
     1
  9
$DIMZIN
 70
     0
  9
$DIMBLK
  1

  9
$DIMASO
 70
     1
  9
$DIMSHO
 70
     1
  9
$DIMPOST
  1

  9
$DIMAPOST
  1

  9
$DIMALT
 70
     0
  9
$DIMALTD
 70
     3
  9
$DIMALTF
 40
0.0393700787
  9
$DIMLFAC
 40
1.0
  9
$DIMTOFL
 70
     1
  9
$DIMTVP
 40
0.0
  9
$DIMTIX
 70
     0
  9
$DIMSOXD
 70
     0
  9
$DIMSAH
 70
     0
  9
$DIMBLK1
  1

  9
$DIMBLK2
  1

  9
$DIMSTYLE
  2
ISO-25
  9
$DIMCLRD
 70
     0
  9
$DIMCLRE
 70
     0
  9
$DIMCLRT
 70
     0
  9
$DIMTFAC
 40
1.0
  9
$DIMGAP
 40
1.524
  9
$LUNITS
 70
     2
  9
$LUPREC
 70
     2
  9
$SKETCHINC
 40
1.0
  9
$FILLETRAD
 40
10.0
  9
$AUNITS
 70
     0
  9
$AUPREC
 70
     2
  9
$MENU
  1
.
  9
$ELEVATION
 40
0.0
  9
$PELEVATION
 40
0.0
  9
$THICKNESS
 40
0.0
  9
$LIMCHECK
 70
     0
  9
$CHAMFERA
 40
10.0
  9
$CHAMFERB
 40
10.0
  9
$SKPOLY
 70
     0
  9
$TDCREATE
 40
2456001.369166296
  9
$TDUPDATE
 40
2456001.369166308
  9
$TDINDWG
 40
0.0000000116
  9
$TDUSRTIMER
 40
0.0000000116
  9
$USRTIMER
 70
     1
  9
$ANGBASE
 50
0.0
  9
$ANGDIR
 70
     0
  9
$PDMODE
 70
     0
  9
$PDSIZE
 40
-1.0
  9
$PLINEWID
 40
0.0
  9
$COORDS
 70
     1
  9
$SPLFRAME
 70
     0
  9
$SPLINETYPE
 70
     6
  9
$SPLINESEGS
 70
     8
  9
$ATTDIA
 70
     0
  9
$ATTREQ
 70
     1
  9
$HANDLING
 70
     1
  9
$HANDSEED
  5
25D
  9
$SURFTAB1
 70
     6
  9
$SURFTAB2
 70
     6
  9
$SURFTYPE
 70
     6
  9
$SURFU
 70
     6
  9
$SURFV
 70
     6
  9
$UCSNAME
  2

  9
$UCSORG
 10
0.0
 20
0.0
 30
0.0
  9
$UCSXDIR
 10
1.0
 20
0.0
 30
0.0
  9
$UCSYDIR
 10
0.0
 20
1.0
 30
0.0
  9
$PUCSNAME
  2

  9
$PUCSORG
 10
0.0
 20
0.0
 30
0.0
  9
$PUCSXDIR
 10
1.0
 20
0.0
 30
0.0
  9
$PUCSYDIR
 10
0.0
 20
1.0
 30
0.0
  9
$USERI1
 70
     0
  9
$USERI2
 70
     0
  9
$USERI3
 70
     0
  9
$USERI4
 70
     0
  9
$USERI5
 70
     0
  9
$USERR1
 40
0.0
  9
$USERR2
 40
0.0
  9
$USERR3
 40
0.0
  9
$USERR4
 40
0.0
  9
$USERR5
 40
0.0
  9
$WORLDVIEW
 70
     1
  9
$SHADEDGE
 70
     3
  9
$SHADEDIF
 70
    70
  9
$TILEMODE
 70
     1
  9
$MAXACTVP
 70
    64
  9
$PLIMCHECK
 70
     0
  9
$PEXTMIN
 10
1.0000000000E+20
 20
1.0000000000E+20
 30
1.0000000000E+20
  9
$PEXTMAX
 10
-1.0000000000E+20
 20
-1.0000000000E+20
 30
-1.0000000000E+20
  9
$PLIMMIN
 10
0.0
 20
0.0
  9
$PLIMMAX
 10
420.0
 20
297.0
  9
$UNITMODE
 70
     0
  9
$VISRETAIN
 70
     1
  9
$PLINEGEN
 70
     0
  9
$PSLTSCALE
 70
     1
  0
ENDSEC
  0
SECTION
  2
TABLES
  0
TABLE
  2
VPORT
 70
     1
  0
VPORT
  2
*ACTIVE
 70
     0
 10
0.0
 20
0.0
 11
1.0
 21
1.0
 12
139.7
 22
107.95
 13
0.0
 23
0.0
 14
10.0
 24
10.0
 15
10.0
 25
10.0
 16
0.0
 26
0.0
 36
1.0
 17
0.0
 27
0.0
 37
0.0
 40
215.9
 41
1.2941176471
 42
50.0
 43
0.0
 44
0.0
 50
0.0
 51
0.0
 71
     0
 72
  2000
 73
     1
 74
     3
 75
     0
 76
     0
 77
     0
 78
     0
  0
ENDTAB
  0
TABLE
  2
LTYPE
 70
    10
  0
LTYPE
  2
CONTINUOUS
 70
     0
  3
Solid line
 72
    65
 73
     0
 40
0.0
  0
LTYPE
  2
SLD-PLNÁ
 70
     0
  3
SolidWorks Line Style
 72
    65
 73
     0
 40
0.0
  0
LTYPE
  2
SLD-ČÁRKOVANÁ
 70
     0
  3
SolidWorks Line Style
 72
    65
 73
     2
 40
1.905
 49
1.27
 49
-0.635
  0
LTYPE
  2
SLD-DVOJITĚ-ČERCHOVANÁ
 70
     0
  3
SolidWorks Line Style
 72
    65
 73
     6
 40
12.7
 49
6.35
 49
-1.27
 49
1.27
 49
-1.27
 49
1.27
 49
-1.27
  0
LTYPE
  2
SLD-ČERCHOVANÁ
 70
     0
  3
SolidWorks Line Style
 72
    65
 73
     4
 40
10.16
 49
6.35
 49
-1.27
 49
1.27
 49
-1.27
  0
LTYPE
  2
SLD-OSA
 70
     0
  3
SolidWorks Line Style
 72
    65
 73
     4
 40
19.05
 49
15.24
 49
-1.27
 49
1.27
 49
-1.27
  0
LTYPE
  2
SLD-TEČKOVANÁ
 70
     0
  3
SolidWorks Line Style
 72
    65
 73
     2
 40
0.635
 49
0.0
 49
-0.635
  0
LTYPE
  2
SLD-HRUBÁ-TENKÁ-ČERCHOVANÁ
 70
     0
  3
SolidWorks Line Style
 72
    65
 73
     4
 40
10.16
 49
6.35
 49
-1.27
 49
1.27
 49
-1.27
  0
LTYPE
  2
SLD-ŘEZ-1
 70
     0
  3
SolidWorks Line Style
 72
    65
 73
     4
 40
8.128
 49
5.08
 49
-1.016
 49
1.016
 49
-1.016
  0
LTYPE
  2
SLD-ŘEZ-2
 70
     0
  3
SolidWorks Line Style
 72
    65
 73
     2
 40
5080.0
 49
0.0
 49
-5080.0
  0
ENDTAB
  0
TABLE
  2
LAYER
 70
    15
  0
LAYER
  2
0
 70
     0
 62
     7
  6
CONTINUOUS
  0
LAYER
  2
DEFPOINTS
 70
     0
 62
     7
  6
CONTINUOUS
  0
LAYER
  2
VIDITELNE
 70
     0
 62
     2
  6
SLD-PLNÁ
  0
LAYER
  2
SKRYTE
 70
     0
 62
     4
  6
SLD-ČÁRKOVANÁ
  0
LAYER
  2
SKICA
 70
     0
 62
     6
  6
SLD-PLNÁ
  0
LAYER
  2
DETAIL
 70
     0
 62
     7
  6
SLD-PLNÁ
  0
LAYER
  2
REZY
 70
     0
 62
     1
  6
SLD-HRUBÁ-TENKÁ-ČERCHOVANÁ
  0
LAYER
  2
KOTY
 70
     0
 62
     3
  6
SLD-PLNÁ
  0
LAYER
  2
OSY
 70
     0
 62
     7
  6
SLD-OSA
  0
LAYER
  2
SRAF
 70
     0
 62
     7
  6
SLD-PLNÁ
  0
LAYER
  2
TECNE
 70
     0
 62
     7
  6
SLD-DVOJITĚ-ČERCHOVANÁ
  0
LAYER
  2
HRANICE
 70
     0
 62
     4
  6
SLD-PLNÁ
  0
LAYER
  2
UZ-1
 70
     0
 62
    11
  6
SLD-DVOJITĚ-ČERCHOVANÁ
  0
LAYER
  2
UZ-2
 70
     0
 62
    11
  6
SLD-DVOJITĚ-ČERCHOVANÁ
  0
LAYER
  2
UZ-3
 70
     0
 62
    11
  6
SLD-ČÁRKOVANÁ
  0
ENDTAB
  0
TABLE
  2
STYLE
 70
     1
  0
STYLE
  2
STANDARD
 70
     0
 40
0.0
 41
1.0
 50
0.0
 71
     0
 42
2.5
  3
txt
  4

  0
ENDTAB
  0
TABLE
  2
VIEW
 70
     0
  0
ENDTAB
  0
TABLE
  2
UCS
 70
     0
  0
ENDTAB
  0
TABLE
  2
APPID
 70
     1
  0
APPID
  2
ACAD
 70
     0
  0
ENDTAB
  0
TABLE
  2
DIMSTYLE
 70
     1
  0
DIMSTYLE
  2
ISO-25
 70
     0
  3

  4

  5

  6

  7

 40
1.0
 41
2.5
 42
0.625
 43
3.75
 44
1.25
 45
0.0
 46
0.0
 47
0.0
 48
0.0
140
2.5
141
2.5
142
0.0
143
0.0393700787
144
1.0
145
0.0
146
1.0
147
0.625
 71
     0
 72
     0
 73
     0
 74
     0
 75
     0
 76
     0
 77
     1
 78
     8
170
     0
171
     3
172
     1
173
     0
174
     0
175
     0
176
     0
177
     0
178
     0
  0
ENDTAB
  0
ENDSEC
  0
SECTION
  2
BLOCKS
  0
BLOCK
  8
0
  2
$MODEL_SPACE
 70
     0
 10
0.0
 20
0.0
 30
0.0
  3
$MODEL_SPACE
  1

  0
ENDBLK
  5
21
  8
0
  0
BLOCK
 67
     1
  8
0
  2
$PAPER_SPACE
 70
     0
 10
0.0
 20
0.0
 30
0.0
  3
$PAPER_SPACE
  1

  0
ENDBLK
  5
1D
 67
     1
  8
0
  0
BLOCK
  8
0
  2
SW_CENTERMARKSYMBOL_0
 70
     0
 10
0.0
 20
0.0
 30
0.0
  3
SW_CENTERMARKSYMBOL_0
  1

  0
LINE
  5
7D
  8
0
  6
SLD-PLNÁ
 62
     0
 10
0.0
 20
0.0
 30
0.0
 11
0.0
 21
2.5
 31
0.0
  0
LINE
  5
7E
  8
0
  6
SLD-PLNÁ
 62
     0
 10
0.0
 20
0.0
 30
0.0
 11
-2.5
 21
0.0
 31
0.0
  0
LINE
  5
7F
  8
0
  6
SLD-PLNÁ
 62
     0
 10
0.0
 20
0.0
 30
0.0
 11
0.0
 21
-2.5
 31
0.0
  0
LINE
  5
80
  8
0
  6
SLD-PLNÁ
 62
     0
 10
0.0
 20
0.0
 30
0.0
 11
2.5
 21
0.0
 31
0.0
  0
LINE
  5
81
  8
0
  6
SLD-PLNÁ
 62
     0
 10
0.0
 20
5.0
 30
0.0
 11
0.0
 21
57.5
 31
0.0
  0
LINE
  5
82
  8
0
  6
SLD-PLNÁ
 62
     0
 10
-5.0
 20
0.0
 30
0.0
 11
-57.5
 21
0.0
 31
0.0
  0
LINE
  5
83
  8
0
  6
SLD-PLNÁ
 62
     0
 10
0.0
 20
-5.0
 30
0.0
 11
0.0
 21
-57.5
 31
0.0
  0
LINE
  5
84
  8
0
  6
SLD-PLNÁ
 62
     0
 10
5.0
 20
0.0
 30
0.0
 11
57.5
 21
0.0
 31
0.0
  0
ENDBLK
  5
7C
  8
0
  0
BLOCK
  8
0
  2
SW_CENTERMARKSYMBOL_1
 70
     0
 10
0.0
 20
0.0
 30
0.0
  3
SW_CENTERMARKSYMBOL_1
  1

  0
LINE
  5
89
  8
0
  6
SLD-PLNÁ
 62
     0
 10
0.0
 20
0.0
 30
0.0
 11
0.0
 21
2.5
 31
0.0
  0
LINE
  5
8A
  8
0
  6
SLD-PLNÁ
 62
     0
 10
0.0
 20
0.0
 30
0.0
 11
-2.5
 21
0.0
 31
0.0
  0
LINE
  5
8B
  8
0
  6
SLD-PLNÁ
 62
     0
 10
0.0
 20
0.0
 30
0.0
 11
0.0
 21
-2.5
 31
0.0
  0
LINE
  5
8C
  8
0
  6
SLD-PLNÁ
 62
     0
 10
0.0
 20
0.0
 30
0.0
 11
2.5
 21
0.0
 31
0.0
  0
LINE
  5
8D
  8
0
  6
SLD-PLNÁ
 62
     0
 10
0.0
 20
5.0
 30
0.0
 11
0.0
 21
22.5
 31
0.0
  0
LINE
  5
8E
  8
0
  6
SLD-PLNÁ
 62
     0
 10
-5.0
 20
0.0
 30
0.0
 11
-22.5
 21
0.0
 31
0.0
  0
LINE
  5
8F
  8
0
  6
SLD-PLNÁ
 62
     0
 10
0.0
 20
-5.0
 30
0.0
 11
0.0
 21
-22.5
 31
0.0
  0
LINE
  5
90
  8
0
  6
SLD-PLNÁ
 62
     0
 10
5.0
 20
0.0
 30
0.0
 11
22.5
 21
0.0
 31
0.0
  0
ENDBLK
  5
88
  8
0
  0
BLOCK
  8
0
  2
SW_CENTERMARKSYMBOL_2
 70
     0
 10
0.0
 20
0.0
 30
0.0
  3
SW_CENTERMARKSYMBOL_2
  1

  0
LINE
  5
95
  8
0
  6
SLD-PLNÁ
 62
     0
 10
0.0
 20
0.0
 30
0.0
 11
0.0
 21
2.5
 31
0.0
  0
LINE
  5
96
  8
0
  6
SLD-PLNÁ
 62
     0
 10
0.0
 20
0.0
 30
0.0
 11
-2.5
 21
0.0
 31
0.0
  0
LINE
  5
97
  8
0
  6
SLD-PLNÁ
 62
     0
 10
0.0
 20
0.0
 30
0.0
 11
0.0
 21
-2.5
 31
0.0
  0
LINE
  5
98
  8
0
  6
SLD-PLNÁ
 62
     0
 10
0.0
 20
0.0
 30
0.0
 11
2.5
 21
0.0
 31
0.0
  0
LINE
  5
99
  8
0
  6
SLD-PLNÁ
 62
     0
 10
0.0
 20
5.0
 30
0.0
 11
0.0
 21
8.0
 31
0.0
  0
LINE
  5
9A
  8
0
  6
SLD-PLNÁ
 62
     0
 10
-5.0
 20
0.0
 30
0.0
 11
-8.0
 21
0.0
 31
0.0
  0
LINE
  5
9B
  8
0
  6
SLD-PLNÁ
 62
     0
 10
0.0
 20
-5.0
 30
0.0
 11
0.0
 21
-8.0
 31
0.0
  0
LINE
  5
9C
  8
0
  6
SLD-PLNÁ
 62
     0
 10
5.0
 20
0.0
 30
0.0
 11
8.0
 21
0.0
 31
0.0
  0
ENDBLK
  5
94
  8
0
  0
BLOCK
  8
0
  2
SW_CENTERMARKSYMBOL_3
 70
     0
 10
0.0
 20
0.0
 30
0.0
  3
SW_CENTERMARKSYMBOL_3
  1

  0
LINE
  5
A1
  8
0
  6
SLD-PLNÁ
 62
     0
 10
0.0
 20
0.0
 30
0.0
 11
0.0
 21
2.5
 31
0.0
  0
LINE
  5
A2
  8
0
  6
SLD-PLNÁ
 62
     0
 10
0.0
 20
0.0
 30
0.0
 11
-2.5
 21
0.0
 31
0.0
  0
LINE
  5
A3
  8
0
  6
SLD-PLNÁ
 62
     0
 10
0.0
 20
0.0
 30
0.0
 11
0.0
 21
-2.5
 31
0.0
  0
LINE
  5
A4
  8
0
  6
SLD-PLNÁ
 62
     0
 10
0.0
 20
0.0
 30
0.0
 11
2.5
 21
0.0
 31
0.0
  0
LINE
  5
A5
  8
0
  6
SLD-PLNÁ
 62
     0
 10
0.0
 20
5.0
 30
0.0
 11
0.0
 21
8.0
 31
0.0
  0
LINE
  5
A6
  8
0
  6
SLD-PLNÁ
 62
     0
 10
-5.0
 20
0.0
 30
0.0
 11
-8.0
 21
0.0
 31
0.0
  0
LINE
  5
A7
  8
0
  6
SLD-PLNÁ
 62
     0
 10
0.0
 20
-5.0
 30
0.0
 11
0.0
 21
-8.0
 31
0.0
  0
LINE
  5
A8
  8
0
  6
SLD-PLNÁ
 62
     0
 10
5.0
 20
0.0
 30
0.0
 11
8.0
 21
0.0
 31
0.0
  0
ENDBLK
  5
A0
  8
0
  0
BLOCK
  8
0
  2
SW_CENTERMARKSYMBOL_4
 70
     0
 10
0.0
 20
0.0
 30
0.0
  3
SW_CENTERMARKSYMBOL_4
  1

  0
LINE
  5
AD
  8
0
  6
SLD-PLNÁ
 62
     0
 10
0.0
 20
0.0
 30
0.0
 11
0.0
 21
2.5
 31
0.0
  0
LINE
  5
AE
  8
0
  6
SLD-PLNÁ
 62
     0
 10
0.0
 20
0.0
 30
0.0
 11
-2.5
 21
0.0
 31
0.0
  0
LINE
  5
AF
  8
0
  6
SLD-PLNÁ
 62
     0
 10
0.0
 20
0.0
 30
0.0
 11
0.0
 21
-2.5
 31
0.0
  0
LINE
  5
B0
  8
0
  6
SLD-PLNÁ
 62
     0
 10
0.0
 20
0.0
 30
0.0
 11
2.5
 21
0.0
 31
0.0
  0
LINE
  5
B1
  8
0
  6
SLD-PLNÁ
 62
     0
 10
0.0
 20
5.0
 30
0.0
 11
0.0
 21
8.0
 31
0.0
  0
LINE
  5
B2
  8
0
  6
SLD-PLNÁ
 62
     0
 10
-5.0
 20
0.0
 30
0.0
 11
-8.0
 21
0.0
 31
0.0
  0
LINE
  5
B3
  8
0
  6
SLD-PLNÁ
 62
     0
 10
0.0
 20
-5.0
 30
0.0
 11
0.0
 21
-8.0
 31
0.0
  0
LINE
  5
B4
  8
0
  6
SLD-PLNÁ
 62
     0
 10
5.0
 20
0.0
 30
0.0
 11
8.0
 21
0.0
 31
0.0
  0
ENDBLK
  5
AC
  8
0
  0
BLOCK
  8
0
  2
SW_CENTERMARKSYMBOL_5
 70
     0
 10
0.0
 20
0.0
 30
0.0
  3
SW_CENTERMARKSYMBOL_5
  1

  0
LINE
  5
B9
  8
0
  6
SLD-PLNÁ
 62
     0
 10
0.0
 20
0.0
 30
0.0
 11
0.0
 21
2.5
 31
0.0
  0
LINE
  5
BA
  8
0
  6
SLD-PLNÁ
 62
     0
 10
0.0
 20
0.0
 30
0.0
 11
-2.5
 21
0.0
 31
0.0
  0
LINE
  5
BB
  8
0
  6
SLD-PLNÁ
 62
     0
 10
0.0
 20
0.0
 30
0.0
 11
0.0
 21
-2.5
 31
0.0
  0
LINE
  5
BC
  8
0
  6
SLD-PLNÁ
 62
     0
 10
0.0
 20
0.0
 30
0.0
 11
2.5
 21
0.0
 31
0.0
  0
LINE
  5
BD
  8
0
  6
SLD-PLNÁ
 62
     0
 10
0.0
 20
5.0
 30
0.0
 11
0.0
 21
8.0
 31
0.0
  0
LINE
  5
BE
  8
0
  6
SLD-PLNÁ
 62
     0
 10
-5.0
 20
0.0
 30
0.0
 11
-8.0
 21
0.0
 31
0.0
  0
LINE
  5
BF
  8
0
  6
SLD-PLNÁ
 62
     0
 10
0.0
 20
-5.0
 30
0.0
 11
0.0
 21
-8.0
 31
0.0
  0
LINE
  5
C0
  8
0
  6
SLD-PLNÁ
 62
     0
 10
5.0
 20
0.0
 30
0.0
 11
8.0
 21
0.0
 31
0.0
  0
ENDBLK
  5
B8
  8
0
  0
BLOCK
  8
0
  2
SW_CENTERMARKSYMBOL_6
 70
     0
 10
0.0
 20
0.0
 30
0.0
  3
SW_CENTERMARKSYMBOL_6
  1

  0
LINE
  5
C5
  8
0
  6
SLD-PLNÁ
 62
     0
 10
0.0
 20
0.0
 30
0.0
 11
0.0
 21
2.5
 31
0.0
  0
LINE
  5
C6
  8
0
  6
SLD-PLNÁ
 62
     0
 10
0.0
 20
0.0
 30
0.0
 11
-2.5
 21
0.0
 31
0.0
  0
LINE
  5
C7
  8
0
  6
SLD-PLNÁ
 62
     0
 10
0.0
 20
0.0
 30
0.0
 11
0.0
 21
-2.5
 31
0.0
  0
LINE
  5
C8
  8
0
  6
SLD-PLNÁ
 62
     0
 10
0.0
 20
0.0
 30
0.0
 11
2.5
 21
0.0
 31
0.0
  0
LINE
  5
C9
  8
0
  6
SLD-PLNÁ
 62
     0
 10
0.0
 20
5.0
 30
0.0
 11
0.0
 21
8.0
 31
0.0
  0
LINE
  5
CA
  8
0
  6
SLD-PLNÁ
 62
     0
 10
-5.0
 20
0.0
 30
0.0
 11
-8.0
 21
0.0
 31
0.0
  0
LINE
  5
CB
  8
0
  6
SLD-PLNÁ
 62
     0
 10
0.0
 20
-5.0
 30
0.0
 11
0.0
 21
-8.0
 31
0.0
  0
LINE
  5
CC
  8
0
  6
SLD-PLNÁ
 62
     0
 10
5.0
 20
0.0
 30
0.0
 11
8.0
 21
0.0
 31
0.0
  0
ENDBLK
  5
C4
  8
0
  0
BLOCK
  8
0
  2
SW_CENTERMARKSYMBOL_7
 70
     0
 10
0.0
 20
0.0
 30
0.0
  3
SW_CENTERMARKSYMBOL_7
  1

  0
LINE
  5
D1
  8
0
  6
SLD-PLNÁ
 62
     0
 10
0.0
 20
0.0
 30
0.0
 11
0.0
 21
2.5
 31
0.0
  0
LINE
  5
D2
  8
0
  6
SLD-PLNÁ
 62
     0
 10
0.0
 20
0.0
 30
0.0
 11
-2.5
 21
0.0
 31
0.0
  0
LINE
  5
D3
  8
0
  6
SLD-PLNÁ
 62
     0
 10
0.0
 20
0.0
 30
0.0
 11
0.0
 21
-2.5
 31
0.0
  0
LINE
  5
D4
  8
0
  6
SLD-PLNÁ
 62
     0
 10
0.0
 20
0.0
 30
0.0
 11
2.5
 21
0.0
 31
0.0
  0
LINE
  5
D5
  8
0
  6
SLD-PLNÁ
 62
     0
 10
0.0
 20
5.0
 30
0.0
 11
0.0
 21
8.0
 31
0.0
  0
LINE
  5
D6
  8
0
  6
SLD-PLNÁ
 62
     0
 10
-5.0
 20
0.0
 30
0.0
 11
-8.0
 21
0.0
 31
0.0
  0
LINE
  5
D7
  8
0
  6
SLD-PLNÁ
 62
     0
 10
0.0
 20
-5.0
 30
0.0
 11
0.0
 21
-8.0
 31
0.0
  0
LINE
  5
D8
  8
0
  6
SLD-PLNÁ
 62
     0
 10
5.0
 20
0.0
 30
0.0
 11
8.0
 21
0.0
 31
0.0
  0
ENDBLK
  5
D0
  8
0
  0
BLOCK
  8
0
  2
SW_CENTERMARKSYMBOL_8
 70
     0
 10
0.0
 20
0.0
 30
0.0
  3
SW_CENTERMARKSYMBOL_8
  1

  0
LINE
  5
DD
  8
0
  6
SLD-PLNÁ
 62
     0
 10
0.0
 20
0.0
 30
0.0
 11
0.0
 21
2.5
 31
0.0
  0
LINE
  5
DE
  8
0
  6
SLD-PLNÁ
 62
     0
 10
0.0
 20
0.0
 30
0.0
 11
-2.5
 21
0.0
 31
0.0
  0
LINE
  5
DF
  8
0
  6
SLD-PLNÁ
 62
     0
 10
0.0
 20
0.0
 30
0.0
 11
0.0
 21
-2.5
 31
0.0
  0
LINE
  5
E0
  8
0
  6
SLD-PLNÁ
 62
     0
 10
0.0
 20
0.0
 30
0.0
 11
2.5
 21
0.0
 31
0.0
  0
LINE
  5
E1
  8
0
  6
SLD-PLNÁ
 62
     0
 10
0.0
 20
5.0
 30
0.0
 11
0.0
 21
8.0
 31
0.0
  0
LINE
  5
E2
  8
0
  6
SLD-PLNÁ
 62
     0
 10
-5.0
 20
0.0
 30
0.0
 11
-8.0
 21
0.0
 31
0.0
  0
LINE
  5
E3
  8
0
  6
SLD-PLNÁ
 62
     0
 10
0.0
 20
-5.0
 30
0.0
 11
0.0
 21
-8.0
 31
0.0
  0
LINE
  5
E4
  8
0
  6
SLD-PLNÁ
 62
     0
 10
5.0
 20
0.0
 30
0.0
 11
8.0
 21
0.0
 31
0.0
  0
ENDBLK
  5
DC
  8
0
  0
BLOCK
  8
0
  2
SW_CENTERMARKSYMBOL_9
 70
     0
 10
0.0
 20
0.0
 30
0.0
  3
SW_CENTERMARKSYMBOL_9
  1

  0
LINE
  5
E9
  8
0
  6
SLD-PLNÁ
 62
     0
 10
0.0
 20
0.0
 30
0.0
 11
0.0
 21
2.5
 31
0.0
  0
LINE
  5
EA
  8
0
  6
SLD-PLNÁ
 62
     0
 10
0.0
 20
0.0
 30
0.0
 11
-2.5
 21
0.0
 31
0.0
  0
LINE
  5
EB
  8
0
  6
SLD-PLNÁ
 62
     0
 10
0.0
 20
0.0
 30
0.0
 11
0.0
 21
-2.5
 31
0.0
  0
LINE
  5
EC
  8
0
  6
SLD-PLNÁ
 62
     0
 10
0.0
 20
0.0
 30
0.0
 11
2.5
 21
0.0
 31
0.0
  0
LINE
  5
ED
  8
0
  6
SLD-PLNÁ
 62
     0
 10
0.0
 20
5.0
 30
0.0
 11
0.0
 21
8.0
 31
0.0
  0
LINE
  5
EE
  8
0
  6
SLD-PLNÁ
 62
     0
 10
-5.0
 20
0.0
 30
0.0
 11
-8.0
 21
0.0
 31
0.0
  0
LINE
  5
EF
  8
0
  6
SLD-PLNÁ
 62
     0
 10
0.0
 20
-5.0
 30
0.0
 11
0.0
 21
-8.0
 31
0.0
  0
LINE
  5
F0
  8
0
  6
SLD-PLNÁ
 62
     0
 10
5.0
 20
0.0
 30
0.0
 11
8.0
 21
0.0
 31
0.0
  0
ENDBLK
  5
E8
  8
0
  0
BLOCK
  8
0
  2
SW_CENTERMARKSYMBOL_10
 70
     0
 10
0.0
 20
0.0
 30
0.0
  3
SW_CENTERMARKSYMBOL_10
  1

  0
LINE
  5
119
  8
0
  6
SLD-PLNÁ
 62
     0
 10
0.0
 20
0.0
 30
0.0
 11
0.0
 21
2.5
 31
0.0
  0
LINE
  5
11A
  8
0
  6
SLD-PLNÁ
 62
     0
 10
0.0
 20
0.0
 30
0.0
 11
-2.5
 21
0.0
 31
0.0
  0
LINE
  5
11B
  8
0
  6
SLD-PLNÁ
 62
     0
 10
0.0
 20
0.0
 30
0.0
 11
0.0
 21
-2.5
 31
0.0
  0
LINE
  5
11C
  8
0
  6
SLD-PLNÁ
 62
     0
 10
0.0
 20
0.0
 30
0.0
 11
2.5
 21
0.0
 31
0.0
  0
LINE
  5
11D
  8
0
  6
SLD-PLNÁ
 62
     0
 10
0.0
 20
5.0
 30
0.0
 11
0.0
 21
57.5
 31
0.0
  0
LINE
  5
11E
  8
0
  6
SLD-PLNÁ
 62
     0
 10
-5.0
 20
0.0
 30
0.0
 11
-57.5
 21
0.0
 31
0.0
  0
LINE
  5
11F
  8
0
  6
SLD-PLNÁ
 62
     0
 10
0.0
 20
-5.0
 30
0.0
 11
0.0
 21
-57.5
 31
0.0
  0
LINE
  5
120
  8
0
  6
SLD-PLNÁ
 62
     0
 10
5.0
 20
0.0
 30
0.0
 11
57.5
 21
0.0
 31
0.0
  0
ENDBLK
  5
118
  8
0
  0
BLOCK
  8
0
  2
SW_CENTERMARKSYMBOL_11
 70
     0
 10
0.0
 20
0.0
 30
0.0
  3
SW_CENTERMARKSYMBOL_11
  1

  0
LINE
  5
125
  8
0
  6
SLD-PLNÁ
 62
     0
 10
0.0
 20
0.0
 30
0.0
 11
0.0
 21
2.5
 31
0.0
  0
LINE
  5
126
  8
0
  6
SLD-PLNÁ
 62
     0
 10
0.0
 20
0.0
 30
0.0
 11
-2.5
 21
0.0
 31
0.0
  0
LINE
  5
127
  8
0
  6
SLD-PLNÁ
 62
     0
 10
0.0
 20
0.0
 30
0.0
 11
0.0
 21
-2.5
 31
0.0
  0
LINE
  5
128
  8
0
  6
SLD-PLNÁ
 62
     0
 10
0.0
 20
0.0
 30
0.0
 11
2.5
 21
0.0
 31
0.0
  0
LINE
  5
129
  8
0
  6
SLD-PLNÁ
 62
     0
 10
0.0
 20
5.0
 30
0.0
 11
0.0
 21
24.5
 31
0.0
  0
LINE
  5
12A
  8
0
  6
SLD-PLNÁ
 62
     0
 10
-5.0
 20
0.0
 30
0.0
 11
-24.5
 21
0.0
 31
0.0
  0
LINE
  5
12B
  8
0
  6
SLD-PLNÁ
 62
     0
 10
0.0
 20
-5.0
 30
0.0
 11
0.0
 21
-24.5
 31
0.0
  0
LINE
  5
12C
  8
0
  6
SLD-PLNÁ
 62
     0
 10
5.0
 20
0.0
 30
0.0
 11
24.5
 21
0.0
 31
0.0
  0
ENDBLK
  5
124
  8
0
  0
BLOCK
  8
0
  2
SW_CENTERMARKSYMBOL_12
 70
     0
 10
0.0
 20
0.0
 30
0.0
  3
SW_CENTERMARKSYMBOL_12
  1

  0
LINE
  5
131
  8
0
  6
SLD-PLNÁ
 62
     0
 10
0.0
 20
0.0
 30
0.0
 11
0.0
 21
2.5
 31
0.0
  0
LINE
  5
132
  8
0
  6
SLD-PLNÁ
 62
     0
 10
0.0
 20
0.0
 30
0.0
 11
-2.5
 21
0.0
 31
0.0
  0
LINE
  5
133
  8
0
  6
SLD-PLNÁ
 62
     0
 10
0.0
 20
0.0
 30
0.0
 11
0.0
 21
-2.5
 31
0.0
  0
LINE
  5
134
  8
0
  6
SLD-PLNÁ
 62
     0
 10
0.0
 20
0.0
 30
0.0
 11
2.5
 21
0.0
 31
0.0
  0
LINE
  5
135
  8
0
  6
SLD-PLNÁ
 62
     0
 10
0.0
 20
5.0
 30
0.0
 11
0.0
 21
8.0
 31
0.0
  0
LINE
  5
136
  8
0
  6
SLD-PLNÁ
 62
     0
 10
-5.0
 20
0.0
 30
0.0
 11
-8.0
 21
0.0
 31
0.0
  0
LINE
  5
137
  8
0
  6
SLD-PLNÁ
 62
     0
 10
0.0
 20
-5.0
 30
0.0
 11
0.0
 21
-8.0
 31
0.0
  0
LINE
  5
138
  8
0
  6
SLD-PLNÁ
 62
     0
 10
5.0
 20
0.0
 30
0.0
 11
8.0
 21
0.0
 31
0.0
  0
ENDBLK
  5
130
  8
0
  0
BLOCK
  8
0
  2
SW_CENTERMARKSYMBOL_13
 70
     0
 10
0.0
 20
0.0
 30
0.0
  3
SW_CENTERMARKSYMBOL_13
  1

  0
LINE
  5
13D
  8
0
  6
SLD-PLNÁ
 62
     0
 10
0.0
 20
0.0
 30
0.0
 11
0.0
 21
2.5
 31
0.0
  0
LINE
  5
13E
  8
0
  6
SLD-PLNÁ
 62
     0
 10
0.0
 20
0.0
 30
0.0
 11
-2.5
 21
0.0
 31
0.0
  0
LINE
  5
13F
  8
0
  6
SLD-PLNÁ
 62
     0
 10
0.0
 20
0.0
 30
0.0
 11
0.0
 21
-2.5
 31
0.0
  0
LINE
  5
140
  8
0
  6
SLD-PLNÁ
 62
     0
 10
0.0
 20
0.0
 30
0.0
 11
2.5
 21
0.0
 31
0.0
  0
LINE
  5
141
  8
0
  6
SLD-PLNÁ
 62
     0
 10
0.0
 20
5.0
 30
0.0
 11
0.0
 21
8.0
 31
0.0
  0
LINE
  5
142
  8
0
  6
SLD-PLNÁ
 62
     0
 10
-5.0
 20
0.0
 30
0.0
 11
-8.0
 21
0.0
 31
0.0
  0
LINE
  5
143
  8
0
  6
SLD-PLNÁ
 62
     0
 10
0.0
 20
-5.0
 30
0.0
 11
0.0
 21
-8.0
 31
0.0
  0
LINE
  5
144
  8
0
  6
SLD-PLNÁ
 62
     0
 10
5.0
 20
0.0
 30
0.0
 11
8.0
 21
0.0
 31
0.0
  0
ENDBLK
  5
13C
  8
0
  0
BLOCK
  8
0
  2
SW_CENTERMARKSYMBOL_14
 70
     0
 10
0.0
 20
0.0
 30
0.0
  3
SW_CENTERMARKSYMBOL_14
  1

  0
LINE
  5
149
  8
0
  6
SLD-PLNÁ
 62
     0
 10
0.0
 20
0.0
 30
0.0
 11
0.0
 21
2.5
 31
0.0
  0
LINE
  5
14A
  8
0
  6
SLD-PLNÁ
 62
     0
 10
0.0
 20
0.0
 30
0.0
 11
-2.5
 21
0.0
 31
0.0
  0
LINE
  5
14B
  8
0
  6
SLD-PLNÁ
 62
     0
 10
0.0
 20
0.0
 30
0.0
 11
0.0
 21
-2.5
 31
0.0
  0
LINE
  5
14C
  8
0
  6
SLD-PLNÁ
 62
     0
 10
0.0
 20
0.0
 30
0.0
 11
2.5
 21
0.0
 31
0.0
  0
LINE
  5
14D
  8
0
  6
SLD-PLNÁ
 62
     0
 10
0.0
 20
5.0
 30
0.0
 11
0.0
 21
8.0
 31
0.0
  0
LINE
  5
14E
  8
0
  6
SLD-PLNÁ
 62
     0
 10
-5.0
 20
0.0
 30
0.0
 11
-8.0
 21
0.0
 31
0.0
  0
LINE
  5
14F
  8
0
  6
SLD-PLNÁ
 62
     0
 10
0.0
 20
-5.0
 30
0.0
 11
0.0
 21
-8.0
 31
0.0
  0
LINE
  5
150
  8
0
  6
SLD-PLNÁ
 62
     0
 10
5.0
 20
0.0
 30
0.0
 11
8.0
 21
0.0
 31
0.0
  0
ENDBLK
  5
148
  8
0
  0
BLOCK
  8
0
  2
SW_CENTERMARKSYMBOL_15
 70
     0
 10
0.0
 20
0.0
 30
0.0
  3
SW_CENTERMARKSYMBOL_15
  1

  0
LINE
  5
155
  8
0
  6
SLD-PLNÁ
 62
     0
 10
0.0
 20
0.0
 30
0.0
 11
0.0
 21
2.5
 31
0.0
  0
LINE
  5
156
  8
0
  6
SLD-PLNÁ
 62
     0
 10
0.0
 20
0.0
 30
0.0
 11
-2.5
 21
0.0
 31
0.0
  0
LINE
  5
157
  8
0
  6
SLD-PLNÁ
 62
     0
 10
0.0
 20
0.0
 30
0.0
 11
0.0
 21
-2.5
 31
0.0
  0
LINE
  5
158
  8
0
  6
SLD-PLNÁ
 62
     0
 10
0.0
 20
0.0
 30
0.0
 11
2.5
 21
0.0
 31
0.0
  0
LINE
  5
159
  8
0
  6
SLD-PLNÁ
 62
     0
 10
0.0
 20
5.0
 30
0.0
 11
0.0
 21
8.0
 31
0.0
  0
LINE
  5
15A
  8
0
  6
SLD-PLNÁ
 62
     0
 10
-5.0
 20
0.0
 30
0.0
 11
-8.0
 21
0.0
 31
0.0
  0
LINE
  5
15B
  8
0
  6
SLD-PLNÁ
 62
     0
 10
0.0
 20
-5.0
 30
0.0
 11
0.0
 21
-8.0
 31
0.0
  0
LINE
  5
15C
  8
0
  6
SLD-PLNÁ
 62
     0
 10
5.0
 20
0.0
 30
0.0
 11
8.0
 21
0.0
 31
0.0
  0
ENDBLK
  5
154
  8
0
  0
BLOCK
  8
0
  2
SW_CENTERMARKSYMBOL_16
 70
     0
 10
0.0
 20
0.0
 30
0.0
  3
SW_CENTERMARKSYMBOL_16
  1

  0
LINE
  5
161
  8
0
  6
SLD-PLNÁ
 62
     0
 10
0.0
 20
0.0
 30
0.0
 11
0.0
 21
2.5
 31
0.0
  0
LINE
  5
162
  8
0
  6
SLD-PLNÁ
 62
     0
 10
0.0
 20
0.0
 30
0.0
 11
-2.5
 21
0.0
 31
0.0
  0
LINE
  5
163
  8
0
  6
SLD-PLNÁ
 62
     0
 10
0.0
 20
0.0
 30
0.0
 11
0.0
 21
-2.5
 31
0.0
  0
LINE
  5
164
  8
0
  6
SLD-PLNÁ
 62
     0
 10
0.0
 20
0.0
 30
0.0
 11
2.5
 21
0.0
 31
0.0
  0
LINE
  5
165
  8
0
  6
SLD-PLNÁ
 62
     0
 10
0.0
 20
5.0
 30
0.0
 11
0.0
 21
8.0
 31
0.0
  0
LINE
  5
166
  8
0
  6
SLD-PLNÁ
 62
     0
 10
-5.0
 20
0.0
 30
0.0
 11
-8.0
 21
0.0
 31
0.0
  0
LINE
  5
167
  8
0
  6
SLD-PLNÁ
 62
     0
 10
0.0
 20
-5.0
 30
0.0
 11
0.0
 21
-8.0
 31
0.0
  0
LINE
  5
168
  8
0
  6
SLD-PLNÁ
 62
     0
 10
5.0
 20
0.0
 30
0.0
 11
8.0
 21
0.0
 31
0.0
  0
ENDBLK
  5
160
  8
0
  0
BLOCK
  8
0
  2
SW_CENTERMARKSYMBOL_17
 70
     0
 10
0.0
 20
0.0
 30
0.0
  3
SW_CENTERMARKSYMBOL_17
  1

  0
LINE
  5
16D
  8
0
  6
SLD-PLNÁ
 62
     0
 10
0.0
 20
0.0
 30
0.0
 11
0.0
 21
2.5
 31
0.0
  0
LINE
  5
16E
  8
0
  6
SLD-PLNÁ
 62
     0
 10
0.0
 20
0.0
 30
0.0
 11
-2.5
 21
0.0
 31
0.0
  0
LINE
  5
16F
  8
0
  6
SLD-PLNÁ
 62
     0
 10
0.0
 20
0.0
 30
0.0
 11
0.0
 21
-2.5
 31
0.0
  0
LINE
  5
170
  8
0
  6
SLD-PLNÁ
 62
     0
 10
0.0
 20
0.0
 30
0.0
 11
2.5
 21
0.0
 31
0.0
  0
LINE
  5
171
  8
0
  6
SLD-PLNÁ
 62
     0
 10
0.0
 20
5.0
 30
0.0
 11
0.0
 21
8.0
 31
0.0
  0
LINE
  5
172
  8
0
  6
SLD-PLNÁ
 62
     0
 10
-5.0
 20
0.0
 30
0.0
 11
-8.0
 21
0.0
 31
0.0
  0
LINE
  5
173
  8
0
  6
SLD-PLNÁ
 62
     0
 10
0.0
 20
-5.0
 30
0.0
 11
0.0
 21
-8.0
 31
0.0
  0
LINE
  5
174
  8
0
  6
SLD-PLNÁ
 62
     0
 10
5.0
 20
0.0
 30
0.0
 11
8.0
 21
0.0
 31
0.0
  0
ENDBLK
  5
16C
  8
0
  0
BLOCK
  8
0
  2
SW_CENTERMARKSYMBOL_18
 70
     0
 10
0.0
 20
0.0
 30
0.0
  3
SW_CENTERMARKSYMBOL_18
  1

  0
LINE
  5
179
  8
0
  6
SLD-PLNÁ
 62
     0
 10
0.0
 20
0.0
 30
0.0
 11
0.0
 21
2.5
 31
0.0
  0
LINE
  5
17A
  8
0
  6
SLD-PLNÁ
 62
     0
 10
0.0
 20
0.0
 30
0.0
 11
-2.5
 21
0.0
 31
0.0
  0
LINE
  5
17B
  8
0
  6
SLD-PLNÁ
 62
     0
 10
0.0
 20
0.0
 30
0.0
 11
0.0
 21
-2.5
 31
0.0
  0
LINE
  5
17C
  8
0
  6
SLD-PLNÁ
 62
     0
 10
0.0
 20
0.0
 30
0.0
 11
2.5
 21
0.0
 31
0.0
  0
LINE
  5
17D
  8
0
  6
SLD-PLNÁ
 62
     0
 10
0.0
 20
5.0
 30
0.0
 11
0.0
 21
8.0
 31
0.0
  0
LINE
  5
17E
  8
0
  6
SLD-PLNÁ
 62
     0
 10
-5.0
 20
0.0
 30
0.0
 11
-8.0
 21
0.0
 31
0.0
  0
LINE
  5
17F
  8
0
  6
SLD-PLNÁ
 62
     0
 10
0.0
 20
-5.0
 30
0.0
 11
0.0
 21
-8.0
 31
0.0
  0
LINE
  5
180
  8
0
  6
SLD-PLNÁ
 62
     0
 10
5.0
 20
0.0
 30
0.0
 11
8.0
 21
0.0
 31
0.0
  0
ENDBLK
  5
178
  8
0
  0
BLOCK
  8
0
  2
SW_CENTERMARKSYMBOL_19
 70
     0
 10
0.0
 20
0.0
 30
0.0
  3
SW_CENTERMARKSYMBOL_19
  1

  0
LINE
  5
185
  8
0
  6
SLD-PLNÁ
 62
     0
 10
0.0
 20
0.0
 30
0.0
 11
0.0
 21
2.5
 31
0.0
  0
LINE
  5
186
  8
0
  6
SLD-PLNÁ
 62
     0
 10
0.0
 20
0.0
 30
0.0
 11
-2.5
 21
0.0
 31
0.0
  0
LINE
  5
187
  8
0
  6
SLD-PLNÁ
 62
     0
 10
0.0
 20
0.0
 30
0.0
 11
0.0
 21
-2.5
 31
0.0
  0
LINE
  5
188
  8
0
  6
SLD-PLNÁ
 62
     0
 10
0.0
 20
0.0
 30
0.0
 11
2.5
 21
0.0
 31
0.0
  0
LINE
  5
189
  8
0
  6
SLD-PLNÁ
 62
     0
 10
0.0
 20
5.0
 30
0.0
 11
0.0
 21
8.0
 31
0.0
  0
LINE
  5
18A
  8
0
  6
SLD-PLNÁ
 62
     0
 10
-5.0
 20
0.0
 30
0.0
 11
-8.0
 21
0.0
 31
0.0
  0
LINE
  5
18B
  8
0
  6
SLD-PLNÁ
 62
     0
 10
0.0
 20
-5.0
 30
0.0
 11
0.0
 21
-8.0
 31
0.0
  0
LINE
  5
18C
  8
0
  6
SLD-PLNÁ
 62
     0
 10
5.0
 20
0.0
 30
0.0
 11
8.0
 21
0.0
 31
0.0
  0
ENDBLK
  5
184
  8
0
  0
ENDSEC
  0
SECTION
  2
ENTITIES
  0
CIRCLE
  5
56
  8
VIDITELNE
  6
SLD-PLNÁ
 62
     2
 10
120.0
 20
0.0
 30
0.0
 40
7.299999999999997
  0
CIRCLE
  5
57
  8
VIDITELNE
  6
SLD-PLNÁ
 62
     2
 10
120.0
 20
0.0
 30
0.0
 40
14.74999999999997
  0
CIRCLE
  5
58
  8
VIDITELNE
  6
SLD-PLNÁ
 62
     2
 10
120.0
 20
0.0
 30
0.0
 40
7.0
  0
CIRCLE
  5
59
  8
VIDITELNE
  6
SLD-PLNÁ
 62
     2
 10
120.0
 20
0.0
 30
0.0
 40
19.69999999999999
  0
CIRCLE
  5
5A
  8
VIDITELNE
  6
SLD-PLNÁ
 62
     2
 10
120.0
 20
0.0
 30
0.0
 40
19.99999999999997
  0
CIRCLE
  5
5B
  8
VIDITELNE
  6
SLD-PLNÁ
 62
     2
 10
120.0
 20
0.0
 30
0.0
 40
23.0
  0
LINE
  5
5C
  8
VIDITELNE
  6
SLD-PLNÁ
 62
     2
 10
-64.56
 20
-75.6402432571
 30
0.0
 11
127.44
 21
-36.4484073726
 31
0.0
  0
LINE
  5
5D
  8
VIDITELNE
  6
SLD-PLNÁ
 62
     2
 10
127.44
 20
-36.4484073726
 30
0.0
 11
127.5
 21
-36.7423461417
 31
0.0
  0
LINE
  5
5E
  8
VIDITELNE
  6
SLD-PLNÁ
 62
     2
 10
127.5
 20
-36.7423461417
 30
0.0
 11
-64.5
 21
-75.9341820263
 31
0.0
  0
LINE
  5
5F
  8
VIDITELNE
  6
SLD-PLNÁ
 62
     2
 10
-64.56
 20
-75.6402432571
 30
0.0
 11
-64.5
 21
-75.9341820263
 31
0.0
  0
CIRCLE
  5
60
  8
VIDITELNE
  6
SLD-PLNÁ
 62
     2
 10
-34.0380592229
 20
-45.9619407771
 30
0.0
 40
5.499999999999996
  0
CIRCLE
  5
61
  8
VIDITELNE
  6
SLD-PLNÁ
 62
     2
 10
-34.0380592229
 20
-45.9619407771
 30
0.0
 40
5.799999999999997
  0
CIRCLE
  5
62
  8
VIDITELNE
  6
SLD-PLNÁ
 62
     2
 10
-125.9619407771
 20
-45.9619407771
 30
0.0
 40
5.499999999999986
  0
CIRCLE
  5
63
  8
VIDITELNE
  6
SLD-PLNÁ
 62
     2
 10
-125.9619407771
 20
-45.9619407771
 30
0.0
 40
5.799999999999997
  0
ARC
  5
64
  8
VIDITELNE
  6
SLD-PLNÁ
 62
     2
 10
120.0
 20
0.0
 30
0.0
 40
37.19999999999999
 50
281.5369590328
 51
78.4630409672
  0
LINE
  5
65
  8
VIDITELNE
  6
SLD-PLNÁ
 62
     2
 10
127.5
 20
36.7423461417
 30
0.0
 11
127.44
 21
36.4484073726
 31
0.0
  0
ARC
  5
66
  8
VIDITELNE
  6
SLD-PLNÁ
 62
     2
 10
120.0
 20
0.0
 30
0.0
 40
37.50000000000001
 50
281.5369590328
 51
78.4630409672
  0
CIRCLE
  5
67
  8
VIDITELNE
  6
SLD-PLNÁ
 62
     2
 10
-125.9619407771
 20
45.9619407771
 30
0.0
 40
5.499999999999972
  0
CIRCLE
  5
68
  8
VIDITELNE
  6
SLD-PLNÁ
 62
     2
 10
-125.9619407771
 20
45.9619407771
 30
0.0
 40
5.799999999999983
  0
ARC
  5
69
  8
VIDITELNE
  6
SLD-PLNÁ
 62
     2
 10
-80.0
 20
0.0
 30
0.0
 40
77.20000000000016
 50
78.4630409672
 51
281.5369590328
  0
ARC
  5
6A
  8
VIDITELNE
  6
SLD-PLNÁ
 62
     2
 10
-80.0
 20
0.0
 30
0.0
 40
77.50000000000011
 50
78.4630409672
 51
281.5369590328
  0
LINE
  5
6B
  8
VIDITELNE
  6
SLD-PLNÁ
 62
     2
 10
-64.5
 20
75.9341820263
 30
0.0
 11
-64.56
 21
75.6402432571
 31
0.0
  0
CIRCLE
  5
6C
  8
VIDITELNE
  6
SLD-PLNÁ
 62
     2
 10
-80.0
 20
65.0
 30
0.0
 40
5.5
  0
CIRCLE
  5
6D
  8
VIDITELNE
  6
SLD-PLNÁ
 62
     2
 10
-80.0
 20
65.0
 30
0.0
 40
5.799999999999997
  0
CIRCLE
  5
6E
  8
VIDITELNE
  6
SLD-PLNÁ
 62
     2
 10
-80.0
 20
0.0
 30
0.0
 40
55.3
  0
CIRCLE
  5
6F
  8
VIDITELNE
  6
SLD-PLNÁ
 62
     2
 10
-34.0380592229
 20
45.9619407771
 30
0.0
 40
5.799999999999997
  0
CIRCLE
  5
70
  8
VIDITELNE
  6
SLD-PLNÁ
 62
     2
 10
-15.0
 20
0.0
 30
0.0
 40
5.800000000000001
  0
CIRCLE
  5
71
  8
VIDITELNE
  6
SLD-PLNÁ
 62
     2
 10
-80.0
 20
-65.0
 30
0.0
 40
5.800000000000011
  0
CIRCLE
  5
72
  8
VIDITELNE
  6
SLD-PLNÁ
 62
     2
 10
-145.0
 20
0.0
 30
0.0
 40
5.800000000000011
  0
LINE
  5
73
  8
VIDITELNE
  6
SLD-PLNÁ
 62
     2
 10
127.44
 20
36.4484073726
 30
0.0
 11
-64.56
 21
75.6402432571
 31
0.0
  0
CIRCLE
  5
74
  8
VIDITELNE
  6
SLD-PLNÁ
 62
     2
 10
-80.0
 20
-65.0
 30
0.0
 40
5.5
  0
CIRCLE
  5
75
  8
VIDITELNE
  6
SLD-PLNÁ
 62
     2
 10
-145.0
 20
0.0
 30
0.0
 40
5.5
  0
CIRCLE
  5
76
  8
VIDITELNE
  6
SLD-PLNÁ
 62
     2
 10
-34.0380592229
 20
45.9619407771
 30
0.0
 40
5.499999999999996
  0
LINE
  5
77
  8
VIDITELNE
  6
SLD-PLNÁ
 62
     2
 10
-64.5
 20
75.9341820263
 30
0.0
 11
127.5
 21
36.7423461417
 31
0.0
  0
CIRCLE
  5
78
  8
VIDITELNE
  6
SLD-PLNÁ
 62
     2
 10
-15.0
 20
0.0
 30
0.0
 40
5.500000000000005
  0
CIRCLE
  5
79
  8
VIDITELNE
  6
SLD-PLNÁ
 62
     2
 10
-80.0
 20
0.0
 30
0.0
 40
55.0
  0
INSERT
  5
85
  8
0
  6
SLD-PLNÁ
 62
     7
  2
SW_CENTERMARKSYMBOL_0
 10
-80.0
 20
0.0
 30
0.0
  0
INSERT
  5
91
  8
0
  6
SLD-PLNÁ
 62
     7
  2
SW_CENTERMARKSYMBOL_1
 10
120.0
 20
0.0
 30
0.0
  0
INSERT
  5
9D
  8
0
  6
SLD-PLNÁ
 62
     7
  2
SW_CENTERMARKSYMBOL_2
 10
-15.0
 20
0.0
 30
0.0
  0
INSERT
  5
A9
  8
0
  6
SLD-PLNÁ
 62
     7
  2
SW_CENTERMARKSYMBOL_3
 10
-34.0380592229
 20
-45.9619407771
 30
0.0
  0
INSERT
  5
B5
  8
0
  6
SLD-PLNÁ
 62
     7
  2
SW_CENTERMARKSYMBOL_4
 10
-80.0
 20
-65.0
 30
0.0
  0
INSERT
  5
C1
  8
0
  6
SLD-PLNÁ
 62
     7
  2
SW_CENTERMARKSYMBOL_5
 10
-125.9619407771
 20
-45.9619407771
 30
0.0
  0
INSERT
  5
CD
  8
0
  6
SLD-PLNÁ
 62
     7
  2
SW_CENTERMARKSYMBOL_6
 10
-145.0
 20
0.0
 30
0.0
  0
INSERT
  5
D9
  8
0
  6
SLD-PLNÁ
 62
     7
  2
SW_CENTERMARKSYMBOL_7
 10
-125.9619407771
 20
45.9619407771
 30
0.0
  0
INSERT
  5
E5
  8
0
  6
SLD-PLNÁ
 62
     7
  2
SW_CENTERMARKSYMBOL_8
 10
-80.0
 20
65.0
 30
0.0
  0
INSERT
  5
F1
  8
0
  6
SLD-PLNÁ
 62
     7
  2
SW_CENTERMARKSYMBOL_9
 10
-34.0380592229
 20
45.9619407771
 30
0.0
  0
CIRCLE
  5
F2
  8
VIDITELNE
  6
SLD-PLNÁ
 62
     2
 10
580.0
 20
0.0
 30
0.0
 40
7.299999999999955
  0
CIRCLE
  5
F3
  8
VIDITELNE
  6
SLD-PLNÁ
 62
     2
 10
580.0
 20
0.0
 30
0.0
 40
14.75
  0
CIRCLE
  5
F4
  8
VIDITELNE
  6
SLD-PLNÁ
 62
     2
 10
580.0
 20
0.0
 30
0.0
 40
7.0
  0
CIRCLE
  5
F5
  8
VIDITELNE
  6
SLD-PLNÁ
 62
     2
 10
580.0
 20
0.0
 30
0.0
 40
22.00000000000011
  0
CIRCLE
  5
F6
  8
VIDITELNE
  6
SLD-PLNÁ
 62
     2
 10
580.0
 20
0.0
 30
0.0
 40
21.69999999999993
  0
CIRCLE
  5
F7
  8
VIDITELNE
  6
SLD-PLNÁ
 62
     2
 10
580.0
 20
0.0
 30
0.0
 40
25.0
  0
CIRCLE
  5
F8
  8
VIDITELNE
  6
SLD-PLNÁ
 62
     2
 10
734.0380592229
 20
-45.9619407771
 30
0.0
 40
5.800000000000068
  0
CIRCLE
  5
F9
  8
VIDITELNE
  6
SLD-PLNÁ
 62
     2
 10
734.0380592229
 20
-45.9619407771
 30
0.0
 40
5.500000000000114
  0
CIRCLE
  5
FA
  8
VIDITELNE
  6
SLD-PLNÁ
 62
     2
 10
734.0380592229
 20
45.9619407771
 30
0.0
 40
5.800000000000068
  0
CIRCLE
  5
FB
  8
VIDITELNE
  6
SLD-PLNÁ
 62
     2
 10
734.0380592229
 20
45.9619407771
 30
0.0
 40
5.500000000000114
  0
LINE
  5
FC
  8
VIDITELNE
  6
SLD-PLNÁ
 62
     2
 10
572.5
 20
36.7423461417
 30
0.0
 11
764.5
 21
75.9341820263
 31
0.0
  0
LINE
  5
FD
  8
VIDITELNE
  6
SLD-PLNÁ
 62
     2
 10
764.5
 20
75.9341820263
 30
0.0
 11
764.56
 21
75.6402432571
 31
0.0
  0
LINE
  5
FE
  8
VIDITELNE
  6
SLD-PLNÁ
 62
     2
 10
764.56
 20
75.6402432571
 30
0.0
 11
572.56
 21
36.4484073726
 31
0.0
  0
LINE
  5
FF
  8
VIDITELNE
  6
SLD-PLNÁ
 62
     2
 10
572.5
 20
36.7423461417
 30
0.0
 11
572.56
 21
36.4484073726
 31
0.0
  0
CIRCLE
  5
100
  8
VIDITELNE
  6
SLD-PLNÁ
 62
     2
 10
780.0
 20
-65.0
 30
0.0
 40
5.799999999999955
  0
CIRCLE
  5
101
  8
VIDITELNE
  6
SLD-PLNÁ
 62
     2
 10
780.0
 20
-65.0
 30
0.0
 40
5.5
  0
ARC
  5
102
  8
VIDITELNE
  6
SLD-PLNÁ
 62
     2
 10
780.0
 20
0.0
 30
0.0
 40
77.50000000000011
 50
258.4630409672
 51
101.5369590328
  0
LINE
  5
103
  8
VIDITELNE
  6
SLD-PLNÁ
 62
     2
 10
764.56
 20
-75.6402432571
 30
0.0
 11
764.5
 21
-75.9341820263
 31
0.0
  0
ARC
  5
104
  8
VIDITELNE
  6
SLD-PLNÁ
 62
     2
 10
780.0
 20
0.0
 30
0.0
 40
77.20000000000009
 50
258.4630409672
 51
101.5369590328
  0
CIRCLE
  5
105
  8
VIDITELNE
  6
SLD-PLNÁ
 62
     2
 10
845.0
 20
0.0
 30
0.0
 40
5.799999999999955
  0
CIRCLE
  5
106
  8
VIDITELNE
  6
SLD-PLNÁ
 62
     2
 10
845.0
 20
0.0
 30
0.0
 40
5.5
  0
CIRCLE
  5
107
  8
VIDITELNE
  6
SLD-PLNÁ
 62
     2
 10
780.0
 20
0.0
 30
0.0
 40
55.29999999999995
  0
ARC
  5
108
  8
VIDITELNE
  6
SLD-PLNÁ
 62
     2
 10
580.0
 20
0.0
 30
0.0
 40
37.20000000000002
 50
101.5369590328
 51
258.4630409672
  0
LINE
  5
109
  8
VIDITELNE
  6
SLD-PLNÁ
 62
     2
 10
572.56
 20
-36.4484073726
 30
0.0
 11
764.56
 21
-75.6402432571
 31
0.0
  0
CIRCLE
  5
10A
  8
VIDITELNE
  6
SLD-PLNÁ
 62
     2
 10
825.9619407771
 20
-45.9619407771
 30
0.0
 40
5.800000000000068
  0
CIRCLE
  5
10B
  8
VIDITELNE
  6
SLD-PLNÁ
 62
     2
 10
825.9619407771
 20
45.9619407771
 30
0.0
 40
5.800000000000068
  0
CIRCLE
  5
10C
  8
VIDITELNE
  6
SLD-PLNÁ
 62
     2
 10
780.0
 20
65.0
 30
0.0
 40
5.799999999999955
  0
CIRCLE
  5
10D
  8
VIDITELNE
  6
SLD-PLNÁ
 62
     2
 10
715.0
 20
0.0
 30
0.0
 40
5.800000000000068
  0
CIRCLE
  5
10E
  8
VIDITELNE
  6
SLD-PLNÁ
 62
     2
 10
780.0
 20
65.0
 30
0.0
 40
5.499999999999886
  0
CIRCLE
  5
10F
  8
VIDITELNE
  6
SLD-PLNÁ
 62
     2
 10
715.0
 20
0.0
 30
0.0
 40
5.5
  0
ARC
  5
110
  8
VIDITELNE
  6
SLD-PLNÁ
 62
     2
 10
580.0
 20
0.0
 30
0.0
 40
37.50000000000001
 50
101.5369590328
 51
258.4630409672
  0
LINE
  5
111
  8
VIDITELNE
  6
SLD-PLNÁ
 62
     2
 10
572.56
 20
-36.4484073726
 30
0.0
 11
572.5
 21
-36.7423461417
 31
0.0
  0
CIRCLE
  5
112
  8
VIDITELNE
  6
SLD-PLNÁ
 62
     2
 10
825.9619407771
 20
-45.9619407771
 30
0.0
 40
5.5
  0
CIRCLE
  5
113
  8
VIDITELNE
  6
SLD-PLNÁ
 62
     2
 10
825.9619407771
 20
45.9619407771
 30
0.0
 40
5.5
  0
CIRCLE
  5
114
  8
VIDITELNE
  6
SLD-PLNÁ
 62
     2
 10
780.0
 20
0.0
 30
0.0
 40
55.0
  0
LINE
  5
115
  8
VIDITELNE
  6
SLD-PLNÁ
 62
     2
 10
764.5
 20
-75.9341820263
 30
0.0
 11
572.5
 21
-36.7423461417
 31
0.0
  0
INSERT
  5
121
  8
0
  6
SLD-PLNÁ
 62
     7
  2
SW_CENTERMARKSYMBOL_10
 10
780.0
 20
0.0
 30
0.0
  0
INSERT
  5
12D
  8
0
  6
SLD-PLNÁ
 62
     7
  2
SW_CENTERMARKSYMBOL_11
 10
580.0
 20
0.0
 30
0.0
  0
INSERT
  5
139
  8
0
  6
SLD-PLNÁ
 62
     7
  2
SW_CENTERMARKSYMBOL_12
 10
715.0
 20
0.0
 30
0.0
  0
INSERT
  5
145
  8
0
  6
SLD-PLNÁ
 62
     7
  2
SW_CENTERMARKSYMBOL_13
 10
734.0380592229
 20
-45.9619407771
 30
0.0
  0
INSERT
  5
151
  8
0
  6
SLD-PLNÁ
 62
     7
  2
SW_CENTERMARKSYMBOL_14
 10
780.0
 20
-65.0
 30
0.0
  0
INSERT
  5
15D
  8
0
  6
SLD-PLNÁ
 62
     7
  2
SW_CENTERMARKSYMBOL_15
 10
825.9619407771
 20
-45.9619407771
 30
0.0
  0
INSERT
  5
169
  8
0
  6
SLD-PLNÁ
 62
     7
  2
SW_CENTERMARKSYMBOL_16
 10
845.0
 20
0.0
 30
0.0
  0
INSERT
  5
175
  8
0
  6
SLD-PLNÁ
 62
     7
  2
SW_CENTERMARKSYMBOL_17
 10
825.9619407771
 20
45.9619407771
 30
0.0
  0
INSERT
  5
181
  8
0
  6
SLD-PLNÁ
 62
     7
  2
SW_CENTERMARKSYMBOL_18
 10
780.0
 20
65.0
 30
0.0
  0
INSERT
  5
18D
  8
0
  6
SLD-PLNÁ
 62
     7
  2
SW_CENTERMARKSYMBOL_19
 10
734.0380592229
 20
45.9619407771
 30
0.0
  0
LINE
  5
18E
  8
VIDITELNE
  6
SLD-PLNÁ
 62
     2
 10
-347.0
 20
-25.0
 30
0.0
 11
-344.0
 21
-22.0
 31
0.0
  0
LINE
  5
18F
  8
VIDITELNE
  6
SLD-PLNÁ
 62
     2
 10
-344.0
 20
22.0
 30
0.0
 11
-347.0
 21
25.0
 31
0.0
  0
LINE
  5
190
  8
VIDITELNE
  6
SLD-PLNÁ
 62
     2
 10
-353.0
 20
23.0
 30
0.0
 11
-356.0
 21
20.0
 31
0.0
  0
LINE
  5
191
  8
VIDITELNE
  6
SLD-PLNÁ
 62
     2
 10
-356.0
 20
-20.0
 30
0.0
 11
-353.0
 21
-23.0
 31
0.0
  0
LINE
  5
192
  8
VIDITELNE
  6
SLD-PLNÁ
 62
     2
 10
-338.3
 20
-22.0
 30
0.0
 11
-338.0
 21
-21.7
 31
0.0
  0
LINE
  5
193
  8
VIDITELNE
  6
SLD-PLNÁ
 62
     2
 10
-338.0
 20
21.7
 30
0.0
 11
-338.3
 21
22.0
 31
0.0
  0
LINE
  5
194
  8
VIDITELNE
  6
SLD-PLNÁ
 62
     2
 10
-344.0
 20
-22.0
 30
0.0
 11
-338.3
 21
-22.0
 31
0.0
  0
LINE
  5
195
  8
VIDITELNE
  6
SLD-PLNÁ
 62
     2
 10
-338.3
 20
22.0
 30
0.0
 11
-344.0
 21
22.0
 31
0.0
  0
LINE
  5
196
  8
VIDITELNE
  6
SLD-PLNÁ
 62
     2
 10
-356.0
 20
20.0
 30
0.0
 11
-361.7
 21
20.0
 31
0.0
  0
LINE
  5
197
  8
VIDITELNE
  6
SLD-PLNÁ
 62
     2
 10
-361.7
 20
-20.0
 30
0.0
 11
-356.0
 21
-20.0
 31
0.0
  0
LINE
  5
198
  8
VIDITELNE
  6
SLD-PLNÁ
 62
     2
 10
-361.7
 20
20.0
 30
0.0
 11
-362.0
 21
19.7
 31
0.0
  0
LINE
  5
199
  8
VIDITELNE
  6
SLD-PLNÁ
 62
     2
 10
-362.0
 20
-19.7
 30
0.0
 11
-361.7
 21
-20.0
 31
0.0
  0
LINE
  5
19A
  8
VIDITELNE
  6
SLD-PLNÁ
 62
     2
 10
-337.995
 20
14.75
 30
0.0
 11
-338.0
 21
14.75
 31
0.0
  0
LINE
  5
19B
  8
VIDITELNE
  6
SLD-PLNÁ
 62
     2
 10
-338.0
 20
-14.75
 30
0.0
 11
-337.995
 21
-14.75
 31
0.0
  0
LINE
  5
19C
  8
VIDITELNE
  6
SLD-PLNÁ
 62
     2
 10
-362.0
 20
14.75
 30
0.0
 11
-362.005
 21
14.75
 31
0.0
  0
LINE
  5
19D
  8
VIDITELNE
  6
SLD-PLNÁ
 62
     2
 10
-362.005
 20
-14.75
 30
0.0
 11
-362.0
 21
-14.75
 31
0.0
  0
LINE
  5
19E
  8
VIDITELNE
  6
SLD-PLNÁ
 62
     2
 10
-352.7
 20
77.5
 30
0.0
 11
-353.0
 21
77.2
 31
0.0
  0
LINE
  5
19F
  8
VIDITELNE
  6
SLD-PLNÁ
 62
     2
 10
-353.0
 20
-77.2
 30
0.0
 11
-352.7
 21
-77.5
 31
0.0
  0
LINE
  5
1A0
  8
VIDITELNE
  6
SLD-PLNÁ
 62
     2
 10
-347.3
 20
-77.5
 30
0.0
 11
-347.0
 21
-77.2
 31
0.0
  0
LINE
  5
1A1
  8
VIDITELNE
  6
SLD-PLNÁ
 62
     2
 10
-347.0
 20
77.2
 30
0.0
 11
-347.3
 21
77.5
 31
0.0
  0
LINE
  5
1A2
  8
VIDITELNE
  6
SLD-PLNÁ
 62
     2
 10
-347.3
 20
77.5
 30
0.0
 11
-352.7
 21
77.5
 31
0.0
  0
LINE
  5
1A3
  8
VIDITELNE
  6
SLD-PLNÁ
 62
     2
 10
-352.7
 20
-77.5
 30
0.0
 11
-347.3
 21
-77.5
 31
0.0
  0
LINE
  5
1A4
  8
VIDITELNE
  6
SLD-PLNÁ
 62
     2
 10
-347.3
 20
-36.7423461417
 30
0.0
 11
-347.3
 21
36.7423461417
 31
0.0
  0
LINE
  5
1A5
  8
VIDITELNE
  6
SLD-PLNÁ
 62
     2
 10
-347.3
 20
36.7423461417
 30
0.0
 11
-347.0
 21
36.4484073726
 31
0.0
  0
LINE
  5
1A6
  8
VIDITELNE
  6
SLD-PLNÁ
 62
     2
 10
-347.0
 20
36.4484073726
 30
0.0
 11
-347.0
 21
-36.4484073726
 31
0.0
  0
LINE
  5
1A7
  8
VIDITELNE
  6
SLD-PLNÁ
 62
     2
 10
-347.0
 20
-36.4484073726
 30
0.0
 11
-347.3
 21
-36.7423461417
 31
0.0
  0
LINE
  5
1A8
  8
VIDITELNE
  6
SLD-PLNÁ
 62
     2
 10
-352.7
 20
36.7423461417
 30
0.0
 11
-352.7
 21
-36.7423461417
 31
0.0
  0
LINE
  5
1A9
  8
VIDITELNE
  6
SLD-PLNÁ
 62
     2
 10
-352.7
 20
36.7423461417
 30
0.0
 11
-347.3
 21
36.7423461417
 31
0.0
  0
LINE
  5
1AA
  8
VIDITELNE
  6
SLD-PLNÁ
 62
     2
 10
-352.7
 20
-36.7423461417
 30
0.0
 11
-347.3
 21
-36.7423461417
 31
0.0
  0
LINE
  5
1AB
  8
VIDITELNE
  6
SLD-PLNÁ
 62
     2
 10
-353.0
 20
-36.4484073726
 30
0.0
 11
-353.0
 21
36.4484073726
 31
0.0
  0
LINE
  5
1AC
  8
VIDITELNE
  6
SLD-PLNÁ
 62
     2
 10
-352.7
 20
36.7423461417
 30
0.0
 11
-353.0
 21
36.4484073726
 31
0.0
  0
LINE
  5
1AD
  8
VIDITELNE
  6
SLD-PLNÁ
 62
     2
 10
-353.0
 20
-36.4484073726
 30
0.0
 11
-352.7
 21
-36.7423461417
 31
0.0
  0
LINE
  5
1AE
  8
VIDITELNE
  6
SLD-PLNÁ
 62
     2
 10
-344.0
 20
0.0
 30
0.0
 11
-344.0
 21
-22.0
 31
0.0
  0
LINE
  5
1AF
  8
VIDITELNE
  6
SLD-PLNÁ
 62
     2
 10
-344.0
 20
22.0
 30
0.0
 11
-344.0
 21
0.0
 31
0.0
  0
LINE
  5
1B0
  8
VIDITELNE
  6
SLD-PLNÁ
 62
     2
 10
-356.0
 20
0.0
 30
0.0
 11
-356.0
 21
20.0
 31
0.0
  0
LINE
  5
1B1
  8
VIDITELNE
  6
SLD-PLNÁ
 62
     2
 10
-356.0
 20
-20.0
 30
0.0
 11
-356.0
 21
0.0
 31
0.0
  0
LINE
  5
1B2
  8
VIDITELNE
  6
SLD-PLNÁ
 62
     2
 10
-338.3
 20
0.0
 30
0.0
 11
-338.3
 21
22.0
 31
0.0
  0
LINE
  5
1B3
  8
VIDITELNE
  6
SLD-PLNÁ
 62
     2
 10
-338.3
 20
-22.0
 30
0.0
 11
-338.3
 21
0.0
 31
0.0
  0
LINE
  5
1B4
  8
VIDITELNE
  6
SLD-PLNÁ
 62
     2
 10
-338.0
 20
0.0
 30
0.0
 11
-338.0
 21
-21.7
 31
0.0
  0
LINE
  5
1B5
  8
VIDITELNE
  6
SLD-PLNÁ
 62
     2
 10
-338.0
 20
21.7
 30
0.0
 11
-338.0
 21
0.0
 31
0.0
  0
LINE
  5
1B6
  8
VIDITELNE
  6
SLD-PLNÁ
 62
     2
 10
-361.7
 20
0.0
 30
0.0
 11
-361.7
 21
-20.0
 31
0.0
  0
LINE
  5
1B7
  8
VIDITELNE
  6
SLD-PLNÁ
 62
     2
 10
-361.7
 20
20.0
 30
0.0
 11
-361.7
 21
0.0
 31
0.0
  0
LINE
  5
1B8
  8
VIDITELNE
  6
SLD-PLNÁ
 62
     2
 10
-362.0
 20
0.0
 30
0.0
 11
-362.0
 21
19.7
 31
0.0
  0
LINE
  5
1B9
  8
VIDITELNE
  6
SLD-PLNÁ
 62
     2
 10
-362.0
 20
-19.7
 30
0.0
 11
-362.0
 21
0.0
 31
0.0
  0
LINE
  5
1BA
  8
VIDITELNE
  6
SLD-PLNÁ
 62
     2
 10
-337.995
 20
0.0
 30
0.0
 11
-337.995
 21
14.75
 31
0.0
  0
LINE
  5
1BB
  8
VIDITELNE
  6
SLD-PLNÁ
 62
     2
 10
-337.995
 20
-14.75
 30
0.0
 11
-337.995
 21
0.0
 31
0.0
  0
LINE
  5
1BC
  8
VIDITELNE
  6
SLD-PLNÁ
 62
     2
 10
-362.005
 20
0.0
 30
0.0
 11
-362.005
 21
14.75
 31
0.0
  0
LINE
  5
1BD
  8
VIDITELNE
  6
SLD-PLNÁ
 62
     2
 10
-362.005
 20
-14.75
 30
0.0
 11
-362.005
 21
0.0
 31
0.0
  0
LINE
  5
1BE
  8
VIDITELNE
  6
SLD-PLNÁ
 62
     2
 10
-352.7
 20
75.9341820263
 30
0.0
 11
-352.7
 21
36.7423461417
 31
0.0
  0
LINE
  5
1BF
  8
VIDITELNE
  6
SLD-PLNÁ
 62
     2
 10
-352.7
 20
75.9341820263
 30
0.0
 11
-347.3
 21
75.9341820263
 31
0.0
  0
LINE
  5
1C0
  8
VIDITELNE
  6
SLD-PLNÁ
 62
     2
 10
-347.3
 20
36.7423461417
 30
0.0
 11
-347.3
 21
75.9341820263
 31
0.0
  0
LINE
  5
1C1
  8
VIDITELNE
  6
SLD-PLNÁ
 62
     2
 10
-352.7
 20
75.9341820263
 30
0.0
 11
-353.0
 21
75.6402432571
 31
0.0
  0
LINE
  5
1C2
  8
VIDITELNE
  6
SLD-PLNÁ
 62
     2
 10
-353.0
 20
36.4484073726
 30
0.0
 11
-353.0
 21
75.6402432571
 31
0.0
  0
LINE
  5
1C3
  8
VIDITELNE
  6
SLD-PLNÁ
 62
     2
 10
-347.0
 20
-75.6402432571
 30
0.0
 11
-347.3
 21
-75.9341820263
 31
0.0
  0
LINE
  5
1C4
  8
VIDITELNE
  6
SLD-PLNÁ
 62
     2
 10
-347.3
 20
-75.9341820263
 30
0.0
 11
-347.3
 21
-36.7423461417
 31
0.0
  0
LINE
  5
1C5
  8
VIDITELNE
  6
SLD-PLNÁ
 62
     2
 10
-347.0
 20
-36.4484073726
 30
0.0
 11
-347.0
 21
-75.6402432571
 31
0.0
  0
LINE
  5
1C6
  8
VIDITELNE
  6
SLD-PLNÁ
 62
     2
 10
-352.7
 20
-36.7423461417
 30
0.0
 11
-352.7
 21
-75.9341820263
 31
0.0
  0
LINE
  5
1C7
  8
VIDITELNE
  6
SLD-PLNÁ
 62
     2
 10
-352.7
 20
-75.9341820263
 30
0.0
 11
-347.3
 21
-75.9341820263
 31
0.0
  0
LINE
  5
1C8
  8
VIDITELNE
  6
SLD-PLNÁ
 62
     2
 10
-353.0
 20
-75.6402432571
 30
0.0
 11
-352.7
 21
-75.9341820263
 31
0.0
  0
LINE
  5
1C9
  8
VIDITELNE
  6
SLD-PLNÁ
 62
     2
 10
-353.0
 20
-75.6402432571
 30
0.0
 11
-353.0
 21
-36.4484073726
 31
0.0
  0
LINE
  5
1CA
  8
VIDITELNE
  6
SLD-PLNÁ
 62
     2
 10
-347.3
 20
75.9341820263
 30
0.0
 11
-347.0
 21
75.6402432571
 31
0.0
  0
LINE
  5
1CB
  8
VIDITELNE
  6
SLD-PLNÁ
 62
     2
 10
-347.0
 20
75.6402432571
 30
0.0
 11
-347.0
 21
36.4484073726
 31
0.0
  0
LINE
  5
1CC
  8
VIDITELNE
  6
SLD-PLNÁ
 62
     2
 10
-352.7
 20
-75.9341820263
 30
0.0
 11
-352.7
 21
-77.5
 31
0.0
  0
LINE
  5
1CD
  8
VIDITELNE
  6
SLD-PLNÁ
 62
     2
 10
-352.7
 20
77.5
 30
0.0
 11
-352.7
 21
75.9341820263
 31
0.0
  0
LINE
  5
1CE
  8
VIDITELNE
  6
SLD-PLNÁ
 62
     2
 10
-353.0
 20
75.6402432571
 30
0.0
 11
-353.0
 21
77.2
 31
0.0
  0
LINE
  5
1CF
  8
VIDITELNE
  6
SLD-PLNÁ
 62
     2
 10
-353.0
 20
-77.2
 30
0.0
 11
-353.0
 21
-75.6402432571
 31
0.0
  0
LINE
  5
1D0
  8
VIDITELNE
  6
SLD-PLNÁ
 62
     2
 10
-347.3
 20
75.9341820263
 30
0.0
 11
-347.3
 21
77.5
 31
0.0
  0
LINE
  5
1D1
  8
VIDITELNE
  6
SLD-PLNÁ
 62
     2
 10
-347.3
 20
-77.5
 30
0.0
 11
-347.3
 21
-75.9341820263
 31
0.0
  0
LINE
  5
1D2
  8
VIDITELNE
  6
SLD-PLNÁ
 62
     2
 10
-347.0
 20
-75.6402432571
 30
0.0
 11
-347.0
 21
-77.2
 31
0.0
  0
LINE
  5
1D3
  8
VIDITELNE
  6
SLD-PLNÁ
 62
     2
 10
-347.0
 20
77.2
 30
0.0
 11
-347.0
 21
75.6402432571
 31
0.0
  0
LINE
  5
1D4
  8
VIDITELNE
  6
SLD-PLNÁ
 62
     2
 10
352.7
 20
-77.5
 30
0.0
 11
353.0
 21
-77.2
 31
0.0
  0
LINE
  5
1D5
  8
VIDITELNE
  6
SLD-PLNÁ
 62
     2
 10
353.0
 20
77.2
 30
0.0
 11
352.7
 21
77.5
 31
0.0
  0
LINE
  5
1D6
  8
VIDITELNE
  6
SLD-PLNÁ
 62
     2
 10
347.3
 20
-77.5
 30
0.0
 11
352.7
 21
-77.5
 31
0.0
  0
LINE
  5
1D7
  8
VIDITELNE
  6
SLD-PLNÁ
 62
     2
 10
352.7
 20
77.5
 30
0.0
 11
347.3
 21
77.5
 31
0.0
  0
LINE
  5
1D8
  8
VIDITELNE
  6
SLD-PLNÁ
 62
     2
 10
347.3
 20
77.5
 30
0.0
 11
347.0
 21
77.2
 31
0.0
  0
LINE
  5
1D9
  8
VIDITELNE
  6
SLD-PLNÁ
 62
     2
 10
347.0
 20
-77.2
 30
0.0
 11
347.3
 21
-77.5
 31
0.0
  0
LINE
  5
1DA
  8
VIDITELNE
  6
SLD-PLNÁ
 62
     2
 10
347.0
 20
25.0
 30
0.0
 11
344.0
 21
22.0
 31
0.0
  0
LINE
  5
1DB
  8
VIDITELNE
  6
SLD-PLNÁ
 62
     2
 10
344.0
 20
-22.0
 30
0.0
 11
347.0
 21
-25.0
 31
0.0
  0
LINE
  5
1DC
  8
VIDITELNE
  6
SLD-PLNÁ
 62
     2
 10
353.0
 20
-23.0
 30
0.0
 11
356.0
 21
-20.0
 31
0.0
  0
LINE
  5
1DD
  8
VIDITELNE
  6
SLD-PLNÁ
 62
     2
 10
356.0
 20
20.0
 30
0.0
 11
353.0
 21
23.0
 31
0.0
  0
LINE
  5
1DE
  8
VIDITELNE
  6
SLD-PLNÁ
 62
     2
 10
344.0
 20
22.0
 30
0.0
 11
338.3
 21
22.0
 31
0.0
  0
LINE
  5
1DF
  8
VIDITELNE
  6
SLD-PLNÁ
 62
     2
 10
338.3
 20
-22.0
 30
0.0
 11
344.0
 21
-22.0
 31
0.0
  0
LINE
  5
1E0
  8
VIDITELNE
  6
SLD-PLNÁ
 62
     2
 10
338.3
 20
22.0
 30
0.0
 11
338.0
 21
21.7
 31
0.0
  0
LINE
  5
1E1
  8
VIDITELNE
  6
SLD-PLNÁ
 62
     2
 10
338.0
 20
-21.7
 30
0.0
 11
338.3
 21
-22.0
 31
0.0
  0
LINE
  5
1E2
  8
VIDITELNE
  6
SLD-PLNÁ
 62
     2
 10
356.0
 20
-20.0
 30
0.0
 11
361.7
 21
-20.0
 31
0.0
  0
LINE
  5
1E3
  8
VIDITELNE
  6
SLD-PLNÁ
 62
     2
 10
361.7
 20
20.0
 30
0.0
 11
356.0
 21
20.0
 31
0.0
  0
LINE
  5
1E4
  8
VIDITELNE
  6
SLD-PLNÁ
 62
     2
 10
361.7
 20
-20.0
 30
0.0
 11
362.0
 21
-19.7
 31
0.0
  0
LINE
  5
1E5
  8
VIDITELNE
  6
SLD-PLNÁ
 62
     2
 10
362.0
 20
19.7
 30
0.0
 11
361.7
 21
20.0
 31
0.0
  0
LINE
  5
1E6
  8
VIDITELNE
  6
SLD-PLNÁ
 62
     2
 10
337.995
 20
-14.75
 30
0.0
 11
338.0
 21
-14.75
 31
0.0
  0
LINE
  5
1E7
  8
VIDITELNE
  6
SLD-PLNÁ
 62
     2
 10
338.0
 20
14.75
 30
0.0
 11
337.995
 21
14.75
 31
0.0
  0
LINE
  5
1E8
  8
VIDITELNE
  6
SLD-PLNÁ
 62
     2
 10
362.0
 20
-14.75
 30
0.0
 11
362.005
 21
-14.75
 31
0.0
  0
LINE
  5
1E9
  8
VIDITELNE
  6
SLD-PLNÁ
 62
     2
 10
362.005
 20
14.75
 30
0.0
 11
362.0
 21
14.75
 31
0.0
  0
LINE
  5
1EA
  8
VIDITELNE
  6
SLD-PLNÁ
 62
     2
 10
353.0
 20
77.2
 30
0.0
 11
353.0
 21
-77.2
 31
0.0
  0
LINE
  5
1EB
  8
VIDITELNE
  6
SLD-PLNÁ
 62
     2
 10
352.7
 20
-77.5
 30
0.0
 11
352.7
 21
77.5
 31
0.0
  0
LINE
  5
1EC
  8
VIDITELNE
  6
SLD-PLNÁ
 62
     2
 10
347.3
 20
77.5
 30
0.0
 11
347.3
 21
-77.5
 31
0.0
  0
LINE
  5
1ED
  8
VIDITELNE
  6
SLD-PLNÁ
 62
     2
 10
347.0
 20
-77.2
 30
0.0
 11
347.0
 21
77.2
 31
0.0
  0
LINE
  5
1EE
  8
VIDITELNE
  6
SLD-PLNÁ
 62
     2
 10
344.0
 20
-22.0
 30
0.0
 11
344.0
 21
22.0
 31
0.0
  0
LINE
  5
1EF
  8
VIDITELNE
  6
SLD-PLNÁ
 62
     2
 10
356.0
 20
20.0
 30
0.0
 11
356.0
 21
-20.0
 31
0.0
  0
LINE
  5
1F0
  8
VIDITELNE
  6
SLD-PLNÁ
 62
     2
 10
338.3
 20
22.0
 30
0.0
 11
338.3
 21
-22.0
 31
0.0
  0
LINE
  5
1F1
  8
VIDITELNE
  6
SLD-PLNÁ
 62
     2
 10
338.0
 20
-21.7
 30
0.0
 11
338.0
 21
21.7
 31
0.0
  0
LINE
  5
1F2
  8
VIDITELNE
  6
SLD-PLNÁ
 62
     2
 10
361.7
 20
-20.0
 30
0.0
 11
361.7
 21
20.0
 31
0.0
  0
LINE
  5
1F3
  8
VIDITELNE
  6
SLD-PLNÁ
 62
     2
 10
362.0
 20
19.7
 30
0.0
 11
362.0
 21
-19.7
 31
0.0
  0
LINE
  5
1F4
  8
VIDITELNE
  6
SLD-PLNÁ
 62
     2
 10
337.995
 20
14.75
 30
0.0
 11
337.995
 21
-14.75
 31
0.0
  0
LINE
  5
1F5
  8
VIDITELNE
  6
SLD-PLNÁ
 62
     2
 10
362.005
 20
14.75
 30
0.0
 11
362.005
 21
-14.75
 31
0.0
  0
LINE
  5
1F6
  8
VIDITELNE
  6
SLD-PLNÁ
 62
     2
 10
-157.2
 20
353.0
 30
0.0
 11
-157.5
 21
352.7
 31
0.0
  0
LINE
  5
1F7
  8
VIDITELNE
  6
SLD-PLNÁ
 62
     2
 10
-157.5
 20
352.7
 30
0.0
 11
-157.5
 21
347.3
 31
0.0
  0
LINE
  5
1F8
  8
VIDITELNE
  6
SLD-PLNÁ
 62
     2
 10
-157.5
 20
347.3
 30
0.0
 11
-157.2
 21
347.0
 31
0.0
  0
LINE
  5
1F9
  8
VIDITELNE
  6
SLD-PLNÁ
 62
     2
 10
157.5
 20
347.3
 30
0.0
 11
157.5
 21
352.7
 31
0.0
  0
LINE
  5
1FA
  8
VIDITELNE
  6
SLD-PLNÁ
 62
     2
 10
157.2
 20
347.0
 30
0.0
 11
157.5
 21
347.3
 31
0.0
  0
LINE
  5
1FB
  8
VIDITELNE
  6
SLD-PLNÁ
 62
     2
 10
157.5
 20
352.7
 30
0.0
 11
157.2
 21
353.0
 31
0.0
  0
LINE
  5
1FC
  8
VIDITELNE
  6
SLD-PLNÁ
 62
     2
 10
95.0
 20
347.0
 30
0.0
 11
98.0
 21
344.0
 31
0.0
  0
LINE
  5
1FD
  8
VIDITELNE
  6
SLD-PLNÁ
 62
     2
 10
142.0
 20
344.0
 30
0.0
 11
145.0
 21
347.0
 31
0.0
  0
LINE
  5
1FE
  8
VIDITELNE
  6
SLD-PLNÁ
 62
     2
 10
143.0
 20
353.0
 30
0.0
 11
140.0
 21
356.0
 31
0.0
  0
LINE
  5
1FF
  8
VIDITELNE
  6
SLD-PLNÁ
 62
     2
 10
100.0
 20
356.0
 30
0.0
 11
97.0
 21
353.0
 31
0.0
  0
LINE
  5
200
  8
VIDITELNE
  6
SLD-PLNÁ
 62
     2
 10
98.0
 20
338.3
 30
0.0
 11
98.3
 21
338.0
 31
0.0
  0
LINE
  5
201
  8
VIDITELNE
  6
SLD-PLNÁ
 62
     2
 10
141.7
 20
338.0
 30
0.0
 11
142.0
 21
338.3
 31
0.0
  0
LINE
  5
202
  8
VIDITELNE
  6
SLD-PLNÁ
 62
     2
 10
98.0
 20
344.0
 30
0.0
 11
98.0
 21
338.3
 31
0.0
  0
LINE
  5
203
  8
VIDITELNE
  6
SLD-PLNÁ
 62
     2
 10
142.0
 20
338.3
 30
0.0
 11
142.0
 21
344.0
 31
0.0
  0
LINE
  5
204
  8
VIDITELNE
  6
SLD-PLNÁ
 62
     2
 10
140.0
 20
356.0
 30
0.0
 11
140.0
 21
361.7
 31
0.0
  0
LINE
  5
205
  8
VIDITELNE
  6
SLD-PLNÁ
 62
     2
 10
100.0
 20
361.7
 30
0.0
 11
100.0
 21
356.0
 31
0.0
  0
LINE
  5
206
  8
VIDITELNE
  6
SLD-PLNÁ
 62
     2
 10
140.0
 20
361.7
 30
0.0
 11
139.7
 21
362.0
 31
0.0
  0
LINE
  5
207
  8
VIDITELNE
  6
SLD-PLNÁ
 62
     2
 10
100.3
 20
362.0
 30
0.0
 11
100.0
 21
361.7
 31
0.0
  0
LINE
  5
208
  8
VIDITELNE
  6
SLD-PLNÁ
 62
     2
 10
134.75
 20
337.995
 30
0.0
 11
134.75
 21
338.0
 31
0.0
  0
LINE
  5
209
  8
VIDITELNE
  6
SLD-PLNÁ
 62
     2
 10
105.25
 20
338.0
 30
0.0
 11
105.25
 21
337.995
 31
0.0
  0
LINE
  5
20A
  8
VIDITELNE
  6
SLD-PLNÁ
 62
     2
 10
134.75
 20
362.0
 30
0.0
 11
134.75
 21
362.005
 31
0.0
  0
LINE
  5
20B
  8
VIDITELNE
  6
SLD-PLNÁ
 62
     2
 10
105.25
 20
362.005
 30
0.0
 11
105.25
 21
362.0
 31
0.0
  0
LINE
  5
20C
  8
VIDITELNE
  6
SLD-PLNÁ
 62
     2
 10
-157.2
 20
353.0
 30
0.0
 11
-64.56
 21
353.0
 31
0.0
  0
LINE
  5
20D
  8
VIDITELNE
  6
SLD-PLNÁ
 62
     2
 10
-64.56
 20
353.0
 30
0.0
 11
-64.5
 21
352.7
 31
0.0
  0
LINE
  5
20E
  8
VIDITELNE
  6
SLD-PLNÁ
 62
     2
 10
-64.5
 20
352.7
 30
0.0
 11
-157.5
 21
352.7
 31
0.0
  0
LINE
  5
20F
  8
VIDITELNE
  6
SLD-PLNÁ
 62
     2
 10
-64.5
 20
352.7
 30
0.0
 11
-64.5
 21
347.3
 31
0.0
  0
LINE
  5
210
  8
VIDITELNE
  6
SLD-PLNÁ
 62
     2
 10
-157.5
 20
347.3
 30
0.0
 11
-64.5
 21
347.3
 31
0.0
  0
LINE
  5
211
  8
VIDITELNE
  6
SLD-PLNÁ
 62
     2
 10
-64.56
 20
347.0
 30
0.0
 11
-64.5
 21
347.3
 31
0.0
  0
LINE
  5
212
  8
VIDITELNE
  6
SLD-PLNÁ
 62
     2
 10
-64.56
 20
347.0
 30
0.0
 11
-157.2
 21
347.0
 31
0.0
  0
LINE
  5
213
  8
VIDITELNE
  6
SLD-PLNÁ
 62
     2
 10
-64.5
 20
347.3
 30
0.0
 11
127.5
 21
347.3
 31
0.0
  0
LINE
  5
214
  8
VIDITELNE
  6
SLD-PLNÁ
 62
     2
 10
127.44
 20
347.0
 30
0.0
 11
127.5
 21
347.3
 31
0.0
  0
LINE
  5
215
  8
VIDITELNE
  6
SLD-PLNÁ
 62
     2
 10
127.44
 20
347.0
 30
0.0
 11
-64.56
 21
347.0
 31
0.0
  0
LINE
  5
216
  8
VIDITELNE
  6
SLD-PLNÁ
 62
     2
 10
127.5
 20
352.7
 30
0.0
 11
-64.5
 21
352.7
 31
0.0
  0
LINE
  5
217
  8
VIDITELNE
  6
SLD-PLNÁ
 62
     2
 10
127.5
 20
352.7
 30
0.0
 11
127.5
 21
347.3
 31
0.0
  0
LINE
  5
218
  8
VIDITELNE
  6
SLD-PLNÁ
 62
     2
 10
127.44
 20
353.0
 30
0.0
 11
127.5
 21
352.7
 31
0.0
  0
LINE
  5
219
  8
VIDITELNE
  6
SLD-PLNÁ
 62
     2
 10
-64.56
 20
353.0
 30
0.0
 11
127.44
 21
353.0
 31
0.0
  0
LINE
  5
21A
  8
VIDITELNE
  6
SLD-PLNÁ
 62
     2
 10
157.5
 20
352.7
 30
0.0
 11
127.5
 21
352.7
 31
0.0
  0
LINE
  5
21B
  8
VIDITELNE
  6
SLD-PLNÁ
 62
     2
 10
127.5
 20
347.3
 30
0.0
 11
157.5
 21
347.3
 31
0.0
  0
LINE
  5
21C
  8
VIDITELNE
  6
SLD-PLNÁ
 62
     2
 10
157.2
 20
347.0
 30
0.0
 11
127.44
 21
347.0
 31
0.0
  0
LINE
  5
21D
  8
VIDITELNE
  6
SLD-PLNÁ
 62
     2
 10
127.44
 20
353.0
 30
0.0
 11
157.2
 21
353.0
 31
0.0
  0
LINE
  5
21E
  8
VIDITELNE
  6
SLD-PLNÁ
 62
     2
 10
142.0
 20
344.0
 30
0.0
 11
98.0
 21
344.0
 31
0.0
  0
LINE
  5
21F
  8
VIDITELNE
  6
SLD-PLNÁ
 62
     2
 10
100.0
 20
356.0
 30
0.0
 11
140.0
 21
356.0
 31
0.0
  0
LINE
  5
220
  8
VIDITELNE
  6
SLD-PLNÁ
 62
     2
 10
98.0
 20
338.3
 30
0.0
 11
142.0
 21
338.3
 31
0.0
  0
LINE
  5
221
  8
VIDITELNE
  6
SLD-PLNÁ
 62
     2
 10
141.7
 20
338.0
 30
0.0
 11
98.3
 21
338.0
 31
0.0
  0
LINE
  5
222
  8
VIDITELNE
  6
SLD-PLNÁ
 62
     2
 10
140.0
 20
361.7
 30
0.0
 11
100.0
 21
361.7
 31
0.0
  0
LINE
  5
223
  8
VIDITELNE
  6
SLD-PLNÁ
 62
     2
 10
100.3
 20
362.0
 30
0.0
 11
139.7
 21
362.0
 31
0.0
  0
LINE
  5
224
  8
VIDITELNE
  6
SLD-PLNÁ
 62
     2
 10
105.25
 20
337.995
 30
0.0
 11
134.75
 21
337.995
 31
0.0
  0
LINE
  5
225
  8
VIDITELNE
  6
SLD-PLNÁ
 62
     2
 10
105.25
 20
362.005
 30
0.0
 11
134.75
 21
362.005
 31
0.0
  0
LINE
  5
226
  8
VIDITELNE
  6
SLD-PLNÁ
 62
     2
 10
-157.5
 20
-352.7
 30
0.0
 11
-157.2
 21
-353.0
 31
0.0
  0
LINE
  5
227
  8
VIDITELNE
  6
SLD-PLNÁ
 62
     2
 10
-157.5
 20
-347.3
 30
0.0
 11
-157.5
 21
-352.7
 31
0.0
  0
LINE
  5
228
  8
VIDITELNE
  6
SLD-PLNÁ
 62
     2
 10
-157.2
 20
-347.0
 30
0.0
 11
-157.5
 21
-347.3
 31
0.0
  0
LINE
  5
229
  8
VIDITELNE
  6
SLD-PLNÁ
 62
     2
 10
157.5
 20
-347.3
 30
0.0
 11
157.2
 21
-347.0
 31
0.0
  0
LINE
  5
22A
  8
VIDITELNE
  6
SLD-PLNÁ
 62
     2
 10
157.2
 20
-353.0
 30
0.0
 11
157.5
 21
-352.7
 31
0.0
  0
LINE
  5
22B
  8
VIDITELNE
  6
SLD-PLNÁ
 62
     2
 10
157.5
 20
-352.7
 30
0.0
 11
157.5
 21
-347.3
 31
0.0
  0
LINE
  5
22C
  8
VIDITELNE
  6
SLD-PLNÁ
 62
     2
 10
145.0
 20
-347.0
 30
0.0
 11
142.0
 21
-344.0
 31
0.0
  0
LINE
  5
22D
  8
VIDITELNE
  6
SLD-PLNÁ
 62
     2
 10
98.0
 20
-344.0
 30
0.0
 11
95.0
 21
-347.0
 31
0.0
  0
LINE
  5
22E
  8
VIDITELNE
  6
SLD-PLNÁ
 62
     2
 10
97.0
 20
-353.0
 30
0.0
 11
100.0
 21
-356.0
 31
0.0
  0
LINE
  5
22F
  8
VIDITELNE
  6
SLD-PLNÁ
 62
     2
 10
140.0
 20
-356.0
 30
0.0
 11
143.0
 21
-353.0
 31
0.0
  0
LINE
  5
230
  8
VIDITELNE
  6
SLD-PLNÁ
 62
     2
 10
142.0
 20
-338.3
 30
0.0
 11
141.7
 21
-338.0
 31
0.0
  0
LINE
  5
231
  8
VIDITELNE
  6
SLD-PLNÁ
 62
     2
 10
98.3
 20
-338.0
 30
0.0
 11
98.0
 21
-338.3
 31
0.0
  0
LINE
  5
232
  8
VIDITELNE
  6
SLD-PLNÁ
 62
     2
 10
142.0
 20
-344.0
 30
0.0
 11
142.0
 21
-338.3
 31
0.0
  0
LINE
  5
233
  8
VIDITELNE
  6
SLD-PLNÁ
 62
     2
 10
98.0
 20
-338.3
 30
0.0
 11
98.0
 21
-344.0
 31
0.0
  0
LINE
  5
234
  8
VIDITELNE
  6
SLD-PLNÁ
 62
     2
 10
100.0
 20
-361.7
 30
0.0
 11
100.3
 21
-362.0
 31
0.0
  0
LINE
  5
235
  8
VIDITELNE
  6
SLD-PLNÁ
 62
     2
 10
139.7
 20
-362.0
 30
0.0
 11
140.0
 21
-361.7
 31
0.0
  0
LINE
  5
236
  8
VIDITELNE
  6
SLD-PLNÁ
 62
     2
 10
100.0
 20
-356.0
 30
0.0
 11
100.0
 21
-361.7
 31
0.0
  0
LINE
  5
237
  8
VIDITELNE
  6
SLD-PLNÁ
 62
     2
 10
140.0
 20
-361.7
 30
0.0
 11
140.0
 21
-356.0
 31
0.0
  0
LINE
  5
238
  8
VIDITELNE
  6
SLD-PLNÁ
 62
     2
 10
105.25
 20
-337.995
 30
0.0
 11
105.25
 21
-338.0
 31
0.0
  0
LINE
  5
239
  8
VIDITELNE
  6
SLD-PLNÁ
 62
     2
 10
134.75
 20
-338.0
 30
0.0
 11
134.75
 21
-337.995
 31
0.0
  0
LINE
  5
23A
  8
VIDITELNE
  6
SLD-PLNÁ
 62
     2
 10
105.25
 20
-362.0
 30
0.0
 11
105.25
 21
-362.005
 31
0.0
  0
LINE
  5
23B
  8
VIDITELNE
  6
SLD-PLNÁ
 62
     2
 10
134.75
 20
-362.005
 30
0.0
 11
134.75
 21
-362.0
 31
0.0
  0
LINE
  5
23C
  8
VIDITELNE
  6
SLD-PLNÁ
 62
     2
 10
-64.56
 20
-353.0
 30
0.0
 11
-157.2
 21
-353.0
 31
0.0
  0
LINE
  5
23D
  8
VIDITELNE
  6
SLD-PLNÁ
 62
     2
 10
-157.5
 20
-352.7
 30
0.0
 11
-64.5
 21
-352.7
 31
0.0
  0
LINE
  5
23E
  8
VIDITELNE
  6
SLD-PLNÁ
 62
     2
 10
-64.5
 20
-352.7
 30
0.0
 11
-64.56
 21
-353.0
 31
0.0
  0
LINE
  5
23F
  8
VIDITELNE
  6
SLD-PLNÁ
 62
     2
 10
-64.5
 20
-347.3
 30
0.0
 11
-157.5
 21
-347.3
 31
0.0
  0
LINE
  5
240
  8
VIDITELNE
  6
SLD-PLNÁ
 62
     2
 10
-64.5
 20
-352.7
 30
0.0
 11
-64.5
 21
-347.3
 31
0.0
  0
LINE
  5
241
  8
VIDITELNE
  6
SLD-PLNÁ
 62
     2
 10
-157.2
 20
-347.0
 30
0.0
 11
-64.56
 21
-347.0
 31
0.0
  0
LINE
  5
242
  8
VIDITELNE
  6
SLD-PLNÁ
 62
     2
 10
-64.5
 20
-347.3
 30
0.0
 11
-64.56
 21
-347.0
 31
0.0
  0
LINE
  5
243
  8
VIDITELNE
  6
SLD-PLNÁ
 62
     2
 10
127.5
 20
-347.3
 30
0.0
 11
-64.5
 21
-347.3
 31
0.0
  0
LINE
  5
244
  8
VIDITELNE
  6
SLD-PLNÁ
 62
     2
 10
127.5
 20
-347.3
 30
0.0
 11
127.44
 21
-347.0
 31
0.0
  0
LINE
  5
245
  8
VIDITELNE
  6
SLD-PLNÁ
 62
     2
 10
-64.56
 20
-347.0
 30
0.0
 11
127.44
 21
-347.0
 31
0.0
  0
LINE
  5
246
  8
VIDITELNE
  6
SLD-PLNÁ
 62
     2
 10
-64.5
 20
-352.7
 30
0.0
 11
127.5
 21
-352.7
 31
0.0
  0
LINE
  5
247
  8
VIDITELNE
  6
SLD-PLNÁ
 62
     2
 10
127.5
 20
-352.7
 30
0.0
 11
127.44
 21
-353.0
 31
0.0
  0
LINE
  5
248
  8
VIDITELNE
  6
SLD-PLNÁ
 62
     2
 10
127.44
 20
-353.0
 30
0.0
 11
-64.56
 21
-353.0
 31
0.0
  0
LINE
  5
249
  8
VIDITELNE
  6
SLD-PLNÁ
 62
     2
 10
127.5
 20
-352.7
 30
0.0
 11
127.5
 21
-347.3
 31
0.0
  0
LINE
  5
24A
  8
VIDITELNE
  6
SLD-PLNÁ
 62
     2
 10
157.5
 20
-347.3
 30
0.0
 11
127.5
 21
-347.3
 31
0.0
  0
LINE
  5
24B
  8
VIDITELNE
  6
SLD-PLNÁ
 62
     2
 10
127.44
 20
-347.0
 30
0.0
 11
157.2
 21
-347.0
 31
0.0
  0
LINE
  5
24C
  8
VIDITELNE
  6
SLD-PLNÁ
 62
     2
 10
127.5
 20
-352.7
 30
0.0
 11
157.5
 21
-352.7
 31
0.0
  0
LINE
  5
24D
  8
VIDITELNE
  6
SLD-PLNÁ
 62
     2
 10
157.2
 20
-353.0
 30
0.0
 11
127.44
 21
-353.0
 31
0.0
  0
LINE
  5
24E
  8
VIDITELNE
  6
SLD-PLNÁ
 62
     2
 10
98.0
 20
-344.0
 30
0.0
 11
142.0
 21
-344.0
 31
0.0
  0
LINE
  5
24F
  8
VIDITELNE
  6
SLD-PLNÁ
 62
     2
 10
140.0
 20
-356.0
 30
0.0
 11
100.0
 21
-356.0
 31
0.0
  0
LINE
  5
250
  8
VIDITELNE
  6
SLD-PLNÁ
 62
     2
 10
142.0
 20
-338.3
 30
0.0
 11
98.0
 21
-338.3
 31
0.0
  0
LINE
  5
251
  8
VIDITELNE
  6
SLD-PLNÁ
 62
     2
 10
98.3
 20
-338.0
 30
0.0
 11
141.7
 21
-338.0
 31
0.0
  0
LINE
  5
252
  8
VIDITELNE
  6
SLD-PLNÁ
 62
     2
 10
139.7
 20
-362.0
 30
0.0
 11
100.3
 21
-362.0
 31
0.0
  0
LINE
  5
253
  8
VIDITELNE
  6
SLD-PLNÁ
 62
     2
 10
100.0
 20
-361.7
 30
0.0
 11
140.0
 21
-361.7
 31
0.0
  0
LINE
  5
254
  8
VIDITELNE
  6
SLD-PLNÁ
 62
     2
 10
134.75
 20
-337.995
 30
0.0
 11
105.25
 21
-337.995
 31
0.0
  0
LINE
  5
255
  8
VIDITELNE
  6
SLD-PLNÁ
 62
     2
 10
134.75
 20
-362.005
 30
0.0
 11
105.25
 21
-362.005
 31
0.0
  0
ENDSEC
  0
EOF
